  0
SECTION
  2
HEADER
  9
$ACADVER
  1
AC1006
  9
$DWGCODEPAGE
  3
ansi_932
  9
$INSBASE
 10
0.0
 20
0.0
 30
0.0
  9
$EXTMIN
 10
-447.2232459305671
 20
11.94579618114866
  9
$EXTMAX
 10
-241.8211944794036
 20
201.9534626564274
  9
$LIMMIN
 10
0.0
 20
0.0
  9
$LIMMAX
 10
12.0
 20
9.0
  9
$ORTHOMODE
 70
     0
  9
$REGENMODE
 70
     1
  9
$FILLMODE
 70
     1
  9
$QTEXTMODE
 70
     0
  9
$MIRRTEXT
 70
     1
  9
$DRAGMODE
 70
     2
  9
$LTSCALE
 40
1.0
  9
$OSMODE
 70
    37
  9
$ATTMODE
 70
     1
  9
$TEXTSIZE
 40
0.2
  9
$TRACEWID
 40
0.05
  9
$TEXTSTYLE
  7
STANDARD
  9
$CLAYER
  8
0
  9
$CELTYPE
  6
BYLAYER
  9
$CECOLOR
 62
   256
  9
$DIMSCALE
 40
1.0
  9
$DIMASZ
 40
3.0
  9
$DIMEXO
 40
0.0625
  9
$DIMDLI
 40
0.38
  9
$DIMRND
 40
0.0
  9
$DIMDLE
 40
0.0
  9
$DIMEXE
 40
1.5
  9
$DIMTP
 40
0.0
  9
$DIMTM
 40
0.0
  9
$DIMTXT
 40
3.0
  9
$DIMCEN
 40
0.09
  9
$DIMTSZ
 40
0.0
  9
$DIMTOL
 70
     0
  9
$DIMLIM
 70
     0
  9
$DIMTIH
 70
     1
  9
$DIMTOH
 70
     1
  9
$DIMSE1
 70
     0
  9
$DIMSE2
 70
     0
  9
$DIMTAD
 70
     1
  9
$DIMZIN
 70
     0
  9
$DIMBLK
  1

  9
$DIMASO
 70
     1
  9
$DIMSHO
 70
     1
  9
$DIMPOST
  1

  9
$DIMAPOST
  1

  9
$DIMALT
 70
     0
  9
$DIMALTD
 70
     2
  9
$DIMALTF
 40
25.4
  9
$DIMLFAC
 40
1.0
  9
$DIMTOFL
 70
     0
  9
$DIMTVP
 40
0.0
  9
$DIMTIX
 70
     0
  9
$DIMSOXD
 70
     0
  9
$DIMSAH
 70
     0
  9
$DIMBLK1
  1

  9
$DIMBLK2
  1

  9
$LUNITS
 70
     2
  9
$LUPREC
 70
     4
  9
$SKETCHINC
 40
0.1
  9
$FILLETRAD
 40
0.5
  9
$AUNITS
 70
     0
  9
$AUPREC
 70
     0
  9
$MENU
  1
.
  9
$ELEVATION
 40
0.0
  9
$THICKNESS
 40
0.0
  9
$LIMCHECK
 70
     0
  9
$CHAMFERA
 40
0.0
  9
$CHAMFERB
 40
0.0
  9
$SKPOLY
 70
     0
  9
$TDCREATE
 40
2460788.311006343
  9
$TDUPDATE
 40
2460788.311006724
  9
$TDINDWG
 40
0.0000000116
  9
$TDUSRTIMER
 40
0.0000000116
  9
$USRTIMER
 70
     1
  9
$ANGBASE
 50
0.0
  9
$ANGDIR
 70
     0
  9
$PDMODE
 70
     0
  9
$PDSIZE
 40
0.0
  9
$PLINEWID
 40
0.0
  9
$COORDS
 70
     1
  9
$SPLFRAME
 70
     0
  9
$SPLINETYPE
 70
     6
  9
$SPLINESEGS
 70
     8
  9
$ATTDIA
 70
     0
  9
$ATTREQ
 70
     1
  9
$HANDLING
 70
     1
  9
$HANDSEED
  5
316
  9
$SURFTAB1
 70
     6
  9
$SURFTAB2
 70
     6
  9
$SURFTYPE
 70
     6
  9
$SURFU
 70
     6
  9
$SURFV
 70
     6
  9
$UCSNAME
  2

  9
$UCSORG
 10
0.0
 20
0.0
 30
0.0
  9
$UCSXDIR
 10
1.0
 20
0.0
 30
0.0
  9
$UCSYDIR
 10
0.0
 20
1.0
 30
0.0
  9
$USERI1
 70
     0
  9
$USERI2
 70
     0
  9
$USERI3
 70
     0
  9
$USERI4
 70
     0
  9
$USERI5
 70
     0
  9
$USERR1
 40
0.0
  9
$USERR2
 40
0.0
  9
$USERR3
 40
0.0
  9
$USERR4
 40
0.0
  9
$USERR5
 40
0.0
  9
$WORLDVIEW
 70
     1
  0
ENDSEC
  0
SECTION
  2
TABLES
  0
TABLE
  2
VPORT
 70
     1
  0
VPORT
  2
*ACTIVE
 70
     0
 10
0.0
 20
0.0
 11
1.0
 21
1.0
 12
-344.5222202049854
 22
106.949629418788
 13
0.0
 23
0.0
 14
0.5
 24
0.5
 15
0.5
 25
0.5
 16
0.0
 26
0.0
 36
1.0
 17
0.0
 27
0.0
 37
0.0
 40
190.0076664752787
 41
1.6
 42
50.0
 43
0.0
 44
0.0
 50
0.0
 51
0.0
 71
     0
 72
   100
 73
     1
 74
     3
 75
     0
 76
     0
 77
     0
 78
     0
  0
ENDTAB
  0
TABLE
  2
LTYPE
 70
     2
  0
LTYPE
  2
CONTINUOUS
 70
     0
  3
Solid line
 72
    65
 73
     0
 40
0.0
  0
LTYPE
  2
CENTER
 70
     0
  3

 72
    65
 73
     0
 40
0.0
  0
ENDTAB
  0
TABLE
  2
LAYER
 70
     2
  0
LAYER
  2
0
 70
     0
 62
     7
  6
CONTINUOUS
  0
LAYER
  2
1
 70
     0
 62
     7
  6
CONTINUOUS
  0
ENDTAB
  0
TABLE
  2
STYLE
 70
     2
  0
STYLE
  2
STANDARD
 70
     0
 40
0.0
 41
1.0
 50
0.0
 71
     0
 42
0.2
  3
txt
  4

  0
STYLE
  2
ＭＳ_ゴシック
 70
     0
 40
0.0
 41
1.0
 50
0.0
 71
     0
 42
0.2
  3
ＭＳ ゴシック.shx
  4

  0
ENDTAB
  0
TABLE
  2
VIEW
 70
     0
  0
ENDTAB
  0
TABLE
  2
UCS
 70
     0
  0
ENDTAB
  0
ENDSEC
  0
SECTION
  2
BLOCKS
  0
BLOCK
  8
0
  2
D_FRAME_VIEW_2626
 70
     0
 10
0.0
 20
0.0
 30
0.0
  0
LINE
  5
71
  8
1
  6
CONTINUOUS
 62
     7
 10
-382.6232459305672
 20
89.95346265642736
 30
0.0
 11
-382.6232459305672
 21
117.4534626564274
 31
0.0
  0
ARC
  5
72
  8
1
  6
CONTINUOUS
 62
     7
 10
-385.2232459305671
 20
117.4534626564274
 30
0.0
 40
2.599999999999991
 50
0.0
 51
179.9999999999988
  0
LINE
  5
73
  8
1
  6
CONTINUOUS
 62
     7
 10
-387.8232459305672
 20
89.95346265642736
 30
0.0
 11
-387.8232459305672
 21
117.4534626564274
 31
0.0
  0
ARC
  5
74
  8
1
  6
CONTINUOUS
 62
     7
 10
-385.2232459305671
 20
89.95346265642736
 30
0.0
 40
2.599999999999991
 50
180.0
 51
359.9999999999987
  0
CIRCLE
  5
75
  8
1
  6
CONTINUOUS
 62
     7
 10
-385.2232459305671
 20
139.9534626564274
 30
0.0
 40
13.50000000000001
  0
LINE
  5
76
  8
1
  6
CONTINUOUS
 62
     7
 10
-382.6232459305672
 20
162.4534626564274
 30
0.0
 11
-382.6232459305672
 21
189.9534626564274
 31
0.0
  0
ARC
  5
77
  8
1
  6
CONTINUOUS
 62
     7
 10
-385.2232459305671
 20
189.9534626564274
 30
0.0
 40
2.599999999999991
 50
0.0
 51
179.9999999999988
  0
LINE
  5
78
  8
1
  6
CONTINUOUS
 62
     7
 10
-387.8232459305672
 20
162.4534626564274
 30
0.0
 11
-387.8232459305672
 21
189.9534626564274
 31
0.0
  0
ARC
  5
79
  8
1
  6
CONTINUOUS
 62
     7
 10
-385.2232459305671
 20
162.4534626564274
 30
0.0
 40
2.599999999999991
 50
180.0
 51
359.9999999999987
  0
CIRCLE
  5
7A
  8
1
  6
CONTINUOUS
 62
     7
 10
-347.7232459305671
 20
177.4534626564274
 30
0.0
 40
2.099999999999991
  0
CIRCLE
  5
7B
  8
1
  6
CONTINUOUS
 62
     7
 10
-335.2232459305672
 20
89.95346265642739
 30
0.0
 40
2.099999999999991
  0
CIRCLE
  5
7C
  8
1
  6
CONTINUOUS
 62
     7
 10
-335.2232459305672
 20
189.9534626564274
 30
0.0
 40
2.099999999999991
  0
CIRCLE
  5
7D
  8
1
  6
CONTINUOUS
 62
     7
 10
-340.2232459305672
 20
103.9534626564274
 30
0.0
 40
2.099999999999991
  0
CIRCLE
  5
7E
  8
1
  6
CONTINUOUS
 62
     7
 10
-347.7232459305671
 20
102.4534626564274
 30
0.0
 40
2.099999999999991
  0
CIRCLE
  5
7F
  8
1
  6
CONTINUOUS
 62
     7
 10
-340.2232459305672
 20
175.9534626564274
 30
0.0
 40
2.099999999999991
  0
LINE
  5
80
  8
1
  6
CONTINUOUS
 62
     7
 10
-415.9931449178895
 20
82.75346265642739
 30
0.0
 11
-417.8696925399739
 21
85.40730175401812
 31
0.0
  0
POLYLINE
  5
81
  8
1
  6
CONTINUOUS
 62
     7
 66
     1
 10
0.0
 20
0.0
 30
0.0
  0
VERTEX
  5
1AC
  8
1
  6
CONTINUOUS
 62
     7
 10
-417.8696925399739
 20
85.40730175401814
 30
0.0
  0
VERTEX
  5
1AD
  8
1
  6
CONTINUOUS
 62
     7
 10
-417.9454608140574
 20
85.49523955522781
 30
0.0
  0
VERTEX
  5
1AE
  8
1
  6
CONTINUOUS
 62
     7
 10
-418.0319042143846
 20
85.56058323645632
 30
0.0
  0
VERTEX
  5
1AF
  8
1
  6
CONTINUOUS
 62
     7
 10
-418.1257007695591
 20
85.6008216766792
 30
0.0
  0
VERTEX
  5
1B0
  8
1
  6
CONTINUOUS
 62
     7
 10
-418.2232459305671
 20
85.61440853520467
 30
0.0
  0
VERTEX
  5
1B1
  8
1
  6
CONTINUOUS
 62
     7
 10
-418.3207910915752
 20
85.6008216766792
 30
0.0
  0
VERTEX
  5
1B2
  8
1
  6
CONTINUOUS
 62
     7
 10
-418.4145876467497
 20
85.56058323645632
 30
0.0
  0
VERTEX
  5
1B3
  8
1
  6
CONTINUOUS
 62
     7
 10
-418.5010310470769
 20
85.49523955522781
 30
0.0
  0
VERTEX
  5
1B4
  8
1
  6
CONTINUOUS
 62
     7
 10
-418.5767993211604
 20
85.40730175401814
 30
0.0
  0
SEQEND
  5
2F2
  8
1
  6
CONTINUOUS
 62
     7
  0
LINE
  5
82
  8
1
  6
CONTINUOUS
 62
     7
 10
-418.5767993211604
 20
85.40730175401815
 30
0.0
 11
-420.4533469432448
 21
82.75346265642739
 31
0.0
  0
LINE
  5
83
  8
1
  6
CONTINUOUS
 62
     7
 10
-439.2232459305671
 20
82.75346265642739
 30
0.0
 11
-439.2232459305671
 21
83.45346265642739
 31
0.0
  0
LINE
  5
84
  8
1
  6
CONTINUOUS
 62
     7
 10
-439.2232459305671
 20
83.45346265642739
 30
0.0
 11
-442.4232459305671
 21
83.4534626564274
 31
0.0
  0
LINE
  5
85
  8
1
  6
CONTINUOUS
 62
     7
 10
-442.4232459305671
 20
97.72336164374971
 30
0.0
 11
-439.7694068329764
 21
99.5999092658341
 31
0.0
  0
POLYLINE
  5
86
  8
1
  6
CONTINUOUS
 62
     7
 66
     1
 10
0.0
 20
0.0
 30
0.0
  0
VERTEX
  5
1B5
  8
1
  6
CONTINUOUS
 62
     7
 10
-439.7694068329764
 20
99.5999092658341
 30
0.0
  0
VERTEX
  5
1B6
  8
1
  6
CONTINUOUS
 62
     7
 10
-439.6814690317667
 20
99.67567753991757
 30
0.0
  0
VERTEX
  5
1B7
  8
1
  6
CONTINUOUS
 62
     7
 10
-439.6161253505382
 20
99.76212094024483
 30
0.0
  0
VERTEX
  5
1B8
  8
1
  6
CONTINUOUS
 62
     7
 10
-439.5758869103153
 20
99.8559174954193
 30
0.0
  0
VERTEX
  5
1B9
  8
1
  6
CONTINUOUS
 62
     7
 10
-439.5623000517899
 20
99.95346265642738
 30
0.0
  0
VERTEX
  5
1BA
  8
1
  6
CONTINUOUS
 62
     7
 10
-439.5758869103153
 20
100.0510078174354
 30
0.0
  0
VERTEX
  5
1BB
  8
1
  6
CONTINUOUS
 62
     7
 10
-439.6161253505382
 20
100.1448043726099
 30
0.0
  0
VERTEX
  5
1BC
  8
1
  6
CONTINUOUS
 62
     7
 10
-439.6814690317667
 20
100.2312477729372
 30
0.0
  0
VERTEX
  5
1BD
  8
1
  6
CONTINUOUS
 62
     7
 10
-439.7694068329764
 20
100.3070160470207
 30
0.0
  0
SEQEND
  5
2F3
  8
1
  6
CONTINUOUS
 62
     7
  0
LINE
  5
87
  8
1
  6
CONTINUOUS
 62
     7
 10
-439.7694068329764
 20
100.3070160470207
 30
0.0
 11
-442.4232459305671
 21
102.183563669105
 31
0.0
  0
LINE
  5
88
  8
1
  6
CONTINUOUS
 62
     7
 10
-442.4232459305671
 20
177.7233616437497
 30
0.0
 11
-439.7694068329764
 21
179.5999092658341
 31
0.0
  0
POLYLINE
  5
89
  8
1
  6
CONTINUOUS
 62
     7
 66
     1
 10
0.0
 20
0.0
 30
0.0
  0
VERTEX
  5
1BE
  8
1
  6
CONTINUOUS
 62
     7
 10
-439.7694068329764
 20
179.5999092658341
 30
0.0
  0
VERTEX
  5
1BF
  8
1
  6
CONTINUOUS
 62
     7
 10
-439.6814690317667
 20
179.6756775399176
 30
0.0
  0
VERTEX
  5
1C0
  8
1
  6
CONTINUOUS
 62
     7
 10
-439.6161253505382
 20
179.7621209402448
 30
0.0
  0
VERTEX
  5
1C1
  8
1
  6
CONTINUOUS
 62
     7
 10
-439.5758869103153
 20
179.8559174954193
 30
0.0
  0
VERTEX
  5
1C2
  8
1
  6
CONTINUOUS
 62
     7
 10
-439.5623000517899
 20
179.9534626564273
 30
0.0
  0
VERTEX
  5
1C3
  8
1
  6
CONTINUOUS
 62
     7
 10
-439.5758869103153
 20
180.0510078174354
 30
0.0
  0
VERTEX
  5
1C4
  8
1
  6
CONTINUOUS
 62
     7
 10
-439.6161253505382
 20
180.1448043726099
 30
0.0
  0
VERTEX
  5
1C5
  8
1
  6
CONTINUOUS
 62
     7
 10
-439.6814690317667
 20
180.2312477729371
 30
0.0
  0
VERTEX
  5
1C6
  8
1
  6
CONTINUOUS
 62
     7
 10
-439.7694068329764
 20
180.3070160470206
 30
0.0
  0
SEQEND
  5
2F4
  8
1
  6
CONTINUOUS
 62
     7
  0
LINE
  5
8A
  8
1
  6
CONTINUOUS
 62
     7
 10
-439.7694068329764
 20
180.3070160470207
 30
0.0
 11
-442.4232459305671
 21
182.183563669105
 31
0.0
  0
LINE
  5
8B
  8
1
  6
CONTINUOUS
 62
     7
 10
-439.2232459305671
 20
196.4534626564274
 30
0.0
 11
-442.4232459305671
 21
196.4534626564274
 31
0.0
  0
LINE
  5
8C
  8
1
  6
CONTINUOUS
 62
     7
 10
-439.2232459305671
 20
197.1534626564274
 30
0.0
 11
-439.2232459305671
 21
196.4534626564274
 31
0.0
  0
LINE
  5
8D
  8
1
  6
CONTINUOUS
 62
     7
 10
-420.4533469432448
 20
197.1534626564274
 30
0.0
 11
-418.5767993211604
 21
194.4996235588366
 31
0.0
  0
POLYLINE
  5
8E
  8
1
  6
CONTINUOUS
 62
     7
 66
     1
 10
0.0
 20
0.0
 30
0.0
  0
VERTEX
  5
1C7
  8
1
  6
CONTINUOUS
 62
     7
 10
-418.5767993211604
 20
194.4996235588366
 30
0.0
  0
VERTEX
  5
1C8
  8
1
  6
CONTINUOUS
 62
     7
 10
-418.5010310470769
 20
194.411685757627
 30
0.0
  0
VERTEX
  5
1C9
  8
1
  6
CONTINUOUS
 62
     7
 10
-418.4145876467497
 20
194.3463420763985
 30
0.0
  0
VERTEX
  5
1CA
  8
1
  6
CONTINUOUS
 62
     7
 10
-418.3207910915752
 20
194.3061036361756
 30
0.0
  0
VERTEX
  5
1CB
  8
1
  6
CONTINUOUS
 62
     7
 10
-418.2232459305671
 20
194.2925167776501
 30
0.0
  0
VERTEX
  5
1CC
  8
1
  6
CONTINUOUS
 62
     7
 10
-418.125700769559
 20
194.3061036361756
 30
0.0
  0
VERTEX
  5
1CD
  8
1
  6
CONTINUOUS
 62
     7
 10
-418.0319042143846
 20
194.3463420763985
 30
0.0
  0
VERTEX
  5
1CE
  8
1
  6
CONTINUOUS
 62
     7
 10
-417.9454608140574
 20
194.411685757627
 30
0.0
  0
VERTEX
  5
1CF
  8
1
  6
CONTINUOUS
 62
     7
 10
-417.8696925399739
 20
194.4996235588367
 30
0.0
  0
SEQEND
  5
2F5
  8
1
  6
CONTINUOUS
 62
     7
  0
LINE
  5
8F
  8
1
  6
CONTINUOUS
 62
     7
 10
-417.8696925399739
 20
194.4996235588367
 30
0.0
 11
-415.9931449178895
 21
197.1534626564274
 31
0.0
  0
LINE
  5
90
  8
1
  6
CONTINUOUS
 62
     7
 10
-352.5767993211604
 20
194.4996235588367
 30
0.0
 11
-354.4533469432449
 21
197.1534626564274
 31
0.0
  0
POLYLINE
  5
91
  8
1
  6
CONTINUOUS
 62
     7
 66
     1
 10
0.0
 20
0.0
 30
0.0
  0
VERTEX
  5
1D0
  8
1
  6
CONTINUOUS
 62
     7
 10
-352.5767993211605
 20
194.4996235588367
 30
0.0
  0
VERTEX
  5
1D1
  8
1
  6
CONTINUOUS
 62
     7
 10
-352.501031047077
 20
194.411685757627
 30
0.0
  0
VERTEX
  5
1D2
  8
1
  6
CONTINUOUS
 62
     7
 10
-352.4145876467497
 20
194.3463420763985
 30
0.0
  0
VERTEX
  5
1D3
  8
1
  6
CONTINUOUS
 62
     7
 10
-352.3207910915753
 20
194.3061036361756
 30
0.0
  0
VERTEX
  5
1D4
  8
1
  6
CONTINUOUS
 62
     7
 10
-352.2232459305672
 20
194.2925167776501
 30
0.0
  0
VERTEX
  5
1D5
  8
1
  6
CONTINUOUS
 62
     7
 10
-352.1257007695592
 20
194.3061036361756
 30
0.0
  0
VERTEX
  5
1D6
  8
1
  6
CONTINUOUS
 62
     7
 10
-352.0319042143847
 20
194.3463420763985
 30
0.0
  0
VERTEX
  5
1D7
  8
1
  6
CONTINUOUS
 62
     7
 10
-351.9454608140574
 20
194.411685757627
 30
0.0
  0
VERTEX
  5
1D8
  8
1
  6
CONTINUOUS
 62
     7
 10
-351.8696925399739
 20
194.4996235588366
 30
0.0
  0
SEQEND
  5
2F6
  8
1
  6
CONTINUOUS
 62
     7
  0
LINE
  5
92
  8
1
  6
CONTINUOUS
 62
     7
 10
-349.9931449178895
 20
197.1534626564274
 30
0.0
 11
-351.8696925399739
 21
194.4996235588366
 31
0.0
  0
LINE
  5
93
  8
1
  6
CONTINUOUS
 62
     7
 10
-331.2232459305671
 20
197.1534626564274
 30
0.0
 11
-331.2232459305671
 21
196.4534626564274
 31
0.0
  0
LINE
  5
94
  8
1
  6
CONTINUOUS
 62
     7
 10
-331.2232459305671
 20
196.4534626564274
 30
0.0
 11
-328.0232459305672
 21
196.4534626564274
 31
0.0
  0
LINE
  5
95
  8
1
  6
CONTINUOUS
 62
     7
 10
-330.6770850281579
 20
180.3070160470207
 30
0.0
 11
-328.0232459305672
 21
182.183563669105
 31
0.0
  0
POLYLINE
  5
96
  8
1
  6
CONTINUOUS
 62
     7
 66
     1
 10
0.0
 20
0.0
 30
0.0
  0
VERTEX
  5
1D9
  8
1
  6
CONTINUOUS
 62
     7
 10
-330.6770850281579
 20
180.3070160470206
 30
0.0
  0
VERTEX
  5
1DA
  8
1
  6
CONTINUOUS
 62
     7
 10
-330.7650228293676
 20
180.2312477729371
 30
0.0
  0
VERTEX
  5
1DB
  8
1
  6
CONTINUOUS
 62
     7
 10
-330.8303665105961
 20
180.1448043726099
 30
0.0
  0
VERTEX
  5
1DC
  8
1
  6
CONTINUOUS
 62
     7
 10
-330.870604950819
 20
180.0510078174354
 30
0.0
  0
VERTEX
  5
1DD
  8
1
  6
CONTINUOUS
 62
     7
 10
-330.8841918093444
 20
179.9534626564273
 30
0.0
  0
VERTEX
  5
1DE
  8
1
  6
CONTINUOUS
 62
     7
 10
-330.870604950819
 20
179.8559174954193
 30
0.0
  0
VERTEX
  5
1DF
  8
1
  6
CONTINUOUS
 62
     7
 10
-330.8303665105961
 20
179.7621209402448
 30
0.0
  0
VERTEX
  5
1E0
  8
1
  6
CONTINUOUS
 62
     7
 10
-330.7650228293676
 20
179.6756775399176
 30
0.0
  0
VERTEX
  5
1E1
  8
1
  6
CONTINUOUS
 62
     7
 10
-330.6770850281579
 20
179.5999092658341
 30
0.0
  0
SEQEND
  5
2F7
  8
1
  6
CONTINUOUS
 62
     7
  0
LINE
  5
97
  8
1
  6
CONTINUOUS
 62
     7
 10
-328.0232459305672
 20
177.7233616437497
 30
0.0
 11
-330.6770850281579
 21
179.5999092658341
 31
0.0
  0
LINE
  5
98
  8
1
  6
CONTINUOUS
 62
     7
 10
-330.6770850281579
 20
100.3070160470207
 30
0.0
 11
-328.0232459305672
 21
102.183563669105
 31
0.0
  0
POLYLINE
  5
99
  8
1
  6
CONTINUOUS
 62
     7
 66
     1
 10
0.0
 20
0.0
 30
0.0
  0
VERTEX
  5
1E2
  8
1
  6
CONTINUOUS
 62
     7
 10
-330.6770850281579
 20
100.3070160470207
 30
0.0
  0
VERTEX
  5
1E3
  8
1
  6
CONTINUOUS
 62
     7
 10
-330.7650228293676
 20
100.2312477729372
 30
0.0
  0
VERTEX
  5
1E4
  8
1
  6
CONTINUOUS
 62
     7
 10
-330.8303665105961
 20
100.1448043726099
 30
0.0
  0
VERTEX
  5
1E5
  8
1
  6
CONTINUOUS
 62
     7
 10
-330.870604950819
 20
100.0510078174354
 30
0.0
  0
VERTEX
  5
1E6
  8
1
  6
CONTINUOUS
 62
     7
 10
-330.8841918093444
 20
99.95346265642738
 30
0.0
  0
VERTEX
  5
1E7
  8
1
  6
CONTINUOUS
 62
     7
 10
-330.870604950819
 20
99.8559174954193
 30
0.0
  0
VERTEX
  5
1E8
  8
1
  6
CONTINUOUS
 62
     7
 10
-330.8303665105961
 20
99.76212094024483
 30
0.0
  0
VERTEX
  5
1E9
  8
1
  6
CONTINUOUS
 62
     7
 10
-330.7650228293676
 20
99.67567753991757
 30
0.0
  0
VERTEX
  5
1EA
  8
1
  6
CONTINUOUS
 62
     7
 10
-330.6770850281579
 20
99.5999092658341
 30
0.0
  0
SEQEND
  5
2F8
  8
1
  6
CONTINUOUS
 62
     7
  0
LINE
  5
9A
  8
1
  6
CONTINUOUS
 62
     7
 10
-328.0232459305672
 20
97.72336164374971
 30
0.0
 11
-330.6770850281579
 21
99.5999092658341
 31
0.0
  0
LINE
  5
9B
  8
1
  6
CONTINUOUS
 62
     7
 10
-331.2232459305671
 20
83.45346265642739
 30
0.0
 11
-328.0232459305672
 21
83.4534626564274
 31
0.0
  0
LINE
  5
9C
  8
1
  6
CONTINUOUS
 62
     7
 10
-331.2232459305671
 20
82.75346265642739
 30
0.0
 11
-331.2232459305671
 21
83.45346265642739
 31
0.0
  0
LINE
  5
9D
  8
1
  6
CONTINUOUS
 62
     7
 10
-351.8696925399739
 20
85.40730175401815
 30
0.0
 11
-349.9931449178895
 21
82.75346265642739
 31
0.0
  0
POLYLINE
  5
9E
  8
1
  6
CONTINUOUS
 62
     7
 66
     1
 10
0.0
 20
0.0
 30
0.0
  0
VERTEX
  5
1EB
  8
1
  6
CONTINUOUS
 62
     7
 10
-351.8696925399739
 20
85.40730175401814
 30
0.0
  0
VERTEX
  5
1EC
  8
1
  6
CONTINUOUS
 62
     7
 10
-351.9454608140574
 20
85.49523955522781
 30
0.0
  0
VERTEX
  5
1ED
  8
1
  6
CONTINUOUS
 62
     7
 10
-352.0319042143847
 20
85.56058323645632
 30
0.0
  0
VERTEX
  5
1EE
  8
1
  6
CONTINUOUS
 62
     7
 10
-352.1257007695592
 20
85.6008216766792
 30
0.0
  0
VERTEX
  5
1EF
  8
1
  6
CONTINUOUS
 62
     7
 10
-352.2232459305672
 20
85.61440853520467
 30
0.0
  0
VERTEX
  5
1F0
  8
1
  6
CONTINUOUS
 62
     7
 10
-352.3207910915752
 20
85.6008216766792
 30
0.0
  0
VERTEX
  5
1F1
  8
1
  6
CONTINUOUS
 62
     7
 10
-352.4145876467497
 20
85.56058323645632
 30
0.0
  0
VERTEX
  5
1F2
  8
1
  6
CONTINUOUS
 62
     7
 10
-352.501031047077
 20
85.49523955522781
 30
0.0
  0
VERTEX
  5
1F3
  8
1
  6
CONTINUOUS
 62
     7
 10
-352.5767993211605
 20
85.40730175401814
 30
0.0
  0
SEQEND
  5
2F9
  8
1
  6
CONTINUOUS
 62
     7
  0
LINE
  5
9F
  8
1
  6
CONTINUOUS
 62
     7
 10
-354.4533469432449
 20
82.75346265642739
 30
0.0
 11
-352.5767993211605
 21
85.40730175401812
 31
0.0
  0
CIRCLE
  5
A0
  8
1
  6
CONTINUOUS
 62
     7
 10
-360.8732459305672
 20
193.9534626564274
 30
0.0
 40
1.700000000000035
  0
CIRCLE
  5
A1
  8
1
  6
CONTINUOUS
 62
     7
 10
-337.6232459305671
 20
147.9534626564274
 30
0.0
 40
1.699999999999979
  0
CIRCLE
  5
A2
  8
1
  6
CONTINUOUS
 62
     7
 10
-365.2232459305672
 20
169.9534626564274
 30
0.0
 40
1.700000000000035
  0
CIRCLE
  5
A3
  8
1
  6
CONTINUOUS
 62
     7
 10
-365.2232459305671
 20
109.9534626564274
 30
0.0
 40
1.699999999999979
  0
CIRCLE
  5
A4
  8
1
  6
CONTINUOUS
 62
     7
 10
-345.2232459305672
 20
92.45346265642738
 30
0.0
 40
1.700000000000035
  0
CIRCLE
  5
A5
  8
1
  6
CONTINUOUS
 62
     7
 10
-345.2232459305672
 20
187.4534626564274
 30
0.0
 40
1.700000000000035
  0
CIRCLE
  5
A6
  8
1
  6
CONTINUOUS
 62
     7
 10
-362.2232459305671
 20
98.20346265642738
 30
0.0
 40
2.099999999999991
  0
CIRCLE
  5
A7
  8
1
  6
CONTINUOUS
 62
     7
 10
-362.2232459305672
 20
181.7034626564274
 30
0.0
 40
2.100000000000046
  0
ARC
  5
A8
  8
1
  6
CONTINUOUS
 62
     7
 10
-341.9219757413452
 20
114.9534626564274
 30
0.0
 40
2.600000000000018
 50
240.0000000000003
 51
59.99999999999972
  0
LINE
  5
A9
  8
1
  6
CONTINUOUS
 62
     7
 10
-340.6219757413452
 20
117.2051287062669
 30
0.0
 11
-364.4376743454173
 21
130.9551287062669
 31
0.0
  0
ARC
  5
AA
  8
1
  6
CONTINUOUS
 62
     7
 10
-365.7376743454173
 20
128.7034626564274
 30
0.0
 40
2.600000000000007
 50
59.99999999999979
 51
240.0000000000001
  0
LINE
  5
AB
  8
1
  6
CONTINUOUS
 62
     7
 10
-367.0376743454173
 20
126.4517966065878
 30
0.0
 11
-343.2219757413452
 21
112.7017966065878
 31
0.0
  0
ARC
  5
AC
  8
1
  6
CONTINUOUS
 62
     7
 10
-362.7232459305671
 20
139.9534626564274
 30
0.0
 40
2.599999999999991
 50
90.0
 51
270.0
  0
LINE
  5
AD
  8
1
  6
CONTINUOUS
 62
     7
 10
-362.7232459305671
 20
137.3534626564274
 30
0.0
 11
-335.2232459305672
 21
137.3534626564274
 31
0.0
  0
ARC
  5
AE
  8
1
  6
CONTINUOUS
 62
     7
 10
-335.2232459305672
 20
139.9534626564274
 30
0.0
 40
2.599999999999991
 50
270.0
 51
89.9999999999999
  0
LINE
  5
AF
  8
1
  6
CONTINUOUS
 62
     7
 10
-335.2232459305672
 20
142.5534626564274
 30
0.0
 11
-362.7232459305671
 21
142.5534626564274
 31
0.0
  0
CIRCLE
  5
B0
  8
1
  6
CONTINUOUS
 62
     7
 10
-422.7232459305672
 20
177.4534626564274
 30
0.0
 40
2.100000000000046
  0
CIRCLE
  5
B1
  8
1
  6
CONTINUOUS
 62
     7
 10
-435.2232459305671
 20
89.95346265642739
 30
0.0
 40
2.099999999999991
  0
CIRCLE
  5
B2
  8
1
  6
CONTINUOUS
 62
     7
 10
-435.2232459305671
 20
189.9534626564274
 30
0.0
 40
2.099999999999991
  0
CIRCLE
  5
B3
  8
1
  6
CONTINUOUS
 62
     7
 10
-430.2232459305671
 20
103.9534626564274
 30
0.0
 40
2.099999999999991
  0
CIRCLE
  5
B4
  8
1
  6
CONTINUOUS
 62
     7
 10
-422.7232459305672
 20
102.4534626564274
 30
0.0
 40
2.100000000000046
  0
CIRCLE
  5
B5
  8
1
  6
CONTINUOUS
 62
     7
 10
-430.2232459305671
 20
175.9534626564274
 30
0.0
 40
2.099999999999991
  0
CIRCLE
  5
B6
  8
1
  6
CONTINUOUS
 62
     7
 10
-409.5732459305672
 20
193.9534626564274
 30
0.0
 40
1.699999999999979
  0
CIRCLE
  5
B7
  8
1
  6
CONTINUOUS
 62
     7
 10
-432.8232459305672
 20
147.9534626564274
 30
0.0
 40
1.700000000000035
  0
CIRCLE
  5
B8
  8
1
  6
CONTINUOUS
 62
     7
 10
-405.2232459305671
 20
169.9534626564274
 30
0.0
 40
1.699999999999979
  0
CIRCLE
  5
B9
  8
1
  6
CONTINUOUS
 62
     7
 10
-405.2232459305672
 20
109.9534626564274
 30
0.0
 40
1.700000000000035
  0
CIRCLE
  5
BA
  8
1
  6
CONTINUOUS
 62
     7
 10
-425.2232459305671
 20
92.45346265642738
 30
0.0
 40
1.699999999999979
  0
CIRCLE
  5
BB
  8
1
  6
CONTINUOUS
 62
     7
 10
-425.2232459305671
 20
187.4534626564274
 30
0.0
 40
1.699999999999979
  0
CIRCLE
  5
BC
  8
1
  6
CONTINUOUS
 62
     7
 10
-408.2232459305672
 20
98.20346265642738
 30
0.0
 40
2.100000000000046
  0
CIRCLE
  5
BD
  8
1
  6
CONTINUOUS
 62
     7
 10
-408.2232459305671
 20
181.7034626564274
 30
0.0
 40
2.099999999999991
  0
ARC
  5
BE
  8
1
  6
CONTINUOUS
 62
     7
 10
-404.708817515717
 20
128.7034626564274
 30
0.0
 40
2.600000000000007
 50
299.9999999999998
 51
120.0000000000002
  0
LINE
  5
BF
  8
1
  6
CONTINUOUS
 62
     7
 10
-429.8245161197891
 20
117.2051287062669
 30
0.0
 11
-406.0088175157171
 21
130.9551287062669
 31
0.0
  0
ARC
  5
C0
  8
1
  6
CONTINUOUS
 62
     7
 10
-428.5245161197892
 20
114.9534626564274
 30
0.0
 40
2.600000000000018
 50
120.0000000000003
 51
299.9999999999998
  0
LINE
  5
C1
  8
1
  6
CONTINUOUS
 62
     7
 10
-403.408817515717
 20
126.4517966065878
 30
0.0
 11
-427.2245161197891
 21
112.7017966065878
 31
0.0
  0
ARC
  5
C2
  8
1
  6
CONTINUOUS
 62
     7
 10
-435.2232459305671
 20
139.9534626564274
 30
0.0
 40
2.599999999999991
 50
90.00000000000011
 51
270.0
  0
LINE
  5
C3
  8
1
  6
CONTINUOUS
 62
     7
 10
-407.7232459305672
 20
137.3534626564274
 30
0.0
 11
-435.2232459305671
 21
137.3534626564274
 31
0.0
  0
ARC
  5
C4
  8
1
  6
CONTINUOUS
 62
     7
 10
-407.7232459305672
 20
139.9534626564274
 30
0.0
 40
2.599999999999991
 50
270.0
 51
90.0
  0
LINE
  5
C5
  8
1
  6
CONTINUOUS
 62
     7
 10
-435.2232459305671
 20
142.5534626564274
 30
0.0
 11
-407.7232459305672
 21
142.5534626564274
 31
0.0
  0
LINE
  5
C6
  8
1
  6
CONTINUOUS
 62
     7
 10
-328.0232459305672
 20
196.4534626564274
 30
0.0
 11
-325.2232459305671
 21
196.4534626564274
 31
0.0
  0
LINE
  5
C7
  8
1
  6
CONTINUOUS
 62
     7
 10
-325.2232459305671
 20
196.4534626564274
 30
0.0
 11
-325.2232459305671
 21
182.183563669105
 31
0.0
  0
POLYLINE
  5
C8
  8
1
  6
CONTINUOUS
 62
     7
 66
     1
 10
0.0
 20
0.0
 30
0.0
  0
VERTEX
  5
1F4
  8
1
  6
CONTINUOUS
 62
     7
 10
-325.2232459305672
 20
182.183563669105
 30
0.0
  0
VERTEX
  5
1F5
  8
1
  6
CONTINUOUS
 62
     7
 10
-325.2770471454382
 20
182.5317795962299
 30
0.0
  0
VERTEX
  5
1F6
  8
1
  6
CONTINUOUS
 62
     7
 10
-325.4363832395356
 20
182.7905273728143
 30
0.0
  0
VERTEX
  5
1F7
  8
1
  6
CONTINUOUS
 62
     7
 10
-325.6951310161201
 20
182.9498634669118
 30
0.0
  0
VERTEX
  5
1F8
  8
1
  6
CONTINUOUS
 62
     7
 10
-326.0433469432449
 20
183.0036646817827
 30
0.0
  0
VERTEX
  5
1F9
  8
1
  6
CONTINUOUS
 62
     7
 10
-326.4676492781123
 20
182.9498634669118
 30
0.0
  0
VERTEX
  5
1FA
  8
1
  6
CONTINUOUS
 62
     7
 10
-326.9517323199449
 20
182.7905273728143
 30
0.0
  0
VERTEX
  5
1FB
  8
1
  6
CONTINUOUS
 62
     7
 10
-327.476993028922
 20
182.5317795962299
 30
0.0
  0
VERTEX
  5
1FC
  8
1
  6
CONTINUOUS
 62
     7
 10
-328.0232459305672
 20
182.183563669105
 30
0.0
  0
SEQEND
  5
2FA
  8
1
  6
CONTINUOUS
 62
     7
  0
LINE
  5
C9
  8
1
  6
CONTINUOUS
 62
     7
 10
-445.2232459305671
 20
100.3070160470207
 30
0.0
 11
-445.2232459305671
 21
102.183563669105
 31
0.0
  0
POLYLINE
  5
CA
  8
1
  6
CONTINUOUS
 62
     7
 66
     1
 10
0.0
 20
0.0
 30
0.0
  0
VERTEX
  5
1FD
  8
1
  6
CONTINUOUS
 62
     7
 10
-442.4232459305671
 20
102.183563669105
 30
0.0
  0
VERTEX
  5
1FE
  8
1
  6
CONTINUOUS
 62
     7
 10
-442.9694988322123
 20
102.5317795962298
 30
0.0
  0
VERTEX
  5
1FF
  8
1
  6
CONTINUOUS
 62
     7
 10
-443.4947595411894
 20
102.7905273728143
 30
0.0
  0
VERTEX
  5
200
  8
1
  6
CONTINUOUS
 62
     7
 10
-443.978842583022
 20
102.9498634669118
 30
0.0
  0
VERTEX
  5
201
  8
1
  6
CONTINUOUS
 62
     7
 10
-444.4031449178894
 20
103.0036646817827
 30
0.0
  0
VERTEX
  5
202
  8
1
  6
CONTINUOUS
 62
     7
 10
-444.7513608450142
 20
102.9498634669118
 30
0.0
  0
VERTEX
  5
203
  8
1
  6
CONTINUOUS
 62
     7
 10
-445.0101086215988
 20
102.7905273728143
 30
0.0
  0
VERTEX
  5
204
  8
1
  6
CONTINUOUS
 62
     7
 10
-445.1694447156962
 20
102.5317795962298
 30
0.0
  0
VERTEX
  5
205
  8
1
  6
CONTINUOUS
 62
     7
 10
-445.2232459305671
 20
102.183563669105
 30
0.0
  0
SEQEND
  5
2FB
  8
1
  6
CONTINUOUS
 62
     7
  0
LINE
  5
CB
  8
1
  6
CONTINUOUS
 62
     7
 10
-331.2232459305671
 20
82.75346265642739
 30
0.0
 11
-331.2232459305671
 21
79.95346265642739
 31
0.0
  0
LINE
  5
CC
  8
1
  6
CONTINUOUS
 62
     7
 10
-331.2232459305671
 20
79.95346265642739
 30
0.0
 11
-349.9931449178895
 21
79.95346265642739
 31
0.0
  0
POLYLINE
  5
CD
  8
1
  6
CONTINUOUS
 62
     7
 66
     1
 10
0.0
 20
0.0
 30
0.0
  0
VERTEX
  5
206
  8
1
  6
CONTINUOUS
 62
     7
 10
-349.9931449178895
 20
79.95346265642739
 30
0.0
  0
VERTEX
  5
207
  8
1
  6
CONTINUOUS
 62
     7
 10
-349.6449289907648
 20
80.00726387129833
 30
0.0
  0
VERTEX
  5
208
  8
1
  6
CONTINUOUS
 62
     7
 10
-349.3861812141802
 20
80.16659996539579
 30
0.0
  0
VERTEX
  5
209
  8
1
  6
CONTINUOUS
 62
     7
 10
-349.2268451200828
 20
80.42534774198026
 30
0.0
  0
VERTEX
  5
20A
  8
1
  6
CONTINUOUS
 62
     7
 10
-349.1730439052118
 20
80.77356366910506
 30
0.0
  0
VERTEX
  5
20B
  8
1
  6
CONTINUOUS
 62
     7
 10
-349.2268451200828
 20
81.1978660039725
 30
0.0
  0
VERTEX
  5
20C
  8
1
  6
CONTINUOUS
 62
     7
 10
-349.3861812141803
 20
81.68194904580514
 30
0.0
  0
VERTEX
  5
20D
  8
1
  6
CONTINUOUS
 62
     7
 10
-349.6449289907648
 20
82.20720975478224
 30
0.0
  0
VERTEX
  5
20E
  8
1
  6
CONTINUOUS
 62
     7
 10
-349.9931449178895
 20
82.75346265642739
 30
0.0
  0
SEQEND
  5
2FC
  8
1
  6
CONTINUOUS
 62
     7
  0
POLYLINE
  5
CE
  8
1
  6
CONTINUOUS
 62
     7
 66
     1
 10
0.0
 20
0.0
 30
0.0
  0
VERTEX
  5
20F
  8
1
  6
CONTINUOUS
 62
     7
 10
-420.4533469432448
 20
199.9534626564274
 30
0.0
  0
VERTEX
  5
210
  8
1
  6
CONTINUOUS
 62
     7
 10
-420.8015628703696
 20
199.8996614415565
 30
0.0
  0
VERTEX
  5
211
  8
1
  6
CONTINUOUS
 62
     7
 10
-421.0603106469541
 20
199.740325347459
 30
0.0
  0
VERTEX
  5
212
  8
1
  6
CONTINUOUS
 62
     7
 10
-421.2196467410515
 20
199.4815775708745
 30
0.0
  0
VERTEX
  5
213
  8
1
  6
CONTINUOUS
 62
     7
 10
-421.2734479559225
 20
199.1333616437498
 30
0.0
  0
VERTEX
  5
214
  8
1
  6
CONTINUOUS
 62
     7
 10
-421.2196467410515
 20
198.7090593088823
 30
0.0
  0
VERTEX
  5
215
  8
1
  6
CONTINUOUS
 62
     7
 10
-421.0603106469541
 20
198.2249762670497
 30
0.0
  0
VERTEX
  5
216
  8
1
  6
CONTINUOUS
 62
     7
 10
-420.8015628703697
 20
197.6997155580726
 30
0.0
  0
VERTEX
  5
217
  8
1
  6
CONTINUOUS
 62
     7
 10
-420.4533469432449
 20
197.1534626564274
 30
0.0
  0
SEQEND
  5
2FD
  8
1
  6
CONTINUOUS
 62
     7
  0
LINE
  5
CF
  8
1
  6
CONTINUOUS
 62
     7
 10
-420.4533469432448
 20
199.9534626564274
 30
0.0
 11
-418.5767993211604
 21
199.9534626564274
 31
0.0
  0
LINE
  5
D0
  8
1
  6
CONTINUOUS
 62
     7
 10
-417.8696925399739
 20
199.9534626564274
 30
0.0
 11
-415.9931449178895
 21
199.9534626564274
 31
0.0
  0
POLYLINE
  5
D1
  8
1
  6
CONTINUOUS
 62
     7
 66
     1
 10
0.0
 20
0.0
 30
0.0
  0
VERTEX
  5
218
  8
1
  6
CONTINUOUS
 62
     7
 10
-415.9931449178895
 20
197.1534626564274
 30
0.0
  0
VERTEX
  5
219
  8
1
  6
CONTINUOUS
 62
     7
 10
-415.6449289907648
 20
197.6997155580726
 30
0.0
  0
VERTEX
  5
21A
  8
1
  6
CONTINUOUS
 62
     7
 10
-415.3861812141803
 20
198.2249762670497
 30
0.0
  0
VERTEX
  5
21B
  8
1
  6
CONTINUOUS
 62
     7
 10
-415.2268451200828
 20
198.7090593088823
 30
0.0
  0
VERTEX
  5
21C
  8
1
  6
CONTINUOUS
 62
     7
 10
-415.1730439052118
 20
199.1333616437497
 30
0.0
  0
VERTEX
  5
21D
  8
1
  6
CONTINUOUS
 62
     7
 10
-415.2268451200828
 20
199.4815775708745
 30
0.0
  0
VERTEX
  5
21E
  8
1
  6
CONTINUOUS
 62
     7
 10
-415.3861812141803
 20
199.740325347459
 30
0.0
  0
VERTEX
  5
21F
  8
1
  6
CONTINUOUS
 62
     7
 10
-415.6449289907648
 20
199.8996614415565
 30
0.0
  0
VERTEX
  5
220
  8
1
  6
CONTINUOUS
 62
     7
 10
-415.9931449178895
 20
199.9534626564274
 30
0.0
  0
SEQEND
  5
2FE
  8
1
  6
CONTINUOUS
 62
     7
  0
LINE
  5
D2
  8
1
  6
CONTINUOUS
 62
     7
 10
-439.2232459305671
 20
199.9534626564274
 30
0.0
 11
-439.2232459305671
 21
197.1534626564274
 31
0.0
  0
LINE
  5
D3
  8
1
  6
CONTINUOUS
 62
     7
 10
-420.4533469432448
 20
199.9534626564274
 30
0.0
 11
-439.2232459305671
 21
199.9534626564274
 31
0.0
  0
LINE
  5
D4
  8
1
  6
CONTINUOUS
 62
     7
 10
-439.2232459305671
 20
79.95346265642739
 30
0.0
 11
-420.4533469432448
 21
79.95346265642739
 31
0.0
  0
LINE
  5
D5
  8
1
  6
CONTINUOUS
 62
     7
 10
-439.2232459305671
 20
82.75346265642739
 30
0.0
 11
-439.2232459305671
 21
79.95346265642739
 31
0.0
  0
POLYLINE
  5
D6
  8
1
  6
CONTINUOUS
 62
     7
 66
     1
 10
0.0
 20
0.0
 30
0.0
  0
VERTEX
  5
221
  8
1
  6
CONTINUOUS
 62
     7
 10
-420.4533469432449
 20
82.7534626564274
 30
0.0
  0
VERTEX
  5
222
  8
1
  6
CONTINUOUS
 62
     7
 10
-420.8015628703697
 20
82.20720975478224
 30
0.0
  0
VERTEX
  5
223
  8
1
  6
CONTINUOUS
 62
     7
 10
-421.0603106469541
 20
81.68194904580514
 30
0.0
  0
VERTEX
  5
224
  8
1
  6
CONTINUOUS
 62
     7
 10
-421.2196467410515
 20
81.1978660039725
 30
0.0
  0
VERTEX
  5
225
  8
1
  6
CONTINUOUS
 62
     7
 10
-421.2734479559225
 20
80.77356366910506
 30
0.0
  0
VERTEX
  5
226
  8
1
  6
CONTINUOUS
 62
     7
 10
-421.2196467410515
 20
80.42534774198026
 30
0.0
  0
VERTEX
  5
227
  8
1
  6
CONTINUOUS
 62
     7
 10
-421.0603106469541
 20
80.16659996539579
 30
0.0
  0
VERTEX
  5
228
  8
1
  6
CONTINUOUS
 62
     7
 10
-420.8015628703696
 20
80.00726387129833
 30
0.0
  0
VERTEX
  5
229
  8
1
  6
CONTINUOUS
 62
     7
 10
-420.4533469432448
 20
79.95346265642739
 30
0.0
  0
SEQEND
  5
2FF
  8
1
  6
CONTINUOUS
 62
     7
  0
LINE
  5
D7
  8
1
  6
CONTINUOUS
 62
     7
 10
-415.9931449178895
 20
199.9534626564274
 30
0.0
 11
-354.4533469432449
 21
199.9534626564274
 31
0.0
  0
POLYLINE
  5
D8
  8
1
  6
CONTINUOUS
 62
     7
 66
     1
 10
0.0
 20
0.0
 30
0.0
  0
VERTEX
  5
22A
  8
1
  6
CONTINUOUS
 62
     7
 10
-354.4533469432448
 20
199.9534626564274
 30
0.0
  0
VERTEX
  5
22B
  8
1
  6
CONTINUOUS
 62
     7
 10
-354.8015628703696
 20
199.8996614415565
 30
0.0
  0
VERTEX
  5
22C
  8
1
  6
CONTINUOUS
 62
     7
 10
-355.0603106469541
 20
199.740325347459
 30
0.0
  0
VERTEX
  5
22D
  8
1
  6
CONTINUOUS
 62
     7
 10
-355.2196467410515
 20
199.4815775708745
 30
0.0
  0
VERTEX
  5
22E
  8
1
  6
CONTINUOUS
 62
     7
 10
-355.2734479559225
 20
199.1333616437498
 30
0.0
  0
VERTEX
  5
22F
  8
1
  6
CONTINUOUS
 62
     7
 10
-355.2196467410515
 20
198.7090593088823
 30
0.0
  0
VERTEX
  5
230
  8
1
  6
CONTINUOUS
 62
     7
 10
-355.0603106469541
 20
198.2249762670497
 30
0.0
  0
VERTEX
  5
231
  8
1
  6
CONTINUOUS
 62
     7
 10
-354.8015628703696
 20
197.6997155580726
 30
0.0
  0
VERTEX
  5
232
  8
1
  6
CONTINUOUS
 62
     7
 10
-354.4533469432449
 20
197.1534626564274
 30
0.0
  0
SEQEND
  5
300
  8
1
  6
CONTINUOUS
 62
     7
  0
LINE
  5
D9
  8
1
  6
CONTINUOUS
 62
     7
 10
-325.2232459305671
 20
97.72336164374971
 30
0.0
 11
-325.2232459305671
 21
83.4534626564274
 31
0.0
  0
LINE
  5
DA
  8
1
  6
CONTINUOUS
 62
     7
 10
-325.2232459305671
 20
83.4534626564274
 30
0.0
 11
-328.0232459305672
 21
83.4534626564274
 31
0.0
  0
POLYLINE
  5
DB
  8
1
  6
CONTINUOUS
 62
     7
 66
     1
 10
0.0
 20
0.0
 30
0.0
  0
VERTEX
  5
233
  8
1
  6
CONTINUOUS
 62
     7
 10
-328.0232459305672
 20
97.7233616437497
 30
0.0
  0
VERTEX
  5
234
  8
1
  6
CONTINUOUS
 62
     7
 10
-327.476993028922
 20
97.37514571662491
 30
0.0
  0
VERTEX
  5
235
  8
1
  6
CONTINUOUS
 62
     7
 10
-326.9517323199449
 20
97.11639794004044
 30
0.0
  0
VERTEX
  5
236
  8
1
  6
CONTINUOUS
 62
     7
 10
-326.4676492781123
 20
96.95706184594299
 30
0.0
  0
VERTEX
  5
237
  8
1
  6
CONTINUOUS
 62
     7
 10
-326.0433469432449
 20
96.90326063107204
 30
0.0
  0
VERTEX
  5
238
  8
1
  6
CONTINUOUS
 62
     7
 10
-325.6951310161201
 20
96.95706184594299
 30
0.0
  0
VERTEX
  5
239
  8
1
  6
CONTINUOUS
 62
     7
 10
-325.4363832395356
 20
97.11639794004043
 30
0.0
  0
VERTEX
  5
23A
  8
1
  6
CONTINUOUS
 62
     7
 10
-325.2770471454382
 20
97.37514571662491
 30
0.0
  0
VERTEX
  5
23B
  8
1
  6
CONTINUOUS
 62
     7
 10
-325.2232459305672
 20
97.72336164374971
 30
0.0
  0
SEQEND
  5
301
  8
1
  6
CONTINUOUS
 62
     7
  0
LINE
  5
DC
  8
1
  6
CONTINUOUS
 62
     7
 10
-349.9931449178895
 20
199.9534626564274
 30
0.0
 11
-331.2232459305671
 21
199.9534626564274
 31
0.0
  0
LINE
  5
DD
  8
1
  6
CONTINUOUS
 62
     7
 10
-331.2232459305671
 20
199.9534626564274
 30
0.0
 11
-331.2232459305671
 21
197.1534626564274
 31
0.0
  0
POLYLINE
  5
DE
  8
1
  6
CONTINUOUS
 62
     7
 66
     1
 10
0.0
 20
0.0
 30
0.0
  0
VERTEX
  5
23C
  8
1
  6
CONTINUOUS
 62
     7
 10
-349.9931449178895
 20
197.1534626564274
 30
0.0
  0
VERTEX
  5
23D
  8
1
  6
CONTINUOUS
 62
     7
 10
-349.6449289907647
 20
197.6997155580726
 30
0.0
  0
VERTEX
  5
23E
  8
1
  6
CONTINUOUS
 62
     7
 10
-349.3861812141803
 20
198.2249762670497
 30
0.0
  0
VERTEX
  5
23F
  8
1
  6
CONTINUOUS
 62
     7
 10
-349.2268451200828
 20
198.7090593088823
 30
0.0
  0
VERTEX
  5
240
  8
1
  6
CONTINUOUS
 62
     7
 10
-349.1730439052118
 20
199.1333616437497
 30
0.0
  0
VERTEX
  5
241
  8
1
  6
CONTINUOUS
 62
     7
 10
-349.2268451200828
 20
199.4815775708745
 30
0.0
  0
VERTEX
  5
242
  8
1
  6
CONTINUOUS
 62
     7
 10
-349.3861812141802
 20
199.740325347459
 30
0.0
  0
VERTEX
  5
243
  8
1
  6
CONTINUOUS
 62
     7
 10
-349.6449289907648
 20
199.8996614415565
 30
0.0
  0
VERTEX
  5
244
  8
1
  6
CONTINUOUS
 62
     7
 10
-349.9931449178895
 20
199.9534626564274
 30
0.0
  0
SEQEND
  5
302
  8
1
  6
CONTINUOUS
 62
     7
  0
POLYLINE
  5
DF
  8
1
  6
CONTINUOUS
 62
     7
 66
     1
 10
0.0
 20
0.0
 30
0.0
  0
VERTEX
  5
245
  8
1
  6
CONTINUOUS
 62
     7
 10
-445.2232459305671
 20
177.7233616437497
 30
0.0
  0
VERTEX
  5
246
  8
1
  6
CONTINUOUS
 62
     7
 10
-445.1694447156962
 20
177.3751457166249
 30
0.0
  0
VERTEX
  5
247
  8
1
  6
CONTINUOUS
 62
     7
 10
-445.0101086215988
 20
177.1163979400405
 30
0.0
  0
VERTEX
  5
248
  8
1
  6
CONTINUOUS
 62
     7
 10
-444.7513608450142
 20
176.957061845943
 30
0.0
  0
VERTEX
  5
249
  8
1
  6
CONTINUOUS
 62
     7
 10
-444.4031449178894
 20
176.903260631072
 30
0.0
  0
VERTEX
  5
24A
  8
1
  6
CONTINUOUS
 62
     7
 10
-443.978842583022
 20
176.957061845943
 30
0.0
  0
VERTEX
  5
24B
  8
1
  6
CONTINUOUS
 62
     7
 10
-443.4947595411894
 20
177.1163979400405
 30
0.0
  0
VERTEX
  5
24C
  8
1
  6
CONTINUOUS
 62
     7
 10
-442.9694988322123
 20
177.3751457166249
 30
0.0
  0
VERTEX
  5
24D
  8
1
  6
CONTINUOUS
 62
     7
 10
-442.4232459305671
 20
177.7233616437497
 30
0.0
  0
SEQEND
  5
303
  8
1
  6
CONTINUOUS
 62
     7
  0
LINE
  5
E0
  8
1
  6
CONTINUOUS
 62
     7
 10
-445.2232459305671
 20
177.7233616437497
 30
0.0
 11
-445.2232459305671
 21
179.5999092658341
 31
0.0
  0
LINE
  5
E1
  8
1
  6
CONTINUOUS
 62
     7
 10
-445.2232459305671
 20
180.3070160470207
 30
0.0
 11
-445.2232459305671
 21
182.183563669105
 31
0.0
  0
POLYLINE
  5
E2
  8
1
  6
CONTINUOUS
 62
     7
 66
     1
 10
0.0
 20
0.0
 30
0.0
  0
VERTEX
  5
24E
  8
1
  6
CONTINUOUS
 62
     7
 10
-442.4232459305671
 20
182.183563669105
 30
0.0
  0
VERTEX
  5
24F
  8
1
  6
CONTINUOUS
 62
     7
 10
-442.9694988322123
 20
182.5317795962299
 30
0.0
  0
VERTEX
  5
250
  8
1
  6
CONTINUOUS
 62
     7
 10
-443.4947595411894
 20
182.7905273728143
 30
0.0
  0
VERTEX
  5
251
  8
1
  6
CONTINUOUS
 62
     7
 10
-443.978842583022
 20
182.9498634669118
 30
0.0
  0
VERTEX
  5
252
  8
1
  6
CONTINUOUS
 62
     7
 10
-444.4031449178894
 20
183.0036646817827
 30
0.0
  0
VERTEX
  5
253
  8
1
  6
CONTINUOUS
 62
     7
 10
-444.7513608450142
 20
182.9498634669118
 30
0.0
  0
VERTEX
  5
254
  8
1
  6
CONTINUOUS
 62
     7
 10
-445.0101086215988
 20
182.7905273728143
 30
0.0
  0
VERTEX
  5
255
  8
1
  6
CONTINUOUS
 62
     7
 10
-445.1694447156962
 20
182.5317795962299
 30
0.0
  0
VERTEX
  5
256
  8
1
  6
CONTINUOUS
 62
     7
 10
-445.2232459305671
 20
182.1835636691051
 30
0.0
  0
SEQEND
  5
304
  8
1
  6
CONTINUOUS
 62
     7
  0
POLYLINE
  5
E3
  8
1
  6
CONTINUOUS
 62
     7
 66
     1
 10
0.0
 20
0.0
 30
0.0
  0
VERTEX
  5
257
  8
1
  6
CONTINUOUS
 62
     7
 10
-445.2232459305671
 20
97.72336164374971
 30
0.0
  0
VERTEX
  5
258
  8
1
  6
CONTINUOUS
 62
     7
 10
-445.1694447156962
 20
97.37514571662491
 30
0.0
  0
VERTEX
  5
259
  8
1
  6
CONTINUOUS
 62
     7
 10
-445.0101086215988
 20
97.11639794004043
 30
0.0
  0
VERTEX
  5
25A
  8
1
  6
CONTINUOUS
 62
     7
 10
-444.7513608450142
 20
96.95706184594299
 30
0.0
  0
VERTEX
  5
25B
  8
1
  6
CONTINUOUS
 62
     7
 10
-444.4031449178894
 20
96.90326063107204
 30
0.0
  0
VERTEX
  5
25C
  8
1
  6
CONTINUOUS
 62
     7
 10
-443.978842583022
 20
96.95706184594299
 30
0.0
  0
VERTEX
  5
25D
  8
1
  6
CONTINUOUS
 62
     7
 10
-443.4947595411894
 20
97.11639794004044
 30
0.0
  0
VERTEX
  5
25E
  8
1
  6
CONTINUOUS
 62
     7
 10
-442.9694988322123
 20
97.3751457166249
 30
0.0
  0
VERTEX
  5
25F
  8
1
  6
CONTINUOUS
 62
     7
 10
-442.4232459305671
 20
97.7233616437497
 30
0.0
  0
SEQEND
  5
305
  8
1
  6
CONTINUOUS
 62
     7
  0
LINE
  5
E4
  8
1
  6
CONTINUOUS
 62
     7
 10
-445.2232459305671
 20
97.72336164374971
 30
0.0
 11
-445.2232459305671
 21
99.59990926583409
 31
0.0
  0
LINE
  5
E5
  8
1
  6
CONTINUOUS
 62
     7
 10
-325.2232459305671
 20
177.7233616437497
 30
0.0
 11
-325.2232459305671
 21
102.183563669105
 31
0.0
  0
POLYLINE
  5
E6
  8
1
  6
CONTINUOUS
 62
     7
 66
     1
 10
0.0
 20
0.0
 30
0.0
  0
VERTEX
  5
260
  8
1
  6
CONTINUOUS
 62
     7
 10
-325.2232459305672
 20
102.183563669105
 30
0.0
  0
VERTEX
  5
261
  8
1
  6
CONTINUOUS
 62
     7
 10
-325.2770471454382
 20
102.5317795962298
 30
0.0
  0
VERTEX
  5
262
  8
1
  6
CONTINUOUS
 62
     7
 10
-325.4363832395356
 20
102.7905273728143
 30
0.0
  0
VERTEX
  5
263
  8
1
  6
CONTINUOUS
 62
     7
 10
-325.6951310161201
 20
102.9498634669118
 30
0.0
  0
VERTEX
  5
264
  8
1
  6
CONTINUOUS
 62
     7
 10
-326.0433469432449
 20
103.0036646817827
 30
0.0
  0
VERTEX
  5
265
  8
1
  6
CONTINUOUS
 62
     7
 10
-326.4676492781123
 20
102.9498634669118
 30
0.0
  0
VERTEX
  5
266
  8
1
  6
CONTINUOUS
 62
     7
 10
-326.9517323199449
 20
102.7905273728143
 30
0.0
  0
VERTEX
  5
267
  8
1
  6
CONTINUOUS
 62
     7
 10
-327.476993028922
 20
102.5317795962298
 30
0.0
  0
VERTEX
  5
268
  8
1
  6
CONTINUOUS
 62
     7
 10
-328.0232459305672
 20
102.183563669105
 30
0.0
  0
SEQEND
  5
306
  8
1
  6
CONTINUOUS
 62
     7
  0
POLYLINE
  5
E7
  8
1
  6
CONTINUOUS
 62
     7
 66
     1
 10
0.0
 20
0.0
 30
0.0
  0
VERTEX
  5
269
  8
1
  6
CONTINUOUS
 62
     7
 10
-328.0232459305672
 20
177.7233616437497
 30
0.0
  0
VERTEX
  5
26A
  8
1
  6
CONTINUOUS
 62
     7
 10
-327.476993028922
 20
177.3751457166249
 30
0.0
  0
VERTEX
  5
26B
  8
1
  6
CONTINUOUS
 62
     7
 10
-326.9517323199449
 20
177.1163979400405
 30
0.0
  0
VERTEX
  5
26C
  8
1
  6
CONTINUOUS
 62
     7
 10
-326.4676492781123
 20
176.957061845943
 30
0.0
  0
VERTEX
  5
26D
  8
1
  6
CONTINUOUS
 62
     7
 10
-326.0433469432449
 20
176.903260631072
 30
0.0
  0
VERTEX
  5
26E
  8
1
  6
CONTINUOUS
 62
     7
 10
-325.6951310161201
 20
176.957061845943
 30
0.0
  0
VERTEX
  5
26F
  8
1
  6
CONTINUOUS
 62
     7
 10
-325.4363832395356
 20
177.1163979400405
 30
0.0
  0
VERTEX
  5
270
  8
1
  6
CONTINUOUS
 62
     7
 10
-325.2770471454382
 20
177.3751457166249
 30
0.0
  0
VERTEX
  5
271
  8
1
  6
CONTINUOUS
 62
     7
 10
-325.2232459305672
 20
177.7233616437497
 30
0.0
  0
SEQEND
  5
307
  8
1
  6
CONTINUOUS
 62
     7
  0
LINE
  5
E8
  8
1
  6
CONTINUOUS
 62
     7
 10
-354.4533469432449
 20
79.95346265642739
 30
0.0
 11
-415.9931449178895
 21
79.95346265642739
 31
0.0
  0
POLYLINE
  5
E9
  8
1
  6
CONTINUOUS
 62
     7
 66
     1
 10
0.0
 20
0.0
 30
0.0
  0
VERTEX
  5
272
  8
1
  6
CONTINUOUS
 62
     7
 10
-415.9931449178895
 20
79.95346265642739
 30
0.0
  0
VERTEX
  5
273
  8
1
  6
CONTINUOUS
 62
     7
 10
-415.6449289907648
 20
80.00726387129833
 30
0.0
  0
VERTEX
  5
274
  8
1
  6
CONTINUOUS
 62
     7
 10
-415.3861812141803
 20
80.16659996539579
 30
0.0
  0
VERTEX
  5
275
  8
1
  6
CONTINUOUS
 62
     7
 10
-415.2268451200828
 20
80.42534774198026
 30
0.0
  0
VERTEX
  5
276
  8
1
  6
CONTINUOUS
 62
     7
 10
-415.1730439052118
 20
80.77356366910506
 30
0.0
  0
VERTEX
  5
277
  8
1
  6
CONTINUOUS
 62
     7
 10
-415.2268451200828
 20
81.19786600397249
 30
0.0
  0
VERTEX
  5
278
  8
1
  6
CONTINUOUS
 62
     7
 10
-415.3861812141803
 20
81.68194904580514
 30
0.0
  0
VERTEX
  5
279
  8
1
  6
CONTINUOUS
 62
     7
 10
-415.6449289907648
 20
82.20720975478223
 30
0.0
  0
VERTEX
  5
27A
  8
1
  6
CONTINUOUS
 62
     7
 10
-415.9931449178895
 20
82.75346265642739
 30
0.0
  0
SEQEND
  5
308
  8
1
  6
CONTINUOUS
 62
     7
  0
POLYLINE
  5
EA
  8
1
  6
CONTINUOUS
 62
     7
 66
     1
 10
0.0
 20
0.0
 30
0.0
  0
VERTEX
  5
27B
  8
1
  6
CONTINUOUS
 62
     7
 10
-354.4533469432449
 20
82.7534626564274
 30
0.0
  0
VERTEX
  5
27C
  8
1
  6
CONTINUOUS
 62
     7
 10
-354.8015628703696
 20
82.20720975478223
 30
0.0
  0
VERTEX
  5
27D
  8
1
  6
CONTINUOUS
 62
     7
 10
-355.0603106469541
 20
81.68194904580514
 30
0.0
  0
VERTEX
  5
27E
  8
1
  6
CONTINUOUS
 62
     7
 10
-355.2196467410515
 20
81.1978660039725
 30
0.0
  0
VERTEX
  5
27F
  8
1
  6
CONTINUOUS
 62
     7
 10
-355.2734479559225
 20
80.77356366910506
 30
0.0
  0
VERTEX
  5
280
  8
1
  6
CONTINUOUS
 62
     7
 10
-355.2196467410515
 20
80.42534774198026
 30
0.0
  0
VERTEX
  5
281
  8
1
  6
CONTINUOUS
 62
     7
 10
-355.0603106469541
 20
80.16659996539579
 30
0.0
  0
VERTEX
  5
282
  8
1
  6
CONTINUOUS
 62
     7
 10
-354.8015628703696
 20
80.00726387129835
 30
0.0
  0
VERTEX
  5
283
  8
1
  6
CONTINUOUS
 62
     7
 10
-354.4533469432448
 20
79.95346265642738
 30
0.0
  0
SEQEND
  5
309
  8
1
  6
CONTINUOUS
 62
     7
  0
LINE
  5
EB
  8
1
  6
CONTINUOUS
 62
     7
 10
-349.9931449178895
 20
199.9534626564274
 30
0.0
 11
-351.8696925399739
 21
199.9534626564274
 31
0.0
  0
LINE
  5
EC
  8
1
  6
CONTINUOUS
 62
     7
 10
-352.5767993211605
 20
199.9534626564274
 30
0.0
 11
-354.4533469432449
 21
199.9534626564274
 31
0.0
  0
LINE
  5
ED
  8
1
  6
CONTINUOUS
 62
     7
 10
-415.9931449178895
 20
79.95346265642739
 30
0.0
 11
-417.8696925399739
 21
79.95346265642739
 31
0.0
  0
LINE
  5
EE
  8
1
  6
CONTINUOUS
 62
     7
 10
-418.5767993211604
 20
79.95346265642739
 30
0.0
 11
-420.4533469432448
 21
79.95346265642739
 31
0.0
  0
LINE
  5
EF
  8
1
  6
CONTINUOUS
 62
     7
 10
-325.2232459305671
 20
180.3070160470207
 30
0.0
 11
-325.2232459305671
 21
182.183563669105
 31
0.0
  0
LINE
  5
F0
  8
1
  6
CONTINUOUS
 62
     7
 10
-325.2232459305671
 20
100.3070160470207
 30
0.0
 11
-325.2232459305671
 21
102.183563669105
 31
0.0
  0
LINE
  5
F1
  8
1
  6
CONTINUOUS
 62
     7
 10
-325.2232459305671
 20
97.72336164374971
 30
0.0
 11
-325.2232459305671
 21
99.59990926583409
 31
0.0
  0
LINE
  5
F2
  8
1
  6
CONTINUOUS
 62
     7
 10
-325.2232459305671
 20
177.7233616437497
 30
0.0
 11
-325.2232459305671
 21
179.5999092658341
 31
0.0
  0
LINE
  5
F3
  8
1
  6
CONTINUOUS
 62
     7
 10
-354.4533469432449
 20
79.95346265642739
 30
0.0
 11
-352.5767993211605
 21
79.95346265642739
 31
0.0
  0
LINE
  5
F4
  8
1
  6
CONTINUOUS
 62
     7
 10
-445.2232459305671
 20
83.4534626564274
 30
0.0
 11
-442.4232459305671
 21
83.4534626564274
 31
0.0
  0
LINE
  5
F5
  8
1
  6
CONTINUOUS
 62
     7
 10
-445.2232459305671
 20
97.72336164374971
 30
0.0
 11
-445.2232459305671
 21
83.4534626564274
 31
0.0
  0
LINE
  5
F6
  8
1
  6
CONTINUOUS
 62
     7
 10
-351.8696925399739
 20
79.95346265642739
 30
0.0
 11
-349.9931449178895
 21
79.95346265642739
 31
0.0
  0
LINE
  5
F7
  8
1
  6
CONTINUOUS
 62
     7
 10
-445.2232459305671
 20
196.4534626564274
 30
0.0
 11
-445.2232459305671
 21
182.183563669105
 31
0.0
  0
LINE
  5
F8
  8
1
  6
CONTINUOUS
 62
     7
 10
-442.4232459305671
 20
196.4534626564274
 30
0.0
 11
-445.2232459305671
 21
196.4534626564274
 31
0.0
  0
LINE
  5
F9
  8
1
  6
CONTINUOUS
 62
     7
 10
-445.2232459305671
 20
177.7233616437497
 30
0.0
 11
-445.2232459305671
 21
102.183563669105
 31
0.0
  0
LINE
  5
FA
  8
1
  6
CONTINUOUS
 62
     7
 10
-325.2232459305671
 20
179.5999092658341
 30
0.0
 11
-325.2232459305671
 21
180.3070160470207
 31
0.0
  0
LINE
  5
FB
  8
1
  6
CONTINUOUS
 62
     7
 10
-325.2232459305671
 20
99.59990926583409
 30
0.0
 11
-325.2232459305671
 21
100.3070160470207
 31
0.0
  0
LINE
  5
FC
  8
1
  6
CONTINUOUS
 62
     7
 10
-352.5767993211605
 20
79.95346265642739
 30
0.0
 11
-351.8696925399739
 21
79.95346265642739
 31
0.0
  0
LINE
  5
FD
  8
1
  6
CONTINUOUS
 62
     7
 10
-351.8696925399739
 20
199.9534626564274
 30
0.0
 11
-352.5767993211605
 21
199.9534626564274
 31
0.0
  0
LINE
  5
FE
  8
1
  6
CONTINUOUS
 62
     7
 10
-445.2232459305671
 20
179.5999092658341
 30
0.0
 11
-445.2232459305671
 21
180.3070160470207
 31
0.0
  0
LINE
  5
FF
  8
1
  6
CONTINUOUS
 62
     7
 10
-445.2232459305671
 20
99.59990926583409
 30
0.0
 11
-445.2232459305671
 21
100.3070160470207
 31
0.0
  0
LINE
  5
100
  8
1
  6
CONTINUOUS
 62
     7
 10
-418.5767993211604
 20
199.9534626564274
 30
0.0
 11
-417.8696925399739
 21
199.9534626564274
 31
0.0
  0
LINE
  5
101
  8
1
  6
CONTINUOUS
 62
     7
 10
-417.8696925399739
 20
79.95346265642739
 30
0.0
 11
-418.5767993211604
 21
79.95346265642739
 31
0.0
  0
LINE
  5
102
  8
1
  6
CONTINUOUS
 62
     7
 10
-442.9232459305672
 20
199.9534626564274
 30
0.0
 11
-445.2232459305671
 21
199.9534626564274
 31
0.0
  0
LINE
  5
103
  8
1
  6
CONTINUOUS
 62
     7
 10
-442.9232459305672
 20
198.9534626564274
 30
0.0
 11
-442.9232459305672
 21
199.9534626564274
 31
0.0
  0
LINE
  5
104
  8
1
  6
CONTINUOUS
 62
     7
 10
-445.2232459305671
 20
199.9534626564274
 30
0.0
 11
-445.2232459305671
 21
198.9534626564274
 31
0.0
  0
LINE
  5
105
  8
1
  6
CONTINUOUS
 62
     7
 10
-442.9232459305671
 20
80.95346265642739
 30
0.0
 11
-442.9232459305671
 21
83.4534626564274
 31
0.0
  0
LINE
  5
106
  8
1
  6
CONTINUOUS
 62
     7
 10
-445.2232459305671
 20
83.4534626564274
 30
0.0
 11
-445.2232459305671
 21
80.95346265642739
 31
0.0
  0
LINE
  5
107
  8
1
  6
CONTINUOUS
 62
     7
 10
-327.5232459305672
 20
80.95346265642739
 30
0.0
 11
-327.5232459305672
 21
83.4534626564274
 31
0.0
  0
LINE
  5
108
  8
1
  6
CONTINUOUS
 62
     7
 10
-325.2232459305671
 20
83.4534626564274
 30
0.0
 11
-325.2232459305671
 21
80.95346265642739
 31
0.0
  0
LINE
  5
109
  8
1
  6
CONTINUOUS
 62
     7
 10
-445.2232459305671
 20
79.95346265642739
 30
0.0
 11
-442.9232459305671
 21
79.95346265642739
 31
0.0
  0
LINE
  5
10A
  8
1
  6
CONTINUOUS
 62
     7
 10
-442.9232459305671
 20
79.95346265642739
 30
0.0
 11
-442.9232459305671
 21
80.95346265642739
 31
0.0
  0
LINE
  5
10B
  8
1
  6
CONTINUOUS
 62
     7
 10
-445.2232459305671
 20
80.95346265642739
 30
0.0
 11
-445.2232459305671
 21
79.95346265642739
 31
0.0
  0
LINE
  5
10C
  8
1
  6
CONTINUOUS
 62
     7
 10
-327.5232459305672
 20
198.9534626564274
 30
0.0
 11
-327.5232459305672
 21
196.4534626564274
 31
0.0
  0
LINE
  5
10D
  8
1
  6
CONTINUOUS
 62
     7
 10
-325.2232459305671
 20
196.4534626564274
 30
0.0
 11
-325.2232459305671
 21
198.9534626564274
 31
0.0
  0
LINE
  5
10E
  8
1
  6
CONTINUOUS
 62
     7
 10
-327.5232459305672
 20
199.9534626564274
 30
0.0
 11
-325.2232459305671
 21
199.9534626564274
 31
0.0
  0
LINE
  5
10F
  8
1
  6
CONTINUOUS
 62
     7
 10
-327.5232459305672
 20
198.9534626564274
 30
0.0
 11
-327.5232459305672
 21
199.9534626564274
 31
0.0
  0
LINE
  5
110
  8
1
  6
CONTINUOUS
 62
     7
 10
-325.2232459305671
 20
199.9534626564274
 30
0.0
 11
-325.2232459305671
 21
198.9534626564274
 31
0.0
  0
LINE
  5
111
  8
1
  6
CONTINUOUS
 62
     7
 10
-325.2232459305671
 20
79.95346265642739
 30
0.0
 11
-327.5232459305672
 21
79.95346265642739
 31
0.0
  0
LINE
  5
112
  8
1
  6
CONTINUOUS
 62
     7
 10
-327.5232459305672
 20
79.95346265642739
 30
0.0
 11
-327.5232459305672
 21
80.95346265642739
 31
0.0
  0
LINE
  5
113
  8
1
  6
CONTINUOUS
 62
     7
 10
-325.2232459305671
 20
80.95346265642739
 30
0.0
 11
-325.2232459305671
 21
79.95346265642739
 31
0.0
  0
LINE
  5
114
  8
1
  6
CONTINUOUS
 62
     7
 10
-442.9232459305672
 20
198.9534626564274
 30
0.0
 11
-442.9232459305672
 21
196.4534626564274
 31
0.0
  0
LINE
  5
115
  8
1
  6
CONTINUOUS
 62
     7
 10
-445.2232459305671
 20
196.4534626564274
 30
0.0
 11
-445.2232459305671
 21
198.9534626564274
 31
0.0
  0
ENDBLK
  8
0
  0
BLOCK
  8
0
  2
D_FRAME_VIEW_3140
 70
     0
 10
0.0
 20
0.0
 30
0.0
  0
LINE
  5
11A
  8
1
  6
CONTINUOUS
 62
     7
 10
-331.2232459305671
 20
41.14579618114865
 30
0.0
 11
-331.2232459305671
 21
18.94579618114866
 31
0.0
  0
ARC
  5
11B
  8
1
  6
CONTINUOUS
 62
     7
 10
-336.2232459305672
 20
18.94579618114866
 30
0.0
 40
5.000000000000001
 50
270.0
 51
0.0
  0
LINE
  5
11C
  8
1
  6
CONTINUOUS
 62
     7
 10
-434.2232459305671
 20
13.94579618114866
 30
0.0
 11
-430.2232459305671
 21
13.94579618114865
 31
0.0
  0
ARC
  5
11D
  8
1
  6
CONTINUOUS
 62
     7
 10
-434.2232459305671
 20
18.94579618114866
 30
0.0
 40
5.000000000000001
 50
180.0
 51
270.0
  0
LINE
  5
11E
  8
1
  6
CONTINUOUS
 62
     7
 10
-439.2232459305671
 20
41.14579618114865
 30
0.0
 11
-439.2232459305671
 21
18.94579618114866
 31
0.0
  0
LINE
  5
11F
  8
1
  6
CONTINUOUS
 62
     7
 10
-418.5767993211604
 20
38.49195708355791
 30
0.0
 11
-420.4533469432448
 21
41.14579618114866
 31
0.0
  0
POLYLINE
  5
120
  8
1
  6
CONTINUOUS
 62
     7
 66
     1
 10
0.0
 20
0.0
 30
0.0
  0
VERTEX
  5
284
  8
1
  6
CONTINUOUS
 62
     7
 10
-418.5767993211604
 20
38.49195708355792
 30
0.0
  0
VERTEX
  5
285
  8
1
  6
CONTINUOUS
 62
     7
 10
-418.5010310470769
 20
38.40401928234824
 30
0.0
  0
VERTEX
  5
286
  8
1
  6
CONTINUOUS
 62
     7
 10
-418.4145876467497
 20
38.33867560111973
 30
0.0
  0
VERTEX
  5
287
  8
1
  6
CONTINUOUS
 62
     7
 10
-418.3207910915752
 20
38.29843716089685
 30
0.0
  0
VERTEX
  5
288
  8
1
  6
CONTINUOUS
 62
     7
 10
-418.2232459305671
 20
38.28485030237137
 30
0.0
  0
VERTEX
  5
289
  8
1
  6
CONTINUOUS
 62
     7
 10
-418.1257007695591
 20
38.29843716089685
 30
0.0
  0
VERTEX
  5
28A
  8
1
  6
CONTINUOUS
 62
     7
 10
-418.0319042143846
 20
38.33867560111973
 30
0.0
  0
VERTEX
  5
28B
  8
1
  6
CONTINUOUS
 62
     7
 10
-417.9454608140574
 20
38.40401928234824
 30
0.0
  0
VERTEX
  5
28C
  8
1
  6
CONTINUOUS
 62
     7
 10
-417.8696925399739
 20
38.49195708355792
 30
0.0
  0
SEQEND
  5
30A
  8
1
  6
CONTINUOUS
 62
     7
  0
LINE
  5
121
  8
1
  6
CONTINUOUS
 62
     7
 10
-415.9931449178895
 20
41.14579618114866
 30
0.0
 11
-417.8696925399739
 21
38.49195708355791
 31
0.0
  0
LINE
  5
122
  8
1
  6
CONTINUOUS
 62
     7
 10
-354.4533469432449
 20
41.14579618114866
 30
0.0
 11
-352.5767993211605
 21
38.49195708355791
 31
0.0
  0
POLYLINE
  5
123
  8
1
  6
CONTINUOUS
 62
     7
 66
     1
 10
0.0
 20
0.0
 30
0.0
  0
VERTEX
  5
28D
  8
1
  6
CONTINUOUS
 62
     7
 10
-352.5767993211605
 20
38.49195708355792
 30
0.0
  0
VERTEX
  5
28E
  8
1
  6
CONTINUOUS
 62
     7
 10
-352.501031047077
 20
38.40401928234824
 30
0.0
  0
VERTEX
  5
28F
  8
1
  6
CONTINUOUS
 62
     7
 10
-352.4145876467497
 20
38.33867560111973
 30
0.0
  0
VERTEX
  5
290
  8
1
  6
CONTINUOUS
 62
     7
 10
-352.3207910915752
 20
38.29843716089685
 30
0.0
  0
VERTEX
  5
291
  8
1
  6
CONTINUOUS
 62
     7
 10
-352.2232459305672
 20
38.28485030237137
 30
0.0
  0
VERTEX
  5
292
  8
1
  6
CONTINUOUS
 62
     7
 10
-352.1257007695592
 20
38.29843716089685
 30
0.0
  0
VERTEX
  5
293
  8
1
  6
CONTINUOUS
 62
     7
 10
-352.0319042143847
 20
38.33867560111973
 30
0.0
  0
VERTEX
  5
294
  8
1
  6
CONTINUOUS
 62
     7
 10
-351.9454608140574
 20
38.40401928234824
 30
0.0
  0
VERTEX
  5
295
  8
1
  6
CONTINUOUS
 62
     7
 10
-351.8696925399739
 20
38.49195708355792
 30
0.0
  0
SEQEND
  5
30B
  8
1
  6
CONTINUOUS
 62
     7
  0
LINE
  5
124
  8
1
  6
CONTINUOUS
 62
     7
 10
-351.8696925399739
 20
38.49195708355791
 30
0.0
 11
-349.9931449178895
 21
41.14579618114866
 31
0.0
  0
LINE
  5
125
  8
1
  6
CONTINUOUS
 62
     7
 10
-336.2232459305672
 20
13.94579618114866
 30
0.0
 11
-340.2232459305672
 21
13.94579618114865
 31
0.0
  0
LINE
  5
126
  8
1
  6
CONTINUOUS
 62
     7
 10
-385.2232459305671
 20
23.94579618114865
 30
0.0
 11
-340.2232459305672
 21
13.94579618114865
 31
0.0
  0
LINE
  5
127
  8
1
  6
CONTINUOUS
 62
     7
 10
-385.2232459305671
 20
23.94579618114865
 30
0.0
 11
-430.2232459305671
 21
13.94579618114865
 31
0.0
  0
LINE
  5
128
  8
1
  6
CONTINUOUS
 62
     7
 10
-442.9232459305671
 20
40.44579618114865
 30
0.0
 11
-445.2232459305671
 21
40.44579618114866
 31
0.0
  0
LINE
  5
129
  8
1
  6
CONTINUOUS
 62
     7
 10
-442.9232459305671
 20
39.44579618114866
 30
0.0
 11
-442.9232459305671
 21
40.44579618114866
 31
0.0
  0
LINE
  5
12A
  8
1
  6
CONTINUOUS
 62
     7
 10
-445.2232459305671
 20
40.44579618114866
 30
0.0
 11
-445.2232459305671
 21
39.44579618114866
 31
0.0
  0
LINE
  5
12B
  8
1
  6
CONTINUOUS
 62
     7
 10
-327.5232459305672
 20
39.44579618114866
 30
0.0
 11
-327.5232459305672
 21
18.94579618114866
 31
0.0
  0
LINE
  5
12C
  8
1
  6
CONTINUOUS
 62
     7
 10
-325.2232459305671
 20
39.44579618114866
 30
0.0
 11
-325.2232459305671
 21
18.94579618114866
 31
0.0
  0
LINE
  5
12D
  8
1
  6
CONTINUOUS
 62
     7
 10
-327.5232459305672
 20
39.44579618114866
 30
0.0
 11
-327.5232459305672
 21
40.44579618114866
 31
0.0
  0
LINE
  5
12E
  8
1
  6
CONTINUOUS
 62
     7
 10
-327.5232459305672
 20
40.44579618114865
 30
0.0
 11
-325.2232459305671
 21
40.44579618114866
 31
0.0
  0
LINE
  5
12F
  8
1
  6
CONTINUOUS
 62
     7
 10
-325.2232459305671
 20
40.44579618114866
 30
0.0
 11
-325.2232459305671
 21
39.44579618114866
 31
0.0
  0
LINE
  5
130
  8
1
  6
CONTINUOUS
 62
     7
 10
-445.2232459305671
 20
13.94579618114866
 30
0.0
 11
-442.9232459305671
 21
13.94579618114866
 31
0.0
  0
LINE
  5
131
  8
1
  6
CONTINUOUS
 62
     7
 10
-445.2232459305671
 20
18.94579618114866
 30
0.0
 11
-445.2232459305671
 21
13.94579618114866
 31
0.0
  0
LINE
  5
132
  8
1
  6
CONTINUOUS
 62
     7
 10
-442.9232459305671
 20
13.94579618114866
 30
0.0
 11
-442.9232459305671
 21
18.94579618114866
 31
0.0
  0
LINE
  5
133
  8
1
  6
CONTINUOUS
 62
     7
 10
-442.9232459305671
 20
39.44579618114866
 30
0.0
 11
-442.9232459305671
 21
18.94579618114866
 31
0.0
  0
LINE
  5
134
  8
1
  6
CONTINUOUS
 62
     7
 10
-445.2232459305671
 20
39.44579618114866
 30
0.0
 11
-445.2232459305671
 21
18.94579618114866
 31
0.0
  0
LINE
  5
135
  8
1
  6
CONTINUOUS
 62
     7
 10
-325.2232459305671
 20
13.94579618114866
 30
0.0
 11
-327.5232459305672
 21
13.94579618114866
 31
0.0
  0
LINE
  5
136
  8
1
  6
CONTINUOUS
 62
     7
 10
-327.5232459305672
 20
13.94579618114866
 30
0.0
 11
-327.5232459305672
 21
18.94579618114866
 31
0.0
  0
LINE
  5
137
  8
1
  6
CONTINUOUS
 62
     7
 10
-325.2232459305671
 20
18.94579618114866
 30
0.0
 11
-325.2232459305671
 21
13.94579618114866
 31
0.0
  0
LINE
  5
138
  8
1
  6
CONTINUOUS
 62
     7
 10
-349.9931449178895
 20
43.94579618114866
 30
0.0
 11
-331.2232459305671
 21
43.94579618114866
 31
0.0
  0
LINE
  5
139
  8
1
  6
CONTINUOUS
 62
     7
 10
-331.2232459305671
 20
43.94579618114866
 30
0.0
 11
-331.2232459305671
 21
41.14579618114865
 31
0.0
  0
POLYLINE
  5
13A
  8
1
  6
CONTINUOUS
 62
     7
 66
     1
 10
0.0
 20
0.0
 30
0.0
  0
VERTEX
  5
296
  8
1
  6
CONTINUOUS
 62
     7
 10
-349.9931449178895
 20
41.14579618114866
 30
0.0
  0
VERTEX
  5
297
  8
1
  6
CONTINUOUS
 62
     7
 10
-349.6449289907647
 20
41.69204908279382
 30
0.0
  0
VERTEX
  5
298
  8
1
  6
CONTINUOUS
 62
     7
 10
-349.3861812141803
 20
42.21730979177092
 30
0.0
  0
VERTEX
  5
299
  8
1
  6
CONTINUOUS
 62
     7
 10
-349.2268451200828
 20
42.70139283360355
 30
0.0
  0
VERTEX
  5
29A
  8
1
  6
CONTINUOUS
 62
     7
 10
-349.1730439052118
 20
43.125695168471
 30
0.0
  0
VERTEX
  5
29B
  8
1
  6
CONTINUOUS
 62
     7
 10
-349.2268451200828
 20
43.47391109559579
 30
0.0
  0
VERTEX
  5
29C
  8
1
  6
CONTINUOUS
 62
     7
 10
-349.3861812141802
 20
43.73265887218027
 30
0.0
  0
VERTEX
  5
29D
  8
1
  6
CONTINUOUS
 62
     7
 10
-349.6449289907648
 20
43.89199496627771
 30
0.0
  0
VERTEX
  5
29E
  8
1
  6
CONTINUOUS
 62
     7
 10
-349.9931449178895
 20
43.94579618114867
 30
0.0
  0
SEQEND
  5
30C
  8
1
  6
CONTINUOUS
 62
     7
  0
POLYLINE
  5
13B
  8
1
  6
CONTINUOUS
 62
     7
 66
     1
 10
0.0
 20
0.0
 30
0.0
  0
VERTEX
  5
29F
  8
1
  6
CONTINUOUS
 62
     7
 10
-354.4533469432448
 20
43.94579618114867
 30
0.0
  0
VERTEX
  5
2A0
  8
1
  6
CONTINUOUS
 62
     7
 10
-354.8015628703696
 20
43.89199496627771
 30
0.0
  0
VERTEX
  5
2A1
  8
1
  6
CONTINUOUS
 62
     7
 10
-355.0603106469541
 20
43.73265887218027
 30
0.0
  0
VERTEX
  5
2A2
  8
1
  6
CONTINUOUS
 62
     7
 10
-355.2196467410515
 20
43.47391109559579
 30
0.0
  0
VERTEX
  5
2A3
  8
1
  6
CONTINUOUS
 62
     7
 10
-355.2734479559225
 20
43.125695168471
 30
0.0
  0
VERTEX
  5
2A4
  8
1
  6
CONTINUOUS
 62
     7
 10
-355.2196467410515
 20
42.70139283360355
 30
0.0
  0
VERTEX
  5
2A5
  8
1
  6
CONTINUOUS
 62
     7
 10
-355.0603106469541
 20
42.21730979177092
 30
0.0
  0
VERTEX
  5
2A6
  8
1
  6
CONTINUOUS
 62
     7
 10
-354.8015628703697
 20
41.69204908279382
 30
0.0
  0
VERTEX
  5
2A7
  8
1
  6
CONTINUOUS
 62
     7
 10
-354.4533469432449
 20
41.14579618114866
 30
0.0
  0
SEQEND
  5
30D
  8
1
  6
CONTINUOUS
 62
     7
  0
LINE
  5
13C
  8
1
  6
CONTINUOUS
 62
     7
 10
-354.4533469432449
 20
43.94579618114866
 30
0.0
 11
-352.5767993211605
 21
43.94579618114866
 31
0.0
  0
LINE
  5
13D
  8
1
  6
CONTINUOUS
 62
     7
 10
-418.5767993211604
 20
43.94579618114866
 30
0.0
 11
-417.8696925399739
 21
43.94579618114866
 31
0.0
  0
POLYLINE
  5
13E
  8
1
  6
CONTINUOUS
 62
     7
 66
     1
 10
0.0
 20
0.0
 30
0.0
  0
VERTEX
  5
2A8
  8
1
  6
CONTINUOUS
 62
     7
 10
-420.4533469432448
 20
43.94579618114867
 30
0.0
  0
VERTEX
  5
2A9
  8
1
  6
CONTINUOUS
 62
     7
 10
-420.8015628703696
 20
43.89199496627771
 30
0.0
  0
VERTEX
  5
2AA
  8
1
  6
CONTINUOUS
 62
     7
 10
-421.0603106469541
 20
43.73265887218027
 30
0.0
  0
VERTEX
  5
2AB
  8
1
  6
CONTINUOUS
 62
     7
 10
-421.2196467410515
 20
43.47391109559579
 30
0.0
  0
VERTEX
  5
2AC
  8
1
  6
CONTINUOUS
 62
     7
 10
-421.2734479559225
 20
43.125695168471
 30
0.0
  0
VERTEX
  5
2AD
  8
1
  6
CONTINUOUS
 62
     7
 10
-421.2196467410515
 20
42.70139283360355
 30
0.0
  0
VERTEX
  5
2AE
  8
1
  6
CONTINUOUS
 62
     7
 10
-421.0603106469541
 20
42.21730979177091
 30
0.0
  0
VERTEX
  5
2AF
  8
1
  6
CONTINUOUS
 62
     7
 10
-420.8015628703696
 20
41.69204908279382
 30
0.0
  0
VERTEX
  5
2B0
  8
1
  6
CONTINUOUS
 62
     7
 10
-420.4533469432449
 20
41.14579618114866
 30
0.0
  0
SEQEND
  5
30E
  8
1
  6
CONTINUOUS
 62
     7
  0
LINE
  5
13F
  8
1
  6
CONTINUOUS
 62
     7
 10
-418.5767993211604
 20
43.94579618114866
 30
0.0
 11
-420.4533469432448
 21
43.94579618114866
 31
0.0
  0
POLYLINE
  5
140
  8
1
  6
CONTINUOUS
 62
     7
 66
     1
 10
0.0
 20
0.0
 30
0.0
  0
VERTEX
  5
2B1
  8
1
  6
CONTINUOUS
 62
     7
 10
-415.9931449178895
 20
41.14579618114866
 30
0.0
  0
VERTEX
  5
2B2
  8
1
  6
CONTINUOUS
 62
     7
 10
-415.6449289907648
 20
41.69204908279382
 30
0.0
  0
VERTEX
  5
2B3
  8
1
  6
CONTINUOUS
 62
     7
 10
-415.3861812141803
 20
42.21730979177092
 30
0.0
  0
VERTEX
  5
2B4
  8
1
  6
CONTINUOUS
 62
     7
 10
-415.2268451200828
 20
42.70139283360355
 30
0.0
  0
VERTEX
  5
2B5
  8
1
  6
CONTINUOUS
 62
     7
 10
-415.1730439052118
 20
43.125695168471
 30
0.0
  0
VERTEX
  5
2B6
  8
1
  6
CONTINUOUS
 62
     7
 10
-415.2268451200828
 20
43.47391109559579
 30
0.0
  0
VERTEX
  5
2B7
  8
1
  6
CONTINUOUS
 62
     7
 10
-415.3861812141803
 20
43.73265887218027
 30
0.0
  0
VERTEX
  5
2B8
  8
1
  6
CONTINUOUS
 62
     7
 10
-415.6449289907648
 20
43.89199496627771
 30
0.0
  0
VERTEX
  5
2B9
  8
1
  6
CONTINUOUS
 62
     7
 10
-415.9931449178895
 20
43.94579618114866
 30
0.0
  0
SEQEND
  5
30F
  8
1
  6
CONTINUOUS
 62
     7
  0
LINE
  5
141
  8
1
  6
CONTINUOUS
 62
     7
 10
-415.9931449178895
 20
43.94579618114866
 30
0.0
 11
-354.4533469432449
 21
43.94579618114866
 31
0.0
  0
LINE
  5
142
  8
1
  6
CONTINUOUS
 62
     7
 10
-415.9931449178895
 20
43.94579618114866
 30
0.0
 11
-417.8696925399739
 21
43.94579618114866
 31
0.0
  0
LINE
  5
143
  8
1
  6
CONTINUOUS
 62
     7
 10
-420.4533469432448
 20
43.94579618114866
 30
0.0
 11
-439.2232459305671
 21
43.94579618114866
 31
0.0
  0
LINE
  5
144
  8
1
  6
CONTINUOUS
 62
     7
 10
-439.2232459305671
 20
43.94579618114866
 30
0.0
 11
-439.2232459305671
 21
41.14579618114865
 31
0.0
  0
LINE
  5
145
  8
1
  6
CONTINUOUS
 62
     7
 10
-351.8696925399739
 20
43.94579618114866
 30
0.0
 11
-352.5767993211605
 21
43.94579618114866
 31
0.0
  0
LINE
  5
146
  8
1
  6
CONTINUOUS
 62
     7
 10
-351.8696925399739
 20
43.94579618114866
 30
0.0
 11
-349.9931449178895
 21
43.94579618114866
 31
0.0
  0
ARC
  5
147
  8
1
  6
CONTINUOUS
 62
     7
 10
-442.4232459305671
 20
41.14579618114866
 30
0.0
 40
2.800000000000025
 50
90.0
 51
180.0
  0
ARC
  5
148
  8
1
  6
CONTINUOUS
 62
     7
 10
-442.4232459305671
 20
41.14579618114866
 30
0.0
 40
0.5000000000000004
 50
90.0
 51
180.0
  0
LINE
  5
149
  8
1
  6
CONTINUOUS
 62
     7
 10
-439.2232459305671
 20
41.64579618114866
 30
0.0
 11
-442.4232459305671
 21
41.64579618114866
 31
0.0
  0
LINE
  5
14A
  8
1
  6
CONTINUOUS
 62
     7
 10
-439.2232459305671
 20
43.94579618114866
 30
0.0
 11
-442.4232459305671
 21
43.94579618114866
 31
0.0
  0
LINE
  5
14B
  8
1
  6
CONTINUOUS
 62
     7
 10
-442.9232459305671
 20
40.44579618114866
 30
0.0
 11
-442.9232459305671
 21
41.14579618114866
 31
0.0
  0
LINE
  5
14C
  8
1
  6
CONTINUOUS
 62
     7
 10
-445.2232459305671
 20
41.14579618114866
 30
0.0
 11
-445.2232459305671
 21
40.44579618114866
 31
0.0
  0
ARC
  5
14D
  8
1
  6
CONTINUOUS
 62
     7
 10
-328.0232459305672
 20
41.14579618114866
 30
0.0
 40
0.5000000000000004
 50
359.9999999999999
 51
90.0
  0
ARC
  5
14E
  8
1
  6
CONTINUOUS
 62
     7
 10
-328.0232459305672
 20
41.14579618114866
 30
0.0
 40
2.800000000000025
 50
0.0
 51
90.0
  0
LINE
  5
14F
  8
1
  6
CONTINUOUS
 62
     7
 10
-331.2232459305671
 20
41.64579618114866
 30
0.0
 11
-328.0232459305672
 21
41.64579618114866
 31
0.0
  0
LINE
  5
150
  8
1
  6
CONTINUOUS
 62
     7
 10
-331.2232459305671
 20
43.94579618114866
 30
0.0
 11
-328.0232459305672
 21
43.94579618114866
 31
0.0
  0
LINE
  5
151
  8
1
  6
CONTINUOUS
 62
     7
 10
-327.5232459305672
 20
40.44579618114866
 30
0.0
 11
-327.5232459305672
 21
41.14579618114866
 31
0.0
  0
LINE
  5
152
  8
1
  6
CONTINUOUS
 62
     7
 10
-325.2232459305671
 20
41.14579618114866
 30
0.0
 11
-325.2232459305671
 21
40.44579618114866
 31
0.0
  0
LINE
  5
153
  8
1
  6
CONTINUOUS
 62
     7
 10
-327.5232459305672
 20
40.64551047415119
 30
0.0
 11
-328.5235316375646
 21
41.64579618114866
 31
0.0
  0
LINE
  5
154
  8
1
  6
CONTINUOUS
 62
     7
 10
-442.9232459305672
 20
40.64551047415119
 30
0.0
 11
-441.9229602235697
 21
41.64579618114866
 31
0.0
  0
LINE
  5
155
  8
1
  6
CONTINUOUS
 62
     7
 10
-442.9232459305671
 20
37.33596503120071
 30
0.0
 11
-439.2232459305671
 21
41.0359650312007
 31
0.0
  0
LINE
  5
156
  8
1
  6
CONTINUOUS
 62
     7
 10
-331.2232459305671
 20
41.0359650312007
 30
0.0
 11
-327.5232459305672
 21
37.33596503120071
 31
0.0
  0
LINE
  5
157
  8
1
  6
CONTINUOUS
 62
     7
 10
-354.5256095669308
 20
43.94579618114867
 30
0.0
 11
-354.5256095669308
 21
43.98329618114866
 31
0.0
  0
ENDBLK
  8
0
  0
BLOCK
  8
0
  2
D_FRAME_VIEW_3076
 70
     0
 10
0.0
 20
0.0
 30
0.0
  0
LINE
  5
15C
  8
1
  6
CONTINUOUS
 62
     7
 10
-253.8211944794036
 20
89.95346265642738
 30
0.0
 11
-253.8211944794036
 21
111.9534626564274
 31
0.0
  0
LINE
  5
15D
  8
1
  6
CONTINUOUS
 62
     7
 10
-248.8211944794036
 20
89.95346265642738
 30
0.0
 11
-253.8211944794036
 21
89.95346265642738
 31
0.0
  0
LINE
  5
15E
  8
1
  6
CONTINUOUS
 62
     7
 10
-248.8211944794036
 20
111.9534626564274
 30
0.0
 11
-248.8211944794036
 21
89.95346265642738
 31
0.0
  0
LINE
  5
15F
  8
1
  6
CONTINUOUS
 62
     7
 10
-253.8211944794036
 20
111.9534626564274
 30
0.0
 11
-248.8211944794036
 21
111.9534626564274
 31
0.0
  0
LINE
  5
160
  8
1
  6
CONTINUOUS
 62
     7
 10
-248.8211944794036
 20
156.4534626564274
 30
0.0
 11
-248.8211944794036
 21
123.4534626564274
 31
0.0
  0
LINE
  5
161
  8
1
  6
CONTINUOUS
 62
     7
 10
-258.8211944794036
 20
156.4534626564274
 30
0.0
 11
-248.8211944794036
 21
156.4534626564274
 31
0.0
  0
LINE
  5
162
  8
1
  6
CONTINUOUS
 62
     7
 10
-258.8211944794036
 20
123.4534626564274
 30
0.0
 11
-258.8211944794036
 21
156.4534626564274
 31
0.0
  0
LINE
  5
163
  8
1
  6
CONTINUOUS
 62
     7
 10
-248.8211944794036
 20
123.4534626564274
 30
0.0
 11
-258.8211944794036
 21
123.4534626564274
 31
0.0
  0
LINE
  5
164
  8
1
  6
CONTINUOUS
 62
     7
 10
-253.8211944794036
 20
167.9534626564274
 30
0.0
 11
-253.8211944794036
 21
189.9534626564274
 31
0.0
  0
LINE
  5
165
  8
1
  6
CONTINUOUS
 62
     7
 10
-248.8211944794036
 20
167.9534626564274
 30
0.0
 11
-253.8211944794036
 21
167.9534626564274
 31
0.0
  0
LINE
  5
166
  8
1
  6
CONTINUOUS
 62
     7
 10
-248.8211944794036
 20
189.9534626564274
 30
0.0
 11
-248.8211944794036
 21
167.9534626564274
 31
0.0
  0
LINE
  5
167
  8
1
  6
CONTINUOUS
 62
     7
 10
-253.8211944794036
 20
189.9534626564274
 30
0.0
 11
-248.8211944794036
 21
189.9534626564274
 31
0.0
  0
POLYLINE
  5
168
  8
1
  6
CONTINUOUS
 62
     7
 66
     1
 10
0.0
 20
0.0
 30
0.0
  0
VERTEX
  5
2BC
  8
1
  6
CONTINUOUS
 62
     7
 10
-268.3673553818129
 20
179.5999092658341
 30
0.0
  0
VERTEX
  5
2BD
  8
1
  6
CONTINUOUS
 62
     7
 10
-268.2794175806033
 20
179.6756775399176
 30
0.0
  0
VERTEX
  5
2BE
  8
1
  6
CONTINUOUS
 62
     7
 10
-268.2140738993747
 20
179.7621209402448
 30
0.0
  0
VERTEX
  5
2BF
  8
1
  6
CONTINUOUS
 62
     7
 10
-268.1738354591519
 20
179.8559174954193
 30
0.0
  0
VERTEX
  5
2C0
  8
1
  6
CONTINUOUS
 62
     7
 10
-268.1602486006264
 20
179.9534626564273
 30
0.0
  0
VERTEX
  5
2C1
  8
1
  6
CONTINUOUS
 62
     7
 10
-268.1738354591519
 20
180.0510078174354
 30
0.0
  0
VERTEX
  5
2C2
  8
1
  6
CONTINUOUS
 62
     7
 10
-268.2140738993747
 20
180.1448043726099
 30
0.0
  0
VERTEX
  5
2C3
  8
1
  6
CONTINUOUS
 62
     7
 10
-268.2794175806033
 20
180.2312477729371
 30
0.0
  0
VERTEX
  5
2C4
  8
1
  6
CONTINUOUS
 62
     7
 10
-268.3673553818129
 20
180.3070160470206
 30
0.0
  0
SEQEND
  5
310
  8
1
  6
CONTINUOUS
 62
     7
  0
LINE
  5
169
  8
1
  6
CONTINUOUS
 62
     7
 10
-268.3673553818128
 20
180.3070160470207
 30
0.0
 11
-271.0211944794036
 21
182.183563669105
 31
0.0
  0
LINE
  5
16A
  8
1
  6
CONTINUOUS
 62
     7
 10
-271.0211944794036
 20
196.4534626564274
 30
0.0
 11
-270.3211944794036
 21
196.4534626564274
 31
0.0
  0
LINE
  5
16B
  8
1
  6
CONTINUOUS
 62
     7
 10
-269.3211944794036
 20
199.9534626564274
 30
0.0
 11
-248.8211944794036
 21
199.9534626564274
 31
0.0
  0
LINE
  5
16C
  8
1
  6
CONTINUOUS
 62
     7
 10
-243.8211944794036
 20
84.95346265642739
 30
0.0
 11
-243.8211944794036
 21
194.9534626564274
 31
0.0
  0
ARC
  5
16D
  8
1
  6
CONTINUOUS
 62
     7
 10
-248.8211944794036
 20
84.95346265642739
 30
0.0
 40
5.000000000000004
 50
270.0
 51
0.0
  0
LINE
  5
16E
  8
1
  6
CONTINUOUS
 62
     7
 10
-269.3211944794036
 20
79.95346265642739
 30
0.0
 11
-248.8211944794036
 21
79.95346265642739
 31
0.0
  0
ARC
  5
16F
  8
1
  6
CONTINUOUS
 62
     7
 10
-269.3211944794036
 20
80.95346265642739
 30
0.0
 40
1.000000000000001
 50
180.0
 51
270.0
  0
LINE
  5
170
  8
1
  6
CONTINUOUS
 62
     7
 10
-270.3211944794036
 20
83.4534626564274
 30
0.0
 11
-270.3211944794036
 21
80.95346265642739
 31
0.0
  0
LINE
  5
171
  8
1
  6
CONTINUOUS
 62
     7
 10
-271.0211944794036
 20
83.4534626564274
 30
0.0
 11
-270.3211944794036
 21
83.4534626564274
 31
0.0
  0
LINE
  5
172
  8
1
  6
CONTINUOUS
 62
     7
 10
-271.0211944794036
 20
97.72336164374971
 30
0.0
 11
-268.3673553818129
 21
99.59990926583409
 31
0.0
  0
POLYLINE
  5
173
  8
1
  6
CONTINUOUS
 62
     7
 66
     1
 10
0.0
 20
0.0
 30
0.0
  0
VERTEX
  5
2C5
  8
1
  6
CONTINUOUS
 62
     7
 10
-268.367355381813
 20
99.59990926583409
 30
0.0
  0
VERTEX
  5
2C6
  8
1
  6
CONTINUOUS
 62
     7
 10
-268.2794175806033
 20
99.67567753991756
 30
0.0
  0
VERTEX
  5
2C7
  8
1
  6
CONTINUOUS
 62
     7
 10
-268.2140738993747
 20
99.76212094024481
 30
0.0
  0
VERTEX
  5
2C8
  8
1
  6
CONTINUOUS
 62
     7
 10
-268.1738354591519
 20
99.8559174954193
 30
0.0
  0
VERTEX
  5
2C9
  8
1
  6
CONTINUOUS
 62
     7
 10
-268.1602486006264
 20
99.95346265642736
 30
0.0
  0
VERTEX
  5
2CA
  8
1
  6
CONTINUOUS
 62
     7
 10
-268.1738354591519
 20
100.0510078174354
 30
0.0
  0
VERTEX
  5
2CB
  8
1
  6
CONTINUOUS
 62
     7
 10
-268.2140738993747
 20
100.1448043726099
 30
0.0
  0
VERTEX
  5
2CC
  8
1
  6
CONTINUOUS
 62
     7
 10
-268.2794175806033
 20
100.2312477729372
 30
0.0
  0
VERTEX
  5
2CD
  8
1
  6
CONTINUOUS
 62
     7
 10
-268.3673553818129
 20
100.3070160470207
 30
0.0
  0
SEQEND
  5
311
  8
1
  6
CONTINUOUS
 62
     7
  0
LINE
  5
174
  8
1
  6
CONTINUOUS
 62
     7
 10
-268.3673553818129
 20
100.3070160470207
 30
0.0
 11
-271.0211944794036
 21
102.183563669105
 31
0.0
  0
LINE
  5
175
  8
1
  6
CONTINUOUS
 62
     7
 10
-271.0211944794036
 20
177.7233616437497
 30
0.0
 11
-268.3673553818129
 21
179.5999092658341
 31
0.0
  0
ARC
  5
176
  8
1
  6
CONTINUOUS
 62
     7
 10
-269.3211944794036
 20
198.9534626564274
 30
0.0
 40
1.000000000000001
 50
89.99999999999996
 51
180.0
  0
ARC
  5
177
  8
1
  6
CONTINUOUS
 62
     7
 10
-248.8211944794036
 20
194.9534626564274
 30
0.0
 40
5.000000000000004
 50
0.0000000000000795
 51
90.00000000000001
  0
LINE
  5
178
  8
1
  6
CONTINUOUS
 62
     7
 10
-270.3211944794036
 20
196.4534626564274
 30
0.0
 11
-270.3211944794036
 21
198.9534626564274
 31
0.0
  0
LINE
  5
179
  8
1
  6
CONTINUOUS
 62
     7
 10
-273.8211944794036
 20
182.183563669105
 30
0.0
 11
-273.8211944794036
 21
196.4534626564274
 31
0.0
  0
POLYLINE
  5
17A
  8
1
  6
CONTINUOUS
 62
     7
 66
     1
 10
0.0
 20
0.0
 30
0.0
  0
VERTEX
  5
2CE
  8
1
  6
CONTINUOUS
 62
     7
 10
-271.0211944794036
 20
182.183563669105
 30
0.0
  0
VERTEX
  5
2CF
  8
1
  6
CONTINUOUS
 62
     7
 10
-271.5674473810487
 20
182.5317795962299
 30
0.0
  0
VERTEX
  5
2D0
  8
1
  6
CONTINUOUS
 62
     7
 10
-272.0927080900258
 20
182.7905273728143
 30
0.0
  0
VERTEX
  5
2D1
  8
1
  6
CONTINUOUS
 62
     7
 10
-272.5767911318584
 20
182.9498634669118
 30
0.0
  0
VERTEX
  5
2D2
  8
1
  6
CONTINUOUS
 62
     7
 10
-273.0010934667259
 20
183.0036646817827
 30
0.0
  0
VERTEX
  5
2D3
  8
1
  6
CONTINUOUS
 62
     7
 10
-273.3493093938507
 20
182.9498634669118
 30
0.0
  0
VERTEX
  5
2D4
  8
1
  6
CONTINUOUS
 62
     7
 10
-273.6080571704352
 20
182.7905273728143
 30
0.0
  0
VERTEX
  5
2D5
  8
1
  6
CONTINUOUS
 62
     7
 10
-273.7673932645326
 20
182.5317795962299
 30
0.0
  0
VERTEX
  5
2D6
  8
1
  6
CONTINUOUS
 62
     7
 10
-273.8211944794036
 20
182.1835636691051
 30
0.0
  0
SEQEND
  5
312
  8
1
  6
CONTINUOUS
 62
     7
  0
LINE
  5
17B
  8
1
  6
CONTINUOUS
 62
     7
 10
-273.8211944794036
 20
196.4534626564274
 30
0.0
 11
-271.0211944794036
 21
196.4534626564274
 31
0.0
  0
POLYLINE
  5
17C
  8
1
  6
CONTINUOUS
 62
     7
 66
     1
 10
0.0
 20
0.0
 30
0.0
  0
VERTEX
  5
2D7
  8
1
  6
CONTINUOUS
 62
     7
 10
-273.8211944794036
 20
177.7233616437497
 30
0.0
  0
VERTEX
  5
2D8
  8
1
  6
CONTINUOUS
 62
     7
 10
-273.7673932645326
 20
177.3751457166249
 30
0.0
  0
VERTEX
  5
2D9
  8
1
  6
CONTINUOUS
 62
     7
 10
-273.6080571704352
 20
177.1163979400405
 30
0.0
  0
VERTEX
  5
2DA
  8
1
  6
CONTINUOUS
 62
     7
 10
-273.3493093938507
 20
176.957061845943
 30
0.0
  0
VERTEX
  5
2DB
  8
1
  6
CONTINUOUS
 62
     7
 10
-273.0010934667259
 20
176.9032606310721
 30
0.0
  0
VERTEX
  5
2DC
  8
1
  6
CONTINUOUS
 62
     7
 10
-272.5767911318584
 20
176.957061845943
 30
0.0
  0
VERTEX
  5
2DD
  8
1
  6
CONTINUOUS
 62
     7
 10
-272.0927080900258
 20
177.1163979400405
 30
0.0
  0
VERTEX
  5
2DE
  8
1
  6
CONTINUOUS
 62
     7
 10
-271.5674473810487
 20
177.3751457166249
 30
0.0
  0
VERTEX
  5
2DF
  8
1
  6
CONTINUOUS
 62
     7
 10
-271.0211944794036
 20
177.7233616437497
 30
0.0
  0
SEQEND
  5
313
  8
1
  6
CONTINUOUS
 62
     7
  0
LINE
  5
17D
  8
1
  6
CONTINUOUS
 62
     7
 10
-273.8211944794036
 20
177.7233616437497
 30
0.0
 11
-273.8211944794036
 21
179.5999092658341
 31
0.0
  0
LINE
  5
17E
  8
1
  6
CONTINUOUS
 62
     7
 10
-273.8211944794036
 20
180.3070160470207
 30
0.0
 11
-273.8211944794036
 21
182.183563669105
 31
0.0
  0
LINE
  5
17F
  8
1
  6
CONTINUOUS
 62
     7
 10
-273.8211944794036
 20
180.3070160470207
 30
0.0
 11
-273.8211944794036
 21
179.5999092658341
 31
0.0
  0
POLYLINE
  5
180
  8
1
  6
CONTINUOUS
 62
     7
 66
     1
 10
0.0
 20
0.0
 30
0.0
  0
VERTEX
  5
2E0
  8
1
  6
CONTINUOUS
 62
     7
 10
-271.0211944794036
 20
102.183563669105
 30
0.0
  0
VERTEX
  5
2E1
  8
1
  6
CONTINUOUS
 62
     7
 10
-271.5674473810487
 20
102.5317795962298
 30
0.0
  0
VERTEX
  5
2E2
  8
1
  6
CONTINUOUS
 62
     7
 10
-272.0927080900258
 20
102.7905273728143
 30
0.0
  0
VERTEX
  5
2E3
  8
1
  6
CONTINUOUS
 62
     7
 10
-272.5767911318584
 20
102.9498634669118
 30
0.0
  0
VERTEX
  5
2E4
  8
1
  6
CONTINUOUS
 62
     7
 10
-273.0010934667259
 20
103.0036646817827
 30
0.0
  0
VERTEX
  5
2E5
  8
1
  6
CONTINUOUS
 62
     7
 10
-273.3493093938507
 20
102.9498634669118
 30
0.0
  0
VERTEX
  5
2E6
  8
1
  6
CONTINUOUS
 62
     7
 10
-273.6080571704352
 20
102.7905273728143
 30
0.0
  0
VERTEX
  5
2E7
  8
1
  6
CONTINUOUS
 62
     7
 10
-273.7673932645326
 20
102.5317795962298
 30
0.0
  0
VERTEX
  5
2E8
  8
1
  6
CONTINUOUS
 62
     7
 10
-273.8211944794036
 20
102.183563669105
 30
0.0
  0
SEQEND
  5
314
  8
1
  6
CONTINUOUS
 62
     7
  0
LINE
  5
181
  8
1
  6
CONTINUOUS
 62
     7
 10
-273.8211944794036
 20
102.183563669105
 30
0.0
 11
-273.8211944794036
 21
177.7233616437497
 31
0.0
  0
POLYLINE
  5
182
  8
1
  6
CONTINUOUS
 62
     7
 66
     1
 10
0.0
 20
0.0
 30
0.0
  0
VERTEX
  5
2E9
  8
1
  6
CONTINUOUS
 62
     7
 10
-273.8211944794036
 20
97.72336164374971
 30
0.0
  0
VERTEX
  5
2EA
  8
1
  6
CONTINUOUS
 62
     7
 10
-273.7673932645326
 20
97.37514571662491
 30
0.0
  0
VERTEX
  5
2EB
  8
1
  6
CONTINUOUS
 62
     7
 10
-273.6080571704352
 20
97.11639794004043
 30
0.0
  0
VERTEX
  5
2EC
  8
1
  6
CONTINUOUS
 62
     7
 10
-273.3493093938507
 20
96.95706184594299
 30
0.0
  0
VERTEX
  5
2ED
  8
1
  6
CONTINUOUS
 62
     7
 10
-273.0010934667259
 20
96.90326063107203
 30
0.0
  0
VERTEX
  5
2EE
  8
1
  6
CONTINUOUS
 62
     7
 10
-272.5767911318584
 20
96.95706184594299
 30
0.0
  0
VERTEX
  5
2EF
  8
1
  6
CONTINUOUS
 62
     7
 10
-272.0927080900258
 20
97.11639794004044
 30
0.0
  0
VERTEX
  5
2F0
  8
1
  6
CONTINUOUS
 62
     7
 10
-271.5674473810487
 20
97.3751457166249
 30
0.0
  0
VERTEX
  5
2F1
  8
1
  6
CONTINUOUS
 62
     7
 10
-271.0211944794036
 20
97.7233616437497
 30
0.0
  0
SEQEND
  5
315
  8
1
  6
CONTINUOUS
 62
     7
  0
LINE
  5
183
  8
1
  6
CONTINUOUS
 62
     7
 10
-273.8211944794036
 20
97.72336164374971
 30
0.0
 11
-273.8211944794036
 21
99.5999092658341
 31
0.0
  0
LINE
  5
184
  8
1
  6
CONTINUOUS
 62
     7
 10
-273.8211944794036
 20
83.4534626564274
 30
0.0
 11
-273.8211944794036
 21
97.72336164374971
 31
0.0
  0
LINE
  5
185
  8
1
  6
CONTINUOUS
 62
     7
 10
-271.0211944794036
 20
83.4534626564274
 30
0.0
 11
-273.8211944794036
 21
83.4534626564274
 31
0.0
  0
LINE
  5
186
  8
1
  6
CONTINUOUS
 62
     7
 10
-273.8211944794036
 20
100.3070160470207
 30
0.0
 11
-273.8211944794036
 21
102.183563669105
 31
0.0
  0
LINE
  5
187
  8
1
  6
CONTINUOUS
 62
     7
 10
-273.8211944794036
 20
100.3070160470207
 30
0.0
 11
-273.8211944794036
 21
99.5999092658341
 31
0.0
  0
LINE
  5
188
  8
1
  6
CONTINUOUS
 62
     7
 10
-271.0211944794036
 20
197.6534626564274
 30
0.0
 11
-270.3211944794036
 21
197.6534626564274
 31
0.0
  0
LINE
  5
189
  8
1
  6
CONTINUOUS
 62
     7
 10
-271.0211944794036
 20
199.9534626564274
 30
0.0
 11
-269.3211944794036
 21
199.9534626564274
 31
0.0
  0
ARC
  5
18A
  8
1
  6
CONTINUOUS
 62
     7
 10
-271.0211944794036
 20
197.1534626564274
 30
0.0
 40
2.799999999999969
 50
90.0
 51
180.0
  0
ARC
  5
18B
  8
1
  6
CONTINUOUS
 62
     7
 10
-271.0211944794036
 20
197.1534626564274
 30
0.0
 40
0.5000000000000004
 50
90.0
 51
180.0
  0
LINE
  5
18C
  8
1
  6
CONTINUOUS
 62
     7
 10
-271.5211944794036
 20
197.1534626564274
 30
0.0
 11
-271.5211944794036
 21
196.4534626564274
 31
0.0
  0
LINE
  5
18D
  8
1
  6
CONTINUOUS
 62
     7
 10
-273.8211944794036
 20
197.1534626564274
 30
0.0
 11
-273.8211944794036
 21
196.4534626564274
 31
0.0
  0
LINE
  5
18E
  8
1
  6
CONTINUOUS
 62
     7
 10
-243.8211944794036
 20
199.9534626564274
 30
0.0
 11
-243.8211944794036
 21
197.6534626564274
 31
0.0
  0
LINE
  5
18F
  8
1
  6
CONTINUOUS
 62
     7
 10
-243.8211944794036
 20
197.6534626564274
 30
0.0
 11
-244.6128693969034
 21
197.6534626564274
 31
0.0
  0
LINE
  5
190
  8
1
  6
CONTINUOUS
 62
     7
 10
-248.8211944794036
 20
199.9534626564274
 30
0.0
 11
-243.8211944794036
 21
199.9534626564274
 31
0.0
  0
LINE
  5
191
  8
1
  6
CONTINUOUS
 62
     7
 10
-271.0211944794036
 20
82.25346265642739
 30
0.0
 11
-270.3211944794036
 21
82.25346265642739
 31
0.0
  0
LINE
  5
192
  8
1
  6
CONTINUOUS
 62
     7
 10
-271.0211944794036
 20
79.95346265642739
 30
0.0
 11
-269.3211944794036
 21
79.95346265642739
 31
0.0
  0
ARC
  5
193
  8
1
  6
CONTINUOUS
 62
     7
 10
-271.0211944794036
 20
82.75346265642739
 30
0.0
 40
2.800000000000025
 50
180.0
 51
270.0
  0
ARC
  5
194
  8
1
  6
CONTINUOUS
 62
     7
 10
-271.0211944794036
 20
82.75346265642739
 30
0.0
 40
0.5000000000000004
 50
180.0
 51
270.0
  0
LINE
  5
195
  8
1
  6
CONTINUOUS
 62
     7
 10
-271.5211944794036
 20
82.75346265642739
 30
0.0
 11
-271.5211944794036
 21
83.45346265642739
 31
0.0
  0
LINE
  5
196
  8
1
  6
CONTINUOUS
 62
     7
 10
-273.8211944794036
 20
82.75346265642739
 30
0.0
 11
-273.8211944794036
 21
83.45346265642739
 31
0.0
  0
LINE
  5
197
  8
1
  6
CONTINUOUS
 62
     7
 10
-243.8211944794036
 20
82.25346265642739
 30
0.0
 11
-243.8211944794036
 21
79.95346265642739
 31
0.0
  0
LINE
  5
198
  8
1
  6
CONTINUOUS
 62
     7
 10
-244.6128693969034
 20
82.25346265642739
 30
0.0
 11
-243.8211944794036
 21
82.25346265642739
 31
0.0
  0
LINE
  5
199
  8
1
  6
CONTINUOUS
 62
     7
 10
-243.8211944794036
 20
79.95346265642739
 30
0.0
 11
-248.8211944794036
 21
79.95346265642739
 31
0.0
  0
LINE
  5
19A
  8
1
  6
CONTINUOUS
 62
     7
 10
-270.5209087724061
 20
197.6534626564274
 30
0.0
 11
-271.5211944794036
 21
196.6531769494299
 31
0.0
  0
LINE
  5
19B
  8
1
  6
CONTINUOUS
 62
     7
 10
-270.5209087724061
 20
82.25346265642739
 30
0.0
 11
-271.5211944794036
 21
83.25374836342486
 31
0.0
  0
LINE
  5
19C
  8
1
  6
CONTINUOUS
 62
     7
 10
-273.8586944794036
 20
157.7480081109728
 30
0.0
 11
-273.8211944794036
 21
157.7480081109728
 31
0.0
  0
ENDBLK
  8
0
  0
ENDSEC
  0
SECTION
  2
ENTITIES
  0
INSERT
  5
116
  8
1
  6
CONTINUOUS
 62
     7
  2
D_FRAME_VIEW_2626
 10
0.0
 20
0.0
 30
0.0
  0
INSERT
  5
158
  8
1
  6
CONTINUOUS
 62
     7
  2
D_FRAME_VIEW_3140
 10
0.0
 20
0.0
 30
0.0
  0
INSERT
  5
19D
  8
1
  6
CONTINUOUS
 62
     7
  2
D_FRAME_VIEW_3076
 10
0.0
 20
0.0
 30
0.0
  0
TEXT
  5
19E
  8
1
  6
CONTINUOUS
 62
     7
 10
-278.0932846951039
 20
37.27421621366087
 30
0.0
 40
3.0
  1
PV4B-BDBT
  0
LINE
  5
19F
  8
1
  6
CONTINUOUS
 62
     2
 10
-277.8937004760218
 20
36.71625072660322
 30
0.0
 11
-262.5527913851126
 21
36.71625072660322
 31
0.0
  0
LINE
  5
1A0
  8
1
  6
CENTER
 62
     1
 10
-323.2232459305671
 20
139.9534626564274
 30
0.0
 11
-447.2232459305671
 21
139.9534626564274
 31
0.0
  0
LINE
  5
1A2
  8
1
  6
CENTER
 62
     1
 10
-385.2232459305671
 20
43.14579618114866
 30
0.0
 11
-385.2232459305671
 21
11.94579618114866
 31
0.0
  0
LINE
  5
1A3
  8
1
  6
CENTER
 62
     1
 10
-385.2232459305671
 20
201.9534626564274
 30
0.0
 11
-385.2232459305671
 21
77.95346265642739
 31
0.0
  0
LINE
  5
1A4
  8
1
  6
CENTER
 62
     1
 10
-273.0211944794036
 20
139.9534626564274
 30
0.0
 11
-241.8211944794036
 21
139.9534626564274
 31
0.0
  0
ENDSEC
  0
EOF
