  0
SECTION
  2
HEADER
  9
$ACADVER
  1
AC1014
  9
$ACADMAINTVER
 70
     9
  9
$DWGCODEPAGE
  3
ANSI_932
  9
$INSBASE
 10
0.0
 20
0.0
 30
0.0
  9
$EXTMIN
 10
0.0
 20
-509.9200177891384
 30
0.0
  9
$EXTMAX
 10
466.9595762485932
 20
5.686136363636363
 30
5.0
  9
$LIMMIN
 10
0.0
 20
0.0
  9
$LIMMAX
 10
12.0
 20
9.0
  9
$ORTHOMODE
 70
     0
  9
$REGENMODE
 70
     1
  9
$FILLMODE
 70
     1
  9
$QTEXTMODE
 70
     0
  9
$MIRRTEXT
 70
     1
  9
$DRAGMODE
 70
     2
  9
$LTSCALE
 40
1.0
  9
$OSMODE
 70
    37
  9
$ATTMODE
 70
     1
  9
$TEXTSIZE
 40
0.2
  9
$TRACEWID
 40
0.05
  9
$TEXTSTYLE
  7
STANDARD
  9
$CLAYER
  8
0
  9
$CELTYPE
  6
BYLAYER
  9
$CECOLOR
 62
   256
  9
$CELTSCALE
 40
1.0
  9
$DELOBJ
 70
     1
  9
$DISPSILH
 70
     0
  9
$DIMSCALE
 40
1.0
  9
$DIMASZ
 40
3.0
  9
$DIMEXO
 40
0.0625
  9
$DIMDLI
 40
0.38
  9
$DIMRND
 40
0.0
  9
$DIMDLE
 40
0.0
  9
$DIMEXE
 40
1.5
  9
$DIMTP
 40
0.0
  9
$DIMTM
 40
0.0
  9
$DIMTXT
 40
3.0
  9
$DIMCEN
 40
0.09
  9
$DIMTSZ
 40
0.0
  9
$DIMTOL
 70
     0
  9
$DIMLIM
 70
     0
  9
$DIMTIH
 70
     1
  9
$DIMTOH
 70
     1
  9
$DIMSE1
 70
     0
  9
$DIMSE2
 70
     0
  9
$DIMTAD
 70
     1
  9
$DIMZIN
 70
     0
  9
$DIMBLK
  1

  9
$DIMASO
 70
     1
  9
$DIMSHO
 70
     1
  9
$DIMPOST
  1

  9
$DIMAPOST
  1

  9
$DIMALT
 70
     0
  9
$DIMALTD
 70
     2
  9
$DIMALTF
 40
25.4
  9
$DIMLFAC
 40
1.0
  9
$DIMTOFL
 70
     0
  9
$DIMTVP
 40
0.0
  9
$DIMTIX
 70
     0
  9
$DIMSOXD
 70
     0
  9
$DIMSAH
 70
     0
  9
$DIMBLK1
  1

  9
$DIMBLK2
  1

  9
$DIMSTYLE
  2
STANDARD
  9
$DIMCLRD
 70
     0
  9
$DIMCLRE
 70
     0
  9
$DIMCLRT
 70
     0
  9
$DIMTFAC
 40
1.0
  9
$DIMGAP
 40
1.5
  9
$DIMJUST
 70
     0
  9
$DIMSD1
 70
     0
  9
$DIMSD2
 70
     0
  9
$DIMTOLJ
 70
     1
  9
$DIMTZIN
 70
     0
  9
$DIMALTZ
 70
     0
  9
$DIMALTTZ
 70
     0
  9
$DIMFIT
 70
     3
  9
$DIMUPT
 70
     0
  9
$DIMUNIT
 70
     2
  9
$DIMDEC
 70
     2
  9
$DIMTDEC
 70
     4
  9
$DIMALTU
 70
     2
  9
$DIMALTTD
 70
     2
  9
$DIMTXSTY
  7
ＭＳ_ゴシック
  9
$DIMAUNIT
 70
     0
  9
$LUNITS
 70
     2
  9
$LUPREC
 70
     4
  9
$SKETCHINC
 40
0.1
  9
$FILLETRAD
 40
0.5
  9
$AUNITS
 70
     0
  9
$AUPREC
 70
     0
  9
$MENU
  1
.
  9
$ELEVATION
 40
0.0
  9
$PELEVATION
 40
0.0
  9
$THICKNESS
 40
0.0
  9
$LIMCHECK
 70
     0
  9
$CHAMFERA
 40
0.0
  9
$CHAMFERB
 40
0.0
  9
$CHAMFERC
 40
0.0
  9
$CHAMFERD
 40
0.0
  9
$SKPOLY
 70
     0
  9
$TDCREATE
 40
2459870.480147905
  9
$TDUPDATE
 40
2459870.480148264
  9
$TDINDWG
 40
0.0000000116
  9
$TDUSRTIMER
 40
0.0000000116
  9
$USRTIMER
 70
     1
  9
$ANGBASE
 50
0.0
  9
$ANGDIR
 70
     0
  9
$PDMODE
 70
     0
  9
$PDSIZE
 40
0.0
  9
$PLINEWID
 40
0.0
  9
$COORDS
 70
     1
  9
$SPLFRAME
 70
     0
  9
$SPLINETYPE
 70
     6
  9
$SPLINESEGS
 70
     8
  9
$ATTDIA
 70
     0
  9
$ATTREQ
 70
     1
  9
$HANDLING
 70
     1
  9
$HANDSEED
  5
31C
  9
$SURFTAB1
 70
     6
  9
$SURFTAB2
 70
     6
  9
$SURFTYPE
 70
     6
  9
$SURFU
 70
     6
  9
$SURFV
 70
     6
  9
$UCSNAME
  2

  9
$UCSORG
 10
0.0
 20
0.0
 30
0.0
  9
$UCSXDIR
 10
1.0
 20
0.0
 30
0.0
  9
$UCSYDIR
 10
0.0
 20
1.0
 30
0.0
  9
$PUCSNAME
  2

  9
$PUCSORG
 10
0.0
 20
0.0
 30
0.0
  9
$PUCSXDIR
 10
1.0
 20
0.0
 30
0.0
  9
$PUCSYDIR
 10
0.0
 20
1.0
 30
0.0
  9
$USERI1
 70
     0
  9
$USERI2
 70
     0
  9
$USERI3
 70
     0
  9
$USERI4
 70
     0
  9
$USERI5
 70
     0
  9
$USERR1
 40
0.0
  9
$USERR2
 40
0.0
  9
$USERR3
 40
0.0
  9
$USERR4
 40
0.0
  9
$USERR5
 40
0.0
  9
$WORLDVIEW
 70
     1
  9
$SHADEDGE
 70
     3
  9
$SHADEDIF
 70
    70
  9
$TILEMODE
 70
     1
  9
$MAXACTVP
 70
    64
  9
$PINSBASE
 10
0.0
 20
0.0
 30
0.0
  9
$PLIMCHECK
 70
     0
  9
$PEXTMIN
 10
1.000000000000000E+20
 20
1.000000000000000E+20
 30
1.000000000000000E+20
  9
$PEXTMAX
 10
-1.000000000000000E+20
 20
-1.000000000000000E+20
 30
-1.000000000000000E+20
  9
$PLIMMIN
 10
0.0
 20
0.0
  9
$PLIMMAX
 10
12.0
 20
9.0
  9
$UNITMODE
 70
     0
  9
$VISRETAIN
 70
     1
  9
$PLINEGEN
 70
     0
  9
$PSLTSCALE
 70
     1
  9
$TREEDEPTH
 70
  3020
  9
$PICKSTYLE
 70
     1
  9
$CMLSTYLE
  2
STANDARD
  9
$CMLJUST
 70
     0
  9
$CMLSCALE
 40
1.0
  9
$PROXYGRAPHICS
 70
     1
  9
$MEASUREMENT
 70
     1
  0
ENDSEC
  0
SECTION
  2
CLASSES
  0
CLASS
  1
ACDBDICTIONARYWDFLT
  2
AcDbDictionaryWithDefault
  3
ObjectDBX Classes
 90
        0
280
     0
281
     0
  0
CLASS
  1
VISUALSTYLE
  2
AcDbVisualStyle
  3
ObjectDBX Classes
 90
     4095
280
     0
281
     0
  0
CLASS
  1
MATERIAL
  2
AcDbMaterial
  3
ObjectDBX Classes
 90
     1153
280
     0
281
     0
  0
CLASS
  1
SCALE
  2
AcDbScale
  3
ObjectDBX Classes
 90
     1153
280
     0
281
     0
  0
CLASS
  1
TABLESTYLE
  2
AcDbTableStyle
  3
ObjectDBX Classes
 90
     4095
280
     0
281
     0
  0
CLASS
  1
MLEADERSTYLE
  2
AcDbMLeaderStyle
  3
ACDB_MLEADERSTYLE_CLASS
 90
     4095
280
     0
281
     0
  0
CLASS
  1
SUN
  2
AcDbSun
  3
SCENEOE
 90
     1153
280
     0
281
     0
  0
CLASS
  1
DICTIONARYVAR
  2
AcDbDictionaryVar
  3
ObjectDBX Classes
 90
        0
280
     0
281
     0
  0
CLASS
  1
XRECORD
  2
AcDbXrecord
  3
ObjectDBX Classes
 90
        0
280
     0
281
     0
  0
CLASS
  1
LWPOLYLINE
  2
AcDbPolyline
  3
ObjectDBX Classes
 90
        0
280
     0
281
     1
  0
CLASS
  1
HATCH
  2
AcDbHatch
  3
ObjectDBX Classes
 90
        0
280
     0
281
     1
  0
CLASS
  1
ACDBPLACEHOLDER
  2
AcDbPlaceHolder
  3
ObjectDBX Classes
 90
        0
280
     0
281
     0
  0
CLASS
  1
LAYOUT
  2
AcDbLayout
  3
ObjectDBX Classes
 90
        0
280
     0
281
     0
  0
ENDSEC
  0
SECTION
  2
TABLES
  0
TABLE
  2
VPORT
  5
8
102
{ACAD_XDICTIONARY
360
311
102
}
330
0
100
AcDbSymbolTable
 70
     1
  0
VPORT
  5
29
330
8
100
AcDbSymbolTableRecord
100
AcDbViewportTableRecord
  2
*ACTIVE
 70
     0
 10
0.0
 20
0.0
 11
1.0
 21
1.0
 12
233.4797881242966
 22
-252.116940712751
 13
0.0
 23
0.0
 14
0.5
 24
0.5
 15
0.5
 25
0.5
 16
0.0
 26
0.0
 36
1.0
 17
0.0
 27
0.0
 37
0.0
 40
515.6061541527747
 41
1.6
 42
50.0
 43
0.0
 44
0.0
 50
0.0
 51
0.0
 71
     0
 72
   100
 73
     1
 74
     3
 75
     0
 76
     0
 77
     0
 78
     0
  0
ENDTAB
  0
TABLE
  2
LTYPE
  5
5
330
0
100
AcDbSymbolTable
 70
     2
  0
LTYPE
  5
14
330
5
100
AcDbSymbolTableRecord
100
AcDbLinetypeTableRecord
  2
BYBLOCK
 70
     0
  3

 72
    65
 73
     0
 40
0.0
  0
LTYPE
  5
15
330
5
100
AcDbSymbolTableRecord
100
AcDbLinetypeTableRecord
  2
BYLAYER
 70
     0
  3

 72
    65
 73
     0
 40
0.0
  0
LTYPE
  5
16
330
5
100
AcDbSymbolTableRecord
100
AcDbLinetypeTableRecord
  2
CONTINUOUS
 70
     0
  3
Solid line
 72
    65
 73
     0
 40
0.0
  0
LTYPE
  5
196
330
5
100
AcDbSymbolTableRecord
100
AcDbLinetypeTableRecord
  2
CENTER
 70
     0
  3

 72
    65
 73
     0
 40
0.0
  0
ENDTAB
  0
TABLE
  2
LAYER
  5
2
330
0
100
AcDbSymbolTable
 70
     2
  0
LAYER
  5
10
330
2
100
AcDbSymbolTableRecord
100
AcDbLayerTableRecord
  2
0
 70
     0
 62
     7
  6
CONTINUOUS
  0
LAYER
  5
6E
330
2
100
AcDbSymbolTableRecord
100
AcDbLayerTableRecord
  2
1
 70
     0
 62
     7
  6
CONTINUOUS
  0
ENDTAB
  0
TABLE
  2
STYLE
  5
3
330
0
100
AcDbSymbolTable
 70
     2
  0
STYLE
  5
11
330
3
100
AcDbSymbolTableRecord
100
AcDbTextStyleTableRecord
  2
STANDARD
 70
     0
 40
0.0
 41
1.0
 50
0.0
 71
     0
 42
0.2
  3
txt
  4

  0
STYLE
  5
6F
330
3
100
AcDbSymbolTableRecord
100
AcDbTextStyleTableRecord
  2
ＭＳ_ゴシック
 70
     0
 40
0.0
 41
1.0
 50
0.0
 71
     0
 42
0.2
  3
ＭＳ ゴシック.shx
  4

  0
ENDTAB
  0
TABLE
  2
VIEW
  5
6
330
0
100
AcDbSymbolTable
 70
     0
  0
ENDTAB
  0
TABLE
  2
UCS
  5
7
330
0
100
AcDbSymbolTable
 70
     0
  0
ENDTAB
  0
TABLE
  2
APPID
  5
9
330
0
100
AcDbSymbolTable
 70
     2
  0
APPID
  5
12
330
9
100
AcDbSymbolTableRecord
100
AcDbRegAppTableRecord
  2
ACAD
 70
     0
  0
APPID
  5
31B
330
9
100
AcDbSymbolTableRecord
100
AcDbRegAppTableRecord
  2
ACAD_MLEADERVER
 70
     0
  0
ENDTAB
  0
TABLE
  2
DIMSTYLE
  5
A
330
0
100
AcDbSymbolTable
 70
     1
  0
DIMSTYLE
105
27
330
A
100
AcDbSymbolTableRecord
100
AcDbDimStyleTableRecord
  2
STANDARD
 70
     0
  3

  4

  5

  6

  7

 40
1.0
 41
0.18
 42
0.0625
 43
0.38
 44
0.18
 45
0.0
 46
0.0
 47
0.0
 48
0.0
140
0.18
141
0.09
142
0.0
143
25.4
144
1.0
145
0.0
146
1.0
147
0.09
 71
     0
 72
     0
 73
     1
 74
     1
 75
     0
 76
     0
 77
     0
 78
     0
170
     0
171
     2
172
     0
173
     0
174
     0
175
     0
176
     0
177
     0
178
     0
270
     2
271
     4
272
     4
273
     2
274
     2
340
11
275
     0
280
     0
281
     0
282
     0
283
     1
284
     0
285
     0
286
     0
287
     3
288
     0
  0
ENDTAB
  0
TABLE
  2
BLOCK_RECORD
  5
1
330
0
100
AcDbSymbolTable
 70
     1
  0
BLOCK_RECORD
  5
1F
330
1
100
AcDbSymbolTableRecord
100
AcDbBlockTableRecord
  2
*MODEL_SPACE
  0
BLOCK_RECORD
  5
1B
330
1
100
AcDbSymbolTableRecord
100
AcDbBlockTableRecord
  2
*PAPER_SPACE
  0
BLOCK_RECORD
  5
70
330
1
100
AcDbSymbolTableRecord
100
AcDbBlockTableRecord
  2
D_FRAME_DRAWING_21
  0
ENDTAB
  0
ENDSEC
  0
SECTION
  2
BLOCKS
  0
BLOCK
  5
20
330
1F
100
AcDbEntity
  8
0
100
AcDbBlockBegin
  2
*MODEL_SPACE
 70
     0
 10
0.0
 20
0.0
 30
0.0
  3
*MODEL_SPACE
  1

  0
ENDBLK
  5
21
330
1F
100
AcDbEntity
  8
0
100
AcDbBlockEnd
  0
BLOCK
  5
1C
330
1B
100
AcDbEntity
 67
     1
  8
0
100
AcDbBlockBegin
  2
*PAPER_SPACE
 70
     0
 10
0.0
 20
0.0
 30
0.0
  3
*PAPER_SPACE
  1

  0
ENDBLK
  5
1D
330
1B
100
AcDbEntity
 67
     1
  8
0
100
AcDbBlockEnd
  0
BLOCK
  5
30F
330
70
100
AcDbEntity
  8
0
100
AcDbBlockBegin
  2
D_FRAME_DRAWING_21
 70
     0
 10
0.0
 20
0.0
 30
0.0
  3
D_FRAME_DRAWING_21
  1

  0
LINE
  5
72
330
70
100
AcDbEntity
  8
0
  6
CONTINUOUS
 62
     7
100
AcDbLine
 10
0.0
 20
0.0
 30
0.0
 11
420.0
 21
0.0
 31
0.0
  0
LINE
  5
73
330
70
100
AcDbEntity
  8
0
  6
CONTINUOUS
 62
     7
100
AcDbLine
 10
420.0
 20
0.0
 30
0.0
 11
420.0
 21
297.0
 31
0.0
  0
LINE
  5
74
330
70
100
AcDbEntity
  8
0
  6
CONTINUOUS
 62
     7
100
AcDbLine
 10
420.0
 20
297.0
 30
0.0
 11
0.0
 21
297.0
 31
0.0
  0
LINE
  5
75
330
70
100
AcDbEntity
  8
0
  6
CONTINUOUS
 62
     7
100
AcDbLine
 10
0.0
 20
297.0
 30
0.0
 11
0.0
 21
0.0
 31
0.0
  0
LINE
  5
76
330
70
100
AcDbEntity
  8
0
  6
CONTINUOUS
 62
     7
100
AcDbLine
 10
10.0
 20
10.0
 30
0.0
 11
409.9999999999999
 21
10.0
 31
0.0
  0
LINE
  5
77
330
70
100
AcDbEntity
  8
0
  6
CONTINUOUS
 62
     7
100
AcDbLine
 10
409.9999999999999
 20
10.0
 30
0.0
 11
409.9999999999999
 21
286.9999999999999
 31
0.0
  0
LINE
  5
78
330
70
100
AcDbEntity
  8
0
  6
CONTINUOUS
 62
     7
100
AcDbLine
 10
409.9999999999999
 20
286.9999999999999
 30
0.0
 11
10.00000000000006
 21
286.9999999999999
 31
0.0
  0
LINE
  5
79
330
70
100
AcDbEntity
  8
0
  6
CONTINUOUS
 62
     7
100
AcDbLine
 10
10.0
 20
286.9999999999999
 30
0.0
 11
10.0
 21
10.00000000000001
 31
0.0
  0
LINE
  5
7A
330
70
100
AcDbEntity
  8
0
  6
CONTINUOUS
 62
     7
100
AcDbLine
 10
210.0
 20
0.0
 30
0.0
 11
210.0
 21
10.0
 31
0.0
  0
LINE
  5
7B
330
70
100
AcDbEntity
  8
0
  6
CONTINUOUS
 62
     7
100
AcDbLine
 10
420.0
 20
148.5
 30
0.0
 11
409.9999999999999
 21
148.5
 31
0.0
  0
LINE
  5
7C
330
70
100
AcDbEntity
  8
0
  6
CONTINUOUS
 62
     7
100
AcDbLine
 10
210.0
 20
297.0
 30
0.0
 11
210.0
 21
286.9999999999999
 31
0.0
  0
LINE
  5
7D
330
70
100
AcDbEntity
  8
0
  6
CONTINUOUS
 62
     7
100
AcDbLine
 10
0.0
 20
148.5
 30
0.0
 11
10.0
 21
148.5
 31
0.0
  0
LWPOLYLINE
  5
7E
330
70
100
AcDbEntity
  8
0
  6
CONTINUOUS
 62
     7
100
AcDbPolyline
 90
        4
 70
     1
 43
0.0
 10
11.0
 20
152.5
 10
0.0
 20
148.5
 10
11.0
 20
144.5
 10
11.0
 20
152.5
  0
HATCH
  5
7F
330
70
100
AcDbEntity
  8
0
 62
     7
100
AcDbHatch
 10
0.0
 20
0.0
 30
0.0
210
0.0
220
0.0
230
1.0
  2
SOLID
 70
     1
 71
     1
 91
        1
 92
        3
 72
     0
 73
     1
 93
        3
 10
11.0
 20
152.5
 10
6.999999999999999
 20
148.5
 10
11.0
 20
144.5
 97
        0
 75
     0
 76
     1
 98
        0
  0
LWPOLYLINE
  5
80
330
70
100
AcDbEntity
  8
0
  6
CONTINUOUS
 62
     7
100
AcDbPolyline
 90
        4
 70
     1
 43
0.0
 10
206.0
 20
11.0
 10
210.0
 20
0.0
 10
214.0
 20
11.0
 10
206.0
 20
11.0
  0
HATCH
  5
81
330
70
100
AcDbEntity
  8
0
 62
     7
100
AcDbHatch
 10
0.0
 20
0.0
 30
0.0
210
0.0
220
0.0
230
1.0
  2
SOLID
 70
     1
 71
     1
 91
        1
 92
        3
 72
     0
 73
     1
 93
        3
 10
206.0
 20
11.0
 10
210.0
 20
6.999999999999999
 10
214.0
 20
11.0
 97
        0
 75
     0
 76
     1
 98
        0
  0
LINE
  5
82
330
70
100
AcDbEntity
  8
0
  6
CONTINUOUS
 62
     7
100
AcDbLine
 10
367.5
 20
286.9999999999999
 30
0.0
 11
367.5
 21
292.0
 31
0.0
  0
MTEXT
  5
83
330
70
100
AcDbEntity
  8
0
 62
     7
100
AcDbMText
 10
395.1340909090909
 20
291.7613636363636
 30
0.0
 40
3.5
 41
0.0
 71
     1
 72
     1
  1
{\fＭＳ ゴシック;A}
 11
-1.836970198721030E-16
 21
-1.0
 31
0.0
  0
LINE
  5
84
330
70
100
AcDbEntity
  8
0
  6
CONTINUOUS
 62
     7
100
AcDbLine
 10
367.5
 20
10.0
 30
0.0
 11
367.5
 21
5.0
 31
0.0
  0
MTEXT
  5
85
330
70
100
AcDbEntity
  8
0
 62
     7
100
AcDbMText
 10
393.0579545454545
 20
8.102272727272727
 30
0.0
 40
3.5
 41
0.0
 71
     1
 72
     1
  1
{\fＭＳ ゴシック;A}
  0
LINE
  5
86
330
70
100
AcDbEntity
  8
0
  6
CONTINUOUS
 62
     7
100
AcDbLine
 10
315.0
 20
286.9999999999999
 30
0.0
 11
315.0
 21
292.0
 31
0.0
  0
MTEXT
  5
87
330
70
100
AcDbEntity
  8
0
 62
     7
100
AcDbMText
 10
342.6340909090909
 20
291.7613636363636
 30
0.0
 40
3.5
 41
0.0
 71
     1
 72
     1
  1
{\fＭＳ ゴシック;B}
 11
-1.836970198721030E-16
 21
-1.0
 31
0.0
  0
LINE
  5
88
330
70
100
AcDbEntity
  8
0
  6
CONTINUOUS
 62
     7
100
AcDbLine
 10
315.0
 20
10.0
 30
0.0
 11
315.0
 21
5.0
 31
0.0
  0
MTEXT
  5
89
330
70
100
AcDbEntity
  8
0
 62
     7
100
AcDbMText
 10
340.5579545454545
 20
8.102272727272727
 30
0.0
 40
3.5
 41
0.0
 71
     1
 72
     1
  1
{\fＭＳ ゴシック;B}
  0
LINE
  5
8A
330
70
100
AcDbEntity
  8
0
  6
CONTINUOUS
 62
     7
100
AcDbLine
 10
262.5
 20
286.9999999999999
 30
0.0
 11
262.5
 21
292.0
 31
0.0
  0
MTEXT
  5
8B
330
70
100
AcDbEntity
  8
0
 62
     7
100
AcDbMText
 10
290.1340909090909
 20
291.7613636363636
 30
0.0
 40
3.5
 41
0.0
 71
     1
 72
     1
  1
{\fＭＳ ゴシック;C}
 11
-1.836970198721030E-16
 21
-1.0
 31
0.0
  0
LINE
  5
8C
330
70
100
AcDbEntity
  8
0
  6
CONTINUOUS
 62
     7
100
AcDbLine
 10
262.5
 20
10.0
 30
0.0
 11
262.5
 21
5.0
 31
0.0
  0
MTEXT
  5
8D
330
70
100
AcDbEntity
  8
0
 62
     7
100
AcDbMText
 10
288.0579545454545
 20
8.102272727272727
 30
0.0
 40
3.5
 41
0.0
 71
     1
 72
     1
  1
{\fＭＳ ゴシック;C}
  0
LINE
  5
8E
330
70
100
AcDbEntity
  8
0
  6
CONTINUOUS
 62
     7
100
AcDbLine
 10
210.0
 20
286.9999999999999
 30
0.0
 11
210.0
 21
292.0
 31
0.0
  0
MTEXT
  5
8F
330
70
100
AcDbEntity
  8
0
 62
     7
100
AcDbMText
 10
237.6340909090909
 20
291.7613636363636
 30
0.0
 40
3.5
 41
0.0
 71
     1
 72
     1
  1
{\fＭＳ ゴシック;D}
 11
-1.836970198721030E-16
 21
-1.0
 31
0.0
  0
LINE
  5
90
330
70
100
AcDbEntity
  8
0
  6
CONTINUOUS
 62
     7
100
AcDbLine
 10
157.5
 20
286.9999999999999
 30
0.0
 11
157.5
 21
292.0
 31
0.0
  0
MTEXT
  5
91
330
70
100
AcDbEntity
  8
0
 62
     7
100
AcDbMText
 10
185.1340909090909
 20
291.7613636363636
 30
0.0
 40
3.5
 41
0.0
 71
     1
 72
     1
  1
{\fＭＳ ゴシック;E}
 11
-1.836970198721030E-16
 21
-1.0
 31
0.0
  0
LINE
  5
92
330
70
100
AcDbEntity
  8
0
  6
CONTINUOUS
 62
     7
100
AcDbLine
 10
157.5
 20
10.0
 30
0.0
 11
157.5
 21
5.0
 31
0.0
  0
LINE
  5
93
330
70
100
AcDbEntity
  8
0
  6
CONTINUOUS
 62
     7
100
AcDbLine
 10
105.0
 20
286.9999999999999
 30
0.0
 11
105.0
 21
292.0
 31
0.0
  0
MTEXT
  5
94
330
70
100
AcDbEntity
  8
0
 62
     7
100
AcDbMText
 10
132.634090909091
 20
291.7613636363636
 30
0.0
 40
3.5
 41
0.0
 71
     1
 72
     1
  1
{\fＭＳ ゴシック;F}
 11
-1.836970198721030E-16
 21
-1.0
 31
0.0
  0
LINE
  5
95
330
70
100
AcDbEntity
  8
0
  6
CONTINUOUS
 62
     7
100
AcDbLine
 10
105.0
 20
10.0
 30
0.0
 11
105.0
 21
5.0
 31
0.0
  0
MTEXT
  5
96
330
70
100
AcDbEntity
  8
0
 62
     7
100
AcDbMText
 10
130.5579545454546
 20
8.102272727272727
 30
0.0
 40
3.5
 41
0.0
 71
     1
 72
     1
  1
{\fＭＳ ゴシック;F}
  0
LINE
  5
97
330
70
100
AcDbEntity
  8
0
  6
CONTINUOUS
 62
     7
100
AcDbLine
 10
52.50000000000004
 20
286.9999999999999
 30
0.0
 11
52.50000000000004
 21
292.0
 31
0.0
  0
MTEXT
  5
98
330
70
100
AcDbEntity
  8
0
 62
     7
100
AcDbMText
 10
80.13409090909094
 20
291.7613636363636
 30
0.0
 40
3.5
 41
0.0
 71
     1
 72
     1
  1
{\fＭＳ ゴシック;G}
 11
-1.836970198721030E-16
 21
-1.0
 31
0.0
  0
LINE
  5
99
330
70
100
AcDbEntity
  8
0
  6
CONTINUOUS
 62
     7
100
AcDbLine
 10
52.50000000000004
 20
10.0
 30
0.0
 11
52.50000000000004
 21
5.0
 31
0.0
  0
MTEXT
  5
9A
330
70
100
AcDbEntity
  8
0
 62
     7
100
AcDbMText
 10
78.05795454545458
 20
8.102272727272727
 30
0.0
 40
3.5
 41
0.0
 71
     1
 72
     1
  1
{\fＭＳ ゴシック;G}
  0
MTEXT
  5
9B
330
70
100
AcDbEntity
  8
0
 62
     7
100
AcDbMText
 10
27.63409090909095
 20
291.7613636363636
 30
0.0
 40
3.5
 41
0.0
 71
     1
 72
     1
  1
{\fＭＳ ゴシック;H}
 11
-1.836970198721030E-16
 21
-1.0
 31
0.0
  0
MTEXT
  5
9C
330
70
100
AcDbEntity
  8
0
 62
     7
100
AcDbMText
 10
25.55795454545459
 20
8.102272727272727
 30
0.0
 40
3.5
 41
0.0
 71
     1
 72
     1
  1
{\fＭＳ ゴシック;H}
  0
LINE
  5
9D
330
70
100
AcDbEntity
  8
0
  6
CONTINUOUS
 62
     7
100
AcDbLine
 10
409.9999999999999
 20
74.25
 30
0.0
 11
414.9999999999999
 21
74.25
 31
0.0
  0
MTEXT
  5
9E
330
70
100
AcDbEntity
  8
0
 62
     7
100
AcDbMText
 10
413.3772727272727
 20
38.50909090909091
 30
0.0
 40
3.5
 41
0.0
 71
     1
 72
     1
  1
{\fＭＳ ゴシック;1}
  0
LINE
  5
9F
330
70
100
AcDbEntity
  8
0
  6
CONTINUOUS
 62
     7
100
AcDbLine
 10
10.0
 20
74.25
 30
0.0
 11
5.0
 21
74.25
 31
0.0
  0
MTEXT
  5
A0
330
70
100
AcDbEntity
  8
0
 62
     7
100
AcDbMText
 10
8.102272727272727
 20
37.81704545454545
 30
0.0
 40
3.5
 41
0.0
 71
     1
 72
     1
  1
{\fＭＳ ゴシック;1}
 11
-1.836970198721030E-16
 21
-1.0
 31
0.0
  0
LINE
  5
A1
330
70
100
AcDbEntity
  8
0
  6
CONTINUOUS
 62
     7
100
AcDbLine
 10
409.9999999999999
 20
148.5
 30
0.0
 11
414.9999999999999
 21
148.5
 31
0.0
  0
MTEXT
  5
A2
330
70
100
AcDbEntity
  8
0
 62
     7
100
AcDbMText
 10
413.3772727272727
 20
112.7590909090909
 30
0.0
 40
3.5
 41
0.0
 71
     1
 72
     1
  1
{\fＭＳ ゴシック;2}
  0
LINE
  5
A3
330
70
100
AcDbEntity
  8
0
  6
CONTINUOUS
 62
     7
100
AcDbLine
 10
10.0
 20
148.5
 30
0.0
 11
5.0
 21
148.5
 31
0.0
  0
MTEXT
  5
A4
330
70
100
AcDbEntity
  8
0
 62
     7
100
AcDbMText
 10
8.102272727272727
 20
112.0670454545455
 30
0.0
 40
3.5
 41
0.0
 71
     1
 72
     1
  1
{\fＭＳ ゴシック;2}
 11
-1.836970198721030E-16
 21
-1.0
 31
0.0
  0
LINE
  5
A5
330
70
100
AcDbEntity
  8
0
  6
CONTINUOUS
 62
     7
100
AcDbLine
 10
409.9999999999999
 20
222.75
 30
0.0
 11
414.9999999999999
 21
222.75
 31
0.0
  0
MTEXT
  5
A6
330
70
100
AcDbEntity
  8
0
 62
     7
100
AcDbMText
 10
413.3772727272727
 20
187.0090909090909
 30
0.0
 40
3.5
 41
0.0
 71
     1
 72
     1
  1
{\fＭＳ ゴシック;3}
  0
LINE
  5
A7
330
70
100
AcDbEntity
  8
0
  6
CONTINUOUS
 62
     7
100
AcDbLine
 10
10.0
 20
222.75
 30
0.0
 11
5.0
 21
222.75
 31
0.0
  0
MTEXT
  5
A8
330
70
100
AcDbEntity
  8
0
 62
     7
100
AcDbMText
 10
8.102272727272727
 20
186.3170454545455
 30
0.0
 40
3.5
 41
0.0
 71
     1
 72
     1
  1
{\fＭＳ ゴシック;3}
 11
-1.836970198721030E-16
 21
-1.0
 31
0.0
  0
MTEXT
  5
A9
330
70
100
AcDbEntity
  8
0
 62
     7
100
AcDbMText
 10
413.3772727272727
 20
261.2590909090909
 30
0.0
 40
3.5
 41
0.0
 71
     1
 72
     1
  1
{\fＭＳ ゴシック;4}
  0
MTEXT
  5
AA
330
70
100
AcDbEntity
  8
0
 62
     7
100
AcDbMText
 10
8.102272727272727
 20
260.5670454545454
 30
0.0
 40
3.5
 41
0.0
 71
     1
 72
     1
  1
{\fＭＳ ゴシック;4}
 11
-1.836970198721030E-16
 21
-1.0
 31
0.0
  0
LINE
  5
AB
330
70
100
AcDbEntity
  8
0
  6
CONTINUOUS
 62
     7
100
AcDbLine
 10
220.0
 20
10.0
 30
0.0
 11
220.0
 21
7.0
 31
0.0
  0
LINE
  5
AC
330
70
100
AcDbEntity
  8
0
  6
CONTINUOUS
 62
     7
100
AcDbLine
 10
200.0
 20
10.0
 30
0.0
 11
200.0
 21
7.0
 31
0.0
  0
LINE
  5
AD
330
70
100
AcDbEntity
  8
0
  6
CONTINUOUS
 62
     7
100
AcDbLine
 10
230.0
 20
10.0
 30
0.0
 11
230.0
 21
7.0
 31
0.0
  0
LINE
  5
AE
330
70
100
AcDbEntity
  8
0
  6
CONTINUOUS
 62
     7
100
AcDbLine
 10
190.0
 20
10.0
 30
0.0
 11
190.0
 21
7.0
 31
0.0
  0
LINE
  5
AF
330
70
100
AcDbEntity
  8
0
  6
CONTINUOUS
 62
     7
100
AcDbLine
 10
240.0
 20
10.0
 30
0.0
 11
240.0
 21
7.0
 31
0.0
  0
LINE
  5
B0
330
70
100
AcDbEntity
  8
0
  6
CONTINUOUS
 62
     7
100
AcDbLine
 10
180.0
 20
10.0
 30
0.0
 11
180.0
 21
7.0
 31
0.0
  0
LINE
  5
B1
330
70
100
AcDbEntity
  8
0
  6
CONTINUOUS
 62
     7
100
AcDbLine
 10
250.0
 20
10.0
 30
0.0
 11
250.0
 21
7.0
 31
0.0
  0
LINE
  5
B2
330
70
100
AcDbEntity
  8
0
  6
CONTINUOUS
 62
     7
100
AcDbLine
 10
170.0
 20
10.0
 30
0.0
 11
170.0
 21
7.0
 31
0.0
  0
LINE
  5
B3
330
70
100
AcDbEntity
  8
0
  6
CONTINUOUS
 62
     7
100
AcDbLine
 10
260.0
 20
10.0
 30
0.0
 11
260.0
 21
5.0
 31
0.0
  0
LINE
  5
B4
330
70
100
AcDbEntity
  8
0
  6
CONTINUOUS
 62
     7
100
AcDbLine
 10
160.0
 20
10.0
 30
0.0
 11
160.0
 21
5.0
 31
0.0
  0
LINE
  5
B5
330
70
100
AcDbEntity
  8
0
  6
CONTINUOUS
 62
     7
100
AcDbLine
 10
260.0
 20
10.0
 30
0.0
 11
160.0
 21
10.0
 31
0.0
  0
LINE
  5
B6
330
70
100
AcDbEntity
  8
0
  6
CONTINUOUS
 62
     7
100
AcDbLine
 10
260.0
 20
7.0
 30
0.0
 11
160.0
 21
7.0
 31
0.0
  0
HATCH
  5
B7
330
70
100
AcDbEntity
  8
0
 62
     7
100
AcDbHatch
 10
0.0
 20
0.0
 30
0.0
210
0.0
220
0.0
230
1.0
  2
SOLID
 70
     1
 71
     1
 91
        1
 92
        3
 72
     0
 73
     1
 93
        6
 10
0.0
 20
0.0
 10
10.0
 20
0.0
 10
10.0
 20
2.0
 10
2.0
 20
2.0
 10
2.0
 20
10.0
 10
0.0
 20
10.0
 97
        0
 75
     0
 76
     1
 98
        0
  0
HATCH
  5
B8
330
70
100
AcDbEntity
  8
0
 62
     7
100
AcDbHatch
 10
0.0
 20
0.0
 30
0.0
210
0.0
220
0.0
230
1.0
  2
SOLID
 70
     1
 71
     1
 91
        1
 92
        3
 72
     0
 73
     1
 93
        6
 10
420.0
 20
0.0
 10
420.0
 20
10.0
 10
418.0
 20
10.0
 10
418.0
 20
2.0
 10
409.9999999999999
 20
2.0
 10
409.9999999999999
 20
0.0
 97
        0
 75
     0
 76
     1
 98
        0
  0
HATCH
  5
B9
330
70
100
AcDbEntity
  8
0
 62
     7
100
AcDbHatch
 10
0.0
 20
0.0
 30
0.0
210
0.0
220
0.0
230
1.0
  2
SOLID
 70
     1
 71
     1
 91
        1
 92
        3
 72
     0
 73
     1
 93
        6
 10
420.0
 20
297.0
 10
409.9999999999999
 20
297.0
 10
409.9999999999999
 20
295.0
 10
418.0
 20
295.0
 10
418.0
 20
286.9999999999999
 10
420.0
 20
286.9999999999999
 97
        0
 75
     0
 76
     1
 98
        0
  0
HATCH
  5
BA
330
70
100
AcDbEntity
  8
0
 62
     7
100
AcDbHatch
 10
0.0
 20
0.0
 30
0.0
210
0.0
220
0.0
230
1.0
  2
SOLID
 70
     1
 71
     1
 91
        1
 92
        3
 72
     0
 73
     1
 93
        6
 10
0.0
 20
297.0
 10
0.0
 20
286.9999999999999
 10
2.0
 20
286.9999999999999
 10
2.0
 20
295.0
 10
10.0
 20
295.0
 10
10.0
 20
297.0
 97
        0
 75
     0
 76
     1
 98
        0
  0
ENDBLK
  5
310
330
70
100
AcDbEntity
  8
0
100
AcDbBlockEnd
  0
ENDSEC
  0
SECTION
  2
ENTITIES
  0
INSERT
  5
71
330
1F
100
AcDbEntity
  8
0
 62
     7
100
AcDbBlockReference
  2
D_FRAME_DRAWING_21
 10
0.0
 20
0.0
 30
0.0
  0
MTEXT
  5
BB
330
1F
100
AcDbEntity
  8
1
 62
     7
100
AcDbMText
 10
374.5425722145804
 20
-448.5999562335876
 30
0.0
 40
6.0
 41
0.0
 71
     1
 72
     1
  1
{\fＭＳ ゴシック;PV4B-KSTK}
  0
LINE
  5
BC
330
1F
100
AcDbEntity
  8
1
  6
CONTINUOUS
 62
     7
100
AcDbLine
 10
252.4999999999999
 20
-337.4129430732444
 30
0.0
 11
252.4999999999999
 21
-358.2646912247935
 31
0.0
  0
LINE
  5
BD
330
1F
100
AcDbEntity
  8
1
  6
CONTINUOUS
 62
     7
100
AcDbLine
 10
243.9999999987328
 20
-321.9282032302756
 30
0.0
 11
239.999999998824
 21
-324.2376043070341
 31
0.0
  0
LINE
  5
BE
330
1F
100
AcDbEntity
  8
1
  6
CONTINUOUS
 62
     7
100
AcDbLine
 10
255.4999999999999
 20
-342.7800336408137
 30
0.0
 11
252.4999999999999
 21
-342.7800336408137
 31
0.0
  0
ARC
  5
BF
330
1F
100
AcDbEntity
  8
1
  6
CONTINUOUS
 62
     7
100
AcDbCircle
 10
256.6405836500878
 20
-348.5029316214433
 30
0.0
 40
2.836673968323544
100
AcDbArc
 50
113.7148751818385
 51
174.3432348076362
  0
LINE
  5
C0
330
1F
100
AcDbEntity
  8
1
  6
CONTINUOUS
 62
     7
100
AcDbLine
 10
247.9999999987328
 20
-315.0000000000001
 30
0.0
 11
247.999999998824
 21
-319.618802153517
 31
0.0
  0
LINE
  5
C1
330
1F
100
AcDbEntity
  8
1
  6
CONTINUOUS
 62
     7
100
AcDbLine
 10
253.8177236249635
 20
-348.2233238942236
 30
0.0
 11
252.5
 21
-363.2849738483428
 31
0.0
  0
ARC
  5
C2
330
1F
100
AcDbEntity
  8
1
  6
CONTINUOUS
 62
     7
100
AcDbCircle
 10
190.0
 20
-241.8
 30
0.0
 40
6.750000000000034
100
AcDbArc
 50
0.0000000000009095
 51
180.0
  0
LINE
  5
C3
330
1F
100
AcDbEntity
  8
1
  6
CONTINUOUS
 62
     7
100
AcDbLine
 10
252.4999999999999
 20
-271.7353087752066
 30
0.0
 11
252.4999999999999
 21
-267.9755308283632
 31
0.0
  0
LINE
  5
C4
330
1F
100
AcDbEntity
  8
1
  6
CONTINUOUS
 62
     7
100
AcDbLine
 10
252.4999999999999
 20
-292.5870569267556
 30
0.0
 11
252.4999999999999
 21
-271.7353087752066
 31
0.0
  0
LINE
  5
C5
330
1F
100
AcDbEntity
  8
1
  6
CONTINUOUS
 62
     7
100
AcDbLine
 10
247.9999999988239
 20
-319.618802153517
 30
0.0
 11
243.9999999987327
 21
-321.9282032302756
 31
0.0
  0
ARC
  5
C6
330
1F
100
AcDbEntity
  8
1
  6
CONTINUOUS
 62
     7
100
AcDbCircle
 10
239.9999999987328
 20
-315.0000000000001
 30
0.0
 40
8.000000000000007
100
AcDbArc
 50
240.0
 51
300.0
  0
ARC
  5
C7
330
1F
100
AcDbEntity
  8
1
  6
CONTINUOUS
 62
     7
100
AcDbCircle
 10
239.9999999987328
 20
-315.0000000000001
 30
0.0
 40
8.000000000000007
100
AcDbArc
 50
180.0
 51
240.0
  0
LINE
  5
C8
330
1F
100
AcDbEntity
  8
1
  6
CONTINUOUS
 62
     7
100
AcDbLine
 10
231.9999999988239
 20
-319.618802153517
 30
0.0
 11
231.9999999987328
 21
-315.0000000000001
 31
0.0
  0
LINE
  5
C9
330
1F
100
AcDbEntity
  8
1
  6
CONTINUOUS
 62
     7
100
AcDbLine
 10
239.999999998824
 20
-305.7623956929661
 30
0.0
 11
243.9999999987328
 21
-308.0717967697246
 31
0.0
  0
LINE
  5
CA
330
1F
100
AcDbEntity
  8
1
  6
CONTINUOUS
 62
     7
100
AcDbLine
 10
196.75
 20
-241.8
 30
0.0
 11
196.75
 21
-248.0000000000001
 31
0.0
  0
ARC
  5
CB
330
1F
100
AcDbEntity
  8
1
  6
CONTINUOUS
 62
     7
100
AcDbCircle
 10
223.3594163499122
 20
-348.5029316214433
 30
0.0
 40
2.836673968323655
100
AcDbArc
 50
5.656765192364598
 51
66.28512481815989
  0
LINE
  5
CC
330
1F
100
AcDbEntity
  8
1
  6
CONTINUOUS
 62
     7
100
AcDbLine
 10
255.5000000000002
 20
-330.7336753782263
 30
0.0
 11
252.5000000000002
 21
-331.8891955780884
 31
0.0
  0
LINE
  5
CD
330
1F
100
AcDbEntity
  8
1
  6
CONTINUOUS
 62
     7
100
AcDbLine
 10
251.0
 20
-438.7904237560069
 30
0.0
 11
251.0
 21
-445.290423756007
 31
0.0
  0
ARC
  5
CE
330
1F
100
AcDbEntity
  8
1
  6
CONTINUOUS
 62
     7
100
AcDbCircle
 10
178.2500000000001
 20
-269.0
 30
0.0
 40
6.49999999999995
100
AcDbArc
 50
120.0
 51
240.0
  0
LINE
  5
CF
330
1F
100
AcDbEntity
  8
1
  6
CONTINUOUS
 62
     7
100
AcDbLine
 10
227.5
 20
-292.5870569267556
 30
0.0
 11
227.5
 21
-271.7353087752066
 31
0.0
  0
LINE
  5
D0
330
1F
100
AcDbEntity
  8
1
  6
CONTINUOUS
 62
     7
100
AcDbLine
 10
231.9999999988239
 20
-310.3811978464831
 30
0.0
 11
235.9999999987328
 21
-308.0717967697246
 31
0.0
  0
LINE
  5
D1
330
1F
100
AcDbEntity
  8
1
  6
CONTINUOUS
 62
     7
100
AcDbLine
 10
227.5
 20
-297.7374376758562
 30
0.0
 11
227.5
 21
-332.2625623241439
 31
0.0
  0
LINE
  5
D2
330
1F
100
AcDbEntity
  8
1
  6
CONTINUOUS
 62
     7
100
AcDbLine
 10
227.5
 20
-270.1369195587998
 30
0.0
 11
224.5
 21
-270.1369195587998
 31
0.0
  0
LINE
  5
D3
330
1F
100
AcDbEntity
  8
1
  6
CONTINUOUS
 62
     7
100
AcDbLine
 10
229.0
 20
-445.290423756007
 30
0.0
 11
229.0
 21
-438.790423756007
 31
0.0
  0
LINE
  5
D4
330
1F
100
AcDbEntity
  8
1
  6
CONTINUOUS
 62
     7
100
AcDbLine
 10
283.25
 20
-413.040423751407
 30
0.0
 11
296.75
 21
-413.040423751407
 31
0.0
  0
LINE
  5
D5
330
1F
100
AcDbEntity
  8
1
  6
CONTINUOUS
 62
     7
100
AcDbLine
 10
305.0000000000001
 20
-355.3708348754012
 30
0.0
 11
305.0000000000001
 21
-274.6291651245989
 31
0.0
  0
LINE
  5
D6
330
1F
100
AcDbEntity
  8
1
  6
CONTINUOUS
 62
     7
100
AcDbLine
 10
183.25
 20
-248.0
 30
0.0
 11
183.25
 21
-241.8
 31
0.0
  0
LINE
  5
D7
330
1F
100
AcDbEntity
  8
1
  6
CONTINUOUS
 62
     7
100
AcDbLine
 10
252.4999999999999
 20
-332.2625623241439
 30
0.0
 11
252.4999999999999
 21
-297.7374376758562
 31
0.0
  0
LINE
  5
D8
330
1F
100
AcDbEntity
  8
1
  6
CONTINUOUS
 62
     7
100
AcDbLine
 10
227.5
 20
-267.9755308283632
 30
0.0
 11
227.5
 21
-271.7353087752066
 31
0.0
  0
LINE
  5
D9
330
1F
100
AcDbEntity
  8
1
  6
CONTINUOUS
 62
     7
100
AcDbLine
 10
231.9999999987328
 20
-315.0000000000001
 30
0.0
 11
231.999999998824
 21
-310.3811978464831
 31
0.0
  0
LINE
  5
DA
330
1F
100
AcDbEntity
  8
1
  6
CONTINUOUS
 62
     7
100
AcDbLine
 10
227.5
 20
-337.4129430732444
 30
0.0
 11
227.5
 21
-358.2646912247935
 31
0.0
  0
LINE
  5
DB
330
1F
100
AcDbEntity
  8
1
  6
CONTINUOUS
 62
     7
100
AcDbLine
 10
239.999999998824
 20
-324.2376043070341
 30
0.0
 11
235.9999999987328
 21
-321.9282032302756
 31
0.0
  0
LINE
  5
DC
330
1F
100
AcDbEntity
  8
1
  6
CONTINUOUS
 62
     7
100
AcDbLine
 10
226.1822763750364
 20
-348.2233238942236
 30
0.0
 11
227.5
 21
-363.2849738483428
 31
0.0
  0
LINE
  5
DD
330
1F
100
AcDbEntity
  8
1
  6
CONTINUOUS
 62
     7
100
AcDbLine
 10
227.5
 20
-332.2625623241439
 30
0.0
 11
227.5
 21
-337.4129430732444
 31
0.0
  0
ARC
  5
DE
330
1F
100
AcDbEntity
  8
1
  6
CONTINUOUS
 62
     7
100
AcDbCircle
 10
239.9999999987328
 20
-315.0000000000001
 30
0.0
 40
8.000000000000007
100
AcDbArc
 50
300.0
 51
0.0
  0
LINE
  5
DF
330
1F
100
AcDbEntity
  8
1
  6
CONTINUOUS
 62
     7
100
AcDbLine
 10
227.5
 20
-362.0244691716369
 30
0.0
 11
227.5
 21
-358.2646912247935
 31
0.0
  0
LINE
  5
E0
330
1F
100
AcDbEntity
  8
1
  6
CONTINUOUS
 62
     7
100
AcDbLine
 10
252.4999999999999
 20
-337.4129430732444
 30
0.0
 11
252.4999999999999
 21
-332.2625623241439
 31
0.0
  0
CIRCLE
  5
E1
330
1F
100
AcDbEntity
  8
1
  6
CONTINUOUS
 62
     7
100
AcDbCircle
 10
239.9999999987328
 20
-315.0000000000001
 30
0.0
 40
4.249999999999976
  0
LINE
  5
E2
330
1F
100
AcDbEntity
  8
1
  6
CONTINUOUS
 62
     7
100
AcDbLine
 10
255.4999999999999
 20
-270.1369195587998
 30
0.0
 11
252.4999999999999
 21
-270.1369195587998
 31
0.0
  0
LINE
  5
E3
330
1F
100
AcDbEntity
  8
1
  6
CONTINUOUS
 62
     7
100
AcDbLine
 10
296.7499999999999
 20
-413.040423751407
 30
0.0
 11
296.7499999999999
 21
-415.3404237514068
 31
0.0
  0
LINE
  5
E4
330
1F
100
AcDbEntity
  8
1
  6
CONTINUOUS
 62
     7
100
AcDbLine
 10
283.25
 20
-415.340423751407
 30
0.0
 11
296.75
 21
-415.340423751407
 31
0.0
  0
LINE
  5
E5
330
1F
100
AcDbEntity
  8
1
  6
CONTINUOUS
 62
     7
100
AcDbLine
 10
235.9999999987328
 20
-308.0717967697246
 30
0.0
 11
239.999999998824
 21
-305.7623956929661
 31
0.0
  0
LINE
  5
E6
330
1F
100
AcDbEntity
  8
1
  6
CONTINUOUS
 62
     7
100
AcDbLine
 10
252.4999999999999
 20
-292.5870569267556
 30
0.0
 11
252.4999999999999
 21
-297.7374376758562
 31
0.0
  0
LINE
  5
E7
330
1F
100
AcDbEntity
  8
1
  6
CONTINUOUS
 62
     7
100
AcDbLine
 10
196.75
 20
-413.040423751407
 30
0.0
 11
196.75
 21
-415.340423751407
 31
0.0
  0
LINE
  5
E8
330
1F
100
AcDbEntity
  8
1
  6
CONTINUOUS
 62
     7
100
AcDbLine
 10
183.25
 20
-413.040423751407
 30
0.0
 11
183.25
 21
-415.340423751407
 31
0.0
  0
LINE
  5
E9
330
1F
100
AcDbEntity
  8
1
  6
CONTINUOUS
 62
     7
100
AcDbLine
 10
227.5
 20
-297.7374376758562
 30
0.0
 11
227.5
 21
-292.5870569267556
 31
0.0
  0
ARC
  5
EA
330
1F
100
AcDbEntity
  8
1
  6
CONTINUOUS
 62
     7
100
AcDbCircle
 10
290.0000000000001
 20
-241.8
 30
0.0
 40
6.750000000000034
100
AcDbArc
 50
0.0000000000004547
 51
180.0
  0
CIRCLE
  5
EB
330
1F
100
AcDbEntity
  8
1
  6
CONTINUOUS
 62
     7
100
AcDbCircle
 10
240.0000000014622
 20
-315.0000000000001
 30
0.0
 40
3.499999999998449
  0
LINE
  5
EC
330
1F
100
AcDbEntity
  8
1
  6
CONTINUOUS
 62
     7
100
AcDbLine
 10
252.4999999999999
 20
-358.2646912247934
 30
0.0
 11
252.4999999999999
 21
-362.0244691716368
 31
0.0
  0
ARC
  5
ED
330
1F
100
AcDbEntity
  8
1
  6
CONTINUOUS
 62
     7
100
AcDbCircle
 10
239.9999999987328
 20
-315.0000000000001
 30
0.0
 40
8.000000000000007
100
AcDbArc
 50
120.0
 51
180.0
  0
LINE
  5
EE
330
1F
100
AcDbEntity
  8
1
  6
CONTINUOUS
 62
     7
100
AcDbLine
 10
247.9999999988239
 20
-310.3811978464831
 30
0.0
 11
247.9999999987327
 21
-315.0000000000001
 31
0.0
  0
LINE
  5
EF
330
1F
100
AcDbEntity
  8
1
  6
CONTINUOUS
 62
     7
100
AcDbLine
 10
235.9999999987328
 20
-321.9282032302756
 30
0.0
 11
231.999999998824
 21
-319.618802153517
 31
0.0
  0
ARC
  5
F0
330
1F
100
AcDbEntity
  8
1
  6
CONTINUOUS
 62
     7
100
AcDbCircle
 10
239.9999999987328
 20
-315.0000000000001
 30
0.0
 40
8.000000000000007
100
AcDbArc
 50
60.0
 51
120.0
  0
LINE
  5
F1
330
1F
100
AcDbEntity
  8
1
  6
CONTINUOUS
 62
     7
100
AcDbLine
 10
175.0
 20
-263.3708348754012
 30
0.0
 11
175.0
 21
-257.8456843337577
 31
0.0
  0
LINE
  5
F2
330
1F
100
AcDbEntity
  8
1
  6
CONTINUOUS
 62
     7
100
AcDbLine
 10
283.25
 20
-413.040423751407
 30
0.0
 11
283.25
 21
-415.340423751407
 31
0.0
  0
ARC
  5
F3
330
1F
100
AcDbEntity
  8
1
  6
CONTINUOUS
 62
     7
100
AcDbCircle
 10
239.9999999987328
 20
-315.0000000000001
 30
0.0
 40
8.000000000000007
100
AcDbArc
 50
0.0
 51
60.0
  0
ARC
  5
F4
330
1F
100
AcDbEntity
  8
1
  6
CONTINUOUS
 62
     7
100
AcDbCircle
 10
301.7499999999999
 20
-269.0
 30
0.0
 40
6.500000000000061
100
AcDbArc
 50
300.0
 51
60.0
  0
LINE
  5
F5
330
1F
100
AcDbEntity
  8
1
  6
CONTINUOUS
 62
     7
100
AcDbLine
 10
243.9999999987328
 20
-308.0717967697246
 30
0.0
 11
247.9999999988241
 21
-310.3811978464831
 31
0.0
  0
LINE
  5
F6
330
1F
100
AcDbEntity
  8
1
  6
CONTINUOUS
 62
     7
100
AcDbLine
 10
175.0
 20
-274.6291651245989
 30
0.0
 11
175.0
 21
-355.3708348754012
 31
0.0
  0
LINE
  5
F7
330
1F
100
AcDbEntity
  8
1
  6
CONTINUOUS
 62
     7
100
AcDbLine
 10
224.5
 20
-342.7800336408137
 30
0.0
 11
227.5
 21
-342.7800336408137
 31
0.0
  0
LINE
  5
F8
330
1F
100
AcDbEntity
  8
1
  6
CONTINUOUS
 62
     7
100
AcDbLine
 10
227.5
 20
-331.8891955780884
 30
0.0
 11
224.5000000000001
 21
-330.7336753782263
 31
0.0
  0
LINE
  5
F9
330
1F
100
AcDbEntity
  8
1
  6
CONTINUOUS
 62
     7
100
AcDbLine
 10
183.25
 20
-413.040423751407
 30
0.0
 11
196.75
 21
-413.040423751407
 31
0.0
  0
LINE
  5
FA
330
1F
100
AcDbEntity
  8
1
  6
CONTINUOUS
 62
     7
100
AcDbLine
 10
183.25
 20
-415.340423751407
 30
0.0
 11
196.75
 21
-415.340423751407
 31
0.0
  0
LINE
  5
FB
330
1F
100
AcDbEntity
  8
1
  6
CONTINUOUS
 62
   253
100
AcDbLine
 10
281.25
 20
-415.340423751407
 30
0.0
 11
281.25
 21
-413.040423751407
 31
0.0
  0
LINE
  5
FC
330
1F
100
AcDbEntity
  8
1
  6
CONTINUOUS
 62
     7
100
AcDbLine
 10
283.25
 20
-413.040423751407
 30
0.0
 11
281.25
 21
-413.040423751407
 31
0.0
  0
LINE
  5
FD
330
1F
100
AcDbEntity
  8
1
  6
CONTINUOUS
 62
     7
100
AcDbLine
 10
298.4
 20
-413.040423751407
 30
0.0
 11
305.0000000000001
 21
-413.040423751407
 31
0.0
  0
ARC
  5
FE
330
1F
100
AcDbEntity
  8
1
  6
CONTINUOUS
 62
     7
100
AcDbCircle
 10
293.3
 20
-415.340423751407
 30
0.0
 40
1.000000000000001
100
AcDbArc
 50
270.0
 51
0.0
  0
LINE
  5
FF
330
1F
100
AcDbEntity
  8
1
  6
CONTINUOUS
 62
     7
100
AcDbLine
 10
196.75
 20
-415.340423751407
 30
0.0
 11
198.75
 21
-415.340423751407
 31
0.0
  0
LINE
  5
100
330
1F
100
AcDbEntity
  8
1
  6
CONTINUOUS
 62
     7
100
AcDbLine
 10
231.3778158297252
 20
-489.6683941392124
 30
0.0
 11
230.762395692966
 21
-489.6392507649774
 31
0.0
  0
LINE
  5
101
330
1F
100
AcDbEntity
  8
1
  6
CONTINUOUS
 62
     7
100
AcDbLine
 10
252.4999999999999
 20
-416.0545872478964
 30
0.0
 11
252.4999999999999
 21
-428.583581550043
 31
0.0
  0
LINE
  5
102
330
1F
100
AcDbEntity
  8
1
  6
CONTINUOUS
 62
     7
100
AcDbLine
 10
252.4999999999999
 20
-428.583581550043
 30
0.0
 11
252.4999999999999
 21
-430.340423751407
 31
0.0
  0
ARC
  5
103
330
1F
100
AcDbEntity
  8
1
  6
CONTINUOUS
 62
     7
100
AcDbCircle
 10
240.1897787726794
 20
-477.023037470426
 30
0.0
 40
16.86638994853742
100
AcDbArc
 50
253.4352689951295
 51
269.3553005591349
  0
LINE
  5
104
330
1F
100
AcDbEntity
  8
1
  6
CONTINUOUS
 62
     7
100
AcDbLine
 10
235.381197846483
 20
-493.189442740997
 30
0.0
 11
235.381197846483
 21
-487.9759572384352
 31
0.0
  0
LINE
  5
105
330
1F
100
AcDbEntity
  8
1
  6
CONTINUOUS
 62
     7
100
AcDbLine
 10
244.618802153517
 20
-493.189442740997
 30
0.0
 11
244.618802153517
 21
-487.9759572384352
 31
0.0
  0
ARC
  5
106
330
1F
100
AcDbEntity
  8
1
  6
CONTINUOUS
 62
     7
100
AcDbCircle
 10
249.5894022105232
 20
-488.1970796719204
 30
0.0
 40
7.044895594697675
100
AcDbArc
 50
225.1251562152827
 51
247.8057088029552
  0
LINE
  5
107
330
1F
100
AcDbEntity
  8
1
  6
CONTINUOUS
 62
     7
100
AcDbLine
 10
171.75
 20
-415.340423751407
 30
0.0
 11
175.0
 21
-415.340423751407
 31
0.0
  0
LINE
  5
108
330
1F
100
AcDbEntity
  8
1
  6
CONTINUOUS
 62
     7
100
AcDbLine
 10
175.0
 20
-413.040423751407
 30
0.0
 11
181.6
 21
-413.040423751407
 31
0.0
  0
LINE
  5
109
330
1F
100
AcDbEntity
  8
1
  6
CONTINUOUS
 62
     7
100
AcDbLine
 10
246.9282032302754
 20
-496.383299989997
 30
0.0
 11
247.4381035186044
 21
-496.164009316117
 31
0.0
  0
ARC
  5
10A
330
1F
100
AcDbEntity
  8
1
  6
CONTINUOUS
 62
     7
100
AcDbCircle
 10
231.6885427354054
 20
-490.8097084504712
 30
0.0
 40
4.147749061093664
100
AcDbArc
 50
257.0977101313787
 51
289.4810523917646
  0
LINE
  5
10B
330
1F
100
AcDbEntity
  8
1
  6
CONTINUOUS
 62
     7
100
AcDbLine
 10
230.762395692966
 20
-494.8527362675392
 30
0.0
 11
230.762395692966
 21
-489.6392507649774
 31
0.0
  0
LINE
  5
10C
330
1F
100
AcDbEntity
  8
1
  6
CONTINUOUS
 62
     7
100
AcDbLine
 10
181.6
 20
-415.340423751407
 30
0.0
 11
175.0
 21
-415.340423751407
 31
0.0
  0
LINE
  5
10D
330
1F
100
AcDbEntity
  8
1
  6
CONTINUOUS
 62
   253
100
AcDbLine
 10
290.0000000000001
 20
-416.340423751407
 30
0.0
 11
290.0000000000001
 21
-415.340423751407
 31
0.0
  0
LINE
  5
10E
330
1F
100
AcDbEntity
  8
1
  6
CONTINUOUS
 62
   253
100
AcDbLine
 10
198.75
 20
-413.040423751407
 30
0.0
 11
198.75
 21
-415.340423751407
 31
0.0
  0
ARC
  5
10F
330
1F
100
AcDbEntity
  8
1
  6
CONTINUOUS
 62
     7
100
AcDbCircle
 10
240.0
 20
-469.3428503427262
 30
0.0
 40
19.197031174644
100
AcDbArc
 50
256.0780553643158
 51
283.9219446356842
  0
LINE
  5
110
330
1F
100
AcDbEntity
  8
1
  6
CONTINUOUS
 62
     7
100
AcDbLine
 10
248.704747563428
 20
-494.9342155238808
 30
0.0
 11
249.237604307034
 21
-494.8527362675392
 31
0.0
  0
LINE
  5
111
330
1F
100
AcDbEntity
  8
1
  6
CONTINUOUS
 62
     7
100
AcDbLine
 10
305.0000000000001
 20
-415.340423751407
 30
0.0
 11
298.4
 21
-415.340423751407
 31
0.0
  0
LINE
  5
112
330
1F
100
AcDbEntity
  8
1
  6
CONTINUOUS
 62
     7
100
AcDbLine
 10
227.5
 20
-415.340423751407
 30
0.0
 11
227.5
 21
-416.0545872478964
 31
0.0
  0
LINE
  5
113
330
1F
100
AcDbEntity
  8
1
  6
CONTINUOUS
 62
     7
100
AcDbLine
 10
198.75
 20
-413.040423751407
 30
0.0
 11
281.25
 21
-413.040423751407
 31
0.0
  0
ARC
  5
114
330
1F
100
AcDbEntity
  8
1
  6
CONTINUOUS
 62
     7
100
AcDbCircle
 10
231.1537396031056
 20
-483.5572251798918
 30
0.0
 40
6.115275644212603
100
AcDbArc
 50
272.0999048120595
 51
313.7326909673627
  0
LINE
  5
115
330
1F
100
AcDbEntity
  8
1
  6
CONTINUOUS
 62
     7
100
AcDbLine
 10
281.25
 20
-415.340423751407
 30
0.0
 11
283.25
 21
-415.340423751407
 31
0.0
  0
LINE
  5
116
330
1F
100
AcDbEntity
  8
1
  6
CONTINUOUS
 62
     7
100
AcDbLine
 10
298.4
 20
-413.040423751407
 30
0.0
 11
296.75
 21
-413.040423751407
 31
0.0
  0
LINE
  5
117
330
1F
100
AcDbEntity
  8
1
  6
CONTINUOUS
 62
     7
100
AcDbLine
 10
181.6
 20
-415.340423751407
 30
0.0
 11
183.25
 21
-415.340423751407
 31
0.0
  0
LINE
  5
118
330
1F
100
AcDbEntity
  8
1
  6
CONTINUOUS
 62
     7
100
AcDbLine
 10
305.0000000000001
 20
-413.040423751407
 30
0.0
 11
308.25
 21
-413.040423751407
 31
0.0
  0
LINE
  5
119
330
1F
100
AcDbEntity
  8
1
  6
CONTINUOUS
 62
     7
100
AcDbLine
 10
252.4999999999999
 20
-416.0545872478964
 30
0.0
 11
252.4999999999999
 21
-415.340423751407
 31
0.0
  0
LINE
  5
11A
330
1F
100
AcDbEntity
  8
1
  6
CONTINUOUS
 62
     7
100
AcDbLine
 10
252.4999999999999
 20
-430.340423751407
 30
0.0
 11
244.1589167416832
 21
-430.340423751407
 31
0.0
  0
ARC
  5
11B
330
1F
100
AcDbEntity
  8
1
  6
CONTINUOUS
 62
     7
100
AcDbCircle
 10
239.8769313769176
 20
-477.4638923939898
 30
0.0
 40
16.42492837665444
100
AcDbArc
 50
270.4293095538795
 51
286.7801208918561
  0
LINE
  5
11C
330
1F
100
AcDbEntity
  8
1
  6
CONTINUOUS
 62
     7
100
AcDbLine
 10
296.7499999999999
 20
-415.340423751407
 30
0.0
 11
298.3999999999999
 21
-415.340423751407
 31
0.0
  0
LINE
  5
11D
330
1F
100
AcDbEntity
  8
1
  6
CONTINUOUS
 62
   253
100
AcDbLine
 10
181.6
 20
-413.040423751407
 30
0.0
 11
181.6
 21
-415.340423751407
 31
0.0
  0
ARC
  5
11E
330
1F
100
AcDbEntity
  8
1
  6
CONTINUOUS
 62
     7
100
AcDbCircle
 10
248.2811048338269
 20
-490.9737035251281
 30
0.0
 40
3.983105378295604
100
AcDbArc
 50
250.1438387364059
 51
276.1055224482943
  0
LINE
  5
11F
330
1F
100
AcDbEntity
  8
1
  6
CONTINUOUS
 62
     7
100
AcDbLine
 10
249.237604307034
 20
-494.8527362675392
 30
0.0
 11
249.237604307034
 21
-489.6392507649774
 31
0.0
  0
LINE
  5
120
330
1F
100
AcDbEntity
  8
1
  6
CONTINUOUS
 62
     7
100
AcDbLine
 10
235.8410832583168
 20
-430.340423751407
 30
0.0
 11
227.5
 21
-430.340423751407
 31
0.0
  0
LINE
  5
121
330
1F
100
AcDbEntity
  8
1
  6
CONTINUOUS
 62
     7
100
AcDbLine
 10
232.5618964813956
 20
-496.164009316117
 30
0.0
 11
233.0717967697244
 21
-496.3832999899971
 31
0.0
  0
LINE
  5
122
330
1F
100
AcDbEntity
  8
1
  6
CONTINUOUS
 62
     7
100
AcDbLine
 10
232.4811728465084
 20
-496.121623873471
 30
0.0
 11
230.762395692966
 21
-494.8527362675392
 31
0.0
  0
LINE
  5
123
330
1F
100
AcDbEntity
  8
1
  6
CONTINUOUS
 62
     7
100
AcDbLine
 10
249.237604307034
 20
-494.8527362675392
 30
0.0
 11
247.518726273703
 21
-496.1216768437984
 31
0.0
  0
ARC
  5
124
330
1F
100
AcDbEntity
  8
1
  6
CONTINUOUS
 62
     7
100
AcDbCircle
 10
240.143780460958
 20
-453.9725437264338
 30
0.0
 40
6.497913919073256
100
AcDbArc
 50
119.0015348977836
 51
139.7147786410339
  0
LINE
  5
125
330
1F
100
AcDbEntity
  8
1
  6
CONTINUOUS
 62
     7
100
AcDbLine
 10
175.0
 20
-415.340423751407
 30
0.0
 11
175.0
 21
-413.040423751407
 31
0.0
  0
LINE
  5
126
330
1F
100
AcDbEntity
  8
1
  6
CONTINUOUS
 62
     7
100
AcDbLine
 10
198.75
 20
-415.340423751407
 30
0.0
 11
281.25
 21
-415.340423751407
 31
0.0
  0
LINE
  5
127
330
1F
100
AcDbEntity
  8
1
  6
CONTINUOUS
 62
     7
100
AcDbLine
 10
171.75
 20
-413.040423751407
 30
0.0
 11
175.0
 21
-413.040423751407
 31
0.0
  0
LINE
  5
128
330
1F
100
AcDbEntity
  8
1
  6
CONTINUOUS
 62
     7
100
AcDbLine
 10
290.0000000000001
 20
-416.340423751407
 30
0.0
 11
286.7
 21
-416.340423751407
 31
0.0
  0
ARC
  5
129
330
1F
100
AcDbEntity
  8
1
  6
CONTINUOUS
 62
     7
100
AcDbCircle
 10
186.7
 20
-415.340423751407
 30
0.0
 40
1.000000000000001
100
AcDbArc
 50
180.0
 51
270.0
  0
LINE
  5
12A
330
1F
100
AcDbEntity
  8
1
  6
CONTINUOUS
 62
   253
100
AcDbLine
 10
252.4999999999999
 20
-416.0545872478964
 30
0.0
 11
227.4999999999999
 21
-416.0545872478964
 31
0.0
  0
LINE
  5
12B
330
1F
100
AcDbEntity
  8
1
  6
CONTINUOUS
 62
     7
100
AcDbLine
 10
190.0
 20
-416.340423751407
 30
0.0
 11
186.7
 21
-416.340423751407
 31
0.0
  0
LINE
  5
12C
330
1F
100
AcDbEntity
  8
1
  6
CONTINUOUS
 62
     7
100
AcDbLine
 10
183.25
 20
-413.040423751407
 30
0.0
 11
181.6
 21
-413.040423751407
 31
0.0
  0
LINE
  5
12D
330
1F
100
AcDbEntity
  8
1
  6
CONTINUOUS
 62
     7
100
AcDbLine
 10
193.3
 20
-416.340423751407
 30
0.0
 11
190.0
 21
-416.340423751407
 31
0.0
  0
ARC
  5
12E
330
1F
100
AcDbEntity
  8
1
  6
CONTINUOUS
 62
     7
100
AcDbCircle
 10
193.3
 20
-415.340423751407
 30
0.0
 40
1.000000000000001
100
AcDbArc
 50
270.0
 51
0.0
  0
LINE
  5
12F
330
1F
100
AcDbEntity
  8
1
  6
CONTINUOUS
 62
   253
100
AcDbLine
 10
227.5
 20
-428.583581550043
 30
0.0
 11
252.5
 21
-428.583581550043
 31
0.0
  0
LINE
  5
130
330
1F
100
AcDbEntity
  8
1
  6
CONTINUOUS
 62
     7
100
AcDbLine
 10
227.5
 20
-416.0545872478964
 30
0.0
 11
227.5
 21
-428.583581550043
 31
0.0
  0
LINE
  5
131
330
1F
100
AcDbEntity
  8
1
  6
CONTINUOUS
 62
   253
100
AcDbLine
 10
298.4
 20
-415.340423751407
 30
0.0
 11
298.4
 21
-413.040423751407
 31
0.0
  0
ARC
  5
132
330
1F
100
AcDbEntity
  8
1
  6
CONTINUOUS
 62
     7
100
AcDbCircle
 10
249.0628326194562
 20
-483.1475007315514
 30
0.0
 40
6.562270873795462
100
AcDbArc
 50
227.3740538103982
 51
261.8935695594239
  0
ARC
  5
133
330
1F
100
AcDbEntity
  8
1
  6
CONTINUOUS
 62
     7
100
AcDbCircle
 10
230.5503591798546
 20
-488.4079595593056
 30
0.0
 40
6.797027559145907
100
AcDbArc
 50
291.7749463168042
 51
315.2941886649569
  0
LINE
  5
134
330
1F
100
AcDbEntity
  8
1
  6
CONTINUOUS
 62
     7
100
AcDbLine
 10
305.0000000000001
 20
-415.340423751407
 30
0.0
 11
308.25
 21
-415.340423751407
 31
0.0
  0
LINE
  5
135
330
1F
100
AcDbEntity
  8
1
  6
CONTINUOUS
 62
     7
100
AcDbLine
 10
305.0000000000001
 20
-413.040423751407
 30
0.0
 11
305.0000000000001
 21
-415.340423751407
 31
0.0
  0
ARC
  5
136
330
1F
100
AcDbEntity
  8
1
  6
CONTINUOUS
 62
     7
100
AcDbCircle
 10
286.6999999999999
 20
-415.340423751407
 30
0.0
 40
1.000000000000001
100
AcDbArc
 50
180.0
 51
270.0
  0
LINE
  5
137
330
1F
100
AcDbEntity
  8
1
  6
CONTINUOUS
 62
     7
100
AcDbLine
 10
198.75
 20
-413.040423751407
 30
0.0
 11
196.75
 21
-413.040423751407
 31
0.0
  0
LINE
  5
138
330
1F
100
AcDbEntity
  8
1
  6
CONTINUOUS
 62
     7
100
AcDbLine
 10
293.3
 20
-416.340423751407
 30
0.0
 11
290.0
 21
-416.340423751407
 31
0.0
  0
LINE
  5
139
330
1F
100
AcDbEntity
  8
1
  6
CONTINUOUS
 62
     7
100
AcDbLine
 10
227.5
 20
-430.340423751407
 30
0.0
 11
227.5
 21
-428.583581550043
 31
0.0
  0
LINE
  5
13A
330
1F
100
AcDbEntity
  8
1
  6
CONTINUOUS
 62
     7
100
AcDbLine
 10
240.0000000004444
 20
-433.3404237468091
 30
0.0
 11
240.0000000003808
 21
-434.340423746807
 31
0.0
  0
LINE
  5
13B
330
1F
100
AcDbEntity
  8
1
  6
CONTINUOUS
 62
   253
100
AcDbLine
 10
190.0
 20
-416.340423751407
 30
0.0
 11
190.0
 21
-415.340423751407
 31
0.0
  0
LINE
  5
13C
330
1F
100
AcDbEntity
  8
1
  6
CONTINUOUS
 62
     7
100
AcDbLine
 10
226.1822763750364
 20
-472.3216193797948
 30
0.0
 11
227.760409427777
 21
-478.8869666347122
 31
0.0
  0
LINE
  5
13D
330
1F
100
AcDbEntity
  8
1
  6
CONTINUOUS
 62
     7
100
AcDbLine
 10
249.2510064779478
 20
-479.8837110492066
 30
0.0
 11
246.0
 21
-479.8837110492064
 31
0.0
  0
ARC
  5
13E
330
1F
100
AcDbEntity
  8
1
  6
CONTINUOUS
 62
     7
100
AcDbCircle
 10
240.0396154286592
 20
-453.7210074070858
 30
0.0
 40
6.189121588293378
100
AcDbArc
 50
38.6787782551429
 51
61.35438259949137
  0
ARC
  5
13F
330
1F
100
AcDbEntity
  8
1
  6
CONTINUOUS
 62
     7
100
AcDbCircle
 10
230.564870868872
 20
-474.161783005461
 30
0.0
 40
5.724889666117283
100
AcDbArc
 50
246.3496079575277
 51
271.8430521971566
  0
LINE
  5
140
330
1F
100
AcDbEntity
  8
1
  6
CONTINUOUS
 62
     7
100
AcDbLine
 10
234.0
 20
-486.0001850796289
 30
0.0
 11
234.0
 21
-485.5800143236406
 31
0.0
  0
LINE
  5
141
330
1F
100
AcDbEntity
  8
1
  6
CONTINUOUS
 62
     7
100
AcDbLine
 10
230.7489935220524
 20
-478.7918003463944
 30
0.0
 11
234.0
 21
-478.7918003463944
 31
0.0
  0
LINE
  5
142
330
1F
100
AcDbEntity
  8
1
  6
CONTINUOUS
 62
     7
100
AcDbLine
 10
264.25
 20
-475.105073048653
 30
0.0
 11
264.25
 21
-476.1330333801437
 31
0.0
  0
LINE
  5
143
330
1F
100
AcDbEntity
  8
1
  6
CONTINUOUS
 62
     7
100
AcDbLine
 10
249.2510064779478
 20
-478.7918003463944
 30
0.0
 11
246.0
 21
-478.7918003463944
 31
0.0
  0
ARC
  5
144
330
1F
100
AcDbEntity
  8
1
  6
CONTINUOUS
 62
     7
100
AcDbCircle
 10
259.3009408584998
 20
-476.3283831422058
 30
0.0
 40
4.952913073697496
100
AcDbArc
 50
2.260411338363867
 51
90.58929918884985
  0
LINE
  5
145
330
1F
100
AcDbEntity
  8
1
  6
CONTINUOUS
 62
     7
100
AcDbLine
 10
251.2824903017817
 20
-470.3404237510844
 30
0.0
 11
249.2510064779477
 21
-478.7918003463944
 31
0.0
  0
LINE
  5
146
330
1F
100
AcDbEntity
  8
1
  6
CONTINUOUS
 62
     7
100
AcDbLine
 10
246.0
 20
-482.5914302293656
 30
0.0
 11
246.0
 21
-479.8837110492064
 31
0.0
  0
LINE
  5
147
330
1F
100
AcDbEntity
  8
1
  6
CONTINUOUS
 62
     7
100
AcDbLine
 10
234.0
 20
-479.8837110492066
 30
0.0
 11
234.0
 21
-478.7918003463944
 31
0.0
  0
LINE
  5
148
330
1F
100
AcDbEntity
  8
1
  6
CONTINUOUS
 62
     7
100
AcDbLine
 10
264.25
 20
-476.1330333801437
 30
0.0
 11
264.25
 21
-492.6404237469065
 31
0.0
  0
LINE
  5
149
330
1F
100
AcDbEntity
  8
1
  6
CONTINUOUS
 62
     7
100
AcDbLine
 10
245.0
 20
-434.340423746807
 30
0.0
 11
245.0
 21
-450.1656045526774
 31
0.0
  0
LINE
  5
14A
330
1F
100
AcDbEntity
  8
1
  6
CONTINUOUS
 62
     7
100
AcDbLine
 10
247.8357019122805
 20
-486.1570991541676
 30
0.0
 11
248.3816824364812
 21
-486.201238554335
 31
0.0
  0
LINE
  5
14B
330
1F
100
AcDbEntity
  8
1
  6
CONTINUOUS
 62
     7
100
AcDbLine
 10
234.0
 20
-482.5914302293656
 30
0.0
 11
234.0
 21
-479.8837110492066
 31
0.0
  0
LINE
  5
14C
330
1F
100
AcDbEntity
  8
1
  6
CONTINUOUS
 62
     7
100
AcDbLine
 10
234.0
 20
-486.0001850796288
 30
0.0
 11
232.1642980877194
 21
-486.1570991541673
 31
0.0
  0
LINE
  5
14D
330
1F
100
AcDbEntity
  8
1
  6
CONTINUOUS
 62
     7
100
AcDbLine
 10
230.7489935220522
 20
-479.8837110492066
 30
0.0
 11
234.0
 21
-479.8837110492066
 31
0.0
  0
ARC
  5
14E
330
1F
100
AcDbEntity
  8
1
  6
CONTINUOUS
 62
     7
100
AcDbCircle
 10
223.3923202887634
 20
-477.3170001242702
 30
0.0
 40
5.94439869943214
100
AcDbArc
 50
67.27994067834179
 51
91.85959144061033
  0
ARC
  5
14F
330
1F
100
AcDbEntity
  8
1
  6
CONTINUOUS
 62
     7
100
AcDbCircle
 10
249.435129131128
 20
-474.1617830054594
 30
0.0
 40
5.724889666118615
100
AcDbArc
 50
268.156947802845
 51
293.6503920424679
  0
LINE
  5
150
330
1F
100
AcDbEntity
  8
1
  6
CONTINUOUS
 62
     7
100
AcDbLine
 10
234.0
 20
-482.5914302293656
 30
0.0
 11
234.0
 21
-485.5800143236406
 31
0.0
  0
LINE
  5
151
330
1F
100
AcDbEntity
  8
1
  6
CONTINUOUS
 62
     7
100
AcDbLine
 10
231.6183175635188
 20
-486.201238554335
 30
0.0
 11
232.1642980877194
 21
-486.1570991541676
 31
0.0
  0
LINE
  5
152
330
1F
100
AcDbEntity
  8
1
  6
CONTINUOUS
 62
     7
100
AcDbLine
 10
247.8357019122808
 20
-486.1570991541676
 30
0.0
 11
246.0
 21
-486.0001850796287
 31
0.0
  0
LINE
  5
153
330
1F
100
AcDbEntity
  8
1
  6
CONTINUOUS
 62
     7
100
AcDbLine
 10
246.0
 20
-486.0001850796289
 30
0.0
 11
246.0
 21
-485.5800143236406
 31
0.0
  0
LINE
  5
154
330
1F
100
AcDbEntity
  8
1
  6
CONTINUOUS
 62
     7
100
AcDbLine
 10
245.0
 20
-484.0787375093134
 30
0.0
 11
246.0
 21
-483.8162715187327
 31
0.0
  0
ARC
  5
155
330
1F
100
AcDbEntity
  8
1
  6
CONTINUOUS
 62
     7
100
AcDbCircle
 10
259.2928268388678
 20
-475.3012940678425
 30
0.0
 40
4.961055173833606
100
AcDbArc
 50
2.266769713283679
 51
90.49461808203976
  0
LINE
  5
156
330
1F
100
AcDbEntity
  8
1
  6
CONTINUOUS
 62
     7
100
AcDbLine
 10
235.0
 20
-434.340423746807
 30
0.0
 11
235.0
 21
-450.1656045526774
 31
0.0
  0
LINE
  5
157
330
1F
100
AcDbEntity
  8
1
  6
CONTINUOUS
 62
     7
100
AcDbLine
 10
220.75
 20
-470.3404237510844
 30
0.0
 11
228.7175096982182
 21
-470.3404237510844
 31
0.0
  0
LINE
  5
158
330
1F
100
AcDbEntity
  8
1
  6
CONTINUOUS
 62
     7
100
AcDbLine
 10
259.25
 20
-471.37573203956
 30
0.0
 11
256.8005772058171
 21
-471.37573203956
 31
0.0
  0
LINE
  5
159
330
1F
100
AcDbEntity
  8
1
  6
CONTINUOUS
 62
     7
100
AcDbLine
 10
235.0
 20
-484.0787375093134
 30
0.0
 11
234.0
 21
-483.8162715187327
 31
0.0
  0
LINE
  5
15A
330
1F
100
AcDbEntity
  8
1
  6
CONTINUOUS
 62
     7
100
AcDbLine
 10
228.7175096982182
 20
-470.3404237510844
 30
0.0
 11
230.7489935220524
 21
-478.7918003463944
 31
0.0
  0
ARC
  5
15B
330
1F
100
AcDbEntity
  8
1
  6
CONTINUOUS
 62
     7
100
AcDbCircle
 10
256.6076797112365
 20
-477.31700012427
 30
0.0
 40
5.944398699431863
100
AcDbArc
 50
88.14040855938907
 51
112.7200593216588
  0
LINE
  5
15C
330
1F
100
AcDbEntity
  8
1
  6
CONTINUOUS
 62
     7
100
AcDbLine
 10
266.25
 20
-472.5295863538068
 30
0.0
 11
266.25
 21
-479.0295863538067
 31
0.0
  0
LINE
  5
15D
330
1F
100
AcDbEntity
  8
1
  6
CONTINUOUS
 62
     7
100
AcDbLine
 10
220.75
 20
-471.37573203956
 30
0.0
 11
223.1994227941828
 21
-471.37573203956
 31
0.0
  0
LINE
  5
15E
330
1F
100
AcDbEntity
  8
1
  6
CONTINUOUS
 62
     7
100
AcDbLine
 10
259.25
 20
-470.3404237510844
 30
0.0
 11
251.2824903017817
 21
-470.3404237510844
 31
0.0
  0
LINE
  5
15F
330
1F
100
AcDbEntity
  8
1
  6
CONTINUOUS
 62
     7
100
AcDbLine
 10
253.8177236249635
 20
-472.3216193797948
 30
0.0
 11
252.239590572223
 21
-478.8869666347122
 31
0.0
  0
LINE
  5
160
330
1F
100
AcDbEntity
  8
1
  6
CONTINUOUS
 62
     7
100
AcDbLine
 10
246.0
 20
-479.8837110492064
 30
0.0
 11
246.0
 21
-478.7918003463944
 31
0.0
  0
LINE
  5
161
330
1F
100
AcDbEntity
  8
1
  6
CONTINUOUS
 62
     7
100
AcDbLine
 10
213.75
 20
-479.0295863538067
 30
0.0
 11
213.75
 21
-472.5295863538068
 31
0.0
  0
LINE
  5
162
330
1F
100
AcDbEntity
  8
1
  6
CONTINUOUS
 62
     7
100
AcDbLine
 10
246.0
 20
-482.5914302293656
 30
0.0
 11
246.0
 21
-485.5800143236406
 31
0.0
  0
LINE
  5
163
330
1F
100
AcDbEntity
  8
1
  6
CONTINUOUS
 62
     7
100
AcDbLine
 10
261.25
 20
-470.7530195802811
 30
0.0
 11
261.25
 21
-442.9784247648846
 31
0.0
  0
LINE
  5
164
330
1F
100
AcDbEntity
  8
1
  6
CONTINUOUS
 62
     7
100
AcDbLine
 10
255.310475053004
 20
-493.5375235939306
 30
0.0
 11
255.3027114857651
 21
-493.5464170696722
 31
0.0
  0
LINE
  5
165
330
1F
100
AcDbEntity
  8
1
  6
CONTINUOUS
 62
     7
100
AcDbLine
 10
231.0
 20
-451.3404237468071
 30
0.0
 11
234.0
 21
-451.3404237468071
 31
0.0
  0
LINE
  5
166
330
1F
100
AcDbEntity
  8
1
  6
CONTINUOUS
 62
     7
100
AcDbLine
 10
260.9601007166283
 20
-443.0383816761034
 30
0.0
 11
250.9999999999999
 21
-445.1154933036698
 31
0.0
  0
LINE
  5
167
330
1F
100
AcDbEntity
  8
1
  6
CONTINUOUS
 62
   253
100
AcDbLine
 10
235.0
 20
-481.4116297223279
 30
0.0
 11
234.0
 21
-481.4116297223279
 31
0.0
  0
LINE
  5
168
330
1F
100
AcDbEntity
  8
1
  6
CONTINUOUS
 62
     7
100
AcDbLine
 10
249.0
 20
-435.340423746807
 30
0.0
 11
249.0
 21
-437.840423746807
 31
0.0
  0
ARC
  5
169
330
1F
100
AcDbEntity
  8
1
  6
CONTINUOUS
 62
     7
100
AcDbCircle
 10
220.75
 20
-435.340423746807
 30
0.0
 40
5.000000000000004
100
AcDbArc
 50
90.0
 51
180.0
  0
LINE
  5
16A
330
1F
100
AcDbEntity
  8
1
  6
CONTINUOUS
 62
   253
100
AcDbLine
 10
249.0
 20
-437.8404237468069
 30
0.0
 11
246.0
 21
-437.8404237468069
 31
0.0
  0
LINE
  5
16B
330
1F
100
AcDbEntity
  8
1
  6
CONTINUOUS
 62
   253
100
AcDbLine
 10
235.0
 20
-447.3884047265132
 30
0.0
 11
234.0
 21
-447.3884047265132
 31
0.0
  0
LINE
  5
16C
330
1F
100
AcDbEntity
  8
1
  6
CONTINUOUS
 62
     7
100
AcDbLine
 10
246.0
 20
-437.8404237468069
 30
0.0
 11
246.0
 21
-451.340423746807
 31
0.0
  0
LINE
  5
16D
330
1F
100
AcDbEntity
  8
1
  6
CONTINUOUS
 62
     7
100
AcDbLine
 10
224.6895249469959
 20
-493.5375235939306
 30
0.0
 11
224.6972885142348
 21
-493.5464170696722
 31
0.0
  0
LINE
  5
16E
330
1F
100
AcDbEntity
  8
1
  6
CONTINUOUS
 62
   253
100
AcDbLine
 10
231.0
 20
-437.8404237468069
 30
0.0
 11
234.0
 21
-437.8404237468069
 31
0.0
  0
LINE
  5
16F
330
1F
100
AcDbEntity
  8
1
  6
CONTINUOUS
 62
     7
100
AcDbLine
 10
227.5
 20
-430.340423746807
 30
0.0
 11
220.75
 21
-430.340423746807
 31
0.0
  0
ARC
  5
170
330
1F
100
AcDbEntity
  8
1
  6
CONTINUOUS
 62
     7
100
AcDbCircle
 10
244.0
 20
-435.340423746807
 30
0.0
 40
5.000000000000004
100
AcDbArc
 50
0.0
 51
90.0
  0
LINE
  5
171
330
1F
100
AcDbEntity
  8
1
  6
CONTINUOUS
 62
     7
100
AcDbLine
 10
215.75
 20
-475.105073048653
 30
0.0
 11
215.75
 21
-476.1330333801437
 31
0.0
  0
LINE
  5
172
330
1F
100
AcDbEntity
  8
1
  6
CONTINUOUS
 62
     7
100
AcDbLine
 10
229.0
 20
-445.1154933036696
 30
0.0
 11
219.0398992833717
 21
-443.0383816761034
 31
0.0
  0
LINE
  5
173
330
1F
100
AcDbEntity
  8
1
  6
CONTINUOUS
 62
     7
100
AcDbLine
 10
222.75
 20
-470.3404237510844
 30
0.0
 11
222.75
 21
-466.7795861867066
 31
0.0
  0
LINE
  5
174
330
1F
100
AcDbEntity
  8
1
  6
CONTINUOUS
 62
     7
100
AcDbLine
 10
219.75
 20
-470.440002336567
 30
0.0
 11
219.75
 21
-466.7795861867066
 31
0.0
  0
LINE
  5
175
330
1F
100
AcDbEntity
  8
1
  6
CONTINUOUS
 62
     7
100
AcDbLine
 10
244.0
 20
-430.340423746807
 30
0.0
 11
236.0
 21
-430.340423746807
 31
0.0
  0
LINE
  5
176
330
1F
100
AcDbEntity
  8
1
  6
CONTINUOUS
 62
     7
100
AcDbLine
 10
246.0
 20
-435.3404237468068
 30
0.0
 11
246.0
 21
-437.8404237468069
 31
0.0
  0
LINE
  5
177
330
1F
100
AcDbEntity
  8
1
  6
CONTINUOUS
 62
   253
100
AcDbLine
 10
246.0
 20
-481.4116297223279
 30
0.0
 11
245.0
 21
-481.4116297223279
 31
0.0
  0
LINE
  5
178
330
1F
100
AcDbEntity
  8
1
  6
CONTINUOUS
 62
     7
100
AcDbLine
 10
234.0
 20
-437.8404237468068
 30
0.0
 11
234.0
 21
-451.3404237468071
 31
0.0
  0
LINE
  5
179
330
1F
100
AcDbEntity
  8
1
  6
CONTINUOUS
 62
     7
100
AcDbLine
 10
231.0
 20
-435.340423746807
 30
0.0
 11
231.0
 21
-437.840423746807
 31
0.0
  0
ARC
  5
17A
330
1F
100
AcDbEntity
  8
1
  6
CONTINUOUS
 62
     7
100
AcDbCircle
 10
220.6991137164696
 20
-476.328440501374
 30
0.0
 40
4.952969868833756
100
AcDbArc
 50
89.41133892347995
 51
177.7389505493059
  0
LINE
  5
17B
330
1F
100
AcDbEntity
  8
1
  6
CONTINUOUS
 62
     7
100
AcDbLine
 10
215.75
 20
-474.3051332384982
 30
0.0
 11
215.75
 21
-441.5192097791492
 31
0.0
  0
LINE
  5
17C
330
1F
100
AcDbEntity
  8
1
  6
CONTINUOUS
 62
     7
100
AcDbLine
 10
264.25
 20
-474.3051332384982
 30
0.0
 11
264.25
 21
-441.5192097791492
 31
0.0
  0
ARC
  5
17D
330
1F
100
AcDbEntity
  8
1
  6
CONTINUOUS
 62
     7
100
AcDbCircle
 10
260.0961166720439
 20
-436.1236003790218
 30
0.0
 40
6.968548544407538
100
AcDbArc
 50
277.1220497526153
 51
304.2033628039978
  0
LINE
  5
17E
330
1F
100
AcDbEntity
  8
1
  6
CONTINUOUS
 62
     7
100
AcDbLine
 10
249.0
 20
-451.3404237468071
 30
0.0
 11
246.0
 21
-451.3404237468071
 31
0.0
  0
ARC
  5
17F
330
1F
100
AcDbEntity
  8
1
  6
CONTINUOUS
 62
     7
100
AcDbCircle
 10
220.7071731611322
 20
-475.3012940678425
 30
0.0
 40
4.96105517383355
100
AcDbArc
 50
89.50538191796025
 51
177.7332302867163
  0
LINE
  5
180
330
1F
100
AcDbEntity
  8
1
  6
CONTINUOUS
 62
     7
100
AcDbLine
 10
231.0
 20
-437.8404237468069
 30
0.0
 11
231.0
 21
-451.340423746807
 31
0.0
  0
LINE
  5
181
330
1F
100
AcDbEntity
  8
1
  6
CONTINUOUS
 62
     7
100
AcDbLine
 10
260.25
 20
-470.440002336567
 30
0.0
 11
260.25
 21
-466.7795861867066
 31
0.0
  0
LINE
  5
182
330
1F
100
AcDbEntity
  8
1
  6
CONTINUOUS
 62
     7
100
AcDbLine
 10
244.0
 20
-433.340423746807
 30
0.0
 11
236.0
 21
-433.340423746807
 31
0.0
  0
LINE
  5
183
330
1F
100
AcDbEntity
  8
1
  6
CONTINUOUS
 62
     7
100
AcDbLine
 10
218.75
 20
-470.7530195802811
 30
0.0
 11
218.75
 21
-442.9784247648846
 31
0.0
  0
ARC
  5
184
330
1F
100
AcDbEntity
  8
1
  6
CONTINUOUS
 62
     7
100
AcDbCircle
 10
236.0
 20
-435.340423746807
 30
0.0
 40
5.000000000000004
100
AcDbArc
 50
90.0
 51
180.0
  0
LINE
  5
185
330
1F
100
AcDbEntity
  8
1
  6
CONTINUOUS
 62
     7
100
AcDbLine
 10
252.4999999999999
 20
-430.340423746807
 30
0.0
 11
259.25
 21
-430.340423746807
 31
0.0
  0
LINE
  5
186
330
1F
100
AcDbEntity
  8
1
  6
CONTINUOUS
 62
     7
100
AcDbLine
 10
215.75
 20
-435.340423746807
 30
0.0
 11
215.75
 21
-441.5192097791493
 31
0.0
  0
ARC
  5
187
330
1F
100
AcDbEntity
  8
1
  6
CONTINUOUS
 62
     7
100
AcDbCircle
 10
259.25
 20
-435.340423746807
 30
0.0
 40
5.000000000000004
100
AcDbArc
 50
0.0
 51
90.0
  0
LINE
  5
188
330
1F
100
AcDbEntity
  8
1
  6
CONTINUOUS
 62
     7
100
AcDbLine
 10
249.0
 20
-437.8404237468069
 30
0.0
 11
249.0
 21
-451.340423746807
 31
0.0
  0
LINE
  5
189
330
1F
100
AcDbEntity
  8
1
  6
CONTINUOUS
 62
     7
100
AcDbLine
 10
234.0
 20
-435.3404237468068
 30
0.0
 11
234.0
 21
-437.8404237468069
 31
0.0
  0
ARC
  5
18A
330
1F
100
AcDbEntity
  8
1
  6
CONTINUOUS
 62
     7
100
AcDbCircle
 10
219.9038833279565
 20
-436.1236003790206
 30
0.0
 40
6.96854854440887
100
AcDbArc
 50
235.7966371960047
 51
262.8779502473822
  0
LINE
  5
18B
330
1F
100
AcDbEntity
  8
1
  6
CONTINUOUS
 62
     7
100
AcDbLine
 10
215.75
 20
-476.1330333801437
 30
0.0
 11
215.75
 21
-492.6404237469065
 31
0.0
  0
LINE
  5
18C
330
1F
100
AcDbEntity
  8
1
  6
CONTINUOUS
 62
     7
100
AcDbLine
 10
257.25
 20
-470.3404237510844
 30
0.0
 11
257.25
 21
-466.7795861867066
 31
0.0
  0
LINE
  5
18D
330
1F
100
AcDbEntity
  8
1
  6
CONTINUOUS
 62
     7
100
AcDbLine
 10
264.25
 20
-435.340423746807
 30
0.0
 11
264.25
 21
-441.5192097791493
 31
0.0
  0
LINE
  5
18E
330
1F
100
AcDbEntity
  8
1
  6
CONTINUOUS
 62
   253
100
AcDbLine
 10
246.0
 20
-447.3884047265132
 30
0.0
 11
245.0
 21
-447.3884047265132
 31
0.0
  0
LINE
  5
18F
330
1F
100
AcDbEntity
  8
1
  6
CONTINUOUS
 62
     7
100
AcDbLine
 10
246.0
 20
-438.540423756007
 30
0.0
 11
245.0
 21
-438.540423756007
 31
0.0
  0
LINE
  5
190
330
1F
100
AcDbEntity
  8
1
  6
CONTINUOUS
 62
     7
100
AcDbLine
 10
247.4381035186046
 20
-496.164009316117
 30
0.0
 11
247.518760713958
 21
-496.1216587603072
 31
0.0
  0
LINE
  5
191
330
1F
100
AcDbEntity
  8
1
  6
CONTINUOUS
 62
     7
100
AcDbLine
 10
245.0
 20
-479.2795863538068
 30
0.0
 11
246.0
 21
-479.2795863538068
 31
0.0
  0
LINE
  5
192
330
1F
100
AcDbEntity
  8
1
  6
CONTINUOUS
 62
     7
100
AcDbLine
 10
235.0
 20
-450.1656045526774
 30
0.0
 11
235.0
 21
-505.9200177891384
 31
0.0
  0
ARC
  5
193
330
1F
100
AcDbEntity
  8
1
  6
CONTINUOUS
 62
     7
100
AcDbCircle
 10
231.0
 20
-445.290423756007
 30
0.0
 40
2.000000000000002
100
AcDbArc
 50
180.0
 51
270.0
  0
LINE
  5
194
330
1F
100
AcDbEntity
  8
1
  6
CONTINUOUS
 62
     7
100
AcDbLine
 10
245.0
 20
-505.92001775379
 30
0.0
 11
245.0
 21
-450.1656045526774
 31
0.0
  0
LINE
  5
195
330
1F
100
AcDbEntity
  8
1
  6
CENTER
 62
     1
100
AcDbLine
 10
240.0
 20
-225.0
 30
0.0
 11
240.0
 21
-395.0
 31
0.0
  0
ARC
  5
197
330
1F
100
AcDbEntity
  8
1
  6
CONTINUOUS
 62
     7
100
AcDbCircle
 10
215.75
 20
-479.0295863538067
 30
0.0
 40
2.000000000000002
100
AcDbArc
 50
180.0
 51
270.0000000000001
  0
LINE
  5
198
330
1F
100
AcDbEntity
  8
1
  6
CONTINUOUS
 62
     7
100
AcDbLine
 10
308.25
 20
-415.3404237514068
 30
0.0
 11
308.25
 21
-413.0404237514068
 31
0.0
  0
LINE
  5
199
330
1F
100
AcDbEntity
  8
1
  6
CONTINUOUS
 62
     7
100
AcDbLine
 10
235.0
 20
-472.2795863538067
 30
0.0
 11
229.1836322777518
 21
-472.2795863538067
 31
0.0
  0
LINE
  5
19A
330
1F
100
AcDbEntity
  8
1
  6
CONTINUOUS
 62
     7
100
AcDbLine
 10
235.0
 20
-438.540423756007
 30
0.0
 11
234.0
 21
-438.540423756007
 31
0.0
  0
LINE
  5
19B
330
1F
100
AcDbEntity
  8
1
  6
CONTINUOUS
 62
     7
100
AcDbLine
 10
264.25
 20
-474.3051332384982
 30
0.0
 11
264.25
 21
-475.1048387217077
 31
0.0
  0
LINE
  5
19C
330
1F
100
AcDbEntity
  8
1
  6
CONTINUOUS
 62
     7
100
AcDbLine
 10
234.0
 20
-445.540423756007
 30
0.0
 11
235.0
 21
-445.540423756007
 31
0.0
  0
ARC
  5
19D
330
1F
100
AcDbEntity
  8
1
  6
CONTINUOUS
 62
     7
100
AcDbCircle
 10
228.6704780050018
 20
-490.0440184308508
 30
0.0
 40
5.296468190489345
100
AcDbArc
 50
221.2666103739894
 51
269.720821385623
  0
LINE
  5
19E
330
1F
100
AcDbEntity
  8
1
  6
CONTINUOUS
 62
     7
100
AcDbLine
 10
230.0
 20
-487.335213380562
 30
0.0
 11
230.0
 21
-489.2915085820296
 31
0.0
  0
LINE
  5
19F
330
1F
100
AcDbEntity
  8
1
  6
CONTINUOUS
 62
     7
100
AcDbLine
 10
245.0
 20
-434.340423746807
 30
0.0
 11
235.0
 21
-434.340423746807
 31
0.0
  0
LINE
  5
1A0
330
1F
100
AcDbEntity
  8
1
  6
CONTINUOUS
 62
     7
100
AcDbLine
 10
234.0
 20
-479.2795863538068
 30
0.0
 11
235.0
 21
-479.2795863538068
 31
0.0
  0
LINE
  5
1A1
330
1F
100
AcDbEntity
  8
1
  6
CONTINUOUS
 62
     7
100
AcDbLine
 10
222.75
 20
-466.7795861867066
 30
0.0
 11
219.75
 21
-466.7795861867066
 31
0.0
  0
LINE
  5
1A2
330
1F
100
AcDbEntity
  8
1
  6
CENTER
 62
     1
100
AcDbLine
 10
397.0404237469065
 20
-319.0000000000001
 30
0.0
 11
453.6404237469063
 21
-319.0000000000001
 31
0.0
  0
ARC
  5
1A3
330
1F
100
AcDbEntity
  8
1
  6
CONTINUOUS
 62
     7
100
AcDbCircle
 10
231.0
 20
-438.7904237560069
 30
0.0
 40
2.000000000000002
100
AcDbArc
 50
90.0
 51
180.0
  0
ARC
  5
1A4
330
1F
100
AcDbEntity
  8
1
  6
CONTINUOUS
 62
     7
100
AcDbCircle
 10
251.3295219949981
 20
-490.0440184308508
 30
0.0
 40
5.296468190489345
100
AcDbArc
 50
270.279178614377
 51
318.7333896260105
  0
LINE
  5
1A5
330
1F
100
AcDbEntity
  8
1
  6
CONTINUOUS
 62
     7
100
AcDbLine
 10
228.6446660114046
 20
-495.3404237469066
 30
0.0
 11
231.323683435313
 21
-495.3404237469066
 31
0.0
  0
ARC
  5
1A6
330
1F
100
AcDbEntity
  8
1
  6
CONTINUOUS
 62
     7
100
AcDbCircle
 10
264.25
 20
-472.5295863538068
 30
0.0
 40
2.000000000000002
100
AcDbArc
 50
0.0
 51
90.0
  0
ARC
  5
1A7
330
1F
100
AcDbEntity
  8
1
  6
CONTINUOUS
 62
     7
100
AcDbCircle
 10
249.0
 20
-445.290423756007
 30
0.0
 40
2.000000000000002
100
AcDbArc
 50
269.9999999999999
 51
0.0
  0
ARC
  5
1A8
330
1F
100
AcDbEntity
  8
1
  6
CONTINUOUS
 62
     7
100
AcDbCircle
 10
264.25
 20
-479.0295863538067
 30
0.0
 40
2.000000000000002
100
AcDbArc
 50
270.0
 51
0.0
  0
LINE
  5
1A9
330
1F
100
AcDbEntity
  8
1
  6
CONTINUOUS
 62
     7
100
AcDbLine
 10
215.75
 20
-474.3051332384982
 30
0.0
 11
215.75
 21
-475.1048387217088
 31
0.0
  0
ARC
  5
1AA
330
1F
100
AcDbEntity
  8
1
  6
CONTINUOUS
 62
     7
100
AcDbCircle
 10
249.0
 20
-438.7904237560069
 30
0.0
 40
2.000000000000002
100
AcDbArc
 50
0.0
 51
90.00000000000006
  0
LINE
  5
1AB
330
1F
100
AcDbEntity
  8
1
  6
CONTINUOUS
 62
     7
100
AcDbLine
 10
245.0
 20
-445.540423756007
 30
0.0
 11
246.0
 21
-445.540423756007
 31
0.0
  0
LINE
  5
1AC
330
1F
100
AcDbEntity
  8
1
  6
CONTINUOUS
 62
     7
100
AcDbLine
 10
171.75
 20
-413.0404237514068
 30
0.0
 11
171.75
 21
-415.3404237514068
 31
0.0
  0
LINE
  5
1AD
330
1F
100
AcDbEntity
  8
1
  6
CENTER
 62
     1
100
AcDbLine
 10
425.3404237469065
 20
-347.3
 30
0.0
 11
425.3404237469065
 21
-290.7000000000002
 31
0.0
  0
LINE
  5
1AE
330
1F
100
AcDbEntity
  8
1
  6
CONTINUOUS
 62
     7
100
AcDbLine
 10
232.480290815582
 20
-496.1211607483074
 30
0.0
 11
232.5618964813956
 21
-496.164009316117
 31
0.0
  0
LINE
  5
1AF
330
1F
100
AcDbEntity
  8
1
  6
CONTINUOUS
 62
     7
100
AcDbLine
 10
215.75
 20
-492.6404237469066
 30
0.0
 11
222.6332829108447
 21
-492.6404237469066
 31
0.0
  0
LINE
  5
1B0
330
1F
100
AcDbEntity
  8
1
  6
CONTINUOUS
 62
     2
100
AcDbLine
 10
374.55
 20
-454.4590909090909
 30
0.0
 11
405.4499999999999
 21
-454.4590909090909
 31
0.0
  0
ARC
  5
1B1
330
1F
100
AcDbEntity
  8
1
  6
CONTINUOUS
 62
     7
100
AcDbCircle
 10
215.75
 20
-472.5295863538068
 30
0.0
 40
2.000000000000002
100
AcDbArc
 50
89.9999999999999
 51
179.9999999999998
  0
LINE
  5
1B2
330
1F
100
AcDbEntity
  8
1
  6
CONTINUOUS
 62
     7
100
AcDbLine
 10
248.6772264150638
 20
-495.3404237469066
 30
0.0
 11
251.3553339885956
 21
-495.3404237469066
 31
0.0
  0
LINE
  5
1B3
330
1F
100
AcDbEntity
  8
1
  6
CONTINUOUS
 62
     7
100
AcDbLine
 10
260.25
 20
-466.7795861867066
 30
0.0
 11
257.25
 21
-466.7795861867066
 31
0.0
  0
LINE
  5
1B4
330
1F
100
AcDbEntity
  8
1
  6
CONTINUOUS
 62
     7
100
AcDbLine
 10
257.3667170809676
 20
-492.6404237469066
 30
0.0
 11
264.25
 21
-492.6404237469066
 31
0.0
  0
LINE
  5
1B5
330
1F
100
AcDbEntity
  8
1
  6
CONTINUOUS
 62
     7
100
AcDbLine
 10
250.8163677222481
 20
-472.2795863538067
 30
0.0
 11
244.9999999999999
 21
-472.2795863538067
 31
0.0
  0
LINE
  5
1B6
330
1F
100
AcDbEntity
  8
1
  6
CONTINUOUS
 62
     7
100
AcDbLine
 10
250.0
 20
-489.2915085820296
 30
0.0
 11
250.0
 21
-487.335213380562
 31
0.0
  0
LINE
  5
1B7
330
1F
100
AcDbEntity
  8
1
  6
CENTER
 62
     1
100
AcDbLine
 10
165.0
 20
-315.0000000000001
 30
0.0
 11
314.9999999999999
 21
-315.0000000000001
 31
0.0
  0
LINE
  5
1B8
330
1F
100
AcDbEntity
  8
1
  6
CENTER
 62
     1
100
AcDbLine
 10
240.0
 20
-405.0
 30
0.0
 11
240.0
 21
-509.9200177891384
 31
0.0
  0
CIRCLE
  5
1B9
330
1F
100
AcDbEntity
  8
1
  6
CONTINUOUS
 62
     7
100
AcDbCircle
 10
402.0404237560069
 20
-345.0000000000001
 30
0.0
 40
5.249999999999977
  0
LINE
  5
1BA
330
1F
100
AcDbEntity
  8
1
  6
CONTINUOUS
 62
     7
100
AcDbLine
 10
386.6120967584279
 20
-337.4129430732444
 30
0.0
 11
376.3404237514069
 21
-354.5078777082433
 31
0.0
  0
LINE
  5
1BB
330
1F
100
AcDbEntity
  8
1
  6
CONTINUOUS
 62
     7
100
AcDbLine
 10
373.0404237514069
 20
-380.0308631332485
 30
0.0
 11
373.0404237514069
 21
-382.0
 31
0.0
  0
LINE
  5
1BC
330
1F
100
AcDbEntity
  8
1
  6
CONTINUOUS
 62
     7
100
AcDbLine
 10
376.3404237514069
 20
-274.3
 30
0.0
 11
376.3404237514069
 21
-271.0000000000001
 31
0.0
  0
LINE
  5
1BD
330
1F
100
AcDbEntity
  8
1
  6
CONTINUOUS
 62
     7
100
AcDbLine
 10
376.3404237514069
 20
-274.3
 30
0.0
 11
376.3404237514069
 21
-355.7
 31
0.0
  0
LINE
  5
1BE
330
1F
100
AcDbEntity
  8
1
  6
CONTINUOUS
 62
     7
100
AcDbLine
 10
373.0404237514069
 20
-263.3708348754012
 30
0.0
 11
375.3404237514069
 21
-263.3708348754012
 31
0.0
  0
LINE
  5
1BF
330
1F
100
AcDbEntity
  8
1
  6
CONTINUOUS
 62
     7
100
AcDbLine
 10
373.0404237514069
 20
-355.3708348754012
 30
0.0
 11
375.3404237514069
 21
-355.3708348754012
 31
0.0
  0
ARC
  5
1C0
330
1F
100
AcDbEntity
  8
1
  6
CONTINUOUS
 62
     7
100
AcDbCircle
 10
378.040423751407
 20
-297.7374376758562
 30
0.0
 40
12.29999999999998
100
AcDbArc
 50
0.0
 51
30.99999999999994
  0
LINE
  5
1C1
330
1F
100
AcDbEntity
  8
1
  6
CONTINUOUS
 62
     7
100
AcDbLine
 10
373.0404237514069
 20
-380.0308631332485
 30
0.0
 11
373.0404237514069
 21
-372.1543156662424
 31
0.0
  0
LINE
  5
1C2
330
1F
100
AcDbEntity
  8
1
  6
CONTINUOUS
 62
     7
100
AcDbLine
 10
385.0404237468066
 20
-307.1977999485529
 30
0.0
 11
385.0404237468066
 21
-306.8969231927298
 31
0.0
  0
LINE
  5
1C3
330
1F
100
AcDbEntity
  8
1
  6
CONTINUOUS
 62
     7
100
AcDbLine
 10
375.3404237514069
 20
-248.0
 30
0.0
 11
375.3404237514069
 21
-249.9691368667515
 31
0.0
  0
LINE
  5
1C4
330
1F
100
AcDbEntity
  8
1
  6
CONTINUOUS
 62
     7
100
AcDbLine
 10
385.0404237468066
 20
-316.8637742593984
 30
0.0
 11
385.0404237468066
 21
-314.8200000000001
 31
0.0
  0
LINE
  5
1C5
330
1F
100
AcDbEntity
  8
1
  6
CONTINUOUS
 62
     7
100
AcDbLine
 10
385.0404237462878
 20
-314.8199999999326
 30
0.0
 11
388.040423746288
 21
-315.2099999999326
 31
0.0
  0
LINE
  5
1C6
330
1F
100
AcDbEntity
  8
1
  6
CONTINUOUS
 62
     7
100
AcDbLine
 10
375.3404237514069
 20
-372.1543156662424
 30
0.0
 11
375.3404237514069
 21
-366.6291651245989
 31
0.0
  0
LINE
  5
1C7
330
1F
100
AcDbEntity
  8
1
  6
CONTINUOUS
 62
     7
100
AcDbLine
 10
375.3404237514069
 20
-263.3708348754012
 30
0.0
 11
375.3404237514069
 21
-274.6291651245989
 31
0.0
  0
LINE
  5
1C8
330
1F
100
AcDbEntity
  8
1
  6
CONTINUOUS
 62
     7
100
AcDbLine
 10
375.3404237514069
 20
-235.05
 30
0.0
 11
375.3404237514069
 21
-241.8
 31
0.0
  0
LINE
  5
1C9
330
1F
100
AcDbEntity
  8
1
  6
CONTINUOUS
 62
     7
100
AcDbLine
 10
376.3404237514069
 20
-355.7
 30
0.0
 11
376.3404237514069
 21
-359.0
 31
0.0
  0
LINE
  5
1CA
330
1F
100
AcDbEntity
  8
1
  6
CONTINUOUS
 62
     7
100
AcDbLine
 10
386.6120967584279
 20
-292.5870569267556
 30
0.0
 11
376.3404237514069
 21
-275.4921222917567
 31
0.0
  0
ARC
  5
1CB
330
1F
100
AcDbEntity
  8
1
  6
CONTINUOUS
 62
     7
100
AcDbCircle
 10
378.040423751407
 20
-332.2625623241439
 30
0.0
 40
10.00000000000001
100
AcDbArc
 50
329.0
 51
0.0
  0
LINE
  5
1CC
330
1F
100
AcDbEntity
  8
1
  6
CONTINUOUS
 62
     7
100
AcDbLine
 10
373.0404237514069
 20
-388.2
 30
0.0
 11
373.0404237514069
 21
-382.0
 31
0.0
  0
LINE
  5
1CD
330
1F
100
AcDbEntity
  8
1
  6
CONTINUOUS
 62
     7
100
AcDbLine
 10
375.3404237514069
 20
-241.8
 30
0.0
 11
375.3404237514069
 21
-248.0000000000001
 31
0.0
  0
ARC
  5
1CE
330
1F
100
AcDbEntity
  8
1
  6
CONTINUOUS
 62
     7
100
AcDbCircle
 10
375.3404237514069
 20
-271.0
 30
0.0
 40
1.000000000000001
100
AcDbArc
 50
0.0
 51
90.0
  0
LINE
  5
1CF
330
1F
100
AcDbEntity
  8
1
  6
CONTINUOUS
 62
     7
100
AcDbLine
 10
375.3404237514069
 20
-382.0
 30
0.0
 11
375.3404237514069
 21
-380.0308631332485
 31
0.0
  0
ARC
  5
1D0
330
1F
100
AcDbEntity
  8
1
  6
CONTINUOUS
 62
     7
100
AcDbCircle
 10
378.040423751407
 20
-297.7374376758562
 30
0.0
 40
10.00000000000001
100
AcDbArc
 50
0.0
 51
31.0
  0
LINE
  5
1D1
330
1F
100
AcDbEntity
  8
1
  6
CONTINUOUS
 62
     7
100
AcDbLine
 10
375.3404237514069
 20
-355.3708348754012
 30
0.0
 11
375.3404237514069
 21
-274.6291651245989
 31
0.0
  0
LINE
  5
1D2
330
1F
100
AcDbEntity
  8
1
  6
CONTINUOUS
 62
     7
100
AcDbLine
 10
388.040423746288
 20
-314.7899999999326
 30
0.0
 11
385.0404237462889
 21
-314.3999999999327
 31
0.0
  0
LINE
  5
1D3
330
1F
100
AcDbEntity
  8
1
  6
CONTINUOUS
 62
     7
100
AcDbLine
 10
373.0404237514069
 20
-241.8
 30
0.0
 11
373.0404237514069
 21
-248.0000000000001
 31
0.0
  0
LINE
  5
1D4
330
1F
100
AcDbEntity
  8
1
  6
CONTINUOUS
 62
     7
100
AcDbLine
 10
385.0404237468066
 20
-322.0589436081829
 30
0.0
 11
385.0404237468066
 21
-321.825789429951
 31
0.0
  0
LINE
  5
1D5
330
1F
100
AcDbEntity
  8
1
  6
CONTINUOUS
 62
     7
100
AcDbLine
 10
373.0404237514069
 20
-366.6291651245989
 30
0.0
 11
373.0404237514069
 21
-355.3708348754012
 31
0.0
  0
LINE
  5
1D6
330
1F
100
AcDbEntity
  8
1
  6
CONTINUOUS
 62
     7
100
AcDbLine
 10
375.3404237514069
 20
-388.2
 30
0.0
 11
375.3404237514069
 21
-382.0
 31
0.0
  0
LINE
  5
1D7
330
1F
100
AcDbEntity
  8
1
  6
CONTINUOUS
 62
     7
100
AcDbLine
 10
373.0404237514069
 20
-235.05
 30
0.0
 11
373.0404237514069
 21
-241.8
 31
0.0
  0
LINE
  5
1D8
330
1F
100
AcDbEntity
  8
1
  6
CONTINUOUS
 62
     7
100
AcDbLine
 10
373.0404237514069
 20
-366.6291651245989
 30
0.0
 11
375.3404237514069
 21
-366.6291651245989
 31
0.0
  0
LINE
  5
1D9
330
1F
100
AcDbEntity
  8
1
  6
CONTINUOUS
 62
     7
100
AcDbLine
 10
373.0404237514069
 20
-263.3708348754012
 30
0.0
 11
373.0404237514069
 21
-274.6291651245989
 31
0.0
  0
LINE
  5
1DA
330
1F
100
AcDbEntity
  8
1
  6
CONTINUOUS
 62
     7
100
AcDbLine
 10
375.3404237514069
 20
-394.95
 30
0.0
 11
375.3404237514069
 21
-388.2
 31
0.0
  0
LINE
  5
1DB
330
1F
100
AcDbEntity
  8
1
  6
CONTINUOUS
 62
     7
100
AcDbLine
 10
390.340423751407
 20
-305.9054215099999
 30
0.0
 11
390.340423751407
 21
-297.7374376758562
 31
0.0
  0
ARC
  5
1DC
330
1F
100
AcDbEntity
  8
1
  6
CONTINUOUS
 62
     7
100
AcDbCircle
 10
378.040423751407
 20
-332.2625623241439
 30
0.0
 40
12.29999999999998
100
AcDbArc
 50
329.0000000000001
 51
0.0
  0
LINE
  5
1DD
330
1F
100
AcDbEntity
  8
1
  6
CONTINUOUS
 62
     7
100
AcDbLine
 10
373.0404237514069
 20
-249.9691368667515
 30
0.0
 11
373.0404237514069
 21
-248.0
 31
0.0
  0
LINE
  5
1DE
330
1F
100
AcDbEntity
  8
1
  6
CONTINUOUS
 62
     7
100
AcDbLine
 10
385.0404237468066
 20
-317.6704378470156
 30
0.0
 11
385.0404237468066
 21
-316.8637742593984
 31
0.0
  0
ARC
  5
1DF
330
1F
100
AcDbEntity
  8
1
  6
CONTINUOUS
 62
     7
100
AcDbCircle
 10
375.3404237514069
 20
-359.0
 30
0.0
 40
1.000000000000001
100
AcDbArc
 50
270.0
 51
0.0
  0
LINE
  5
1E0
330
1F
100
AcDbEntity
  8
1
  6
CONTINUOUS
 62
     7
100
AcDbLine
 10
373.0404237514069
 20
-257.8456843337577
 30
0.0
 11
373.0404237514069
 21
-263.3708348754012
 31
0.0
  0
LINE
  5
1E1
330
1F
100
AcDbEntity
  8
1
  6
CONTINUOUS
 62
     7
100
AcDbLine
 10
373.0404237514069
 20
-274.6291651245989
 30
0.0
 11
375.3404237514069
 21
-274.6291651245989
 31
0.0
  0
ARC
  5
1E2
330
1F
100
AcDbEntity
  8
1
  6
CONTINUOUS
 62
     7
100
AcDbCircle
 10
380.3404237514068
 20
-267.9755308283632
 30
0.0
 40
4.999999999999893
100
AcDbArc
 50
180.0
 51
205.4749858641653
  0
LINE
  5
1E3
330
1F
100
AcDbEntity
  8
1
  6
CONTINUOUS
 62
     7
100
AcDbLine
 10
385.0404237468066
 20
-322.718906166717
 30
0.0
 11
385.0404237468066
 21
-322.0589436081829
 31
0.0
  0
LINE
  5
1E4
330
1F
100
AcDbEntity
  8
1
  6
CONTINUOUS
 62
     7
100
AcDbLine
 10
385.0404237468066
 20
-314.4
 30
0.0
 11
385.0404237468066
 21
-307.1977999485528
 31
0.0
  0
LINE
  5
1E5
330
1F
100
AcDbEntity
  8
1
  6
CONTINUOUS
 62
     7
100
AcDbLine
 10
375.3404237514069
 20
-366.6291651245989
 30
0.0
 11
375.3404237514069
 21
-355.3708348754012
 31
0.0
  0
LINE
  5
1E6
330
1F
100
AcDbEntity
  8
1
  6
CONTINUOUS
 62
     7
100
AcDbLine
 10
375.3404237514069
 20
-257.8456843337577
 30
0.0
 11
375.3404237514069
 21
-263.3708348754012
 31
0.0
  0
LINE
  5
1E7
330
1F
100
AcDbEntity
  8
1
  6
CONTINUOUS
 62
     7
100
AcDbLine
 10
375.3404237514069
 20
-372.1543156662424
 30
0.0
 11
375.3404237514069
 21
-380.0308631332485
 31
0.0
  0
LINE
  5
1E8
330
1F
100
AcDbEntity
  8
1
  6
CONTINUOUS
 62
     7
100
AcDbLine
 10
375.3404237514069
 20
-257.8456843337577
 30
0.0
 11
375.3404237514069
 21
-249.9691368667515
 31
0.0
  0
LINE
  5
1E9
330
1F
100
AcDbEntity
  8
1
  6
CONTINUOUS
 62
     7
100
AcDbLine
 10
373.0404237514069
 20
-249.9691368667515
 30
0.0
 11
373.0404237514069
 21
-257.8456843337577
 31
0.0
  0
LINE
  5
1EA
330
1F
100
AcDbEntity
  8
1
  6
CONTINUOUS
 62
     7
100
AcDbLine
 10
373.0404237514069
 20
-355.3708348754012
 30
0.0
 11
373.0404237514069
 21
-274.6291651245989
 31
0.0
  0
LINE
  5
1EB
330
1F
100
AcDbEntity
  8
1
  6
CONTINUOUS
 62
     7
100
AcDbLine
 10
373.0404237514069
 20
-372.1543156662424
 30
0.0
 11
373.0404237514069
 21
-366.6291651245989
 31
0.0
  0
LINE
  5
1EC
330
1F
100
AcDbEntity
  8
1
  6
CONTINUOUS
 62
     7
100
AcDbLine
 10
388.040423751407
 20
-332.2625623241439
 30
0.0
 11
388.040423751407
 21
-297.7374376758562
 31
0.0
  0
LINE
  5
1ED
330
1F
100
AcDbEntity
  8
1
  6
CONTINUOUS
 62
     7
100
AcDbLine
 10
385.0404237468066
 20
-323.2500000000001
 30
0.0
 11
385.0404237468066
 21
-323.0000000002235
 31
0.0
  0
LINE
  5
1EE
330
1F
100
AcDbEntity
  8
1
  6
CONTINUOUS
 62
     7
100
AcDbLine
 10
385.0404237468066
 20
-306.8969231927298
 30
0.0
 11
385.0404237468066
 21
-306.7499999999999
 31
0.0
  0
LINE
  5
1EF
330
1F
100
AcDbEntity
  8
1
  6
CONTINUOUS
 62
     7
100
AcDbLine
 10
385.0404237468066
 20
-321.825789429951
 30
0.0
 11
385.0404237468066
 21
-317.6704378470155
 31
0.0
  0
LINE
  5
1F0
330
1F
100
AcDbEntity
  8
1
  6
CONTINUOUS
 62
     7
100
AcDbLine
 10
373.0404237514069
 20
-394.95
 30
0.0
 11
373.0404237514069
 21
-388.2
 31
0.0
  0
LINE
  5
1F1
330
1F
100
AcDbEntity
  8
1
  6
CONTINUOUS
 62
     7
100
AcDbLine
 10
390.340423751407
 20
-332.2625623241439
 30
0.0
 11
390.340423749107
 21
-325.7255854539106
 31
0.0
  0
LINE
  5
1F2
330
1F
100
AcDbEntity
  8
1
  6
CONTINUOUS
 62
     7
100
AcDbLine
 10
385.0404237468066
 20
-323.0000000002235
 30
0.0
 11
385.0404237468066
 21
-322.718906166717
 31
0.0
  0
LINE
  5
1F3
330
1F
100
AcDbEntity
  8
1
  6
CONTINUOUS
 62
     7
100
AcDbLine
 10
376.3404237514069
 20
-358.9735669689871
 30
0.0
 11
388.5835815500428
 21
-338.5975306455375
 31
0.0
  0
ARC
  5
1F4
330
1F
100
AcDbEntity
  8
1
  6
CONTINUOUS
 62
     7
100
AcDbCircle
 10
380.3404237514068
 20
-362.0244691716368
 30
0.0
 40
4.999999999999893
100
AcDbArc
 50
154.5250141358347
 51
180.0
  0
LINE
  5
1F5
330
1F
100
AcDbEntity
  8
1
  6
CONTINUOUS
 62
     7
100
AcDbLine
 10
385.0404237457842
 20
-315.0000000000001
 30
0.0
 11
385.0308903228428
 21
-314.4857329245079
 31
0.0
  0
ARC
  5
1F6
330
1F
100
AcDbEntity
  8
1
  6
CONTINUOUS
 62
     7
100
AcDbCircle
 10
380.5412689186045
 20
-322.0550076827186
 30
0.0
 40
4.500941405161107
100
AcDbArc
 50
1.614400352481701
 51
32.76984713871101
  0
LINE
  5
1F7
330
1F
100
AcDbEntity
  8
1
  6
CONTINUOUS
 62
     7
100
AcDbLine
 10
385.0404237468066
 20
-314.8199999999337
 30
0.0
 11
385.0404237468066
 21
-314.3723272341773
 31
0.0
  0
ARC
  5
1F8
330
1F
100
AcDbEntity
  8
1
  6
CONTINUOUS
 62
     7
100
AcDbCircle
 10
381.1395785724854
 20
-307.9449923194216
 30
0.0
 40
4.500941403600578
100
AcDbArc
 50
181.6144003257895
 51
212.7698471191011
  0
ARC
  5
1F9
330
1F
100
AcDbEntity
  8
1
  6
CONTINUOUS
 62
     7
100
AcDbCircle
 10
442.4955495785562
 20
-356.4453703692216
 30
0.0
 40
12.53604789609108
100
AcDbArc
 50
328.5451235887128
 51
347.1987184108697
  0
LINE
  5
1FA
330
1F
100
AcDbEntity
  8
1
  6
CONTINUOUS
 62
     7
100
AcDbLine
 10
376.3404237514069
 20
-271.0264330310129
 30
0.0
 11
388.5835815500428
 21
-291.4024693544625
 31
0.0
  0
LINE
  5
1FB
330
1F
100
AcDbEntity
  8
1
  6
CONTINUOUS
 62
     7
100
AcDbLine
 10
377.354954926623
 20
-324.2376043070341
 30
0.0
 11
384.3258925669903
 21
-324.2376043070341
 31
0.0
  0
LINE
  5
1FC
330
1F
100
AcDbEntity
  8
1
  6
CONTINUOUS
 62
     7
100
AcDbLine
 10
376.6404237468066
 20
-321.9282032302757
 30
0.0
 11
376.6404237468066
 21
-323.0000000000002
 31
0.0
  0
ARC
  5
1FD
330
1F
100
AcDbEntity
  8
1
  6
CONTINUOUS
 62
     7
100
AcDbCircle
 10
442.6460178494889
 20
-356.795630570492
 30
0.0
 40
12.31556971044157
100
AcDbArc
 50
348.6327780138074
 51
7.623379986609336
  0
LINE
  5
1FE
330
1F
100
AcDbEntity
  8
1
  6
CONTINUOUS
 62
     7
100
AcDbLine
 10
385.0196111102576
 20
-307.6916401609741
 30
0.0
 11
384.9827909738363
 21
-307.4379334456153
 31
0.0
  0
LINE
  5
1FF
330
1F
100
AcDbEntity
  8
1
  6
CONTINUOUS
 62
     7
100
AcDbLine
 10
453.189442740997
 20
-362.9870174006188
 30
0.0
 11
447.9759572384352
 21
-361.8788568478778
 31
0.0
  0
ARC
  5
200
330
1F
100
AcDbEntity
  8
1
  6
CONTINUOUS
 62
     7
100
AcDbCircle
 10
381.2581884531172
 20
-308.2352992465113
 30
0.0
 40
4.620658388961973
100
AcDbArc
 50
147.6435929436407
 51
177.9721595651638
  0
LINE
  5
201
330
1F
100
AcDbEntity
  8
1
  6
CONTINUOUS
 62
     7
100
AcDbLine
 10
456.3832999899971
 20
-351.3978055775507
 30
0.0
 11
454.720006463455
 21
-359.2229863834212
 31
0.0
  0
LINE
  5
202
330
1F
100
AcDbEntity
  8
1
  6
CONTINUOUS
 62
     7
100
AcDbLine
 10
466.9595762485932
 20
-352.6235218994853
 30
0.0
 11
464.8804593404156
 21
-362.4049979068233
 31
0.0
  0
ARC
  5
203
330
1F
100
AcDbEntity
  8
1
  6
CONTINUOUS
 62
     7
100
AcDbCircle
 10
437.1790583437103
 20
-347.315818003736
 30
0.0
 40
14.1652788930855
100
AcDbArc
 50
331.5976619320185
 51
4.402338067982043
  0
ARC
  5
204
330
1F
100
AcDbEntity
  8
1
  6
CONTINUOUS
 62
     7
100
AcDbCircle
 10
381.2581884515104
 20
-322.0917057048368
 30
0.0
 40
4.620658387277432
100
AcDbArc
 50
147.6435929630731
 51
177.9721595920365
  0
LINE
  5
205
330
1F
100
AcDbEntity
  8
1
  6
CONTINUOUS
 62
     7
100
AcDbLine
 10
385.0404237468066
 20
-316.6632935265422
 30
0.0
 11
385.0404237468066
 21
-317.6704548738704
 31
0.0
  0
ARC
  5
206
330
1F
100
AcDbEntity
  8
1
  6
CONTINUOUS
 62
     7
100
AcDbCircle
 10
444.159972302637
 20
-348.6206487276834
 30
0.0
 40
12.53484502980973
100
AcDbArc
 50
328.5442205810797
 51
347.1996214185033
  0
LINE
  5
207
330
1F
100
AcDbEntity
  8
1
  6
CONTINUOUS
 62
     7
100
AcDbLine
 10
385.0404237468066
 20
-315.0000000000001
 30
0.0
 11
385.0404237468066
 21
-314.8199999999337
 31
0.0
  0
ARC
  5
208
330
1F
100
AcDbEntity
  8
1
  6
CONTINUOUS
 62
     7
100
AcDbCircle
 10
381.1395785739857
 20
-321.8013987778327
 30
0.0
 40
4.500941405160441
100
AcDbArc
 50
181.6144003524813
 51
212.7698471387141
  0
LINE
  5
209
330
1F
100
AcDbEntity
  8
1
  6
CONTINUOUS
 62
     7
100
AcDbLine
 10
454.8527362675392
 20
-355.1618365947484
 30
0.0
 11
449.6392507649774
 21
-354.0536760420074
 31
0.0
  0
LINE
  5
20A
330
1F
100
AcDbEntity
  8
1
  6
CONTINUOUS
 62
     7
100
AcDbLine
 10
456.5160297940811
 20
-347.336655788878
 30
0.0
 11
451.3025442915193
 21
-346.2284952361368
 31
0.0
  0
ARC
  5
20B
330
1F
100
AcDbEntity
  8
1
  6
CONTINUOUS
 62
     7
100
AcDbCircle
 10
435.7795863538067
 20
-286.5066073086499
 30
0.0
 40
5.249999999999977
100
AcDbArc
 50
180.0
 51
0.0
  0
LINE
  5
20C
330
1F
100
AcDbEntity
  8
1
  6
CONTINUOUS
 62
     7
100
AcDbLine
 10
431.3757320395599
 20
-345.6245197855779
 30
0.0
 11
430.3404237510843
 21
-342.7800336408136
 31
0.0
  0
ARC
  5
20D
330
1F
100
AcDbEntity
  8
1
  6
CONTINUOUS
 62
     7
100
AcDbCircle
 10
425.3398918595755
 20
-318.9983658767574
 30
0.0
 40
27.30171127703385
100
AcDbArc
 50
282.7724268391894
 51
293.2864563782693
  0
ARC
  5
20E
330
1F
100
AcDbEntity
  8
1
  6
CONTINUOUS
 62
     7
100
AcDbCircle
 10
368.2169602481113
 20
-315.2608920849211
 30
0.0
 40
16.83178886161318
100
AcDbArc
 50
2.639592447715805
 51
16.85253353594375
  0
LINE
  5
20F
330
1F
100
AcDbEntity
  8
1
  6
CONTINUOUS
 62
     7
100
AcDbLine
 10
384.887523839612
 20
-322.9659196728241
 30
0.0
 11
385.0404237462953
 21
-321.9282032302756
 31
0.0
  0
ARC
  5
210
330
1F
100
AcDbEntity
  8
1
  6
CONTINUOUS
 62
     7
100
AcDbCircle
 10
425.3403974776888
 20
-318.9999181003448
 30
0.0
 40
24.30008555237384
100
AcDbArc
 50
281.8740903272196
 51
293.6930739422675
  0
ARC
  5
211
330
1F
100
AcDbEntity
  8
1
  6
CONTINUOUS
 62
     7
100
AcDbCircle
 10
425.3404237469065
 20
-319.0
 30
0.0
 40
27.3000000000001
100
AcDbArc
 50
293.2867868376507
 51
35.59659260977065
  0
ARC
  5
212
330
1F
100
AcDbEntity
  8
1
  6
CONTINUOUS
 62
     7
100
AcDbCircle
 10
393.165998551991
 20
-315.1918450636853
 30
0.0
 40
16.52668833142334
100
AcDbArc
 50
163.0771618937434
 51
179.3348843322623
  0
LINE
  5
213
330
1F
100
AcDbEntity
  8
1
  6
CONTINUOUS
 62
     7
100
AcDbLine
 10
384.9827909738364
 20
-307.4379334456153
 30
0.0
 11
384.9231244396087
 21
-307.1646072732942
 31
0.0
  0
ARC
  5
214
330
1F
100
AcDbEntity
  8
1
  6
CONTINUOUS
 62
     7
100
AcDbCircle
 10
425.3344580485079
 20
-319.0057710386031
 30
0.0
 40
24.30824744232218
100
AcDbArc
 50
37.58330404865576
 51
50.51631048416864
  0
ARC
  5
215
330
1F
100
AcDbEntity
  8
1
  6
CONTINUOUS
 62
     7
100
AcDbCircle
 10
425.3404237469065
 20
-319.0
 30
0.0
 40
24.30000000000021
100
AcDbArc
 50
293.6930948217516
 51
37.58109994029928
  0
LINE
  5
216
330
1F
100
AcDbEntity
  8
1
  6
CONTINUOUS
 62
     7
100
AcDbLine
 10
385.0404237462953
 20
-308.0717967697246
 30
0.0
 11
385.0196111102578
 21
-307.6916401609741
 31
0.0
  0
LINE
  5
217
330
1F
100
AcDbEntity
  8
1
  6
CONTINUOUS
 62
     7
100
AcDbLine
 10
449.4143302887397
 20
-343.7824617702788
 30
0.0
 11
446.2012105120174
 21
-358.8990018172065
 31
0.0
  0
LINE
  5
218
330
1F
100
AcDbEntity
  8
1
  6
CONTINUOUS
 62
     7
100
AcDbLine
 10
457.214946753268
 20
-347.4852151746156
 30
0.0
 11
456.3832999899971
 21
-351.3978055775508
 31
0.0
  0
LINE
  5
219
330
1F
100
AcDbEntity
  8
1
  6
CONTINUOUS
 62
     7
100
AcDbLine
 10
440.0341303988806
 20
-295.6166236868582
 30
0.0
 11
440.9717469210573
 21
-296.2463416913567
 31
0.0
  0
LINE
  5
21A
330
1F
100
AcDbEntity
  8
1
  6
CONTINUOUS
 62
     7
100
AcDbLine
 10
384.9078633510586
 20
-307.1066104903989
 30
0.0
 11
384.3258925669903
 21
-305.7623956929662
 31
0.0
  0
LINE
  5
21B
330
1F
100
AcDbEntity
  8
1
  6
CONTINUOUS
 62
     7
100
AcDbLine
 10
440.9717469210573
 20
-296.2463416913567
 30
0.0
 11
443.9298229789492
 21
-297.4829222322347
 31
0.0
  0
ARC
  5
21C
330
1F
100
AcDbEntity
  8
1
  6
CONTINUOUS
 62
     7
100
AcDbCircle
 10
445.3903805336534
 20
-294.2237171797007
 30
0.0
 40
3.571504717211793
100
AcDbArc
 50
245.8612709861533
 51
269.0717798728402
  0
LINE
  5
21D
330
1F
100
AcDbEntity
  8
1
  6
CONTINUOUS
 62
     7
100
AcDbLine
 10
441.7992163957666
 20
-297.219317169982
 30
0.0
 11
440.0341303988806
 21
-295.6166236868582
 31
0.0
  0
LINE
  5
21E
330
1F
100
AcDbEntity
  8
1
  6
CONTINUOUS
 62
     7
100
AcDbLine
 10
376.6404237468066
 20
-315.0000000000001
 30
0.0
 11
376.6404237468066
 21
-308.0717967697244
 31
0.0
  0
ARC
  5
21F
330
1F
100
AcDbEntity
  8
1
  6
CONTINUOUS
 62
     7
100
AcDbCircle
 10
444.3861818508649
 20
-348.9729621080699
 30
0.0
 40
12.23971852191763
100
AcDbArc
 50
348.5733845026439
 51
7.682773497773042
  0
LINE
  5
220
330
1F
100
AcDbEntity
  8
1
  6
CONTINUOUS
 62
     7
100
AcDbLine
 10
454.7200064634549
 20
-359.2229863834212
 30
0.0
 11
453.8883597001839
 21
-363.1355767863564
 31
0.0
  0
LINE
  5
221
330
1F
100
AcDbEntity
  8
1
  6
CONTINUOUS
 62
     7
100
AcDbLine
 10
451.3706254902072
 20
-344.1982851519143
 30
0.0
 11
447.2123916738519
 21
-363.7612371665905
 31
0.0
  0
ARC
  5
222
330
1F
100
AcDbEntity
  8
1
  6
CONTINUOUS
 62
     7
100
AcDbCircle
 10
425.3332629103754
 20
-319.0062765123614
 30
0.0
 40
27.30947614405643
100
AcDbArc
 50
35.59855533332534
 51
46.87092900888632
  0
ARC
  5
223
330
1F
100
AcDbEntity
  8
1
  6
CONTINUOUS
 62
     7
100
AcDbCircle
 10
392.7301117008673
 20
-314.8755868668561
 30
0.0
 40
16.09016895870419
100
AcDbArc
 50
180.4430294359559
 51
197.1449243380384
  0
LINE
  5
224
330
1F
100
AcDbEntity
  8
1
  6
CONTINUOUS
 62
     7
100
AcDbLine
 10
377.3549549256003
 20
-319.618802153517
 30
0.0
 11
384.3258925659677
 21
-319.618802153517
 31
0.0
  0
ARC
  5
225
330
1F
100
AcDbEntity
  8
1
  6
CONTINUOUS
 62
     7
100
AcDbCircle
 10
368.3691148037767
 20
-314.7856097870465
 30
0.0
 40
16.67268739595595
100
AcDbArc
 50
343.1488196457543
 51
359.2632265802528
  0
LINE
  5
226
330
1F
100
AcDbEntity
  8
1
  6
CONTINUOUS
 62
     7
100
AcDbLine
 10
385.0404237468066
 20
-314.3723272341774
 30
0.0
 11
385.0404237468066
 21
-313.345851673877
 31
0.0
  0
LINE
  5
227
330
1F
100
AcDbEntity
  8
1
  6
CONTINUOUS
 62
     7
100
AcDbLine
 10
377.354954926623
 20
-305.7623956929661
 30
0.0
 11
384.3258925669903
 21
-305.7623956929661
 31
0.0
  0
ARC
  5
228
330
1F
100
AcDbEntity
  8
1
  6
CONTINUOUS
 62
     7
100
AcDbCircle
 10
435.7795863538067
 20
-286.5066073086499
 30
0.0
 40
5.249999999999977
100
AcDbArc
 50
0.0
 51
180.0
  0
LINE
  5
229
330
1F
100
AcDbEntity
  8
1
  6
CONTINUOUS
 62
     7
100
AcDbLine
 10
377.3549549256003
 20
-310.3811978464831
 30
0.0
 11
384.3258925659677
 21
-310.3811978464831
 31
0.0
  0
LINE
  5
22A
330
1F
100
AcDbEntity
  8
1
  6
CONTINUOUS
 62
     7
100
AcDbLine
 10
384.3258925669903
 20
-324.2376043070341
 30
0.0
 11
384.887523839612
 21
-322.9659196728242
 31
0.0
  0
LINE
  5
22B
330
1F
100
AcDbEntity
  8
1
  6
CONTINUOUS
 62
     7
100
AcDbLine
 10
385.0404237468066
 20
-315.0000000000001
 30
0.0
 11
385.0404237468066
 21
-316.6632935265421
 31
0.0
  0
LINE
  5
22C
330
1F
100
AcDbEntity
  8
1
  6
CONTINUOUS
 62
     7
100
AcDbLine
 10
385.0404237468066
 20
-313.345851673877
 30
0.0
 11
385.0404237468066
 21
-308.0717967697245
 31
0.0
  0
ARC
  5
22D
330
1F
100
AcDbEntity
  8
1
  6
CONTINUOUS
 62
     7
100
AcDbCircle
 10
380.4226590394728
 20
-307.9082942929379
 30
0.0
 40
4.62065838896264
100
AcDbArc
 50
327.6435929436444
 51
357.9721595651631
  0
LINE
  5
22E
330
1F
100
AcDbEntity
  8
1
  6
CONTINUOUS
 62
     7
100
AcDbLine
 10
385.0404237468066
 20
-317.6704548738703
 30
0.0
 11
385.0404237468066
 21
-321.9282032302757
 31
0.0
  0
LINE
  5
22F
330
1F
100
AcDbEntity
  8
1
  6
CONTINUOUS
 62
     7
100
AcDbLine
 10
376.6404237468066
 20
-315.0000000000001
 30
0.0
 11
376.6404237468066
 21
-321.9282032302757
 31
0.0
  0
LINE
  5
230
330
1F
100
AcDbEntity
  8
1
  6
CONTINUOUS
 62
     7
100
AcDbLine
 10
376.6404237468066
 20
-307.0
 30
0.0
 11
376.6404237468066
 21
-308.0717967697245
 31
0.0
  0
LINE
  5
231
330
1F
100
AcDbEntity
  8
1
  6
CONTINUOUS
 62
     7
100
AcDbLine
 10
456.5160297940811
 20
-347.336655788878
 30
0.0
 11
457.2149467532679
 21
-347.4852151746155
 31
0.0
  0
ARC
  5
232
330
1F
100
AcDbEntity
  8
1
  6
CONTINUOUS
 62
     7
100
AcDbCircle
 10
435.4863951735676
 20
-355.1347560991451
 30
0.0
 40
14.19408522875776
100
AcDbArc
 50
331.6318870058593
 51
4.368112994141256
  0
LINE
  5
233
330
1F
100
AcDbEntity
  8
1
  6
CONTINUOUS
 62
     7
100
AcDbLine
 10
384.9231244396087
 20
-307.1646072732942
 30
0.0
 11
384.9078633510586
 21
-307.1066104903989
 31
0.0
  0
LINE
  5
234
330
1F
100
AcDbEntity
  8
1
  6
CONTINUOUS
 62
     7
100
AcDbLine
 10
453.8883597001839
 20
-363.1355767863564
 30
0.0
 11
453.1894427409969
 21
-362.9870174006188
 31
0.0
  0
LINE
  5
235
330
1F
100
AcDbEntity
  8
1
  6
CONTINUOUS
 62
     7
100
AcDbLine
 10
439.8837110492064
 20
-368.9999999997998
 30
0.0
 11
438.8869666347123
 21
-366.2614672280062
 31
0.0
  0
LINE
  5
236
330
1F
100
AcDbEntity
  8
1
  6
CONTINUOUS
 62
     7
100
AcDbLine
 10
405.294940361222
 20
-332.7356687436121
 30
0.0
 11
406.8420907325844
 21
-334.7575910497521
 31
0.0
  0
ARC
  5
237
330
1F
100
AcDbEntity
  8
1
  6
CONTINUOUS
 62
     7
100
AcDbCircle
 10
452.8396893827774
 20
-340.6515678297859
 30
0.0
 40
5.000000000000004
100
AcDbArc
 50
141.7848459345351
 51
174.9999999999471
  0
ARC
  5
238
330
1F
100
AcDbEntity
  8
1
  6
CONTINUOUS
 62
     7
100
AcDbCircle
 10
435.7795861867068
 20
-286.5233734156999
 30
0.0
 40
10.00000000000012
100
AcDbArc
 50
261.521093447615
 51
40.00000000010988
  0
LINE
  5
239
330
1F
100
AcDbEntity
  8
1
  6
CONTINUOUS
 62
     7
100
AcDbLine
 10
447.8587158923191
 20
-340.215789116043
 30
0.0
 11
446.2401910369663
 21
-358.7156128658494
 31
0.0
  0
LINE
  5
23A
330
1F
100
AcDbEntity
  8
1
  6
CONTINUOUS
 62
     7
100
AcDbLine
 10
395.340423746807
 20
-350.3508529610858
 30
0.0
 11
390.340423746807
 21
-347.4641016151377
 31
0.0
  0
LINE
  5
23B
330
1F
100
AcDbEntity
  8
1
  6
CONTINUOUS
 62
     7
100
AcDbLine
 10
439.8567840649395
 20
-299.5124326013469
 30
0.0
 11
435.908335996501
 21
-297.1182900420264
 31
0.0
  0
LINE
  5
23C
330
1F
100
AcDbEntity
  8
1
  6
CONTINUOUS
 62
     7
100
AcDbLine
 10
432.3216193797948
 20
-348.2233238942236
 30
0.0
 11
438.8869666347122
 21
-366.2614672280062
 31
0.0
  0
LINE
  5
23D
330
1F
100
AcDbEntity
  8
1
  6
CONTINUOUS
 62
     7
100
AcDbLine
 10
432.3216193797948
 20
-348.2233238942236
 30
0.0
 11
431.3820575398151
 21
-345.6418989546957
 31
0.0
  0
LINE
  5
23E
330
1F
100
AcDbEntity
  8
1
  6
CONTINUOUS
 62
     7
100
AcDbLine
 10
419.3667286963159
 20
-283.3251013220863
 30
0.0
 11
435.0837916924076
 21
-270.1369195587998
 31
0.0
  0
ARC
  5
23F
330
1F
100
AcDbEntity
  8
1
  6
CONTINUOUS
 62
     7
100
AcDbCircle
 10
425.3404237469065
 20
-319.0000000000001
 30
0.0
 40
24.29999999999999
100
AcDbArc
 50
68.35109168206975
 51
191.3925488486204
  0
LINE
  5
240
330
1F
100
AcDbEntity
  8
1
  6
CONTINUOUS
 62
     7
100
AcDbLine
 10
406.8674601935289
 20
-286.2092664497961
 30
0.0
 11
417.0210315361937
 21
-284.4189178715638
 31
0.0
  0
LINE
  5
241
330
1F
100
AcDbEntity
  8
1
  6
CONTINUOUS
 62
     7
100
AcDbLine
 10
375.3404237514067
 20
-235.05
 30
0.0
 11
373.0404237514068
 21
-235.05
 31
0.0
  0
LINE
  5
242
330
1F
100
AcDbEntity
  8
1
  6
CONTINUOUS
 62
     7
100
AcDbLine
 10
448.3747718346508
 20
-348.6731997739478
 30
0.0
 11
447.1417185527653
 21
-348.4111062079943
 31
0.0
  0
LINE
  5
243
330
1F
100
AcDbEntity
  8
1
  6
CONTINUOUS
 62
     7
100
AcDbLine
 10
454.5120947726372
 20
-360.201133984155
 30
0.0
 11
464.8804593404155
 21
-362.4049979068233
 31
0.0
  0
LINE
  5
244
330
1F
100
AcDbEntity
  8
1
  6
CONTINUOUS
 62
     7
100
AcDbLine
 10
446.1570991541676
 20
-359.6653574321617
 30
0.0
 11
445.5800143236406
 21
-366.2614672281447
 31
0.0
  0
LINE
  5
245
330
1F
100
AcDbEntity
  8
1
  6
CONTINUOUS
 62
     7
100
AcDbLine
 10
395.340423746807
 20
-350.3508529610858
 30
0.0
 11
397.840423746807
 21
-351.7942286340598
 31
0.0
  0
LINE
  5
246
330
1F
100
AcDbEntity
  8
1
  6
CONTINUOUS
 62
     7
100
AcDbLine
 10
384.3258925669903
 20
-324.2376043070341
 30
0.0
 11
385.0404237468066
 21
-323.0000000000001
 31
0.0
  0
LINE
  5
247
330
1F
100
AcDbEntity
  8
1
  6
CONTINUOUS
 62
     7
100
AcDbLine
 10
435.0837916924075
 20
-270.1369195587998
 30
0.0
 11
438.2977297408475
 21
-273.9671417743885
 31
0.0
  0
LINE
  5
248
330
1F
100
AcDbEntity
  8
1
  6
CONTINUOUS
 62
     7
100
AcDbLine
 10
248.2480361296939
 20
-314.8200000000001
 30
0.0
 11
247.9999999987331
 21
-314.8200000000001
 31
0.0
  0
LINE
  5
249
330
1F
100
AcDbEntity
  8
1
  6
CONTINUOUS
 62
     7
100
AcDbLine
 10
247.9999999987344
 20
-314.4
 30
0.0
 11
248.2281528909437
 21
-314.4
 31
0.0
  0
LINE
  5
24A
330
1F
100
AcDbEntity
  8
1
  6
CONTINUOUS
 62
     7
100
AcDbLine
 10
390.340423746807
 20
-332.2625623241439
 30
0.0
 11
390.340423746807
 21
-333.7513255768462
 31
0.0
  0
LINE
  5
24B
330
1F
100
AcDbEntity
  8
1
  6
CONTINUOUS
 62
     7
100
AcDbLine
 10
431.1530120834588
 20
-345.0126017353273
 30
0.0
 11
411.3144796452103
 21
-340.795791491674
 31
0.0
  0
ARC
  5
24C
330
1F
100
AcDbEntity
  8
1
  6
CONTINUOUS
 62
     7
100
AcDbCircle
 10
425.3404237469065
 20
-319.0
 30
0.0
 40
27.3000000000001
100
AcDbArc
 50
46.87289173244044
 51
52.92311424514255
  0
LINE
  5
24D
330
1F
100
AcDbEntity
  8
1
  6
CONTINUOUS
 62
     7
100
AcDbLine
 10
446.1570991541676
 20
-359.6653574321617
 30
0.0
 11
446.201238554335
 21
-358.8988698884752
 31
0.0
  0
LINE
  5
24E
330
1F
100
AcDbEntity
  8
1
  6
CONTINUOUS
 62
     7
100
AcDbLine
 10
442.5914302292555
 20
-368.999999999899
 30
0.0
 11
440.5990408330721
 21
-368.999999999826
 31
0.0
  0
ARC
  5
24F
330
1F
100
AcDbEntity
  8
1
  6
CONTINUOUS
 62
     7
100
AcDbCircle
 10
402.3404237468069
 20
-343.9999999999999
 30
0.0
 40
9.000000000000119
100
AcDbArc
 50
240.0
 51
0.0
  0
LINE
  5
250
330
1F
100
AcDbEntity
  8
1
  6
CONTINUOUS
 62
     7
100
AcDbLine
 10
385.0404237468066
 20
-323.2500000000001
 30
0.0
 11
388.0404237468068
 21
-323.2500000000001
 31
0.0
  0
LINE
  5
251
330
1F
100
AcDbEntity
  8
1
  6
CONTINUOUS
 62
     7
100
AcDbLine
 10
373.0404237514068
 20
-394.95
 30
0.0
 11
375.3404237514067
 21
-394.95
 31
0.0
  0
ARC
  5
252
330
1F
100
AcDbEntity
  8
1
  6
CONTINUOUS
 62
     7
100
AcDbCircle
 10
416.1527906478721
 20
-279.4948791065005
 30
0.0
 40
5.000000000000115
100
AcDbArc
 50
279.9999999998477
 51
310.0000000001621
  0
LINE
  5
253
330
1F
100
AcDbEntity
  8
1
  6
CONTINUOUS
 62
     7
100
AcDbLine
 10
443.4400306178842
 20
-280.0954973188197
 30
0.0
 11
438.2977297408476
 21
-273.9671417743885
 31
0.0
  0
LINE
  5
254
330
1F
100
AcDbEntity
  8
1
  6
CONTINUOUS
 62
     7
100
AcDbLine
 10
377.354954926623
 20
-305.7623956929661
 30
0.0
 11
376.6404237468066
 21
-307.0000000000001
 31
0.0
  0
LINE
  5
255
330
1F
100
AcDbEntity
  8
1
  6
CONTINUOUS
 62
     7
100
AcDbLine
 10
443.2153177297853
 20
-295.5378076088626
 30
0.0
 11
443.3397008868345
 21
-295.495348467414
 31
0.0
  0
LINE
  5
256
330
1F
100
AcDbEntity
  8
1
  6
CONTINUOUS
 62
     7
100
AcDbLine
 10
443.2153177297853
 20
-295.5378076088626
 30
0.0
 11
440.9717469210574
 21
-296.2463416913566
 31
0.0
  0
LINE
  5
257
330
1F
100
AcDbEntity
  8
1
  6
CONTINUOUS
 62
     7
100
AcDbLine
 10
434.8568287471643
 20
-296.4807083356355
 30
0.0
 11
435.908335996501
 21
-297.1182900420265
 31
0.0
  0
LINE
  5
258
330
1F
100
AcDbEntity
  8
1
  6
CONTINUOUS
 62
     7
100
AcDbLine
 10
439.1997876199633
 20
-295.9202996235589
 30
0.0
 11
440.0341303988806
 21
-295.6166236868582
 31
0.0
  0
ARC
  5
259
330
1F
100
AcDbEntity
  8
1
  6
CONTINUOUS
 62
     7
100
AcDbCircle
 10
425.3404237469065
 20
-319.0
 30
0.0
 40
24.30000000000021
100
AcDbArc
 50
50.51851459252509
 51
53.31743910194371
  0
ARC
  5
25A
330
1F
100
AcDbEntity
  8
1
  6
CONTINUOUS
 62
     7
100
AcDbCircle
 10
425.3404237469065
 20
-319.0
 30
0.0
 40
30.00000000000025
100
AcDbArc
 50
321.7527171538297
 51
20.16996165098845
  0
ARC
  5
25B
330
1F
100
AcDbEntity
  8
1
  6
CONTINUOUS
 62
     7
100
AcDbCircle
 10
425.342285163222
 20
-318.9994168644482
 30
0.0
 40
24.3019399281279
100
AcDbArc
 50
191.3930297190742
 51
203.3959289879135
  0
LINE
  5
25C
330
1F
100
AcDbEntity
  8
1
  6
CONTINUOUS
 62
     7
100
AcDbLine
 10
390.340423746807
 20
-323.2594017992466
 30
0.0
 11
390.3404237468066
 21
-305.90542151
 31
0.0
  0
ARC
  5
25D
330
1F
100
AcDbEntity
  8
1
  6
CONTINUOUS
 62
     7
100
AcDbCircle
 10
410.3404237468066
 20
-305.9054215099999
 30
0.0
 40
20.00000000000002
100
AcDbArc
 50
99.99999999984765
 51
180.0
  0
ARC
  5
25E
330
1F
100
AcDbEntity
  8
1
  6
CONTINUOUS
 62
     7
100
AcDbCircle
 10
425.3404237469065
 20
-319.0000000000001
 30
0.0
 40
24.29999999999988
100
AcDbArc
 50
203.3964098583679
 51
214.4199215015389
  0
LINE
  5
25F
330
1F
100
AcDbEntity
  8
1
  6
CONTINUOUS
 62
     7
100
AcDbLine
 10
388.0404237468068
 20
-306.7500000000001
 30
0.0
 11
385.0404237468066
 21
-306.7500000000001
 31
0.0
  0
LINE
  5
260
330
1F
100
AcDbEntity
  8
1
  6
CONTINUOUS
 62
     7
100
AcDbLine
 10
385.0404237468066
 20
-307.0000000000001
 30
0.0
 11
384.3258925669903
 21
-305.7623956929661
 31
0.0
  0
LINE
  5
261
330
1F
100
AcDbEntity
  8
1
  6
CONTINUOUS
 62
     7
100
AcDbLine
 10
447.2123916738519
 20
-363.7612371665905
 30
0.0
 11
448.5390759683844
 21
-362.0006676436062
 31
0.0
  0
LINE
  5
262
330
1F
100
AcDbEntity
  8
1
  6
CONTINUOUS
 62
     7
100
AcDbLine
 10
451.8665237635229
 20
-346.34625655888
 30
0.0
 11
451.3706254902072
 21
-344.1982851519143
 31
0.0
  0
LINE
  5
263
330
1F
100
AcDbEntity
  8
1
  6
CONTINUOUS
 62
     7
100
AcDbLine
 10
445.7312802162472
 20
-287.5050994173967
 30
0.0
 11
447.494341308141
 21
-292.304722535286
 31
0.0
  0
LINE
  5
264
330
1F
100
AcDbEntity
  8
1
  6
CONTINUOUS
 62
     7
100
AcDbLine
 10
445.8245645453002
 20
-363.4662454039531
 30
0.0
 11
447.2123916738519
 21
-363.7612371665905
 31
0.0
  0
LINE
  5
265
330
1F
100
AcDbEntity
  8
1
  6
CONTINUOUS
 62
     7
100
AcDbLine
 10
451.3706254902072
 20
-344.1982851519143
 30
0.0
 11
449.4143302887397
 21
-343.7824617702788
 31
0.0
  0
LINE
  5
266
330
1F
100
AcDbEntity
  8
1
  6
CONTINUOUS
 62
     7
100
AcDbLine
 10
431.3820575398152
 20
-345.6418989546956
 30
0.0
 11
431.37573203956
 21
-345.6245197855779
 31
0.0
  0
LINE
  5
267
330
1F
100
AcDbEntity
  8
1
  6
CONTINUOUS
 62
     7
100
AcDbLine
 10
446.263615881122
 20
-358.4478656719668
 30
0.0
 11
446.2956549264732
 21
-358.4546757812859
 31
0.0
  0
LINE
  5
268
330
1F
100
AcDbEntity
  8
1
  6
CONTINUOUS
 62
     7
100
AcDbLine
 10
376.6404237468066
 20
-323.0000000000001
 30
0.0
 11
377.354954926623
 21
-324.2376043070341
 31
0.0
  0
LINE
  5
269
330
1F
100
AcDbEntity
  8
1
  6
CONTINUOUS
 62
     7
100
AcDbLine
 10
435.908335996501
 20
-297.1182900420265
 30
0.0
 11
439.1997876199633
 21
-295.920299623559
 31
0.0
  0
LINE
  5
26A
330
1F
100
AcDbEntity
  8
1
  6
CONTINUOUS
 62
     7
100
AcDbLine
 10
440.5990408330722
 20
-368.999999999826
 30
0.0
 11
439.8837110492066
 21
-368.9999999997998
 31
0.0
  0
ARC
  5
26B
330
1F
100
AcDbEntity
  8
1
  6
CONTINUOUS
 62
     7
100
AcDbCircle
 10
442.5914302293655
 20
-365.999999999899
 30
0.0
 40
3.000000000000003
100
AcDbArc
 50
269.9999999978992
 51
354.999999999947
  0
ARC
  5
26C
330
1F
100
AcDbEntity
  8
1
  6
CONTINUOUS
 62
     7
100
AcDbCircle
 10
425.3404237469065
 20
-319.0
 30
0.0
 40
24.29999999999999
100
AcDbArc
 50
220.425633273901
 51
229.5740937524702
  0
LINE
  5
26D
330
1F
100
AcDbEntity
  8
1
  6
CONTINUOUS
 62
     7
100
AcDbLine
 10
447.4943413081409
 20
-292.304722535286
 30
0.0
 11
448.4601652834451
 21
-294.9340081005992
 31
0.0
  0
LINE
  5
26E
330
1F
100
AcDbEntity
  8
1
  6
CONTINUOUS
 62
     7
100
AcDbLine
 10
390.3404237491071
 20
-325.7255854539106
 30
0.0
 11
390.3404237468071
 21
-323.2594017992466
 31
0.0
  0
LINE
  5
26F
330
1F
100
AcDbEntity
  8
1
  6
CONTINUOUS
 62
     7
100
AcDbLine
 10
411.340423746807
 20
-343.9999999999999
 30
0.0
 11
411.3404237468066
 21
-341.3044838540637
 31
0.0
  0
LINE
  5
270
330
1F
100
AcDbEntity
  8
1
  6
CONTINUOUS
 62
     7
100
AcDbLine
 10
448.4601652834452
 20
-294.9340081005992
 30
0.0
 11
453.5006414250136
 21
-308.6558161113775
 31
0.0
  0
LINE
  5
271
330
1F
100
AcDbEntity
  8
1
  6
CONTINUOUS
 62
     7
100
AcDbLine
 10
390.340423746807
 20
-347.4641016151377
 30
0.0
 11
390.340423746807
 21
-333.7513255768463
 31
0.0
  0
LINE
  5
272
330
1F
100
AcDbEntity
  8
1
  6
CONTINUOUS
 62
     7
100
AcDbLine
 10
466.9595762485932
 20
-352.6235218994853
 30
0.0
 11
456.5912116808146
 21
-350.4196579768171
 31
0.0
  0
ARC
  5
273
330
1F
100
AcDbEntity
  8
1
  6
CONTINUOUS
 62
     7
100
AcDbCircle
 10
406.3404237468066
 20
-341.3044838540637
 30
0.0
 40
5.000000000000004
100
AcDbArc
 50
0.0
 51
49.57409375247013
  0
LINE
  5
274
330
1F
100
AcDbEntity
  8
1
  6
CONTINUOUS
 62
     7
100
AcDbLine
 10
408.6206516839998
 20
-350.4466066311588
 30
0.0
 11
435.1860397486986
 21
-356.093254177621
 31
0.0
  0
ARC
  5
275
330
1F
100
AcDbEntity
  8
1
  6
CONTINUOUS
 62
     7
100
AcDbCircle
 10
190.0
 20
-273.3
 30
0.0
 40
2.000000000000002
100
AcDbArc
 50
90.0
 51
180.0
  0
ARC
  5
276
330
1F
100
AcDbEntity
  8
1
  6
CONTINUOUS
 62
     7
100
AcDbCircle
 10
240.0000000000974
 20
-315.0000000000001
 30
0.0
 40
8.25000000202919
100
AcDbArc
 50
1.458595565161913
 51
4.170647912010446
  0
LINE
  5
277
330
1F
100
AcDbEntity
  8
1
  6
CONTINUOUS
 62
     7
100
AcDbLine
 10
296.7499999999999
 20
-388.2
 30
0.0
 11
296.7499999999999
 21
-382.0
 31
0.0
  0
LINE
  5
278
330
1F
100
AcDbEntity
  8
1
  6
CONTINUOUS
 62
     7
100
AcDbLine
 10
192.0
 20
-273.3
 30
0.0
 11
192.0
 21
-356.7
 31
0.0
  0
CIRCLE
  5
279
330
1F
100
AcDbEntity
  8
1
  6
CONTINUOUS
 62
     7
100
AcDbCircle
 10
273.35
 20
-315.0000000000001
 30
0.0
 40
2.749999999999919
  0
LINE
  5
27A
330
1F
100
AcDbEntity
  8
1
  6
CONTINUOUS
 62
     7
100
AcDbLine
 10
252.4999999999999
 20
-264.0
 30
0.0
 11
255.4999999999999
 21
-264.0
 31
0.0
  0
CIRCLE
  5
27B
330
1F
100
AcDbEntity
  8
1
  6
CONTINUOUS
 62
     7
100
AcDbCircle
 10
270.0
 20
-295.0000000000001
 30
0.0
 40
2.749999999999919
  0
ARC
  5
27C
330
1F
100
AcDbEntity
  8
1
  6
CONTINUOUS
 62
     7
100
AcDbCircle
 10
181.25
 20
-248.0
 30
0.0
 40
2.000000000000002
100
AcDbArc
 50
280.0786581077877
 51
0.0
  0
ARC
  5
27D
330
1F
100
AcDbEntity
  8
1
  6
CONTINUOUS
 62
     7
100
AcDbCircle
 10
297.0000000000001
 20
-372.1543156662424
 30
0.0
 40
8.000000000000007
100
AcDbArc
 50
280.0786581077876
 51
0.0
  0
CIRCLE
  5
27E
330
1F
100
AcDbEntity
  8
1
  6
CONTINUOUS
 62
     7
100
AcDbCircle
 10
210.0
 20
-295.0000000000001
 30
0.0
 40
2.75000000000003
  0
CIRCLE
  5
27F
330
1F
100
AcDbEntity
  8
1
  6
CONTINUOUS
 62
     7
100
AcDbCircle
 10
301.7499999999999
 20
-269.0
 30
0.0
 40
2.75000000000003
  0
ARC
  5
280
330
1F
100
AcDbEntity
  8
1
  6
CONTINUOUS
 62
     7
100
AcDbCircle
 10
298.7499999999999
 20
-382.0
 30
0.0
 40
2.000000000000002
100
AcDbArc
 50
100.0786581077875
 51
180.0
  0
LINE
  5
281
330
1F
100
AcDbEntity
  8
1
  6
CONTINUOUS
 62
     7
100
AcDbLine
 10
305.0000000000001
 20
-257.8456843337577
 30
0.0
 11
305.0000000000001
 21
-263.3708348754012
 31
0.0
  0
CIRCLE
  5
282
330
1F
100
AcDbEntity
  8
1
  6
CONTINUOUS
 62
     7
100
AcDbCircle
 10
301.7499999999999
 20
-361.0
 30
0.0
 40
2.75000000000003
  0
LINE
  5
283
330
1F
100
AcDbEntity
  8
1
  6
CONTINUOUS
 62
     7
100
AcDbLine
 10
288.0000000000001
 20
-356.7
 30
0.0
 11
288.0000000000001
 21
-273.3
 31
0.0
  0
LINE
  5
284
330
1F
100
AcDbEntity
  8
1
  6
CONTINUOUS
 62
     7
100
AcDbLine
 10
255.4999999999999
 20
-366.0
 30
0.0
 11
252.4999999999999
 21
-366.0
 31
0.0
  0
ARC
  5
285
330
1F
100
AcDbEntity
  8
1
  6
CONTINUOUS
 62
     7
100
AcDbCircle
 10
190.0
 20
-356.7
 30
0.0
 40
2.000000000000002
100
AcDbArc
 50
270.0000000000002
 51
0.0000000000001705
  0
ARC
  5
286
330
1F
100
AcDbEntity
  8
1
  6
CONTINUOUS
 62
     7
100
AcDbCircle
 10
198.75
 20
-248.0
 30
0.0
 40
2.000000000000002
100
AcDbArc
 50
180.0
 51
270.0
  0
CIRCLE
  5
287
330
1F
100
AcDbEntity
  8
1
  6
CONTINUOUS
 62
     7
100
AcDbCircle
 10
190.0
 20
-241.8
 30
0.0
 40
2.75000000000003
  0
ARC
  5
288
330
1F
100
AcDbEntity
  8
1
  6
CONTINUOUS
 62
     7
100
AcDbCircle
 10
190.0
 20
-273.3
 30
0.0
 40
2.000000000000002
100
AcDbArc
 50
359.9999999999998
 51
89.99999999999982
  0
ARC
  5
289
330
1F
100
AcDbEntity
  8
1
  6
CONTINUOUS
 62
     7
100
AcDbCircle
 10
290.0000000000001
 20
-356.7
 30
0.0
 40
2.000000000000002
100
AcDbArc
 50
180.0
 51
270.0
  0
ARC
  5
28A
330
1F
100
AcDbEntity
  8
1
  6
CONTINUOUS
 62
     7
100
AcDbCircle
 10
183.0
 20
-257.8456843337577
 30
0.0
 40
8.000000000000007
100
AcDbArc
 50
100.0786581077877
 51
180.0
  0
ARC
  5
28B
330
1F
100
AcDbEntity
  8
1
  6
CONTINUOUS
 62
     7
100
AcDbCircle
 10
281.25
 20
-248.0
 30
0.0
 40
2.000000000000002
100
AcDbArc
 50
269.9999999999998
 51
0.0
  0
ARC
  5
28C
330
1F
100
AcDbEntity
  8
1
  6
CONTINUOUS
 62
     7
100
AcDbCircle
 10
198.75
 20
-382.0
 30
0.0
 40
2.000000000000002
100
AcDbArc
 50
90.0
 51
180.0
  0
ARC
  5
28D
330
1F
100
AcDbEntity
  8
1
  6
CONTINUOUS
 62
     7
100
AcDbCircle
 10
298.7499999999999
 20
-248.0
 30
0.0
 40
2.000000000000002
100
AcDbArc
 50
180.0
 51
259.9213418922125
  0
LINE
  5
28E
330
1F
100
AcDbEntity
  8
1
  6
CONTINUOUS
 62
     7
100
AcDbLine
 10
188.0
 20
-356.7
 30
0.0
 11
188.0
 21
-273.3
 31
0.0
  0
LINE
  5
28F
330
1F
100
AcDbEntity
  8
1
  6
CONTINUOUS
 62
     7
100
AcDbLine
 10
183.25
 20
-382.0
 30
0.0
 11
183.25
 21
-388.2
 31
0.0
  0
LINE
  5
290
330
1F
100
AcDbEntity
  8
1
  6
CONTINUOUS
 62
     7
100
AcDbLine
 10
305.0000000000001
 20
-372.1543156662424
 30
0.0
 11
305.0000000000001
 21
-366.6291651245989
 31
0.0
  0
ARC
  5
291
330
1F
100
AcDbEntity
  8
1
  6
CONTINUOUS
 62
     7
100
AcDbCircle
 10
190.0
 20
-356.7
 30
0.0
 40
2.000000000000002
100
AcDbArc
 50
180.0
 51
270.0
  0
ARC
  5
292
330
1F
100
AcDbEntity
  8
1
  6
CONTINUOUS
 62
     7
100
AcDbCircle
 10
239.9999999998022
 20
-315.0000000000001
 30
0.0
 40
8.250000000000036
100
AcDbArc
 50
285.8856213339624
 51
314.0754005704769
  0
LINE
  5
293
330
1F
100
AcDbEntity
  8
1
  6
CONTINUOUS
 62
     7
100
AcDbLine
 10
224.5
 20
-366.0
 30
0.0
 11
224.5
 21
-264.0
 31
0.0
  0
LINE
  5
294
330
1F
100
AcDbEntity
  8
1
  6
CONTINUOUS
 62
     7
100
AcDbLine
 10
198.75
 20
-380.0
 30
0.0
 11
281.25
 21
-380.0
 31
0.0
  0
ARC
  5
295
330
1F
100
AcDbEntity
  8
1
  6
CONTINUOUS
 62
     7
100
AcDbCircle
 10
239.9999999998022
 20
-315.0000000000001
 30
0.0
 40
8.250000000000036
100
AcDbArc
 50
105.8856213615737
 51
134.0754005416576
  0
ARC
  5
296
330
1F
100
AcDbEntity
  8
1
  6
CONTINUOUS
 62
     7
100
AcDbCircle
 10
239.9999999998022
 20
-315.0000000000001
 30
0.0
 40
8.250000000000036
100
AcDbArc
 50
345.8856213201584
 51
1.250188936756047
  0
LINE
  5
297
330
1F
100
AcDbEntity
  8
1
  6
CONTINUOUS
 62
     7
100
AcDbLine
 10
198.75
 20
-250.0000000000001
 30
0.0
 11
281.25
 21
-250.0000000000001
 31
0.0
  0
CIRCLE
  5
298
330
1F
100
AcDbEntity
  8
1
  6
CONTINUOUS
 62
     7
100
AcDbCircle
 10
178.2500000000001
 20
-361.0
 30
0.0
 40
2.749999999999975
  0
LINE
  5
299
330
1F
100
AcDbEntity
  8
1
  6
CONTINUOUS
 62
     7
100
AcDbLine
 10
255.4999999999999
 20
-264.0
 30
0.0
 11
255.4999999999999
 21
-366.0
 31
0.0
  0
ARC
  5
29A
330
1F
100
AcDbEntity
  8
1
  6
CONTINUOUS
 62
     7
100
AcDbCircle
 10
290.0000000000001
 20
-273.3
 30
0.0
 40
2.000000000000002
100
AcDbArc
 50
90.0
 51
180.0
  0
ARC
  5
29B
330
1F
100
AcDbEntity
  8
1
  6
CONTINUOUS
 62
     7
100
AcDbCircle
 10
290.0000000000001
 20
-356.7
 30
0.0
 40
2.000000000000002
100
AcDbArc
 50
269.9999999999999
 51
0.0000000000001705
  0
ARC
  5
29C
330
1F
100
AcDbEntity
  8
1
  6
CONTINUOUS
 62
     7
100
AcDbCircle
 10
239.9999999998022
 20
-315.0000000000001
 30
0.0
 40
8.250000000000036
100
AcDbArc
 50
4.170647911861613
 51
14.07540058488934
  0
CIRCLE
  5
29D
330
1F
100
AcDbEntity
  8
1
  6
CONTINUOUS
 62
     7
100
AcDbCircle
 10
290.0000000000001
 20
-388.2
 30
0.0
 40
2.75000000000003
  0
ARC
  5
29E
330
1F
100
AcDbEntity
  8
1
  6
CONTINUOUS
 62
     7
100
AcDbCircle
 10
290.0000000000001
 20
-388.2
 30
0.0
 40
6.750000000000034
100
AcDbArc
 50
180.0
 51
359.9999999999996
  0
LINE
  5
29F
330
1F
100
AcDbEntity
  8
1
  6
CONTINUOUS
 62
     7
100
AcDbLine
 10
296.7499999999999
 20
-241.8
 30
0.0
 11
296.7499999999999
 21
-248.0000000000001
 31
0.0
  0
LINE
  5
2A0
330
1F
100
AcDbEntity
  8
1
  6
CONTINUOUS
 62
     7
100
AcDbLine
 10
252.4999999999999
 20
-366.0
 30
0.0
 11
252.4999999999999
 21
-362.0244691716368
 31
0.0
  0
CIRCLE
  5
2A1
330
1F
100
AcDbEntity
  8
1
  6
CONTINUOUS
 62
     7
100
AcDbCircle
 10
190.0
 20
-388.2
 30
0.0
 40
2.75000000000003
  0
ARC
  5
2A2
330
1F
100
AcDbEntity
  8
1
  6
CONTINUOUS
 62
     7
100
AcDbCircle
 10
297.0000000000001
 20
-257.8456843337577
 30
0.0
 40
8.000000000000007
100
AcDbArc
 50
0.0
 51
79.92134189221235
  0
ARC
  5
2A3
330
1F
100
AcDbEntity
  8
1
  6
CONTINUOUS
 62
     7
100
AcDbCircle
 10
239.9999999998022
 20
-315.0000000000001
 30
0.0
 40
8.250000000000036
100
AcDbArc
 50
45.88562133396137
 51
74.07540057047879
  0
LINE
  5
2A4
330
1F
100
AcDbEntity
  8
1
  6
CONTINUOUS
 62
     7
100
AcDbLine
 10
224.5000000000001
 20
-264.0
 30
0.0
 11
227.5
 21
-264.0
 31
0.0
  0
ARC
  5
2A5
330
1F
100
AcDbEntity
  8
1
  6
CONTINUOUS
 62
     7
100
AcDbCircle
 10
239.9999999998022
 20
-315.0000000000001
 30
0.0
 40
8.250000000000036
100
AcDbArc
 50
225.8856213615727
 51
254.0754005416567
  0
LINE
  5
2A6
330
1F
100
AcDbEntity
  8
1
  6
CONTINUOUS
 62
     7
100
AcDbLine
 10
227.5
 20
-362.0244691716369
 30
0.0
 11
227.5
 21
-366.0000000000001
 31
0.0
  0
ARC
  5
2A7
330
1F
100
AcDbEntity
  8
1
  6
CONTINUOUS
 62
     7
100
AcDbCircle
 10
190.0
 20
-388.2
 30
0.0
 40
6.750000000000034
100
AcDbArc
 50
180.0
 51
359.9999999999991
  0
ARC
  5
2A8
330
1F
100
AcDbEntity
  8
1
  6
CONTINUOUS
 62
     7
100
AcDbCircle
 10
181.25
 20
-382.0
 30
0.0
 40
2.000000000000057
100
AcDbArc
 50
0.0
 51
79.92134189221228
  0
ARC
  5
2A9
330
1F
100
AcDbEntity
  8
1
  6
CONTINUOUS
 62
     7
100
AcDbCircle
 10
183.0
 20
-372.1543156662424
 30
0.0
 40
8.000000000000007
100
AcDbArc
 50
180.0
 51
259.9213418922123
  0
CIRCLE
  5
2AA
330
1F
100
AcDbEntity
  8
1
  6
CONTINUOUS
 62
     7
100
AcDbCircle
 10
178.2500000000001
 20
-269.0
 30
0.0
 40
2.749999999999975
  0
CIRCLE
  5
2AB
330
1F
100
AcDbEntity
  8
1
  6
CONTINUOUS
 62
     7
100
AcDbCircle
 10
210.0
 20
-335.0000000000001
 30
0.0
 40
2.75000000000003
  0
CIRCLE
  5
2AC
330
1F
100
AcDbEntity
  8
1
  6
CONTINUOUS
 62
     7
100
AcDbCircle
 10
270.0
 20
-335.0000000000001
 30
0.0
 40
2.749999999999919
  0
LINE
  5
2AD
330
1F
100
AcDbEntity
  8
1
  6
CONTINUOUS
 62
     7
100
AcDbLine
 10
252.4999999999999
 20
-267.9755308283632
 30
0.0
 11
252.4999999999999
 21
-264.0000000000001
 31
0.0
  0
LINE
  5
2AE
330
1F
100
AcDbEntity
  8
1
  6
CONTINUOUS
 62
     7
100
AcDbLine
 10
248.2473268396433
 20
-314.7900000000001
 30
0.0
 11
247.9999999987334
 21
-314.7900000000001
 31
0.0
  0
LINE
  5
2AF
330
1F
100
AcDbEntity
  8
1
  6
CONTINUOUS
 62
     7
100
AcDbLine
 10
227.5
 20
-366.0
 30
0.0
 11
224.5
 21
-366.0
 31
0.0
  0
CIRCLE
  5
2B0
330
1F
100
AcDbEntity
  8
1
  6
CONTINUOUS
 62
     7
100
AcDbCircle
 10
290.0000000000001
 20
-241.8
 30
0.0
 40
2.75000000000003
  0
ARC
  5
2B1
330
1F
100
AcDbEntity
  8
1
  6
CONTINUOUS
 62
     7
100
AcDbCircle
 10
281.25
 20
-382.0
 30
0.0
 40
2.000000000000002
100
AcDbArc
 50
0.0
 51
90.00000000000021
  0
ARC
  5
2B2
330
1F
100
AcDbEntity
  8
1
  6
CONTINUOUS
 62
     7
100
AcDbCircle
 10
239.9999999998022
 20
-315.0000000000001
 30
0.0
 40
8.249999999999924
100
AcDbArc
 50
165.8856213753771
 51
194.0754005272417
  0
LINE
  5
2B3
330
1F
100
AcDbEntity
  8
1
  6
CONTINUOUS
 62
     7
100
AcDbLine
 10
227.5
 20
-264.0
 30
0.0
 11
227.5
 21
-267.9755308283632
 31
0.0
  0
LINE
  5
2B4
330
1F
100
AcDbEntity
  8
1
  6
CONTINUOUS
 62
     7
100
AcDbLine
 10
283.25
 20
-248.0
 30
0.0
 11
283.25
 21
-241.8
 31
0.0
  0
LINE
  5
2B5
330
1F
100
AcDbEntity
  8
1
  6
CONTINUOUS
 62
     7
100
AcDbLine
 10
283.25
 20
-382.0
 30
0.0
 11
283.25
 21
-388.2
 31
0.0
  0
CIRCLE
  5
2B6
330
1F
100
AcDbEntity
  8
1
  6
CONTINUOUS
 62
     7
100
AcDbCircle
 10
190.0
 20
-265.0
 30
0.0
 40
2.500000000000058
  0
CIRCLE
  5
2B7
330
1F
100
AcDbEntity
  8
1
  6
CONTINUOUS
 62
     7
100
AcDbCircle
 10
202.5
 20
-352.5
 30
0.0
 40
2.499999999999947
  0
ARC
  5
2B8
330
1F
100
AcDbEntity
  8
1
  6
CONTINUOUS
 62
     7
100
AcDbCircle
 10
290.0000000000001
 20
-273.3
 30
0.0
 40
2.000000000000002
100
AcDbArc
 50
359.9999999999998
 51
90.0
  0
CIRCLE
  5
2B9
330
1F
100
AcDbEntity
  8
1
  6
CONTINUOUS
 62
     7
100
AcDbCircle
 10
277.4999999999999
 20
-277.5
 30
0.0
 40
2.500000000000058
  0
LINE
  5
2BA
330
1F
100
AcDbEntity
  8
1
  6
CONTINUOUS
 62
     7
100
AcDbLine
 10
196.75
 20
-388.2
 30
0.0
 11
196.75
 21
-382.0
 31
0.0
  0
LINE
  5
2BB
330
1F
100
AcDbEntity
  8
1
  6
CONTINUOUS
 62
     7
100
AcDbLine
 10
292.0000000000001
 20
-273.3
 30
0.0
 11
292.0000000000001
 21
-356.7
 31
0.0
  0
CIRCLE
  5
2BC
330
1F
100
AcDbEntity
  8
1
  6
CONTINUOUS
 62
     7
100
AcDbCircle
 10
206.65
 20
-315.0000000000001
 30
0.0
 40
2.749999999999975
  0
CIRCLE
  5
2BD
330
1F
100
AcDbEntity
  8
1
  6
CONTINUOUS
 62
     7
100
AcDbCircle
 10
277.4999999999999
 20
-352.5
 30
0.0
 40
2.500000000000058
  0
CIRCLE
  5
2BE
330
1F
100
AcDbEntity
  8
1
  6
CONTINUOUS
 62
     7
100
AcDbCircle
 10
290.0000000000001
 20
-365.0
 30
0.0
 40
2.499999999999947
  0
CIRCLE
  5
2BF
330
1F
100
AcDbEntity
  8
1
  6
CONTINUOUS
 62
     7
100
AcDbCircle
 10
290.0000000000001
 20
-265.0
 30
0.0
 40
2.499999999999947
  0
LINE
  5
2C0
330
1F
100
AcDbEntity
  8
1
  6
CONTINUOUS
 62
     7
100
AcDbLine
 10
175.0
 20
-366.6291651245989
 30
0.0
 11
175.0
 21
-372.1543156662424
 31
0.0
  0
ARC
  5
2C1
330
1F
100
AcDbEntity
  8
1
  6
CONTINUOUS
 62
     7
100
AcDbCircle
 10
301.7499999999999
 20
-361.0
 30
0.0
 40
6.500000000000061
100
AcDbArc
 50
300.0
 51
60.0
  0
ARC
  5
2C2
330
1F
100
AcDbEntity
  8
1
  6
CONTINUOUS
 62
     7
100
AcDbCircle
 10
178.2500000000001
 20
-361.0
 30
0.0
 40
6.49999999999995
100
AcDbArc
 50
120.0
 51
240.0
  0
CIRCLE
  5
2C3
330
1F
100
AcDbEntity
  8
1
  6
CONTINUOUS
 62
     7
100
AcDbCircle
 10
190.0
 20
-365.0
 30
0.0
 40
2.500000000000058
  0
CIRCLE
  5
2C4
330
1F
100
AcDbEntity
  8
1
  6
CONTINUOUS
 62
     7
100
AcDbCircle
 10
202.5
 20
-277.5
 30
0.0
 40
2.499999999999947
  0
LWPOLYLINE
  5
2C5
330
1F
100
AcDbEntity
  8
1
  6
CONTINUOUS
 62
     7
100
AcDbPolyline
 90
        9
 70
     0
 43
0.0
 10
250.0
 20
-489.2915085820296
 10
249.8078528040324
 20
-488.8858929949041
 10
249.238795325113
 20
-488.4958649873197
 10
248.3146961230254
 20
-488.1364131168783
 10
247.0710678118656
 20
-487.8213509173776
 10
245.555702330196
 20
-487.5627860524554
 10
243.826834323651
 20
-487.3706550248662
 10
241.9509032201614
 20
-487.2523413222514
 10
240.0
 20
-487.212391673852
  0
LWPOLYLINE
  5
2C6
330
1F
100
AcDbEntity
  8
1
  6
CONTINUOUS
 62
     7
100
AcDbPolyline
 90
        4
 70
     0
 43
0.0
 10
226.1822763750364
 20
-472.3216193797948
 10
226.0652446589252
 20
-472.1092371521356
 10
225.8767786649516
 20
-471.9457215089959
 10
225.6882194562306
 20
-471.833869366151
  0
LWPOLYLINE
  5
2C7
330
1F
100
AcDbEntity
  8
1
  6
CONTINUOUS
 62
     7
100
AcDbPolyline
 90
        8
 70
     0
 43
0.0
 10
243.006622964867
 20
-448.2894245517066
 10
242.2234452086466
 20
-448.1889198523004
 10
241.364933230404
 20
-448.1199630271866
 10
240.4601749211862
 20
-448.0848904545018
 10
239.5398250788166
 20
-448.0848904545009
 10
238.6350667695986
 20
-448.1199630271838
 10
237.7765547913558
 20
-448.1889198522958
 10
236.993377035135
 20
-448.2894245517004
  0
LWPOLYLINE
  5
2C8
330
1F
100
AcDbEntity
  8
1
  6
CONTINUOUS
 62
     7
100
AcDbPolyline
 90
        4
 70
     0
 43
0.0
 10
246.0
 20
-485.67191985402
 10
244.1596230060676
 20
-485.4445021826732
 10
242.1285927458326
 20
-485.3037438708374
 10
240.0
 20
-485.2560964723844
  0
LWPOLYLINE
  5
2C9
330
1F
100
AcDbEntity
  8
1
  6
CONTINUOUS
 62
     7
100
AcDbPolyline
 90
        4
 70
     0
 43
0.0
 10
250.0
 20
-487.335213380562
 10
249.8162718344766
 20
-486.9384991720422
 10
249.271838545668
 20
-486.5563624782762
 10
248.3867056794542
 20
-486.2028451540086
  0
LWPOLYLINE
  5
2CA
330
1F
100
AcDbEntity
  8
1
  6
CONTINUOUS
 62
     7
100
AcDbPolyline
 90
        4
 70
     0
 43
0.0
 10
240.0
 20
-485.2560964723844
 10
237.8714072541674
 20
-485.3037438708374
 10
235.8403769939324
 20
-485.4445021826732
 10
234.0
 20
-485.67191985402
  0
LWPOLYLINE
  5
2CB
330
1F
100
AcDbEntity
  8
1
  6
CONTINUOUS
 62
     7
100
AcDbPolyline
 90
        4
 70
     0
 43
0.0
 10
-253.8177236249635
 20
-472.3216193797948
 10
-253.9347553410748
 20
-472.1092371521356
 10
-254.1232213350484
 20
-471.9457215089959
 10
-254.3117805437693
 20
-471.833869366151
210
0.0
220
0.0
230
-1.0
  0
LWPOLYLINE
  5
2CC
330
1F
100
AcDbEntity
  8
1
  6
CONTINUOUS
 62
     7
100
AcDbPolyline
 90
        5
 70
     0
 43
0.0
 10
251.7316962438549
 20
-479.4058407078474
 10
251.9416247025458
 20
-479.2747401009772
 10
252.0995910197268
 20
-479.1343127960126
 10
252.2242621384998
 20
-478.9372750087198
 10
252.239590572223
 20
-478.8869666347122
  0
LWPOLYLINE
  5
2CD
330
1F
100
AcDbEntity
  8
1
  6
CONTINUOUS
 62
     7
100
AcDbPolyline
 90
        6
 70
     0
 43
0.0
 10
246.9282032302756
 20
-494.720006463455
 10
245.9451586038192
 20
-494.438692620758
 10
244.7022820183398
 20
-494.2060204971196
 10
243.2538931446064
 20
-494.032158980827
 10
241.6632935265422
 20
-493.9247066544227
 10
240.0
 20
-493.8883597001837
  0
LWPOLYLINE
  5
2CE
330
1F
100
AcDbEntity
  8
1
  6
CONTINUOUS
 62
     7
100
AcDbPolyline
 90
        3
 70
     0
 43
0.0
 10
-249.237604307034
 20
-489.6392507649774
 10
-248.690085055108
 20
-489.6680704701271
 10
-248.137471423273
 20
-489.6442003303986
210
0.0
220
0.0
230
-1.0
  0
LWPOLYLINE
  5
2CF
330
1F
100
AcDbEntity
  8
1
  6
CONTINUOUS
 62
     7
100
AcDbPolyline
 90
        9
 70
     0
 43
0.0
 10
443.3397008868342
 20
-295.495348467414
 10
444.2449803456214
 20
-295.1308265559653
 10
445.0947673617791
 20
-294.7239525828584
 10
445.8564050968428
 20
-294.2903624867022
 10
446.5006242397852
 20
-293.8467188917319
 10
447.002667810225
 20
-293.410070772504
 10
447.3432425552999
 20
-292.9971982713654
 10
447.5092603785533
 20
-292.6239678469932
 10
447.4943413081409
 20
-292.304722535286
  0
LWPOLYLINE
  5
2D0
330
1F
100
AcDbEntity
  8
1
  6
CONTINUOUS
 62
     7
100
AcDbPolyline
 90
        7
 70
     0
 43
0.0
 10
445.8035853486409
 20
-297.6759801293987
 10
446.6449815625448
 20
-297.2081701333749
 10
447.3612496641576
 20
-296.716443370243
 10
447.9212501514434
 20
-296.2221774868748
 10
448.3006372015525
 20
-295.7468605174953
 10
448.4829170968499
 20
-295.3111566990049
 10
448.4601652834452
 20
-294.9340081005992
  0
LWPOLYLINE
  5
2D1
330
1F
100
AcDbEntity
  8
1
  6
CONTINUOUS
 62
     7
100
AcDbPolyline
 90
        4
 70
     0
 43
0.0
 10
445.3325229116853
 20
-297.7947532255347
 10
445.5784322612624
 20
-297.7584772796404
 10
445.7739520028659
 20
-297.6902880295792
 10
445.8035853486409
 20
-297.6759801293988
  0
LWPOLYLINE
  5
2D2
330
1F
100
AcDbEntity
  8
1
  6
CONTINUOUS
 62
     7
100
AcDbPolyline
 90
        3
 70
     0
 43
0.0
 10
249.237604307034
 20
-490.087749737263
 10
249.807549211458
 20
-489.6974413681242
 10
250.0
 20
-489.2915085820296
  0
LWPOLYLINE
  5
2D3
330
1F
100
AcDbEntity
  8
1
  6
CONTINUOUS
 62
     7
100
AcDbPolyline
 90
        9
 70
     0
 43
0.0
 10
240.0
 20
-487.212391673852
 10
238.0490967798388
 20
-487.2523413222514
 10
236.1731656763492
 20
-487.3706550248662
 10
234.444297669804
 20
-487.5627860524554
 10
232.9289321881346
 20
-487.8213509173776
 10
231.6853038769746
 20
-488.1364131168783
 10
230.7612046748872
 20
-488.4958649873197
 10
230.1921471959678
 20
-488.8858929949041
 10
230.0
 20
-489.2915085820296
  0
LWPOLYLINE
  5
2D4
330
1F
100
AcDbEntity
  8
1
  6
CONTINUOUS
 62
     7
100
AcDbPolyline
 90
        6
 70
     0
 43
0.0
 10
247.4381035186044
 20
-496.164009316117
 10
247.84541790854
 20
-495.8770478321134
 10
247.9988741235104
 20
-495.5795573894706
 10
247.8935067027688
 20
-495.2811640376506
 10
247.5327250735048
 20
-494.9915230420068
 10
246.9282032302756
 20
-494.720006463455
  0
LWPOLYLINE
  5
2D5
330
1F
100
AcDbEntity
  8
1
  6
CONTINUOUS
 62
     7
100
AcDbPolyline
 90
        9
 70
     0
 43
0.0
 10
235.0
 20
-505.9200177945042
 10
235.0960735979838
 20
-506.1228255880669
 10
235.3806023374436
 20
-506.3178395918591
 10
235.8426519384874
 20
-506.4975655270798
 10
236.4644660940674
 20
-506.6550966268302
 10
237.222148834902
 20
-506.7843790592912
 10
238.0865828381746
 20
-506.880444573086
 10
239.0245483899194
 20
-506.9396014243931
 10
240.0
 20
-506.959576248593
  0
LWPOLYLINE
  5
2D6
330
1F
100
AcDbEntity
  8
1
  6
CONTINUOUS
 62
     7
100
AcDbPolyline
 90
        9
 70
     0
 43
0.0
 10
240.0
 20
-506.959576248593
 10
240.9754516100806
 20
-506.9396014243931
 10
241.9134171618254
 20
-506.880444573086
 10
242.777851165098
 20
-506.7843790592912
 10
243.5355339059328
 20
-506.6550966268302
 10
244.1573480615128
 20
-506.4975655270798
 10
244.6193976625564
 20
-506.3178395918591
 10
244.9039264020162
 20
-506.1228255880669
 10
245.0000000000001
 20
-505.9200177945041
  0
LWPOLYLINE
  5
2D7
330
1F
100
AcDbEntity
  8
1
  6
CONTINUOUS
 62
     7
100
AcDbPolyline
 90
        6
 70
     0
 43
0.0
 10
240.0
 20
-493.8883597001837
 10
238.336706473458
 20
-493.9247066544227
 10
236.7461068553936
 20
-494.032158980827
 10
235.2977179816602
 20
-494.2060204971196
 10
234.0548413961808
 20
-494.4386926207582
 10
233.0717967697246
 20
-494.720006463455
  0
LWPOLYLINE
  5
2D8
330
1F
100
AcDbEntity
  8
1
  6
CONTINUOUS
 62
     7
100
AcDbPolyline
 90
        3
 70
     0
 43
0.0
 10
245.0
 20
-496.8500613197264
 10
246.0688147177924
 20
-496.6353795861692
 10
246.9282032302756
 20
-496.383299989997
  0
LWPOLYLINE
  5
2D9
330
1F
100
AcDbEntity
  8
1
  6
CONTINUOUS
 62
     7
100
AcDbPolyline
 90
        3
 70
     0
 43
0.0
 10
230.0
 20
-489.2915085820296
 10
230.192450788542
 20
-489.6974413681242
 10
230.762395692966
 20
-490.087749737263
  0
LWPOLYLINE
  5
2DA
330
1F
100
AcDbEntity
  8
1
  6
CONTINUOUS
 62
     7
100
AcDbPolyline
 90
        6
 70
     0
 43
0.0
 10
233.0717967697246
 20
-494.720006463455
 10
232.4672749264954
 20
-494.9915230420066
 10
232.1064932972312
 20
-495.2811640376506
 10
232.0011258764896
 20
-495.5795573894706
 10
232.15458209146
 20
-495.8770478321134
 10
232.5618964813956
 20
-496.164009316117
  0
LWPOLYLINE
  5
2DB
330
1F
100
AcDbEntity
  8
1
  6
CONTINUOUS
 62
     7
100
AcDbPolyline
 90
        3
 70
     0
 43
0.0
 10
233.0717967697246
 20
-496.383299989997
 10
233.9311852822078
 20
-496.6353795861692
 10
235.0
 20
-496.8500613197264
  0
LWPOLYLINE
  5
2DC
330
1F
100
AcDbEntity
  8
1
  6
CONTINUOUS
 62
     7
100
AcDbPolyline
 90
       17
 70
     0
 43
0.0
 10
245.0
 20
-505.9200177945042
 10
244.9039264020162
 20
-505.7172100009413
 10
244.6193976625564
 20
-505.5221959971494
 10
244.1573480615128
 20
-505.3424700619287
 10
243.5355339059328
 20
-505.1849389621782
 10
242.777851165098
 20
-505.0556565297172
 10
241.9134171618254
 20
-504.9595910159226
 10
240.9754516100806
 20
-504.9004341646153
 10
240.0
 20
-504.8804593404155
 10
239.0245483899194
 20
-504.9004341646153
 10
238.0865828381746
 20
-504.9595910159226
 10
237.222148834902
 20
-505.0556565297172
 10
236.4644660940674
 20
-505.1849389621782
 10
235.8426519384874
 20
-505.3424700619287
 10
235.3806023374436
 20
-505.5221959971494
 10
235.0960735979838
 20
-505.7172100009413
 10
235.0
 20
-505.9200177945042
  0
LWPOLYLINE
  5
2DD
330
1F
100
AcDbEntity
  8
1
  6
CONTINUOUS
 62
     7
100
AcDbPolyline
 90
        3
 70
     0
 43
0.0
 10
-235.0
 20
-450.1656045526774
 10
-235.0698196829172
 20
-449.9499837589608
 10
-235.1869434215166
 20
-449.7710378221052
210
0.0
220
0.0
230
-1.0
  0
LWPOLYLINE
  5
2DE
330
1F
100
AcDbEntity
  8
1
  6
CONTINUOUS
 62
     7
100
AcDbPolyline
 90
        4
 70
     0
 43
0.0
 10
231.6132943205458
 20
-486.2028451540086
 10
230.7281614543322
 20
-486.5563624782762
 10
230.1837281655234
 20
-486.9384991720422
 10
230.0
 20
-487.335213380562
  0
LWPOLYLINE
  5
2DF
330
1F
100
AcDbEntity
  8
1
  6
CONTINUOUS
 62
     7
100
AcDbPolyline
 90
        3
 70
     0
 43
0.0
 10
-244.8712270761226
 20
-449.8530938968358
 10
-244.9813709502974
 20
-450.0645764572187
 10
-245.0
 20
-450.1656045526774
210
0.0
220
0.0
230
-1.0
  0
LWPOLYLINE
  5
2E0
330
1F
100
AcDbEntity
  8
1
  6
CONTINUOUS
 62
     7
100
AcDbPolyline
 90
        5
 70
     0
 43
0.0
 10
-228.2683037561452
 20
-479.4058407078474
 10
-228.0583752974542
 20
-479.2747401009772
 10
-227.9004089802732
 20
-479.1343127960126
 10
-227.7757378615002
 20
-478.9372750087198
 10
-227.760409427777
 20
-478.8869666347122
210
0.0
220
0.0
230
-1.0
  0
LWPOLYLINE
  5
2E1
330
1F
100
AcDbEntity
  8
1
  6
CONTINUOUS
 62
     7
100
AcDbPolyline
 90
       13
 70
     0
 43
0.0
 10
-222.633271322975
 20
-492.6404237467212
 10
-222.8292660559134
 20
-492.647148444481
 10
-223.0242324562901
 20
-492.6672890228738
 10
-223.2171285766814
 20
-492.7007360432922
 10
-223.4069228384892
 20
-492.7473046735423
 10
-223.5925991536537
 20
-492.8067357004455
 10
-223.7731619695803
 20
-492.878696932146
 10
-223.9476412122529
 20
-492.9627849824639
 10
-224.1150971030065
 20
-493.0585274275816
 10
-224.2746248250587
 20
-493.1653853233714
 10
-224.4253590166395
 20
-493.2827560697554
 10
-224.566478068425
 20
-493.4099766066332
 10
-224.6972082039429
 20
-493.5463269241566
210
0.0
220
0.0
230
-1.0
  0
LWPOLYLINE
  5
2E2
330
1F
100
AcDbEntity
  8
1
  6
CONTINUOUS
 62
     7
100
AcDbPolyline
 90
       33
 70
     0
 43
0.0
 10
246.0
 20
-435.340423746807
 10
245.9975909124103
 20
-435.2422883981522
 10
245.9903694533444
 20
-435.1443894661478
 10
245.9783530199296
 20
-435.0469627978962
 10
245.9615705608066
 20
-434.9502431027746
 10
245.9400625063892
 20
-434.8544633870004
 10
245.9138806714644
 20
-434.759854392298
 10
245.883088130366
 20
-434.6666440400226
 10
245.8477590650225
 20
-434.5750568820768
 10
245.807978586247
 20
-434.4853135599465
 10
245.7638425286968
 20
-434.397630273155
 10
245.7154572200005
 20
-434.3122182584206
 10
245.6629392246051
 20
-434.2292832807678
 10
245.6064150629613
 20
-434.149025137822
 10
245.5460209067256
 20
-434.0716371784796
 10
245.48190225071
 20
-433.9973058371131
 10
245.4142135623731
 20
-433.9262101844338
 10
245.343117909694
 20
-433.858521496097
 10
245.2687865683274
 20
-433.7944028400814
 10
245.1913986089848
 20
-433.7340086838456
 10
245.1111404660392
 20
-433.6774845222018
 10
245.0282054883863
 20
-433.6249665268064
 10
244.942793473652
 20
-433.5765812181102
 10
244.8551101868606
 20
-433.53244516056
 10
244.7653668647302
 20
-433.4926646817844
 10
244.6737797067844
 20
-433.457335616441
 10
244.580569354509
 20
-433.4265430753426
 10
244.4859603598066
 20
-433.4003612404178
 10
244.3901806440322
 20
-433.3788531860004
 10
244.2934609489108
 20
-433.3620707268774
 10
244.1960342806592
 20
-433.3500542934626
 10
244.0981353486548
 20
-433.3428328343966
 10
244.0
 20
-433.340423746807
  0
LWPOLYLINE
  5
2E3
330
1F
100
AcDbEntity
  8
1
  6
CONTINUOUS
 62
     7
100
AcDbPolyline
 90
       33
 70
     0
 43
0.0
 10
-234.0
 20
-435.3404237468068
 10
-234.0024090875896
 20
-435.242288398152
 10
-234.0096305466556
 20
-435.1443894661478
 10
-234.0216469800704
 20
-435.0469627978962
 10
-234.0384294391936
 20
-434.9502431027746
 10
-234.059937493611
 20
-434.8544633870004
 10
-234.0861193285356
 20
-434.759854392298
 10
-234.116911869634
 20
-434.6666440400224
 10
-234.1522409349774
 20
-434.5750568820768
 10
-234.1920214137532
 20
-434.4853135599465
 10
-234.2361574713032
 20
-434.397630273155
 10
-234.2845427799994
 20
-434.3122182584204
 10
-234.3370607753948
 20
-434.2292832807678
 10
-234.3935849370388
 20
-434.149025137822
 10
-234.4539790932746
 20
-434.0716371784796
 10
-234.51809774929
 20
-433.9973058371128
 10
-234.5857864376268
 20
-433.9262101844338
 10
-234.656882090306
 20
-433.858521496097
 10
-234.7312134316728
 20
-433.7944028400814
 10
-234.8086013910152
 20
-433.7340086838456
 10
-234.8888595339608
 20
-433.6774845222018
 10
-234.9717945116136
 20
-433.6249665268064
 10
-235.057206526348
 20
-433.5765812181102
 10
-235.1448898131394
 20
-433.53244516056
 10
-235.2346331352698
 20
-433.4926646817844
 10
-235.3262202932156
 20
-433.4573356164408
 10
-235.419430645491
 20
-433.4265430753426
 10
-235.5140396401934
 20
-433.4003612404178
 10
-235.6098193559678
 20
-433.3788531860004
 10
-235.7065390510892
 20
-433.3620707268774
 10
-235.8039657193408
 20
-433.3500542934626
 10
-235.9018646513452
 20
-433.3428328343966
 10
-236.0
 20
-433.340423746807
210
0.0
220
0.0
230
-1.0
  0
LWPOLYLINE
  5
2E4
330
1F
100
AcDbEntity
  8
1
  6
CONTINUOUS
 62
     7
100
AcDbPolyline
 90
        3
 70
     0
 43
0.0
 10
215.75
 20
-441.5192097791492
 10
215.8262662874764
 20
-441.716108402428
 10
215.9866397557817
 20
-441.8869216100504
  0
LWPOLYLINE
  5
2E5
330
1F
100
AcDbEntity
  8
1
  6
CONTINUOUS
 62
     7
100
AcDbPolyline
 90
       13
 70
     0
 43
0.0
 10
-255.302791796057
 20
-493.5463269241566
 10
-255.433521931575
 20
-493.4099766066332
 10
-255.5746409833606
 20
-493.2827560697554
 10
-255.7253751749414
 20
-493.1653853233714
 10
-255.8849028969936
 20
-493.0585274275816
 10
-256.0523587877472
 20
-492.9627849824639
 10
-256.2268380304198
 20
-492.878696932146
 10
-256.4074008463464
 20
-492.8067357004455
 10
-256.593077161511
 20
-492.7473046735423
 10
-256.7828714233186
 20
-492.7007360432922
 10
-256.9757675437098
 20
-492.6672890228738
 10
-257.1707339440866
 20
-492.647148444481
 10
-257.366728677025
 20
-492.6404237467212
210
0.0
220
0.0
230
-1.0
  0
LWPOLYLINE
  5
2E6
330
1F
100
AcDbEntity
  8
1
  6
CONTINUOUS
 62
     7
100
AcDbPolyline
 90
        3
 70
     0
 43
0.0
 10
-264.25
 20
-441.5192097791492
 10
-264.1737337125235
 20
-441.716108402428
 10
-264.0133602442184
 20
-441.8869216100504
210
0.0
220
0.0
230
-1.0
  0
ENDSEC
  0
SECTION
  2
OBJECTS
  0
DICTIONARY
  5
C
330
0
100
AcDbDictionary
  3
ACAD_GROUP
350
D
  3
ACAD_LAYOUT
350
1A
  3
ACAD_MATERIAL
350
43
  3
ACAD_MLEADERSTYLE
350
6B
  3
ACAD_MLINESTYLE
350
17
  3
ACAD_PLOTSETTINGS
350
19
  3
ACAD_SCALELIST
350
47
  3
ACAD_VISUALSTYLE
350
2A
  3
ACDBHEADERROUNDTRIPXREC
350
2E7
  3
ACDBVARIABLEDICTIONARY
350
308
  0
DICTIONARY
  5
311
330
8
100
AcDbDictionary
280
     1
  3
ACAD_XREC_ROUNDTRIP
360
312
  0
DICTIONARY
  5
D
102
{ACAD_REACTORS
330
C
102
}
330
C
100
AcDbDictionary
  0
DICTIONARY
  5
1A
102
{ACAD_REACTORS
330
C
102
}
330
C
100
AcDbDictionary
  0
DICTIONARY
  5
43
102
{ACAD_REACTORS
330
C
102
}
330
C
100
AcDbDictionary
  3
BYBLOCK
350
45
  3
BYLAYER
350
44
  3
GLOBAL
350
46
  0
DICTIONARY
  5
6B
102
{ACAD_REACTORS
330
C
102
}
330
C
100
AcDbDictionary
  3
STANDARD
350
6C
  0
DICTIONARY
  5
17
102
{ACAD_REACTORS
330
C
102
}
330
C
100
AcDbDictionary
  3
STANDARD
350
18
  0
DICTIONARY
  5
19
102
{ACAD_REACTORS
330
C
102
}
330
C
100
AcDbDictionary
  0
DICTIONARY
  5
47
102
{ACAD_REACTORS
330
C
102
}
330
C
100
AcDbDictionary
  3
A0
350
48
  3
A1
350
49
  3
A2
350
4A
  3
A3
350
4B
  3
A4
350
4C
  3
A5
350
4D
  3
A6
350
4E
  3
A7
350
4F
  3
A8
350
50
  3
A9
350
51
  3
B0
350
52
  3
B1
350
53
  3
B2
350
54
  3
B3
350
55
  3
B4
350
56
  3
B5
350
57
  3
B6
350
58
  3
B7
350
59
  3
B8
350
5A
  3
B9
350
5B
  3
C0
350
5C
  3
C1
350
5D
  3
C2
350
5E
  3
C3
350
5F
  3
C4
350
60
  3
C5
350
61
  3
C6
350
62
  3
C7
350
63
  3
C8
350
64
  3
C9
350
65
  3
D0
350
66
  3
D1
350
67
  3
D2
350
68
  0
DICTIONARY
  5
2A
102
{ACAD_REACTORS
330
C
102
}
330
C
100
AcDbDictionary
  3
2DWIREFRAME
350
2F
  3
BASIC
350
32
  3
BRIGHTEN
350
36
  3
COLORCHANGE
350
3A
  3
CONCEPTUAL
350
34
  3
DIM
350
35
  3
EDGECOLOROFF
350
3D
  3
FACEPATTERN
350
39
  3
FLAT
350
2B
  3
FLATWITHEDGES
350
2C
  3
GOURAUD
350
2D
  3
GOURAUDWITHEDGES
350
2E
  3
HIDDEN
350
31
  3
JITTEROFF
350
3B
  3
LINEPATTERN
350
38
  3
OVERHANGOFF
350
3C
  3
REALISTIC
350
33
  3
SHADED
350
42
  3
SHADED_WITH_EDGES
350
41
  3
SHADES_OF_GRAY
350
3E
  3
SKETCHY
350
3F
  3
THICKEN
350
37
  3
WIREFRAME
350
30
  3
X-RAY
350
40
  0
DICTIONARY
  5
2E7
102
{ACAD_REACTORS
330
C
102
}
330
C
100
AcDbDictionary
  3
CEPSNID
350
2F1
  3
CEPSNTYPE
350
2F0
  3
DIMSTYLEDATA
350
307
  3
FINGERPRINTGUID
350
2F2
  3
HYPERLINKBASE
350
2EA
  3
INSUNITS
350
2EF
  3
LAYOUTDICT
350
2EC
  3
LWETCUNION
350
2EE
  3
PLOTSETDICT
350
2ED
  3
PSVPSCALE
350
2F4
  3
PUCSBASE
350
2F7
  3
PUCSORGBACK
350
2FD
  3
PUCSORGBOTTOM
350
2F9
  3
PUCSORGFRONT
350
2FC
  3
PUCSORGLEFT
350
2FA
  3
PUCSORGRIGHT
350
2FB
  3
PUCSORGTOP
350
2F8
  3
PUCSORTHOREF
350
2F5
  3
PUCSORTHOVIEW
350
2F6
  3
STYLESHEET
350
2EB
  3
TSTACKALIGN
350
2E8
  3
TSTACKSIZE
350
2E9
  3
UCSBASE
350
300
  3
UCSORGBACK
350
306
  3
UCSORGBOTTOM
350
302
  3
UCSORGFRONT
350
305
  3
UCSORGLEFT
350
303
  3
UCSORGRIGHT
350
304
  3
UCSORGTOP
350
301
  3
UCSORTHOREF
350
2FE
  3
UCSORTHOVIEW
350
2FF
  3
VERSIONGUID
350
2F3
  0
DICTIONARY
  5
308
102
{ACAD_REACTORS
330
C
102
}
330
C
100
AcDbDictionary
  3
CANNOSCALE
350
313
  3
CMLEADERSTYLE
350
30A
  3
CTABLESTYLE
350
309
  3
DIMASSOC
350
30D
  3
HIDETEXT
350
30E
  3
MSLTSCALE
350
314
  0
XRECORD
  5
312
102
{ACAD_REACTORS
330
311
102
}
330
311
100
AcDbXrecord
102
VTR_0.000_0.000_1.000_1.000_VISUALSTYLE
340
2F
102
VTR_0.000_0.000_1.000_1.000_GRIDDISPLAY
 70
     3
102
VTR_0.000_0.000_1.000_1.000_GRIDMAJOR
 70
     5
102
VTR_0.000_0.000_1.000_1.000_DEFAULTLIGHTING
280
     1
102
VTR_0.000_0.000_1.000_1.000_DEFAULTLIGHTINGTYPE
 70
     1
102
VTR_0.000_0.000_1.000_1.000_BRIGHTNESS
141
0.0
102
VTR_0.000_0.000_1.000_1.000_CONTRAST
142
0.0
  0
MATERIAL
  5
45
102
{ACAD_REACTORS
330
43
102
}
102
{ACAD_XDICTIONARY
360
317
102
}
330
43
100
AcDbMaterial
  1
BYBLOCK
  0
MATERIAL
  5
44
102
{ACAD_REACTORS
330
43
102
}
102
{ACAD_XDICTIONARY
360
315
102
}
330
43
100
AcDbMaterial
  1
BYLAYER
  0
MATERIAL
  5
46
102
{ACAD_REACTORS
330
43
102
}
102
{ACAD_XDICTIONARY
360
319
102
}
330
43
100
AcDbMaterial
  1
GLOBAL
  0
ACAD_PROXY_OBJECT
  5
6C
102
{ACAD_REACTORS
330
6B
102
}
330
6B
100
AcDbProxyObject
 90
      499
 91
      505
 93
      610
310
40901902A4063FBFFFFFE056BD1B81E855B9FC0AD7A3703D0AD73F4214DD185B99185C9900AD7A3703D0AC73F90141901A02B5E8DC0F42B1CFC02B5E8DC0F42B1CFE5764000000000000300FC0
340
14
340
0
340
11
340
0
 94
        0
1001
ACAD_MLEADERVER
1070
     2
  0
MLINESTYLE
  5
18
102
{ACAD_REACTORS
330
17
102
}
330
17
100
AcDbMlineStyle
  2
Standard
 70
     0
  3

 62
   256
 51
90.0
 52
90.0
 71
     2
 49
0.5
 62
   256
  6
BYLAYER
 49
-0.5
 62
   256
  6
BYLAYER
  0
ACAD_PROXY_OBJECT
  5
48
102
{ACAD_REACTORS
330
47
102
}
330
47
100
AcDbProxyObject
 90
      499
 91
      503
 93
       41
310
903313A31580
  0
ACAD_PROXY_OBJECT
  5
49
102
{ACAD_REACTORS
330
47
102
}
330
47
100
AcDbProxyObject
 90
      499
 91
      503
 93
      105
310
903313A324000000000000004000
  0
ACAD_PROXY_OBJECT
  5
4A
102
{ACAD_REACTORS
330
47
102
}
330
47
100
AcDbProxyObject
 90
      499
 91
      503
 93
      105
310
903313A344000000000000104000
  0
ACAD_PROXY_OBJECT
  5
4B
102
{ACAD_REACTORS
330
47
102
}
330
47
100
AcDbProxyObject
 90
      499
 91
      503
 93
      105
310
903313A354000000000000144000
  0
ACAD_PROXY_OBJECT
  5
4C
102
{ACAD_REACTORS
330
47
102
}
330
47
100
AcDbProxyObject
 90
      499
 91
      503
 93
      105
310
903313A384000000000000204000
  0
ACAD_PROXY_OBJECT
  5
4D
102
{ACAD_REACTORS
330
47
102
}
330
47
100
AcDbProxyObject
 90
      499
 91
      503
 93
      113
310
904313A31304000000000000244000
  0
ACAD_PROXY_OBJECT
  5
4E
102
{ACAD_REACTORS
330
47
102
}
330
47
100
AcDbProxyObject
 90
      499
 91
      503
 93
      113
310
904313A31364000000000000304000
  0
ACAD_PROXY_OBJECT
  5
4F
102
{ACAD_REACTORS
330
47
102
}
330
47
100
AcDbProxyObject
 90
      499
 91
      503
 93
      113
310
904313A32304000000000000344000
  0
ACAD_PROXY_OBJECT
  5
50
102
{ACAD_REACTORS
330
47
102
}
330
47
100
AcDbProxyObject
 90
      499
 91
      503
 93
      113
310
904313A333040000000000003E4000
  0
ACAD_PROXY_OBJECT
  5
51
102
{ACAD_REACTORS
330
47
102
}
330
47
100
AcDbProxyObject
 90
      499
 91
      503
 93
      113
310
904313A34304000000000000444000
  0
ACAD_PROXY_OBJECT
  5
52
102
{ACAD_REACTORS
330
47
102
}
330
47
100
AcDbProxyObject
 90
      499
 91
      503
 93
      113
310
904313A35304000000000000494000
  0
ACAD_PROXY_OBJECT
  5
53
102
{ACAD_REACTORS
330
47
102
}
330
47
100
AcDbProxyObject
 90
      499
 91
      503
 93
      121
310
905313A3130304000000000000594000
  0
ACAD_PROXY_OBJECT
  5
54
102
{ACAD_REACTORS
330
47
102
}
330
47
100
AcDbProxyObject
 90
      499
 91
      503
 93
      105
310
903323A310000000000000010100
  0
ACAD_PROXY_OBJECT
  5
55
102
{ACAD_REACTORS
330
47
102
}
330
47
100
AcDbProxyObject
 90
      499
 91
      503
 93
      105
310
903343A310000000000000410100
  0
ACAD_PROXY_OBJECT
  5
56
102
{ACAD_REACTORS
330
47
102
}
330
47
100
AcDbProxyObject
 90
      499
 91
      503
 93
      105
310
903383A310000000000000810100
  0
ACAD_PROXY_OBJECT
  5
57
102
{ACAD_REACTORS
330
47
102
}
330
47
100
AcDbProxyObject
 90
      499
 91
      503
 93
      113
310
90431303A310000000000000910100
  0
ACAD_PROXY_OBJECT
  5
58
102
{ACAD_REACTORS
330
47
102
}
330
47
100
AcDbProxyObject
 90
      499
 91
      503
 93
      121
310
9053130303A310000000000001650100
  0
ACAD_PROXY_OBJECT
  5
59
102
{ACAD_REACTORS
330
47
102
}
330
47
100
AcDbProxyObject
 90
      499
 91
      503
 93
      257
310
90E312F31323822203D2031272D3022000000000000200FC000000000000284000
  0
ACAD_PROXY_OBJECT
  5
5A
102
{ACAD_REACTORS
330
47
102
}
330
47
100
AcDbProxyObject
 90
      499
 91
      503
 93
      249
310
90D312F363422203D2031272D3022000000000000240FC000000000000284000
  0
ACAD_PROXY_OBJECT
  5
5B
102
{ACAD_REACTORS
330
47
102
}
330
47
100
AcDbProxyObject
 90
      499
 91
      503
 93
      249
310
90D312F333222203D2031272D3022000000000000280FC000000000000284000
  0
ACAD_PROXY_OBJECT
  5
5C
102
{ACAD_REACTORS
330
47
102
}
330
47
100
AcDbProxyObject
 90
      499
 91
      503
 93
      249
310
90D312F313622203D2031272D30220000000000002C0FC000000000000284000
  0
ACAD_PROXY_OBJECT
  5
5D
102
{ACAD_REACTORS
330
47
102
}
330
47
100
AcDbProxyObject
 90
      499
 91
      503
 93
      249
310
90D332F333222203D2031272D30220000000000002E0FC000000000000284000
  0
ACAD_PROXY_OBJECT
  5
5E
102
{ACAD_REACTORS
330
47
102
}
330
47
100
AcDbProxyObject
 90
      499
 91
      503
 93
      241
310
90C312F3822203D2031272D3022000000000000300FC000000000000284000
  0
ACAD_PROXY_OBJECT
  5
5F
102
{ACAD_REACTORS
330
47
102
}
330
47
100
AcDbProxyObject
 90
      499
 91
      503
 93
      249
310
90D332F313622203D2031272D3022000000000000320FC000000000000284000
  0
ACAD_PROXY_OBJECT
  5
60
102
{ACAD_REACTORS
330
47
102
}
330
47
100
AcDbProxyObject
 90
      499
 91
      503
 93
      241
310
90C312F3422203D2031272D3022000000000000340FC000000000000284000
  0
ACAD_PROXY_OBJECT
  5
61
102
{ACAD_REACTORS
330
47
102
}
330
47
100
AcDbProxyObject
 90
      499
 91
      503
 93
      241
310
90C332F3822203D2031272D3022000000000000360FC000000000000284000
  0
ACAD_PROXY_OBJECT
  5
62
102
{ACAD_REACTORS
330
47
102
}
330
47
100
AcDbProxyObject
 90
      499
 91
      503
 93
      241
310
90C312F3222203D2031272D3022000000000000380FC000000000000284000
  0
ACAD_PROXY_OBJECT
  5
63
102
{ACAD_REACTORS
330
47
102
}
330
47
100
AcDbProxyObject
 90
      499
 91
      503
 93
      241
310
90C332F3422203D2031272D30220000000000003A0FC000000000000284000
  0
ACAD_PROXY_OBJECT
  5
64
102
{ACAD_REACTORS
330
47
102
}
330
47
100
AcDbProxyObject
 90
      499
 91
      503
 93
      161
310
90A3122203D2031272D30224000000000000284000
  0
ACAD_PROXY_OBJECT
  5
65
102
{ACAD_REACTORS
330
47
102
}
330
47
100
AcDbProxyObject
 90
      499
 91
      503
 93
      257
310
90E312D312F3222203D2031272D30220000000000003E0FC000000000000284000
  0
ACAD_PROXY_OBJECT
  5
66
102
{ACAD_REACTORS
330
47
102
}
330
47
100
AcDbProxyObject
 90
      499
 91
      503
 93
      225
310
90A3322203D2031272D302200000000000002100000000000000284000
  0
ACAD_PROXY_OBJECT
  5
67
102
{ACAD_REACTORS
330
47
102
}
330
47
100
AcDbProxyObject
 90
      499
 91
      503
 93
      225
310
90A3622203D2031272D302200000000000006100000000000000284000
  0
ACAD_PROXY_OBJECT
  5
68
102
{ACAD_REACTORS
330
47
102
}
330
47
100
AcDbProxyObject
 90
      499
 91
      503
 93
      249
310
90D31272D3022203D2031272D30220000000000000A100000000000000284000
  0
ACAD_PROXY_OBJECT
  5
2F
102
{ACAD_REACTORS
330
2A
102
}
330
2A
100
AcDbProxyObject
 90
      499
 91
      501
 93
      436
310
42CC9915DA5C99599C985B595049028333333333333E33F0000000000000F90107901411070040501600405405064090741402480A0340
1001
ACAD
1000
AcDbSavedByObjectVersion
1070
     0
  0
ACAD_PROXY_OBJECT
  5
32
102
{ACAD_REACTORS
330
2A
102
}
330
2A
100
AcDbProxyObject
 90
      499
 91
      501
 93
      388
310
4150985CDA58D07406404333333333333E33F0000000000000F90107A41107004050150841D405064090741402480A0350
1001
ACAD
1000
AcDbSavedByObjectVersion
1070
     0
  0
ACAD_PROXY_OBJECT
  5
36
102
{ACAD_REACTORS
330
2A
102
}
330
2A
100
AcDbProxyObject
 90
      499
 91
      501
 93
      428
310
42109C9A59DA1D195B90C409028333333333333E33F0000000000000F9010790141107004050150841D405064090741402480A029950
1001
ACAD
1000
AcDbSavedByObjectVersion
1070
     0
  0
ACAD_PROXY_OBJECT
  5
3A
102
{ACAD_REACTORS
330
2A
102
}
330
2A
100
AcDbProxyObject
 90
      499
 91
      501
 93
      452
310
42D0DBDB1BDC90DA185B99D95104090240C333333333333E33F0000000000000F90108901411070040501508421405064090741402480A0350
1001
ACAD
1000
AcDbSavedByObjectVersion
1070
     0
  0
ACAD_PROXY_OBJECT
  5
34
102
{ACAD_REACTORS
330
2A
102
}
330
2A
100
AcDbProxyObject
 90
      499
 91
      501
 93
      500
310
4290DBDB98D95C1D1D585B10940D028333333333333E33F0000000000000F90107902409070040501000000000018199010841D405064090740C02480A0340
1001
ACAD
1000
AcDbSavedByObjectVersion
1070
     0
  0
ACAD_PROXY_OBJECT
  5
35
102
{ACAD_REACTORS
330
2A
102
}
330
2A
100
AcDbProxyObject
 90
      499
 91
      501
 93
      412
310
40D11A5B50B409028333333333333E33F0000000000000F9010790141107004050150841D405064090741402480A02677FFFFFD0
1001
ACAD
1000
AcDbSavedByObjectVersion
1070
     0
  0
ACAD_PROXY_OBJECT
  5
3D
102
{ACAD_REACTORS
330
2A
102
}
330
2A
100
AcDbProxyObject
 90
      499
 91
      501
 93
      452
310
43115919D950DBDB1BDC93D999916409028333333333333E33F0000000000000F9010790141107004050150841D405064090741402480A0350
1001
ACAD
1000
AcDbSavedByObjectVersion
1070
     0
  0
ACAD_PROXY_OBJECT
  5
39
102
{ACAD_REACTORS
330
2A
102
}
330
2A
100
AcDbProxyObject
 90
      499
 91
      501
 93
      444
310
42D19858D95C185D1D195C9B90F409028333333333333E33F0000000000000F9010790141107004050150841D405064090741402480A0350
1001
ACAD
1000
AcDbSavedByObjectVersion
1070
     0
  0
ACAD_PROXY_OBJECT
  5
2B
102
{ACAD_REACTORS
330
2A
102
}
330
2A
100
AcDbProxyObject
 90
      499
 91
      501
 93
      380
310
41119B185D240901404333333333333E33F0000000000000F9010740A907004050150841D405064090741402480A1B50
1001
ACAD
1000
AcDbSavedByObjectVersion
1070
     0
  0
ACAD_PROXY_OBJECT
  5
2C
102
{ACAD_REACTORS
330
2A
102
}
330
2A
100
AcDbProxyObject
 90
      499
 91
      501
 93
      468
310
43519B185D15DA5D1A115919D95CD0140901404333333333333E33F0000000000000F90107409019070040501600405405064090741402480A1B50
1001
ACAD
1000
AcDbSavedByObjectVersion
1070
     0
  0
ACAD_PROXY_OBJECT
  5
2D
102
{ACAD_REACTORS
330
2A
102
}
330
2A
100
AcDbProxyObject
 90
      499
 91
      501
 93
      404
310
41D1DBDD5C985D5910240902404333333333333E33F0000000000000F9010740A9070040501641D405064090741402480A1B50
1001
ACAD
1000
AcDbSavedByObjectVersion
1070
     0
  0
ACAD_PROXY_OBJECT
  5
2E
102
{ACAD_REACTORS
330
2A
102
}
330
2A
100
AcDbProxyObject
 90
      499
 91
      501
 93
      492
310
4411DBDD5C985D5915DA5D1A115919D95CD0340902404333333333333E33F0000000000000F90107409019070040501600405405064090741402480A1B50
1001
ACAD
1000
AcDbSavedByObjectVersion
1070
     0
  0
ACAD_PROXY_OBJECT
  5
31
102
{ACAD_REACTORS
330
2A
102
}
330
2A
100
AcDbProxyObject
 90
      499
 91
      501
 93
      476
310
41921A5919195B90640502408333333333333E33F0000000000000F901079024090700405020000000000001110200405405064090740C02480A0340
1001
ACAD
1000
AcDbSavedByObjectVersion
1070
     0
  0
ACAD_PROXY_OBJECT
  5
3B
102
{ACAD_REACTORS
330
2A
102
}
330
2A
100
AcDbProxyObject
 90
      499
 91
      501
 93
      428
310
42529A5D1D195C93D999914409028333333333333E33F0000000000000F9010790141107004050150A41D405064090741402480A0350
1001
ACAD
1000
AcDbSavedByObjectVersion
1070
     0
  0
ACAD_PROXY_OBJECT
  5
38
102
{ACAD_REACTORS
330
2A
102
}
330
2A
100
AcDbProxyObject
 90
      499
 91
      501
 93
      444
310
42D31A5B995C185D1D195C9B90E409028333333333333E33F0000000000000F9010790141107004050750841D405064090741402483A0350
1001
ACAD
1000
AcDbSavedByObjectVersion
1070
     0
  0
ACAD_PROXY_OBJECT
  5
3C
102
{ACAD_REACTORS
330
2A
102
}
330
2A
100
AcDbProxyObject
 90
      499
 91
      501
 93
      444
310
42D3DD995C9A185B99D3D999915409028333333333333E33F0000000000000F9010790141107004050150941D405064090741402480A0350
1001
ACAD
1000
AcDbSavedByObjectVersion
1070
     0
  0
ACAD_PROXY_OBJECT
  5
33
102
{ACAD_REACTORS
330
2A
102
}
330
2A
100
AcDbProxyObject
 90
      499
 91
      501
 93
      428
310
425499585B1A5CDD1A58D08409038333333333333E33F0000000000000F9010740A907004050150800405405064090740C02480A1B40
1001
ACAD
1000
AcDbSavedByObjectVersion
1070
     0
  0
ACAD_PROXY_OBJECT
  5
42
102
{ACAD_REACTORS
330
2A
102
}
330
2A
100
AcDbProxyObject
 90
      499
 91
      501
 93
      420
310
4194DA1859195911B40902404333333333333E33F0000000000000F9010740A41107004050150800405405064090840C02480A0B40
1001
ACAD
1000
AcDbSavedByObjectVersion
1070
     0
  0
ACAD_PROXY_OBJECT
  5
41
102
{ACAD_REACTORS
330
2A
102
}
330
2A
100
AcDbProxyObject
 90
      499
 91
      501
 93
      516
310
4454DA18591959081DDA5D1A08195919D95CD1A40902404333333333333E33F0000000000000F901074090142907004050250800405405064090740C02480A0B40
1001
ACAD
1000
AcDbSavedByObjectVersion
1070
     0
  0
ACAD_PROXY_OBJECT
  5
3E
102
{ACAD_REACTORS
330
2A
102
}
330
2A
100
AcDbProxyObject
 90
      499
 91
      501
 93
      532
310
4394DA1859195CC81BD98811DC985E5174090240C333333333333E33F0000000000000F901079024090741D01000000000000111010841D405064090740C02480A0340
1001
ACAD
1000
AcDbSavedByObjectVersion
1070
     0
  0
ACAD_PROXY_OBJECT
  5
3F
102
{ACAD_REACTORS
330
2A
102
}
330
2A
100
AcDbProxyObject
 90
      499
 91
      501
 93
      476
310
41D4DAD95D18DA1E51840502408333333333333E33F0000000000000F901079024090741D01000000000000111010B41D405064090741802480A0340
1001
ACAD
1000
AcDbSavedByObjectVersion
1070
     0
  0
ACAD_PROXY_OBJECT
  5
37
102
{ACAD_REACTORS
330
2A
102
}
330
2A
100
AcDbProxyObject
 90
      499
 91
      501
 93
      412
310
41D51A1A58DAD95B90D409028333333333333E33F0000000000000F9010790141107004050150C41D405064090741402480A0350
1001
ACAD
1000
AcDbSavedByObjectVersion
1070
     0
  0
ACAD_PROXY_OBJECT
  5
30
102
{ACAD_REACTORS
330
2A
102
}
330
2A
100
AcDbProxyObject
 90
      499
 91
      501
 93
      420
310
4255DA5C99599C985B595059028333333333333E33F0000000000000F90107901411070040501600405405064090740C02480A0340
1001
ACAD
1000
AcDbSavedByObjectVersion
1070
     0
  0
ACAD_PROXY_OBJECT
  5
40
102
{ACAD_REACTORS
330
2A
102
}
330
2A
100
AcDbProxyObject
 90
      499
 91
      501
 93
      404
310
41560B54985E51940902404000000000000E03F0000000000000F9010740501907004050150841D405064090740C02480A1B40
1001
ACAD
1000
AcDbSavedByObjectVersion
1070
     0
  0
XRECORD
  5
2F1
102
{ACAD_REACTORS
330
2E7
102
}
330
2E7
100
AcDbXrecord
340
0
  0
XRECORD
  5
2F0
102
{ACAD_REACTORS
330
2E7
102
}
330
2E7
100
AcDbXrecord
 90
        0
  0
XRECORD
  5
307
102
{ACAD_REACTORS
330
2E7
102
}
330
2E7
100
AcDbXrecord
1000
DSTYLE
1002
{
1070
   179
 70
     2
1070
   171
 70
     2
1070
   143
 40
25.4
1070
   274
 70
     2
1070
    41
 40
3.0
1070
   141
 40
0.09
1070
    43
 40
0.38
1070
   278
 70
    46
1070
    44
 40
1.5
1070
    42
 40
0.0625
1070
   147
 40
1.5
1070
   272
 70
     4
1070
    73
 70
     1
1070
   172
 70
     0
1070
    74
 70
     1
1070
   283
 70
     1
1070
   340
340
6F
1070
   140
 40
3.0
1070
   284
 70
     0
1070
    78
 70
     0
1002
}
  0
XRECORD
  5
2F2
102
{ACAD_REACTORS
330
2E7
102
}
330
2E7
100
AcDbXrecord
  1
{8C745538-6137-45E1-9EEC-4DA34340DAB3}
  0
XRECORD
  5
2EA
102
{ACAD_REACTORS
330
2E7
102
}
330
2E7
100
AcDbXrecord
  1

  0
XRECORD
  5
2EF
102
{ACAD_REACTORS
330
2E7
102
}
330
2E7
100
AcDbXrecord
 90
        4
  0
XRECORD
  5
2EC
102
{ACAD_REACTORS
330
2E7
102
}
330
2E7
100
AcDbXrecord
340
1A
  0
XRECORD
  5
2EE
102
{ACAD_REACTORS
330
2E7
102
}
330
2E7
100
AcDbXrecord
 90
    10269
  0
XRECORD
  5
2ED
102
{ACAD_REACTORS
330
2E7
102
}
330
2E7
100
AcDbXrecord
340
19
  0
XRECORD
  5
2F4
102
{ACAD_REACTORS
330
2E7
102
}
330
2E7
100
AcDbXrecord
 40
0.0
  0
XRECORD
  5
2F7
102
{ACAD_REACTORS
330
2E7
102
}
330
2E7
100
AcDbXrecord
340
0
  0
XRECORD
  5
2FD
102
{ACAD_REACTORS
330
2E7
102
}
330
2E7
100
AcDbXrecord
 10
0.0
 20
0.0
 30
0.0
  0
XRECORD
  5
2F9
102
{ACAD_REACTORS
330
2E7
102
}
330
2E7
100
AcDbXrecord
 10
0.0
 20
0.0
 30
0.0
  0
XRECORD
  5
2FC
102
{ACAD_REACTORS
330
2E7
102
}
330
2E7
100
AcDbXrecord
 10
0.0
 20
0.0
 30
0.0
  0
XRECORD
  5
2FA
102
{ACAD_REACTORS
330
2E7
102
}
330
2E7
100
AcDbXrecord
 10
0.0
 20
0.0
 30
0.0
  0
XRECORD
  5
2FB
102
{ACAD_REACTORS
330
2E7
102
}
330
2E7
100
AcDbXrecord
 10
0.0
 20
0.0
 30
0.0
  0
XRECORD
  5
2F8
102
{ACAD_REACTORS
330
2E7
102
}
330
2E7
100
AcDbXrecord
 10
0.0
 20
0.0
 30
0.0
  0
XRECORD
  5
2F5
102
{ACAD_REACTORS
330
2E7
102
}
330
2E7
100
AcDbXrecord
340
0
  0
XRECORD
  5
2F6
102
{ACAD_REACTORS
330
2E7
102
}
330
2E7
100
AcDbXrecord
 70
     0
  0
XRECORD
  5
2EB
102
{ACAD_REACTORS
330
2E7
102
}
330
2E7
100
AcDbXrecord
  1

  0
XRECORD
  5
2E8
102
{ACAD_REACTORS
330
2E7
102
}
330
2E7
100
AcDbXrecord
 90
        1
  0
XRECORD
  5
2E9
102
{ACAD_REACTORS
330
2E7
102
}
330
2E7
100
AcDbXrecord
 90
       70
  0
XRECORD
  5
300
102
{ACAD_REACTORS
330
2E7
102
}
330
2E7
100
AcDbXrecord
340
0
  0
XRECORD
  5
306
102
{ACAD_REACTORS
330
2E7
102
}
330
2E7
100
AcDbXrecord
 10
0.0
 20
0.0
 30
0.0
  0
XRECORD
  5
302
102
{ACAD_REACTORS
330
2E7
102
}
330
2E7
100
AcDbXrecord
 10
0.0
 20
0.0
 30
0.0
  0
XRECORD
  5
305
102
{ACAD_REACTORS
330
2E7
102
}
330
2E7
100
AcDbXrecord
 10
0.0
 20
0.0
 30
0.0
  0
XRECORD
  5
303
102
{ACAD_REACTORS
330
2E7
102
}
330
2E7
100
AcDbXrecord
 10
0.0
 20
0.0
 30
0.0
  0
XRECORD
  5
304
102
{ACAD_REACTORS
330
2E7
102
}
330
2E7
100
AcDbXrecord
 10
0.0
 20
0.0
 30
0.0
  0
XRECORD
  5
301
102
{ACAD_REACTORS
330
2E7
102
}
330
2E7
100
AcDbXrecord
 10
0.0
 20
0.0
 30
0.0
  0
XRECORD
  5
2FE
102
{ACAD_REACTORS
330
2E7
102
}
330
2E7
100
AcDbXrecord
340
0
  0
XRECORD
  5
2FF
102
{ACAD_REACTORS
330
2E7
102
}
330
2E7
100
AcDbXrecord
 70
     0
  0
XRECORD
  5
2F3
102
{ACAD_REACTORS
330
2E7
102
}
330
2E7
100
AcDbXrecord
  1
{FAEB1C32-E019-11D5-929B-00C0DF256EC4}
  0
DICTIONARYVAR
  5
313
102
{ACAD_REACTORS
330
308
102
}
330
308
100
DictionaryVariables
280
     0
  1
1:1
  0
DICTIONARYVAR
  5
30A
102
{ACAD_REACTORS
330
308
102
}
330
308
100
DictionaryVariables
280
     0
  1
Standard
  0
DICTIONARYVAR
  5
309
102
{ACAD_REACTORS
330
308
102
}
330
308
100
DictionaryVariables
280
     0
  1
Standard
  0
DICTIONARYVAR
  5
30D
102
{ACAD_REACTORS
330
308
102
}
330
308
100
DictionaryVariables
280
     0
  1
2
  0
DICTIONARYVAR
  5
30E
102
{ACAD_REACTORS
330
308
102
}
330
308
100
DictionaryVariables
280
     0
  1
1
  0
DICTIONARYVAR
  5
314
102
{ACAD_REACTORS
330
308
102
}
330
308
100
DictionaryVariables
280
     0
  1
1
  0
DICTIONARY
  5
317
330
45
100
AcDbDictionary
280
     1
  3
ACAD_XREC_ROUNDTRIP
360
318
  0
DICTIONARY
  5
315
330
44
100
AcDbDictionary
280
     1
  3
ACAD_XREC_ROUNDTRIP
360
316
  0
DICTIONARY
  5
319
330
46
100
AcDbDictionary
280
     1
  3
ACAD_XREC_ROUNDTRIP
360
31A
  0
XRECORD
  5
318
102
{ACAD_REACTORS
330
317
102
}
330
317
100
AcDbXrecord
102
MATERIAL
148
0.0
149
0.0
149
0.0
 93
        0
 94
      127
282
     0
 72
     1
 77
     1
171
     1
175
     1
179
     1
273
     0
  0
XRECORD
  5
316
102
{ACAD_REACTORS
330
315
102
}
330
315
100
AcDbXrecord
102
MATERIAL
148
0.0
149
0.0
149
0.0
 93
        0
 94
      127
282
     0
 72
     1
 77
     1
171
     1
175
     1
179
     1
273
     0
  0
XRECORD
  5
31A
102
{ACAD_REACTORS
330
319
102
}
330
319
100
AcDbXrecord
102
MATERIAL
148
0.0
149
0.0
149
0.0
 93
        0
 94
      127
282
     0
 72
     1
 77
     1
171
     1
175
     1
179
     1
273
     0
  0
ENDSEC
  0
EOF
