  0
SECTION
  2
HEADER
  9
$ACADVER
  1
AC1006
  9
$DWGCODEPAGE
  3
ansi_932
  9
$INSBASE
 10
0.0
 20
0.0
 30
0.0
  9
$EXTMIN
 10
-640.1571435043347
 20
355.1512670666009
  9
$EXTMAX
 10
-332.7645101985412
 20
532.8836027375083
  9
$LIMMIN
 10
0.0
 20
0.0
  9
$LIMMAX
 10
12.0
 20
9.0
  9
$ORTHOMODE
 70
     0
  9
$REGENMODE
 70
     1
  9
$FILLMODE
 70
     1
  9
$QTEXTMODE
 70
     0
  9
$MIRRTEXT
 70
     1
  9
$DRAGMODE
 70
     2
  9
$LTSCALE
 40
1.0
  9
$OSMODE
 70
    37
  9
$ATTMODE
 70
     1
  9
$TEXTSIZE
 40
0.2
  9
$TRACEWID
 40
0.05
  9
$TEXTSTYLE
  7
STANDARD
  9
$CLAYER
  8
0
  9
$CELTYPE
  6
BYLAYER
  9
$CECOLOR
 62
   256
  9
$DIMSCALE
 40
1.0
  9
$DIMASZ
 40
3.0
  9
$DIMEXO
 40
0.0625
  9
$DIMDLI
 40
0.38
  9
$DIMRND
 40
0.0
  9
$DIMDLE
 40
0.0
  9
$DIMEXE
 40
1.5
  9
$DIMTP
 40
0.0
  9
$DIMTM
 40
0.0
  9
$DIMTXT
 40
3.0
  9
$DIMCEN
 40
0.09
  9
$DIMTSZ
 40
0.0
  9
$DIMTOL
 70
     0
  9
$DIMLIM
 70
     0
  9
$DIMTIH
 70
     1
  9
$DIMTOH
 70
     1
  9
$DIMSE1
 70
     0
  9
$DIMSE2
 70
     0
  9
$DIMTAD
 70
     1
  9
$DIMZIN
 70
     0
  9
$DIMBLK
  1

  9
$DIMASO
 70
     1
  9
$DIMSHO
 70
     1
  9
$DIMPOST
  1

  9
$DIMAPOST
  1

  9
$DIMALT
 70
     0
  9
$DIMALTD
 70
     2
  9
$DIMALTF
 40
25.4
  9
$DIMLFAC
 40
1.0
  9
$DIMTOFL
 70
     0
  9
$DIMTVP
 40
0.0
  9
$DIMTIX
 70
     0
  9
$DIMSOXD
 70
     0
  9
$DIMSAH
 70
     0
  9
$DIMBLK1
  1

  9
$DIMBLK2
  1

  9
$LUNITS
 70
     2
  9
$LUPREC
 70
     4
  9
$SKETCHINC
 40
0.1
  9
$FILLETRAD
 40
0.5
  9
$AUNITS
 70
     0
  9
$AUPREC
 70
     0
  9
$MENU
  1
.
  9
$ELEVATION
 40
0.0
  9
$THICKNESS
 40
0.0
  9
$LIMCHECK
 70
     0
  9
$CHAMFERA
 40
0.0
  9
$CHAMFERB
 40
0.0
  9
$SKPOLY
 70
     0
  9
$TDCREATE
 40
2460546.354674734
  9
$TDUPDATE
 40
2460546.354675012
  9
$TDINDWG
 40
0.0000000116
  9
$TDUSRTIMER
 40
0.0000000116
  9
$USRTIMER
 70
     1
  9
$ANGBASE
 50
0.0
  9
$ANGDIR
 70
     0
  9
$PDMODE
 70
     0
  9
$PDSIZE
 40
0.0
  9
$PLINEWID
 40
0.0
  9
$COORDS
 70
     1
  9
$SPLFRAME
 70
     0
  9
$SPLINETYPE
 70
     6
  9
$SPLINESEGS
 70
     8
  9
$ATTDIA
 70
     0
  9
$ATTREQ
 70
     1
  9
$HANDLING
 70
     1
  9
$HANDSEED
  5
2CB
  9
$SURFTAB1
 70
     6
  9
$SURFTAB2
 70
     6
  9
$SURFTYPE
 70
     6
  9
$SURFU
 70
     6
  9
$SURFV
 70
     6
  9
$UCSNAME
  2

  9
$UCSORG
 10
0.0
 20
0.0
 30
0.0
  9
$UCSXDIR
 10
1.0
 20
0.0
 30
0.0
  9
$UCSYDIR
 10
0.0
 20
1.0
 30
0.0
  9
$USERI1
 70
     0
  9
$USERI2
 70
     0
  9
$USERI3
 70
     0
  9
$USERI4
 70
     0
  9
$USERI5
 70
     0
  9
$USERR1
 40
0.0
  9
$USERR2
 40
0.0
  9
$USERR3
 40
0.0
  9
$USERR4
 40
0.0
  9
$USERR5
 40
0.0
  9
$WORLDVIEW
 70
     1
  0
ENDSEC
  0
SECTION
  2
TABLES
  0
TABLE
  2
VPORT
 70
     1
  0
VPORT
  2
*ACTIVE
 70
     0
 10
0.0
 20
0.0
 11
1.0
 21
1.0
 12
-486.460826851438
 22
444.0174349020546
 13
0.0
 23
0.0
 14
0.5
 24
0.5
 15
0.5
 25
0.5
 16
0.0
 26
0.0
 36
1.0
 17
0.0
 27
0.0
 37
0.0
 40
177.7323356709074
 41
1.6
 42
50.0
 43
0.0
 44
0.0
 50
0.0
 51
0.0
 71
     0
 72
   100
 73
     1
 74
     3
 75
     0
 76
     0
 77
     0
 78
     0
  0
ENDTAB
  0
TABLE
  2
LTYPE
 70
     2
  0
LTYPE
  2
CONTINUOUS
 70
     0
  3
Solid line
 72
    65
 73
     0
 40
0.0
  0
LTYPE
  2
CENTER
 70
     0
  3

 72
    65
 73
     0
 40
0.0
  0
ENDTAB
  0
TABLE
  2
LAYER
 70
     2
  0
LAYER
  2
0
 70
     0
 62
     7
  6
CONTINUOUS
  0
LAYER
  2
1
 70
     0
 62
     7
  6
CONTINUOUS
  0
ENDTAB
  0
TABLE
  2
STYLE
 70
     2
  0
STYLE
  2
STANDARD
 70
     0
 40
0.0
 41
1.0
 50
0.0
 71
     0
 42
0.2
  3
txt
  4

  0
STYLE
  2
ＭＳ_ゴシック
 70
     0
 40
0.0
 41
1.0
 50
0.0
 71
     0
 42
0.2
  3
ＭＳ ゴシック.shx
  4

  0
ENDTAB
  0
TABLE
  2
VIEW
 70
     0
  0
ENDTAB
  0
TABLE
  2
UCS
 70
     0
  0
ENDTAB
  0
ENDSEC
  0
SECTION
  2
BLOCKS
  0
BLOCK
  8
0
  2
D_FRAME_VIEW_3432
 70
     0
 10
0.0
 20
0.0
 30
0.0
  0
ARC
  5
71
  8
1
  6
CONTINUOUS
 62
     7
 10
-400.8618861908437
 20
425.8836027375083
 30
0.0
 40
5.250000000000032
 50
270.0
 51
0.0
  0
ARC
  5
72
  8
1
  6
CONTINUOUS
 62
     7
 10
-400.8618861908437
 20
425.8836027375083
 30
0.0
 40
5.249999999999977
 50
0.0
 51
270.0
  0
LINE
  5
73
  8
1
  6
CONTINUOUS
 62
     7
 10
-425.1474089531276
 20
448.8833896718511
 30
0.0
 11
-424.8473550212502
 21
447.8836027386843
 31
0.0
  0
LINE
  5
74
  8
1
  6
CONTINUOUS
 62
     7
 10
-424.8473550212502
 20
447.8836027386843
 30
0.0
 11
-423.6618861954438
 21
447.8836027385328
 31
0.0
  0
LINE
  5
75
  8
1
  6
CONTINUOUS
 62
     7
 10
-424.8473550192052
 20
463.8836027386843
 30
0.0
 11
-425.1474402576889
 21
462.8836976318199
 31
0.0
  0
LINE
  5
76
  8
1
  6
CONTINUOUS
 62
     7
 10
-424.8473550192052
 20
463.8836027386843
 30
0.0
 11
-423.6618861954438
 21
463.8836027385328
 31
0.0
  0
LINE
  5
77
  8
1
  6
CONTINUOUS
 62
     7
 10
-424.8473550212502
 20
447.8836027386843
 30
0.0
 11
-425.5618862010666
 21
447.8836027387757
 31
0.0
  0
LINE
  5
78
  8
1
  6
CONTINUOUS
 62
     7
 10
-425.5618862010666
 20
447.8836027387756
 30
0.0
 11
-425.5618862009388
 21
448.8836027375083
 31
0.0
  0
LINE
  5
79
  8
1
  6
CONTINUOUS
 62
     7
 10
-425.5618861990215
 20
463.8836027387757
 30
0.0
 11
-424.8473550192052
 21
463.8836027386843
 31
0.0
  0
LINE
  5
7A
  8
1
  6
CONTINUOUS
 62
     7
 10
-425.5618861990215
 20
463.8836027387758
 30
0.0
 11
-425.5618861991493
 21
462.8836027375085
 31
0.0
  0
LINE
  5
7B
  8
1
  6
CONTINUOUS
 62
     7
 10
-351.5316844566435
 20
426.6853175855941
 30
0.0
 11
-355.6899182729987
 21
407.122365570918
 31
0.0
  0
ARC
  5
7C
  8
1
  6
CONTINUOUS
 62
     7
 10
-365.7232516031414
 20
423.5677847337728
 30
0.0
 40
14.16527889308677
 50
331.5976619320199
 51
4.402338067980395
  0
ARC
  5
7D
  8
1
  6
CONTINUOUS
 62
     7
 10
-367.4159147732835
 20
415.7488466383635
 30
0.0
 40
14.19408522875821
 50
331.6318870058593
 51
4.368112994140063
  0
LINE
  5
7E
  8
1
  6
CONTINUOUS
 62
     7
 10
-353.487979658111
 20
427.1011409672296
 30
0.0
 11
-357.6462134744663
 21
407.5381889525535
 31
0.0
  0
ARC
  5
7F
  8
1
  6
CONTINUOUS
 62
     7
 10
-360.2562920973619
 20
414.0879721670163
 30
0.0
 40
12.31556971044159
 50
348.6327780138076
 51
7.62337998660945
  0
ARC
  5
80
  8
1
  6
CONTINUOUS
 62
     7
 10
-360.4067603682927
 20
414.4382323682859
 30
0.0
 40
12.536047896089
 50
328.5451235887119
 51
347.1987184108718
  0
LINE
  5
81
  8
1
  6
CONTINUOUS
 62
     7
 10
-349.7128672058536
 20
407.8965853368896
 30
0.0
 11
-354.9263527084154
 21
409.0047458896307
 31
0.0
  0
LINE
  5
82
  8
1
  6
CONTINUOUS
 62
     7
 10
-348.0495736793116
 20
415.72176614276
 30
0.0
 11
-353.2630591818734
 21
416.8299266955011
 31
0.0
  0
ARC
  5
83
  8
1
  6
CONTINUOUS
 62
     7
 10
-358.5161280959857
 20
421.9106406294384
 30
0.0
 40
12.23971852191765
 50
348.5733845026438
 51
7.682773497773042
  0
ARC
  5
84
  8
1
  6
CONTINUOUS
 62
     7
 10
-358.742337644213
 20
422.2629540098247
 30
0.0
 40
12.53484502980902
 50
328.544220581079
 51
347.1996214185039
  0
LINE
  5
85
  8
1
  6
CONTINUOUS
 62
     7
 10
-346.3862801527695
 20
423.5469469486305
 30
0.0
 11
-351.5997656553313
 21
424.6551075013715
 31
0.0
  0
LINE
  5
86
  8
1
  6
CONTINUOUS
 62
     7
 10
-346.5190099568537
 20
419.4857971599577
 30
0.0
 11
-348.1823034833958
 21
411.6606163540872
 31
0.0
  0
LINE
  5
87
  8
1
  6
CONTINUOUS
 62
     7
 10
-349.0139502466668
 20
407.7480259511519
 30
0.0
 11
-349.7128672058536
 21
407.8965853368896
 31
0.0
  0
LINE
  5
88
  8
1
  6
CONTINUOUS
 62
     7
 10
-348.1823034833958
 20
411.6606163540872
 30
0.0
 11
-349.0139502466668
 21
407.7480259511519
 31
0.0
  0
LINE
  5
89
  8
1
  6
CONTINUOUS
 62
     7
 10
-346.3862801527695
 20
423.5469469486305
 30
0.0
 11
-345.6873631935827
 21
423.3983875628929
 31
0.0
  0
LINE
  5
8A
  8
1
  6
CONTINUOUS
 62
     7
 10
-345.6873631935827
 20
423.3983875628928
 30
0.0
 11
-346.5190099568537
 21
419.4857971599577
 31
0.0
  0
LINE
  5
8B
  8
1
  6
CONTINUOUS
 62
     7
 10
-335.9427336982576
 20
418.2600808380231
 30
0.0
 11
-338.0218506064351
 21
408.4786048306851
 31
0.0
  0
ARC
  5
8C
  8
1
  6
CONTINUOUS
 62
     7
 10
-367.1227235930439
 20
484.3769954288585
 30
0.0
 40
5.249999999999977
 50
270.0
 51
180.0
  0
ARC
  5
8D
  8
1
  6
CONTINUOUS
 62
     7
 10
-367.1227235930439
 20
484.3769954288585
 30
0.0
 40
5.249999999999977
 50
180.0
 51
270.0
  0
ARC
  5
8E
  8
1
  6
CONTINUOUS
 62
     7
 10
-377.0690470364771
 20
451.8773262251457
 30
0.0
 40
27.30947614405869
 50
35.59855533332552
 51
46.87092900888547
  0
ARC
  5
8F
  8
1
  6
CONTINUOUS
 62
     7
 10
-377.0678518983377
 20
451.87783169891
 30
0.0
 40
24.30824744231534
 50
37.58330404865383
 51
50.51631048417036
  0
LINE
  5
90
  8
1
  6
CONTINUOUS
 62
     7
 10
-371.0265779072906
 20
425.2590829519305
 30
0.0
 11
-372.0618861957664
 21
428.1035690966948
 31
0.0
  0
ARC
  5
91
  8
1
  6
CONTINUOUS
 62
     7
 10
-377.0619133051335
 20
451.8836860130771
 30
0.0
 40
27.30008720733463
 50
282.7721132211514
 51
293.2867699963076
  0
ARC
  5
92
  8
1
  6
CONTINUOUS
 62
     7
 10
-377.0619124691619
 20
451.8836846371636
 30
0.0
 40
24.30008555237394
 50
281.8740903272196
 51
293.6930739422677
  0
ARC
  5
93
  8
1
  6
CONTINUOUS
 62
     7
 10
-377.0618861999441
 20
451.8836027375084
 30
0.0
 40
27.30000000000013
 50
293.2867868376507
 51
35.59659260977065
  0
ARC
  5
94
  8
1
  6
CONTINUOUS
 62
     7
 10
-377.0618861999441
 20
451.8836027375084
 30
0.0
 40
24.30000000000012
 50
293.6930948217517
 51
37.58109994029934
  0
LINE
  5
95
  8
1
  6
CONTINUOUS
 62
     7
 10
-362.3681795479701
 20
475.2669790506501
 30
0.0
 11
-361.4305630257934
 21
474.6372610461517
 31
0.0
  0
LINE
  5
96
  8
1
  6
CONTINUOUS
 62
     7
 10
-361.4305630257934
 20
474.6372610461517
 30
0.0
 11
-358.4724869679015
 21
473.4006805052737
 31
0.0
  0
ARC
  5
97
  8
1
  6
CONTINUOUS
 62
     7
 10
-357.2235702814996
 20
475.8643513487138
 30
0.0
 40
2.762148966726763
 50
243.1180338445873
 51
279.4287333514114
  0
POLYLINE
  5
98
  8
1
  6
CONTINUOUS
 62
     7
 66
     1
 10
0.0
 20
0.0
 30
0.0
  0
VERTEX
  5
247
  8
1
  6
CONTINUOUS
 62
     7
 10
-356.7710731061377
 20
473.1395186528076
 30
0.0
  0
VERTEX
  5
248
  8
1
  6
CONTINUOUS
 62
     7
 10
-356.6583115615093
 20
473.1800294959859
 30
0.0
  0
VERTEX
  5
249
  8
1
  6
CONTINUOUS
 62
     7
 10
-356.5987245982096
 20
473.2076226081097
 30
0.0
  0
SEQEND
  5
2BE
  8
1
  6
CONTINUOUS
 62
     7
  0
ARC
  5
99
  8
1
  6
CONTINUOUS
 62
     7
 10
-352.306606803387
 20
484.5747249337946
 30
0.0
 40
13.70654513434116
 50
222.7712529959304
 51
232.7500137533652
  0
LINE
  5
9A
  8
1
  6
CONTINUOUS
 62
     7
 10
-362.5455258819113
 20
471.3711701361615
 30
0.0
 11
-366.4939739503496
 21
473.765312695482
 31
0.0
  0
LINE
  5
9B
  8
1
  6
CONTINUOUS
 62
     7
 10
-366.4939739503496
 20
473.765312695482
 30
0.0
 11
-362.3681795479701
 21
475.2669790506501
 31
0.0
  0
ARC
  5
9C
  8
1
  6
CONTINUOUS
 62
     7
 10
-377.0618861999441
 20
451.8836027375084
 30
0.0
 40
27.30000000000012
 50
46.87289173244037
 51
52.92311424514273
  0
ARC
  5
9D
  8
1
  6
CONTINUOUS
 62
     7
 10
-377.0618861999441
 20
451.8836027375084
 30
0.0
 40
24.30000000000011
 50
50.51851459252515
 51
53.31743910194366
  0
LINE
  5
9E
  8
1
  6
CONTINUOUS
 62
     7
 10
-359.1869922170654
 20
475.3457951286458
 30
0.0
 11
-359.0626090600163
 21
475.3882542700944
 31
0.0
  0
LINE
  5
9F
  8
1
  6
CONTINUOUS
 62
     7
 10
-359.1869922170654
 20
475.3457951286457
 30
0.0
 11
-361.4305630257934
 21
474.6372610461517
 31
0.0
  0
LINE
  5
A0
  8
1
  6
CONTINUOUS
 62
     7
 10
-367.486003546128
 20
474.3668301104743
 30
0.0
 11
-366.4939739503496
 21
473.765312695482
 31
0.0
  0
LINE
  5
A1
  8
1
  6
CONTINUOUS
 62
     7
 10
-357.1260246334118
 20
484.6171467591178
 30
0.0
 11
-354.9079686387095
 21
478.5788802022224
 31
0.0
  0
POLYLINE
  5
A2
  8
1
  6
CONTINUOUS
 62
     7
 66
     1
 10
0.0
 20
0.0
 30
0.0
  0
VERTEX
  5
24A
  8
1
  6
CONTINUOUS
 62
     7
 10
-359.0626090600163
 20
475.3882542700944
 30
0.0
  0
VERTEX
  5
24B
  8
1
  6
CONTINUOUS
 62
     7
 10
-358.1573296012293
 20
475.7527761815431
 30
0.0
  0
VERTEX
  5
24C
  8
1
  6
CONTINUOUS
 62
     7
 10
-357.3075425850715
 20
476.15965015465
 30
0.0
  0
VERTEX
  5
24D
  8
1
  6
CONTINUOUS
 62
     7
 10
-356.5459048500078
 20
476.5932402508062
 30
0.0
  0
VERTEX
  5
24E
  8
1
  6
CONTINUOUS
 62
     7
 10
-355.9016857070655
 20
477.0368838457765
 30
0.0
  0
VERTEX
  5
24F
  8
1
  6
CONTINUOUS
 62
     7
 10
-355.3996421366255
 20
477.4735319650043
 30
0.0
  0
VERTEX
  5
250
  8
1
  6
CONTINUOUS
 62
     7
 10
-355.0590673915505
 20
477.886404466143
 30
0.0
  0
VERTEX
  5
251
  8
1
  6
CONTINUOUS
 62
     7
 10
-354.8930495682972
 20
478.2596348905152
 30
0.0
  0
VERTEX
  5
252
  8
1
  6
CONTINUOUS
 62
     7
 10
-354.9079686387095
 20
478.5788802022224
 30
0.0
  0
SEQEND
  5
2BF
  8
1
  6
CONTINUOUS
 62
     7
  0
LINE
  5
A3
  8
1
  6
CONTINUOUS
 62
     7
 10
-354.9079686387095
 20
478.5788802022224
 30
0.0
 11
-353.9421446634054
 21
475.9495946369093
 31
0.0
  0
POLYLINE
  5
A4
  8
1
  6
CONTINUOUS
 62
     7
 66
     1
 10
0.0
 20
0.0
 30
0.0
  0
VERTEX
  5
253
  8
1
  6
CONTINUOUS
 62
     7
 10
-356.5987245982096
 20
473.2076226081097
 30
0.0
  0
VERTEX
  5
254
  8
1
  6
CONTINUOUS
 62
     7
 10
-355.7573283843059
 20
473.6754326041334
 30
0.0
  0
VERTEX
  5
255
  8
1
  6
CONTINUOUS
 62
     7
 10
-355.041060282693
 20
474.1671593672654
 30
0.0
  0
VERTEX
  5
256
  8
1
  6
CONTINUOUS
 62
     7
 10
-354.4810597954074
 20
474.6614252506336
 30
0.0
  0
VERTEX
  5
257
  8
1
  6
CONTINUOUS
 62
     7
 10
-354.101672745298
 20
475.136742220013
 30
0.0
  0
VERTEX
  5
258
  8
1
  6
CONTINUOUS
 62
     7
 10
-353.9193928500008
 20
475.5724460385034
 30
0.0
  0
VERTEX
  5
259
  8
1
  6
CONTINUOUS
 62
     7
 10
-353.9421446634054
 20
475.9495946369092
 30
0.0
  0
SEQEND
  5
2C0
  8
1
  6
CONTINUOUS
 62
     7
  0
LINE
  5
A5
  8
1
  6
CONTINUOUS
 62
     7
 10
-353.9421446634054
 20
475.9495946369093
 30
0.0
 11
-348.9016685218372
 21
462.2277866261309
 31
0.0
  0
ARC
  5
A6
  8
1
  6
CONTINUOUS
 62
     7
 10
-377.0618861999441
 20
451.8836027375084
 30
0.0
 40
30.00000000000013
 50
321.7527171538297
 51
20.16996165098845
  0
LINE
  5
A7
  8
1
  6
CONTINUOUS
 62
     7
 10
-370.0806905670559
 20
422.6602788432848
 30
0.0
 11
-371.0202524070355
 21
425.2417037828127
 31
0.0
  0
LINE
  5
A8
  8
1
  6
CONTINUOUS
 62
     7
 10
-371.0202524070355
 20
425.2417037828127
 30
0.0
 11
-371.0265779072906
 21
425.2590829519304
 31
0.0
  0
LINE
  5
A9
  8
1
  6
CONTINUOUS
 62
     7
 10
-356.2452107926831
 20
411.2182453053468
 30
0.0
 11
-356.82229562321
 21
404.6221355093637
 31
0.0
  0
LINE
  5
AA
  8
1
  6
CONTINUOUS
 62
     7
 10
-354.5435940545316
 20
430.6678136214654
 30
0.0
 11
-355.8123542427487
 21
416.1658183106369
 31
0.0
  0
LINE
  5
AB
  8
1
  6
CONTINUOUS
 62
     7
 10
-370.0806905670559
 20
422.6602788432848
 30
0.0
 11
-363.5153433121386
 21
404.6221355095022
 31
0.0
  0
LINE
  5
AC
  8
1
  6
CONTINUOUS
 62
     7
 10
-361.8032691137785
 20
401.8836027376824
 30
0.0
 11
-362.5185988976442
 21
401.8836027377087
 31
0.0
  0
LINE
  5
AD
  8
1
  6
CONTINUOUS
 62
     7
 10
-362.5185988976442
 20
401.8836027377087
 30
0.0
 11
-363.5153433121386
 21
404.6221355095022
 31
0.0
  0
LINE
  5
AE
  8
1
  6
CONTINUOUS
 62
     7
 10
-359.8108797175951
 20
401.8836027376094
 30
0.0
 11
-361.8032691137785
 21
401.8836027376824
 31
0.0
  0
ARC
  5
AF
  8
1
  6
CONTINUOUS
 62
     7
 10
-359.8108797174851
 20
404.8836027376094
 30
0.0
 40
3.000000000000003
 50
269.9999999978992
 51
354.999999999947
  0
ARC
  5
B0
  8
1
  6
CONTINUOUS
 62
     7
 10
-349.5626205640733
 20
430.2320349077225
 30
0.0
 40
4.999999999999988
 50
141.7848459345351
 51
174.9999999999471
  0
ARC
  5
B1
  8
1
  6
CONTINUOUS
 62
     7
 10
-377.561776589091
 20
451.8836370758694
 30
0.0
 40
24.30011423403066
 50
191.3925771671546
 51
203.3963815398346
  0
LINE
  5
B2
  8
1
  6
CONTINUOUS
 62
     7
 10
-359.4622793289665
 20
490.7881054186887
 30
0.0
 11
-364.604580206003
 21
496.9164609631199
 31
0.0
  0
ARC
  5
B3
  8
1
  6
CONTINUOUS
 62
     7
 10
-367.122723760144
 20
484.3602293218086
 30
0.0
 40
10.00000000000007
 50
261.521093447615
 51
40.00000000010993
  0
ARC
  5
B4
  8
1
  6
CONTINUOUS
 62
     7
 10
-377.5618861999441
 20
451.8836027375084
 30
0.0
 40
24.29999999999983
 50
68.35109168206975
 51
191.3925488486204
  0
LINE
  5
B5
  8
1
  6
CONTINUOUS
 62
     7
 10
-383.535581250535
 20
487.5585014154221
 30
0.0
 11
-367.8185182544431
 21
500.7466831787086
 31
0.0
  0
LINE
  5
B6
  8
1
  6
CONTINUOUS
 62
     7
 10
-367.8185182544431
 20
500.7466831787086
 30
0.0
 11
-364.604580206003
 21
496.9164609631199
 31
0.0
  0
ARC
  5
B7
  8
1
  6
CONTINUOUS
 62
     7
 10
-392.5618862000442
 20
464.9781812275085
 30
0.0
 40
20.00000000000002
 50
99.99999999984765
 51
180.0
  0
LINE
  5
B8
  8
1
  6
CONTINUOUS
 62
     7
 10
-396.0348497533217
 20
484.6743362877123
 30
0.0
 11
-385.8812784106569
 21
486.4646848659445
 31
0.0
  0
ARC
  5
B9
  8
1
  6
CONTINUOUS
 62
     7
 10
-386.7495192989784
 20
491.3887236310079
 30
0.0
 40
5.000000000000014
 50
279.9999999998477
 51
310.0000000001621
  0
ARC
  5
BA
  8
1
  6
CONTINUOUS
 62
     7
 10
-377.5618861999441
 20
451.8836027375084
 30
0.0
 40
24.29999999999984
 50
203.396409858368
 51
214.4199215015389
  0
LINE
  5
BB
  8
1
  6
CONTINUOUS
 62
     7
 10
-397.6073695856286
 20
438.1479339938964
 30
0.0
 11
-397.5488024524042
 21
438.0628509953948
 31
0.0
  0
LINE
  5
BC
  8
1
  6
CONTINUOUS
 62
     7
 10
-397.5488024524042
 20
438.0628509953948
 30
0.0
 11
-397.508536505122
 21
438.0048008582777
 31
0.0
  0
LINE
  5
BD
  8
1
  6
CONTINUOUS
 62
     7
 10
-397.508536505122
 20
438.0048008582777
 30
0.0
 11
-396.0602192142663
 21
436.1260116877563
 31
0.0
  0
LINE
  5
BE
  8
1
  6
CONTINUOUS
 62
     7
 10
-412.5618862000437
 20
443.3836027375082
 30
0.0
 11
-412.5618862000437
 21
437.1322771606622
 31
0.0
  0
ARC
  5
BF
  8
1
  6
CONTINUOUS
 62
     7
 10
-400.5618862000437
 20
426.8836027375085
 30
0.0
 40
8.99999999999996
 50
240.0000000000001
 51
0.0
  0
LINE
  5
C0
  8
1
  6
CONTINUOUS
 62
     7
 10
-407.5618862000437
 20
420.5327497764226
 30
0.0
 11
-405.0618862000437
 21
419.0893741034485
 31
0.0
  0
ARC
  5
C1
  8
1
  6
CONTINUOUS
 62
     7
 10
-396.5618862000442
 20
429.5791188834447
 30
0.0
 40
5.000000000000004
 50
0.0
 51
49.57409375247017
  0
LINE
  5
C2
  8
1
  6
CONTINUOUS
 62
     7
 10
-391.5618862000437
 20
426.8836027375085
 30
0.0
 11
-391.5618862000442
 21
429.5791188834447
 31
0.0
  0
ARC
  5
C3
  8
1
  6
CONTINUOUS
 62
     7
 10
-377.5618861999441
 20
451.8836027375085
 30
0.0
 40
24.29999999999988
 50
220.425633273901
 51
229.5740937524702
  0
LINE
  5
C4
  8
1
  6
CONTINUOUS
 62
     7
 10
-407.5618862000437
 20
420.5327497764226
 30
0.0
 11
-412.5618862000437
 21
423.4195011223707
 31
0.0
  0
LINE
  5
C5
  8
1
  6
CONTINUOUS
 62
     7
 10
-412.5618862000437
 20
423.4195011223707
 30
0.0
 11
-412.5618862000437
 21
437.1322771606622
 31
0.0
  0
LINE
  5
C6
  8
1
  6
CONTINUOUS
 62
     7
 10
-422.0618861954437
 20
452.7703540834565
 30
0.0
 11
-422.0618861954437
 21
448.4402270645343
 31
0.0
  0
LINE
  5
C7
  8
1
  6
CONTINUOUS
 62
     7
 10
-423.6618861954437
 20
448.8836027375084
 30
0.0
 11
-423.6618861954437
 21
448.4402270645343
 31
0.0
  0
LINE
  5
C8
  8
1
  6
CONTINUOUS
 62
     7
 10
-423.6618861954437
 20
463.3269784104824
 30
0.0
 11
-423.6618861954437
 21
462.8836027375084
 31
0.0
  0
LINE
  5
C9
  8
1
  6
CONTINUOUS
 62
     7
 10
-422.0618861954437
 20
463.3269784104824
 30
0.0
 11
-422.0618861954437
 21
458.9968513915603
 31
0.0
  0
LINE
  5
CA
  8
1
  6
CONTINUOUS
 62
     7
 10
-422.0618861954437
 20
458.9968513915603
 30
0.0
 11
-422.0618861954437
 21
452.7703540834565
 31
0.0
  0
LINE
  5
CB
  8
1
  6
CONTINUOUS
 62
     7
 10
-423.6618861954437
 20
467.7137297564306
 30
0.0
 11
-423.6618861954437
 21
463.3269784104824
 31
0.0
  0
LINE
  5
CC
  8
1
  6
CONTINUOUS
 62
     7
 10
-422.0618861954437
 20
467.7137297564306
 30
0.0
 11
-422.0618861954437
 21
463.3269784104824
 31
0.0
  0
LINE
  5
CD
  8
1
  6
CONTINUOUS
 62
     7
 10
-423.6618861954437
 20
448.4402270645343
 30
0.0
 11
-423.6618861954437
 21
444.0534757185862
 31
0.0
  0
LINE
  5
CE
  8
1
  6
CONTINUOUS
 62
     7
 10
-422.0618861954437
 20
448.4402270645343
 30
0.0
 11
-422.0618861954437
 21
444.0534757185862
 31
0.0
  0
LINE
  5
CF
  8
1
  6
CONTINUOUS
 62
     7
 10
-420.5618861954437
 20
458.4836027375084
 30
0.0
 11
-420.5618861954437
 21
453.2836027375084
 31
0.0
  0
LINE
  5
D0
  8
1
  6
CONTINUOUS
 62
     7
 10
-422.0618861954437
 20
468.3796777784276
 30
0.0
 11
-422.052053478487
 21
468.3836027375084
 31
0.0
  0
LINE
  5
D1
  8
1
  6
CONTINUOUS
 62
     7
 10
-423.6564328726334
 20
468.3836027375084
 30
0.0
 11
-423.6618861954437
 21
468.3796777784276
 31
0.0
  0
LINE
  5
D2
  8
1
  6
CONTINUOUS
 62
     7
 10
-422.052053478487
 20
468.3836027375084
 30
0.0
 11
-423.6564328726334
 21
468.3836027375084
 31
0.0
  0
LINE
  5
D3
  8
1
  6
CONTINUOUS
 62
     7
 10
-423.6618861954437
 20
468.3796777784276
 30
0.0
 11
-423.6618861954437
 21
467.7137297564306
 31
0.0
  0
LINE
  5
D4
  8
1
  6
CONTINUOUS
 62
     7
 10
-422.0618861954437
 20
468.3796777784276
 30
0.0
 11
-422.0618861954437
 21
467.7137297564306
 31
0.0
  0
LINE
  5
D5
  8
1
  6
CONTINUOUS
 62
     7
 10
-422.052053478487
 20
443.3836027375084
 30
0.0
 11
-422.0618861954437
 21
443.3875276965892
 31
0.0
  0
LINE
  5
D6
  8
1
  6
CONTINUOUS
 62
     7
 10
-422.052053478487
 20
443.3836027375084
 30
0.0
 11
-423.6564328726334
 21
443.3836027375084
 31
0.0
  0
LINE
  5
D7
  8
1
  6
CONTINUOUS
 62
     7
 10
-423.6618861954437
 20
443.3875276965892
 30
0.0
 11
-423.6564328726334
 21
443.3836027375084
 31
0.0
  0
LINE
  5
D8
  8
1
  6
CONTINUOUS
 62
     7
 10
-423.6618861954437
 20
444.0534757185862
 30
0.0
 11
-423.6618861954437
 21
443.3875276965892
 31
0.0
  0
LINE
  5
D9
  8
1
  6
CONTINUOUS
 62
     7
 10
-422.0618861954437
 20
444.0534757185862
 30
0.0
 11
-422.0618861954437
 21
443.3875276965892
 31
0.0
  0
LINE
  5
DA
  8
1
  6
CONTINUOUS
 62
     7
 10
-420.0618861954438
 20
468.3836027375084
 30
0.0
 11
-422.052053478487
 21
468.3836027375084
 31
0.0
  0
LINE
  5
DB
  8
1
  6
CONTINUOUS
 62
     7
 10
-422.052053478487
 20
443.3836027375083
 30
0.0
 11
-420.0618861954438
 21
443.3836027375083
 31
0.0
  0
LINE
  5
DC
  8
1
  6
CONTINUOUS
 62
     7
 10
-412.5618861954438
 20
468.3836027375083
 30
0.0
 11
-412.5618861954438
 21
443.3836027375082
 31
0.0
  0
LINE
  5
DD
  8
1
  6
CONTINUOUS
 62
     7
 10
-415.1618861954438
 20
468.3836027375084
 30
0.0
 11
-412.5618861954438
 21
468.3836027375084
 31
0.0
  0
LINE
  5
DE
  8
1
  6
CONTINUOUS
 62
     7
 10
-412.5618861954438
 20
443.3836027375082
 30
0.0
 11
-415.1618861954438
 21
443.3836027375083
 31
0.0
  0
LINE
  5
DF
  8
1
  6
CONTINUOUS
 62
     7
 10
-420.0618861954438
 20
468.3836027375084
 30
0.0
 11
-415.1618861954438
 21
468.3836027375084
 31
0.0
  0
LINE
  5
E0
  8
1
  6
CONTINUOUS
 62
     7
 10
-420.0618861954438
 20
443.3836027375084
 30
0.0
 11
-415.1618861954438
 21
443.3836027375084
 31
0.0
  0
LINE
  5
E1
  8
1
  6
CONTINUOUS
 62
     7
 10
-415.4118861954437
 20
453.8836027375084
 30
0.0
 11
-415.4118861954437
 21
457.8836027375084
 31
0.0
  0
LINE
  5
E2
  8
1
  6
CONTINUOUS
 62
     7
 10
-415.0618861954437
 20
457.5336027375084
 30
0.0
 11
-415.0618861954437
 21
454.2336027375084
 31
0.0
  0
LINE
  5
E3
  8
1
  6
CONTINUOUS
 62
     7
 10
-430.2618861954437
 20
530.8836027375083
 30
0.0
 11
-430.2618861954437
 21
380.8836027375083
 31
0.0
  0
LINE
  5
E4
  8
1
  6
CONTINUOUS
 62
     7
 10
-428.6618861954437
 20
530.8836027375083
 30
0.0
 11
-428.6618861954437
 21
380.8836027375083
 31
0.0
  0
POLYLINE
  5
E5
  8
1
  6
CONTINUOUS
 62
     7
 66
     1
 10
0.0
 20
0.0
 30
0.0
  0
VERTEX
  5
25A
  8
1
  6
CONTINUOUS
 62
     7
 10
-428.2058639605758
 20
448.8836027375084
 30
0.0
  0
VERTEX
  5
25B
  8
1
  6
CONTINUOUS
 62
     7
 10
-428.237654679178
 20
448.8834488337636
 30
0.0
  0
VERTEX
  5
25C
  8
1
  6
CONTINUOUS
 62
     7
 10
-428.2685955795355
 20
448.8829520927349
 30
0.0
  0
VERTEX
  5
25D
  8
1
  6
CONTINUOUS
 62
     7
 10
-428.2988254021145
 20
448.8820521195767
 30
0.0
  0
VERTEX
  5
25E
  8
1
  6
CONTINUOUS
 62
     7
 10
-428.3280963139675
 20
448.880696080209
 30
0.0
  0
VERTEX
  5
25F
  8
1
  6
CONTINUOUS
 62
     7
 10
-428.3569255369809
 20
448.8787846199794
 30
0.0
  0
VERTEX
  5
260
  8
1
  6
CONTINUOUS
 62
     7
 10
-428.3846556387053
 20
448.8762825165872
 30
0.0
  0
VERTEX
  5
261
  8
1
  6
CONTINUOUS
 62
     7
 10
-428.4114258443506
 20
448.873106220457
 30
0.0
  0
VERTEX
  5
262
  8
1
  6
CONTINUOUS
 62
     7
 10
-428.4369829941334
 20
448.8692152321222
 30
0.0
  0
VERTEX
  5
263
  8
1
  6
CONTINUOUS
 62
     7
 10
-428.4604973908487
 20
448.8647206855135
 30
0.0
  0
VERTEX
  5
264
  8
1
  6
CONTINUOUS
 62
     7
 10
-428.4827961358634
 20
448.8594596108038
 30
0.0
  0
VERTEX
  5
265
  8
1
  6
CONTINUOUS
 62
     7
 10
-428.503995785606
 20
448.8533383255892
 30
0.0
  0
VERTEX
  5
266
  8
1
  6
CONTINUOUS
 62
     7
 10
-428.5238934320157
 20
448.8463538193062
 30
0.0
  0
VERTEX
  5
267
  8
1
  6
CONTINUOUS
 62
     7
 10
-428.5428903090519
 20
448.8382671800573
 30
0.0
  0
VERTEX
  5
268
  8
1
  6
CONTINUOUS
 62
     7
 10
-428.5604693077093
 20
448.829203960787
 30
0.0
  0
VERTEX
  5
269
  8
1
  6
CONTINUOUS
 62
     7
 10
-428.5767403450823
 20
448.8190462964476
 30
0.0
  0
VERTEX
  5
26A
  8
1
  6
CONTINUOUS
 62
     7
 10
-428.5915416669445
 20
448.8078464486168
 30
0.0
  0
VERTEX
  5
26B
  8
1
  6
CONTINUOUS
 62
     7
 10
-428.6037831045666
 20
448.7966809960425
 30
0.0
  0
VERTEX
  5
26C
  8
1
  6
CONTINUOUS
 62
     7
 10
-428.6147970032187
 20
448.7846259109263
 30
0.0
  0
VERTEX
  5
26D
  8
1
  6
CONTINUOUS
 62
     7
 10
-428.6246546283527
 20
448.771585366847
 30
0.0
  0
VERTEX
  5
26E
  8
1
  6
CONTINUOUS
 62
     7
 10
-428.6332914654892
 20
448.7576444417273
 30
0.0
  0
VERTEX
  5
26F
  8
1
  6
CONTINUOUS
 62
     7
 10
-428.6408686060433
 20
448.7424901953094
 30
0.0
  0
VERTEX
  5
270
  8
1
  6
CONTINUOUS
 62
     7
 10
-428.647220971744
 20
448.7264174732971
 30
0.0
  0
VERTEX
  5
271
  8
1
  6
CONTINUOUS
 62
     7
 10
-428.6524091236017
 20
448.7093252053111
 30
0.0
  0
VERTEX
  5
272
  8
1
  6
CONTINUOUS
 62
     7
 10
-428.6564248258737
 20
448.6913378297689
 30
0.0
  0
VERTEX
  5
273
  8
1
  6
CONTINUOUS
 62
     7
 10
-428.6588483027085
 20
448.6761021355119
 30
0.0
  0
VERTEX
  5
274
  8
1
  6
CONTINUOUS
 62
     7
 10
-428.6605499634548
 20
448.6603047901813
 30
0.0
  0
VERTEX
  5
275
  8
1
  6
CONTINUOUS
 62
     7
 10
-428.6615564660846
 20
448.6438961331277
 30
0.0
  0
VERTEX
  5
276
  8
1
  6
CONTINUOUS
 62
     7
 10
-428.6618861954437
 20
448.6269497562277
 30
0.0
  0
SEQEND
  5
2C1
  8
1
  6
CONTINUOUS
 62
     7
  0
POLYLINE
  5
E6
  8
1
  6
CONTINUOUS
 62
     7
 66
     1
 10
0.0
 20
0.0
 30
0.0
  0
VERTEX
  5
277
  8
1
  6
CONTINUOUS
 62
     7
 10
-428.6618861954437
 20
463.1402557187891
 30
0.0
  0
VERTEX
  5
278
  8
1
  6
CONTINUOUS
 62
     7
 10
-428.6613739618649
 20
463.1192513611244
 30
0.0
  0
VERTEX
  5
279
  8
1
  6
CONTINUOUS
 62
     7
 10
-428.6598042882785
 20
463.0990848654358
 30
0.0
  0
VERTEX
  5
27A
  8
1
  6
CONTINUOUS
 62
     7
 10
-428.6571078999366
 20
463.0796725104353
 30
0.0
  0
VERTEX
  5
27B
  8
1
  6
CONTINUOUS
 62
     7
 10
-428.6532447657655
 20
463.0611619047576
 30
0.0
  0
VERTEX
  5
27C
  8
1
  6
CONTINUOUS
 62
     7
 10
-428.6480565403537
 20
463.0432386742983
 30
0.0
  0
VERTEX
  5
27D
  8
1
  6
CONTINUOUS
 62
     7
 10
-428.6415673889266
 20
463.0263007969289
 30
0.0
  0
VERTEX
  5
27E
  8
1
  6
CONTINUOUS
 62
     7
 10
-428.6336758013343
 20
463.0102543952809
 30
0.0
  0
VERTEX
  5
27F
  8
1
  6
CONTINUOUS
 62
     7
 10
-428.6243950498468
 20
462.995241439035
 30
0.0
  0
VERTEX
  5
280
  8
1
  6
CONTINUOUS
 62
     7
 10
-428.6140633477792
 20
462.9817046000269
 30
0.0
  0
VERTEX
  5
281
  8
1
  6
CONTINUOUS
 62
     7
 10
-428.6023903360677
 20
462.9691480265257
 30
0.0
  0
VERTEX
  5
282
  8
1
  6
CONTINUOUS
 62
     7
 10
-428.589258395089
 20
462.9574855361575
 30
0.0
  0
VERTEX
  5
283
  8
1
  6
CONTINUOUS
 62
     7
 10
-428.5747511907597
 20
462.9468081957178
 30
0.0
  0
VERTEX
  5
284
  8
1
  6
CONTINUOUS
 62
     7
 10
-428.5584650681737
 20
462.9368784614664
 30
0.0
  0
VERTEX
  5
285
  8
1
  6
CONTINUOUS
 62
     7
 10
-428.5407505120655
 20
462.9279462335531
 30
0.0
  0
VERTEX
  5
286
  8
1
  6
CONTINUOUS
 62
     7
 10
-428.5214581647243
 20
462.9199229335861
 30
0.0
  0
VERTEX
  5
287
  8
1
  6
CONTINUOUS
 62
     7
 10
-428.5007566403207
 20
462.9128507089776
 30
0.0
  0
VERTEX
  5
288
  8
1
  6
CONTINUOUS
 62
     7
 10
-428.4807104851457
 20
462.9072068712576
 30
0.0
  0
VERTEX
  5
289
  8
1
  6
CONTINUOUS
 62
     7
 10
-428.4595489176108
 20
462.9022837431635
 30
0.0
  0
VERTEX
  5
28A
  8
1
  6
CONTINUOUS
 62
     7
 10
-428.437149711029
 20
462.898019015389
 30
0.0
  0
VERTEX
  5
28B
  8
1
  6
CONTINUOUS
 62
     7
 10
-428.4136841050696
 20
462.8944063979266
 30
0.0
  0
VERTEX
  5
28C
  8
1
  6
CONTINUOUS
 62
     7
 10
-428.3886874999494
 20
462.8913497731972
 30
0.0
  0
VERTEX
  5
28D
  8
1
  6
CONTINUOUS
 62
     7
 10
-428.3626581751117
 20
462.8888800491518
 30
0.0
  0
VERTEX
  5
28E
  8
1
  6
CONTINUOUS
 62
     7
 10
-428.3354590520796
 20
462.8869384557075
 30
0.0
  0
VERTEX
  5
28F
  8
1
  6
CONTINUOUS
 62
     7
 10
-428.3072986847683
 20
462.8854922215003
 30
0.0
  0
VERTEX
  5
290
  8
1
  6
CONTINUOUS
 62
     7
 10
-428.2829032518769
 20
462.8846225611514
 30
0.0
  0
VERTEX
  5
291
  8
1
  6
CONTINUOUS
 62
     7
 10
-428.257885588619
 20
462.8840375588617
 30
0.0
  0
VERTEX
  5
292
  8
1
  6
CONTINUOUS
 62
     7
 10
-428.2321613235853
 20
462.8837065317467
 30
0.0
  0
VERTEX
  5
293
  8
1
  6
CONTINUOUS
 62
     7
 10
-428.2058639605758
 20
462.8836027375084
 30
0.0
  0
SEQEND
  5
2C2
  8
1
  6
CONTINUOUS
 62
     7
  0
LINE
  5
E7
  8
1
  6
CONTINUOUS
 62
     7
 10
-427.8355343731106
 20
462.8836027375084
 30
0.0
 11
-428.2058639605759
 21
462.8836027375084
 31
0.0
  0
LINE
  5
E8
  8
1
  6
CONTINUOUS
 62
     7
 10
-428.2058639605758
 20
448.8836027375084
 30
0.0
 11
-427.8355343731106
 21
448.8836027375084
 31
0.0
  0
LINE
  5
E9
  8
1
  6
CONTINUOUS
 62
     7
 10
-427.8355343731106
 20
448.8836027375084
 30
0.0
 11
-426.6367527558427
 21
448.8836027375084
 31
0.0
  0
LINE
  5
EA
  8
1
  6
CONTINUOUS
 62
     7
 10
-427.8355343731106
 20
462.8836027375084
 30
0.0
 11
-426.6367527558427
 21
462.8836027375084
 31
0.0
  0
LINE
  5
EB
  8
1
  6
CONTINUOUS
 62
     7
 10
-423.6618861954437
 20
462.8836027375084
 30
0.0
 11
-423.6618861954437
 21
448.8836027375084
 31
0.0
  0
LINE
  5
EC
  8
1
  6
CONTINUOUS
 62
     7
 10
-423.6618861954437
 20
448.8836027375084
 30
0.0
 11
-426.6367527558427
 21
448.8836027375084
 31
0.0
  0
LINE
  5
ED
  8
1
  6
CONTINUOUS
 62
     7
 10
-426.6367527558427
 20
462.8836027375084
 30
0.0
 11
-423.6618861954437
 21
462.8836027375084
 31
0.0
  0
LINE
  5
EE
  8
1
  6
CONTINUOUS
 62
     7
 10
-355.6899182729987
 20
407.122365570918
 30
0.0
 11
-354.3632412657425
 21
408.8829254233601
 31
0.0
  0
LINE
  5
EF
  8
1
  6
CONTINUOUS
 62
     7
 10
-351.0357889072221
 20
424.5373579771105
 30
0.0
 11
-351.5316844566435
 21
426.6853175855942
 31
0.0
  0
LINE
  5
F0
  8
1
  6
CONTINUOUS
 62
     7
 10
-356.5868737921091
 20
407.313019352031
 30
0.0
 11
-355.6899182729987
 21
407.122365570918
 31
0.0
  0
LINE
  5
F1
  8
1
  6
CONTINUOUS
 62
     7
 10
-351.5316844566435
 20
426.6853175855941
 30
0.0
 11
-353.487979658111
 21
427.1011409672296
 31
0.0
  0
LINE
  5
F2
  8
1
  6
CONTINUOUS
 62
     7
 10
-335.9427336982576
 20
418.2600808380231
 30
0.0
 11
-346.311098266036
 21
420.4639447606914
 31
0.0
  0
LINE
  5
F3
  8
1
  6
CONTINUOUS
 62
     7
 10
-354.5275381121999
 20
422.2104029635606
 30
0.0
 11
-355.2697197846439
 21
422.3681585479898
 31
0.0
  0
LINE
  5
F4
  8
1
  6
CONTINUOUS
 62
     7
 10
-371.207372183342
 20
425.755811142949
 30
0.0
 11
-391.5878303016403
 21
430.0878112458344
 31
0.0
  0
LINE
  5
F5
  8
1
  6
CONTINUOUS
 62
     7
 10
-394.2816582628508
 20
420.4369961063496
 30
0.0
 11
-367.1743445181023
 21
414.6751587006553
 31
0.0
  0
LINE
  5
F6
  8
1
  6
CONTINUOUS
 62
     7
 10
-348.3902151742136
 20
410.6824687533534
 30
0.0
 11
-338.0218506064351
 21
408.4786048306851
 31
0.0
  0
ARC
  5
F7
  8
1
  6
CONTINUOUS
 62
     7
 10
-421.5618861954437
 20
458.9836027375084
 30
0.0
 40
0.5000000000000004
 50
179.9999999999999
 51
270.0000000000007
  0
ARC
  5
F8
  8
1
  6
CONTINUOUS
 62
     7
 10
-421.5618861954437
 20
452.7836027375084
 30
0.0
 40
0.5000000000000004
 50
89.9999999999993
 51
180.0000000000001
  0
LINE
  5
F9
  8
1
  6
CONTINUOUS
 62
     7
 10
-420.5618861954437
 20
458.4836027375084
 30
0.0
 11
-421.5618861954437
 21
458.4836027375084
 31
0.0
  0
LINE
  5
FA
  8
1
  6
CONTINUOUS
 62
     7
 10
-421.5618861954437
 20
453.2836027375084
 30
0.0
 11
-420.5618861954437
 21
453.2836027375084
 31
0.0
  0
LINE
  5
FB
  8
1
  6
CONTINUOUS
 62
     7
 10
-415.4118861954437
 20
457.8836027375084
 30
0.0
 11
-420.5618861954437
 21
457.8836027375084
 31
0.0
  0
LINE
  5
FC
  8
1
  6
CONTINUOUS
 62
     7
 10
-420.5618861954437
 20
453.8836027375084
 30
0.0
 11
-415.4118861954437
 21
453.8836027375084
 31
0.0
  0
LINE
  5
FD
  8
1
  6
CONTINUOUS
 62
     7
 10
-415.4118861954437
 20
453.8836027375084
 30
0.0
 11
-415.0618861954437
 21
454.2336027375084
 31
0.0
  0
LINE
  5
FE
  8
1
  6
CONTINUOUS
 62
     7
 10
-415.0618861954437
 20
457.5336027375084
 30
0.0
 11
-415.4118861954437
 21
457.8836027375084
 31
0.0
  0
LINE
  5
FF
  8
1
  6
CONTINUOUS
 62
     7
 10
-428.6618861954437
 20
530.8836027375083
 30
0.0
 11
-430.2618861954437
 21
530.8836027375083
 31
0.0
  0
LINE
  5
100
  8
1
  6
CONTINUOUS
 62
     7
 10
-430.2618861954437
 20
380.8836027375083
 30
0.0
 11
-428.6618861954437
 21
380.8836027375083
 31
0.0
  0
ENDBLK
  8
0
  0
BLOCK
  8
0
  2
D_FRAME_VIEW_2626
 70
     0
 10
0.0
 20
0.0
 30
0.0
  0
LINE
  5
108
  8
1
  6
CONTINUOUS
 62
     7
 10
-562.9771435043348
 20
447.6355666078144
 30
0.0
 11
-562.9771435043348
 21
447.8836027387752
 31
0.0
  0
LINE
  5
109
  8
1
  6
CONTINUOUS
 62
     7
 10
-562.5571435043348
 20
447.883602738774
 30
0.0
 11
-562.5571435043348
 21
447.6554498465647
 31
0.0
  0
ARC
  5
10A
  8
1
  6
CONTINUOUS
 62
     7
 10
-563.1571435043347
 20
455.8836027377062
 30
0.0
 40
8.249999999999998
 50
274.1706479118615
 51
284.0754005848892
  0
ARC
  5
10B
  8
1
  6
CONTINUOUS
 62
     7
 10
-563.1571435043347
 20
455.8836027377062
 30
0.0
 40
8.25
 50
315.8856213339614
 51
344.0754005704788
  0
ARC
  5
10C
  8
1
  6
CONTINUOUS
 62
     7
 10
-563.1571435043347
 20
455.8836027377062
 30
0.0
 40
8.250000000000002
 50
15.88562136157374
 51
44.07540054165754
  0
ARC
  5
10D
  8
1
  6
CONTINUOUS
 62
     7
 10
-563.1571435043347
 20
455.8836027377062
 30
0.0
 40
8.250000000000002
 50
75.88562137537718
 51
104.0754005272417
  0
ARC
  5
10E
  8
1
  6
CONTINUOUS
 62
     7
 10
-563.1571435043347
 20
455.8836027377062
 30
0.0
 40
8.25
 50
135.8856213615703
 51
164.0754005416569
  0
ARC
  5
10F
  8
1
  6
CONTINUOUS
 62
     7
 10
-563.1571435043347
 20
455.8836027377062
 30
0.0
 40
8.250000000000002
 50
195.8856213339623
 51
224.0754005704769
  0
ARC
  5
110
  8
1
  6
CONTINUOUS
 62
     7
 10
-563.1571435043347
 20
455.8836027377062
 30
0.0
 40
8.25
 50
255.8856213201585
 51
271.250188936756
  0
LINE
  5
111
  8
1
  6
CONTINUOUS
 62
     7
 10
-562.9471435043348
 20
447.636275897865
 30
0.0
 11
-562.9471435043348
 21
447.8836027387751
 31
0.0
  0
ARC
  5
112
  8
1
  6
CONTINUOUS
 62
     7
 10
-563.1571435043347
 20
455.883602737411
 30
0.0
 40
8.250000002029251
 50
271.4585955651619
 51
274.1706479120103
  0
LINE
  5
113
  8
1
  6
CONTINUOUS
 62
     7
 10
-574.1571435043347
 20
422.6336027375083
 30
0.0
 11
-574.1571435043347
 21
425.8836027375083
 31
0.0
  0
LINE
  5
114
  8
1
  6
CONTINUOUS
 62
     7
 10
-552.1571435043347
 20
425.8836027375083
 30
0.0
 11
-552.1571435043347
 21
422.6336027375083
 31
0.0
  0
CIRCLE
  5
115
  8
1
  6
CONTINUOUS
 62
     7
 10
-563.1571435043347
 20
455.8836027360461
 30
0.0
 40
3.499999999998415
  0
LINE
  5
116
  8
1
  6
CONTINUOUS
 62
     7
 10
-567.7759456578518
 20
447.8836027386844
 30
0.0
 11
-570.0853467346103
 21
451.8836027387757
 31
0.0
  0
ARC
  5
117
  8
1
  6
CONTINUOUS
 62
     7
 10
-563.1571435043348
 20
455.8836027387757
 30
0.0
 40
8.000000000000016
 50
210.0
 51
270.0
  0
LINE
  5
118
  8
1
  6
CONTINUOUS
 62
     7
 10
-563.1571435043348
 20
447.8836027387757
 30
0.0
 11
-567.7759456578518
 21
447.8836027386844
 31
0.0
  0
LINE
  5
119
  8
1
  6
CONTINUOUS
 62
     7
 10
-553.9195391973009
 20
455.8836027386843
 30
0.0
 11
-556.2289402740594
 21
451.8836027387757
 31
0.0
  0
ARC
  5
11A
  8
1
  6
CONTINUOUS
 62
     7
 10
-563.1571435043348
 20
455.8836027387757
 30
0.0
 40
8.000000000000018
 50
330.0
 51
30.0
  0
LINE
  5
11B
  8
1
  6
CONTINUOUS
 62
     7
 10
-556.2289402740594
 20
459.8836027387757
 30
0.0
 11
-553.9195391973009
 21
455.8836027386843
 31
0.0
  0
ARC
  5
11C
  8
1
  6
CONTINUOUS
 62
     7
 10
-563.1571435043348
 20
455.8836027387757
 30
0.0
 40
8.000000000000018
 50
150.0
 51
210.0
  0
LINE
  5
11D
  8
1
  6
CONTINUOUS
 62
     7
 10
-572.3947478113688
 20
455.8836027386843
 30
0.0
 11
-570.0853467346103
 21
459.8836027387757
 31
0.0
  0
LINE
  5
11E
  8
1
  6
CONTINUOUS
 62
     7
 10
-570.0853467346103
 20
451.8836027387757
 30
0.0
 11
-572.3947478113688
 21
455.8836027386843
 31
0.0
  0
ARC
  5
11F
  8
1
  6
CONTINUOUS
 62
     7
 10
-563.1571435043348
 20
455.8836027387757
 30
0.0
 40
8.00000000000002
 50
30.0
 51
90.0
  0
LINE
  5
120
  8
1
  6
CONTINUOUS
 62
     7
 10
-563.1571435043348
 20
463.8836027387757
 30
0.0
 11
-558.5383413508179
 21
463.8836027386843
 31
0.0
  0
LINE
  5
121
  8
1
  6
CONTINUOUS
 62
     7
 10
-558.5383413508177
 20
463.8836027386843
 30
0.0
 11
-556.2289402740594
 21
459.8836027387757
 31
0.0
  0
LINE
  5
122
  8
1
  6
CONTINUOUS
 62
     7
 10
-558.5383413508177
 20
447.8836027386843
 30
0.0
 11
-563.1571435043347
 21
447.8836027387756
 31
0.0
  0
ARC
  5
123
  8
1
  6
CONTINUOUS
 62
     7
 10
-563.1571435043348
 20
455.8836027387757
 30
0.0
 40
8.000000000000016
 50
270.0
 51
330.0
  0
LINE
  5
124
  8
1
  6
CONTINUOUS
 62
     7
 10
-556.2289402740594
 20
451.8836027387757
 30
0.0
 11
-558.5383413508177
 21
447.8836027386843
 31
0.0
  0
ARC
  5
125
  8
1
  6
CONTINUOUS
 62
     7
 10
-563.1571435043348
 20
455.8836027387757
 30
0.0
 40
8.000000000000018
 50
90.0
 51
150.0
  0
LINE
  5
126
  8
1
  6
CONTINUOUS
 62
     7
 10
-567.7759456578518
 20
463.8836027386843
 30
0.0
 11
-563.1571435043348
 21
463.8836027387757
 31
0.0
  0
LINE
  5
127
  8
1
  6
CONTINUOUS
 62
     7
 10
-570.0853467346103
 20
459.8836027387757
 30
0.0
 11
-567.7759456578518
 21
463.8836027386843
 31
0.0
  0
CIRCLE
  5
128
  8
1
  6
CONTINUOUS
 62
     7
 10
-563.1571435043348
 20
455.8836027387757
 30
0.0
 40
4.250000000000047
  0
POLYLINE
  5
129
  8
1
  6
CONTINUOUS
 62
     7
 66
     1
 10
0.0
 20
0.0
 30
0.0
  0
VERTEX
  5
296
  8
1
  6
CONTINUOUS
 62
     7
 10
-569.1571435043347
 20
409.4944841540211
 30
0.0
  0
VERTEX
  5
297
  8
1
  6
CONTINUOUS
 62
     7
 10
-567.3167665104023
 20
408.4245681299761
 30
0.0
  0
VERTEX
  5
298
  8
1
  6
CONTINUOUS
 62
     7
 10
-565.2857362501674
 20
407.7623523379539
 30
0.0
  0
VERTEX
  5
299
  8
1
  6
CONTINUOUS
 62
     7
 10
-563.1571435043347
 20
407.5381889525535
 30
0.0
  0
SEQEND
  5
2C3
  8
1
  6
CONTINUOUS
 62
     7
  0
POLYLINE
  5
12A
  8
1
  6
CONTINUOUS
 62
     7
 66
     1
 10
0.0
 20
0.0
 30
0.0
  0
VERTEX
  5
29A
  8
1
  6
CONTINUOUS
 62
     7
 10
-563.1571435043347
 20
407.5381889525535
 30
0.0
  0
VERTEX
  5
29B
  8
1
  6
CONTINUOUS
 62
     7
 10
-561.0285507585021
 20
407.7623523379539
 30
0.0
  0
VERTEX
  5
29C
  8
1
  6
CONTINUOUS
 62
     7
 10
-558.9975204982671
 20
408.4245681299761
 30
0.0
  0
VERTEX
  5
29D
  8
1
  6
CONTINUOUS
 62
     7
 10
-557.1571435043347
 20
409.4944841540211
 30
0.0
  0
SEQEND
  5
2C4
  8
1
  6
CONTINUOUS
 62
     7
  0
POLYLINE
  5
12B
  8
1
  6
CONTINUOUS
 62
     7
 66
     1
 10
0.0
 20
0.0
 30
0.0
  0
VERTEX
  5
29E
  8
1
  6
CONTINUOUS
 62
     7
 10
-563.1571435043347
 20
407.122365570918
 30
0.0
  0
VERTEX
  5
29F
  8
1
  6
CONTINUOUS
 62
     7
 10
-561.0285507585021
 20
407.3465289563184
 30
0.0
  0
VERTEX
  5
2A0
  8
1
  6
CONTINUOUS
 62
     7
 10
-558.9975204982671
 20
408.0087447483406
 30
0.0
  0
VERTEX
  5
2A1
  8
1
  6
CONTINUOUS
 62
     7
 10
-557.1571435043347
 20
409.0786607723856
 30
0.0
  0
SEQEND
  5
2C5
  8
1
  6
CONTINUOUS
 62
     7
  0
POLYLINE
  5
12C
  8
1
  6
CONTINUOUS
 62
     7
 66
     1
 10
0.0
 20
0.0
 30
0.0
  0
VERTEX
  5
2A2
  8
1
  6
CONTINUOUS
 62
     7
 10
-569.1571435043347
 20
409.0786607723856
 30
0.0
  0
VERTEX
  5
2A3
  8
1
  6
CONTINUOUS
 62
     7
 10
-567.3167665104023
 20
408.0087447483406
 30
0.0
  0
VERTEX
  5
2A4
  8
1
  6
CONTINUOUS
 62
     7
 10
-565.2857362501674
 20
407.3465289563184
 30
0.0
  0
VERTEX
  5
2A5
  8
1
  6
CONTINUOUS
 62
     7
 10
-563.1571435043347
 20
407.122365570918
 30
0.0
  0
SEQEND
  5
2C6
  8
1
  6
CONTINUOUS
 62
     7
  0
LINE
  5
12D
  8
1
  6
CONTINUOUS
 62
     7
 10
-559.3802628361733
 20
407.8496669463448
 30
0.0
 11
-558.5383413508177
 21
407.8965853368896
 31
0.0
  0
LINE
  5
12E
  8
1
  6
CONTINUOUS
 62
     7
 10
-567.7759456578518
 20
407.8965853368896
 30
0.0
 11
-566.9325110576918
 21
407.8495894164918
 31
0.0
  0
LINE
  5
12F
  8
1
  6
CONTINUOUS
 62
     7
 10
-567.7759456578518
 20
407.8965853368896
 30
0.0
 11
-567.7759456578518
 21
408.2282366233297
 31
0.0
  0
LINE
  5
130
  8
1
  6
CONTINUOUS
 62
     7
 10
-558.5383413508177
 20
407.8965853368896
 30
0.0
 11
-558.5383413508177
 21
408.2282366233297
 31
0.0
  0
LINE
  5
131
  8
1
  6
CONTINUOUS
 62
     7
 10
-568.0917765348428
 20
408.3957659880676
 30
0.0
 11
-567.7759456578518
 21
407.8965853368896
 31
0.0
  0
LINE
  5
132
  8
1
  6
CONTINUOUS
 62
     7
 10
-558.5383413508177
 20
407.8965853368896
 30
0.0
 11
-558.220594883623
 21
408.3988063243924
 31
0.0
  0
LINE
  5
133
  8
1
  6
CONTINUOUS
 62
     7
 10
-536.9071435043347
 20
485.8105579996784
 30
0.0
 11
-536.9071435043347
 21
484.3769954288585
 31
0.0
  0
LINE
  5
134
  8
1
  6
CONTINUOUS
 62
     7
 10
-536.9071435043347
 20
484.3769954288585
 30
0.0
 11
-536.9071435043347
 21
481.1269954288585
 31
0.0
  0
LINE
  5
135
  8
1
  6
CONTINUOUS
 62
     7
 10
-589.4071435043347
 20
481.1269954288584
 30
0.0
 11
-589.4071435043347
 21
485.8105579996784
 31
0.0
  0
ARC
  5
136
  8
1
  6
CONTINUOUS
 62
     7
 10
-582.6179060268523
 20
440.9663855762035
 30
0.0
 40
15.70871657938344
 50
258.5432887540802
 51
270.768755696216
  0
LINE
  5
137
  8
1
  6
CONTINUOUS
 62
     7
 10
-587.4071435043347
 20
429.6318247408199
 30
0.0
 11
-587.4071435043347
 21
427.9566474753383
 31
0.0
  0
LINE
  5
138
  8
1
  6
CONTINUOUS
 62
     7
 10
-582.4071435043347
 20
428.1035690966948
 30
0.0
 11
-584.3580280401943
 21
428.1890622972542
 31
0.0
  0
ARC
  5
139
  8
1
  6
CONTINUOUS
 62
     7
 10
-585.8941596795245
 20
430.3584901272276
 30
0.0
 40
1.820427872977448
 50
228.6183397269797
 51
245.1887386200645
  0
POLYLINE
  5
13A
  8
1
  6
CONTINUOUS
 62
     7
 66
     1
 10
0.0
 20
0.0
 30
0.0
  0
VERTEX
  5
2A6
  8
1
  6
CONTINUOUS
 62
     7
 10
-587.0975930818216
 20
428.9925817529401
 30
0.0
  0
VERTEX
  5
2A7
  8
1
  6
CONTINUOUS
 62
     7
 10
-587.2285772181364
 20
429.1325941813586
 30
0.0
  0
VERTEX
  5
2A8
  8
1
  6
CONTINUOUS
 62
     7
 10
-587.3102919738664
 20
429.2560856512324
 30
0.0
  0
VERTEX
  5
2A9
  8
1
  6
CONTINUOUS
 62
     7
 10
-587.3573663568842
 20
429.3580565035558
 30
0.0
  0
VERTEX
  5
2AA
  8
1
  6
CONTINUOUS
 62
     7
 10
-587.389111626893
 20
429.4644882561368
 30
0.0
  0
VERTEX
  5
2AB
  8
1
  6
CONTINUOUS
 62
     7
 10
-587.4051353804834
 20
429.575165032068
 30
0.0
  0
VERTEX
  5
2AC
  8
1
  6
CONTINUOUS
 62
     7
 10
-587.4071435043347
 20
429.6318247408199
 30
0.0
  0
SEQEND
  5
2C7
  8
1
  6
CONTINUOUS
 62
     7
  0
LINE
  5
13B
  8
1
  6
CONTINUOUS
 62
     7
 10
-587.4071435043347
 20
429.6318247408199
 30
0.0
 11
-587.4071435043347
 21
435.17189739413
 31
0.0
  0
LINE
  5
13C
  8
1
  6
CONTINUOUS
 62
     7
 10
-582.4071435043347
 20
428.1035690966948
 30
0.0
 11
-581.8037221493678
 21
428.1035690966948
 31
0.0
  0
LINE
  5
13D
  8
1
  6
CONTINUOUS
 62
     7
 10
-538.9071435043347
 20
429.6318247408199
 30
0.0
 11
-538.9071435043347
 21
427.9566474753383
 31
0.0
  0
ARC
  5
13E
  8
1
  6
CONTINUOUS
 62
     7
 10
-543.6963809818171
 20
440.9663855762027
 30
0.0
 40
15.70871657938256
 50
269.2312443037837
 51
281.4567112459201
  0
LINE
  5
13F
  8
1
  6
CONTINUOUS
 62
     7
 10
-543.9071435043347
 20
428.1035690966948
 30
0.0
 11
-541.9562589684753
 21
428.1890622972542
 31
0.0
  0
ARC
  5
140
  8
1
  6
CONTINUOUS
 62
     7
 10
-540.4201273291449
 20
430.3584901272275
 30
0.0
 40
1.820427872977219
 50
294.8112613799335
 51
311.3816602730207
  0
POLYLINE
  5
141
  8
1
  6
CONTINUOUS
 62
     7
 66
     1
 10
0.0
 20
0.0
 30
0.0
  0
VERTEX
  5
2AD
  8
1
  6
CONTINUOUS
 62
     7
 10
-539.2166939268479
 20
428.9925817529401
 30
0.0
  0
VERTEX
  5
2AE
  8
1
  6
CONTINUOUS
 62
     7
 10
-539.0857097905332
 20
429.1325941813586
 30
0.0
  0
VERTEX
  5
2AF
  8
1
  6
CONTINUOUS
 62
     7
 10
-539.0039950348031
 20
429.2560856512324
 30
0.0
  0
VERTEX
  5
2B0
  8
1
  6
CONTINUOUS
 62
     7
 10
-538.9569206517854
 20
429.3580565035557
 30
0.0
  0
VERTEX
  5
2B1
  8
1
  6
CONTINUOUS
 62
     7
 10
-538.9251753817764
 20
429.4644882561368
 30
0.0
  0
VERTEX
  5
2B2
  8
1
  6
CONTINUOUS
 62
     7
 10
-538.9091516281861
 20
429.575165032068
 30
0.0
  0
VERTEX
  5
2B3
  8
1
  6
CONTINUOUS
 62
     7
 10
-538.9071435043347
 20
429.6318247408199
 30
0.0
  0
SEQEND
  5
2C8
  8
1
  6
CONTINUOUS
 62
     7
  0
LINE
  5
142
  8
1
  6
CONTINUOUS
 62
     7
 10
-538.9071435043347
 20
429.6318247408199
 30
0.0
 11
-538.9071435043347
 21
435.1718973941299
 31
0.0
  0
LINE
  5
143
  8
1
  6
CONTINUOUS
 62
     7
 10
-543.9071435043347
 20
428.1035690966948
 30
0.0
 11
-544.5105648593018
 21
428.1035690966948
 31
0.0
  0
LINE
  5
144
  8
1
  6
CONTINUOUS
 62
     7
 10
-572.4081499822825
 20
401.8836027377086
 30
0.0
 11
-569.1571435043347
 21
401.8836027375084
 31
0.0
  0
ARC
  5
145
  8
1
  6
CONTINUOUS
 62
     7
 10
-572.4081499822825
 20
404.8836027377486
 30
0.0
 40
3.000000000040033
 50
185.0000000000666
 51
269.9999999999999
  0
LINE
  5
146
  8
1
  6
CONTINUOUS
 62
     7
 10
-576.9748671292983
 20
422.6602788432848
 30
0.0
 11
-575.3967340765577
 21
404.6221355095022
 31
0.0
  0
ARC
  5
147
  8
1
  6
CONTINUOUS
 62
     7
 10
-579.7313648578327
 20
422.4073417014852
 30
0.0
 40
2.768078200686718
 50
5.242797829372
 51
46.59641460509596
  0
LINE
  5
148
  8
1
  6
CONTINUOUS
 62
     7
 10
-582.4071435043347
 20
425.2590829519305
 30
0.0
 11
-580.6332625567816
 21
425.2590829519305
 31
0.0
  0
LINE
  5
149
  8
1
  6
CONTINUOUS
 62
     7
 10
-574.2454119162813
 20
425.8836027375084
 30
0.0
 11
-574.1571435043347
 21
424.8746901722638
 31
0.0
  0
LINE
  5
14A
  8
1
  6
CONTINUOUS
 62
     7
 10
-573.8708644882314
 20
421.6025060449753
 30
0.0
 11
-572.4081499822825
 21
404.8836027377486
 31
0.0
  0
LINE
  5
14B
  8
1
  6
CONTINUOUS
 62
     7
 10
-572.4081499822825
 20
404.8836027377486
 30
0.0
 11
-569.1571435043347
 21
404.8836027377486
 31
0.0
  0
LINE
  5
14C
  8
1
  6
CONTINUOUS
 62
     7
 10
-569.1571435043347
 20
401.8836027375084
 30
0.0
 11
-569.1571435043347
 21
404.8836027377486
 31
0.0
  0
LINE
  5
14D
  8
1
  6
CONTINUOUS
 62
     7
 10
-553.906137026387
 20
404.8836027377487
 30
0.0
 11
-557.1571435043347
 21
404.8836027377487
 31
0.0
  0
LINE
  5
14E
  8
1
  6
CONTINUOUS
 62
     7
 10
-543.9071435043347
 20
425.2590829519305
 30
0.0
 11
-545.6810244518879
 21
425.2590829519305
 31
0.0
  0
ARC
  5
14F
  8
1
  6
CONTINUOUS
 62
     7
 10
-546.5829221508369
 20
422.4073417014853
 30
0.0
 40
2.768078200686591
 50
133.4035853949027
 51
174.7572021706287
  0
LINE
  5
150
  8
1
  6
CONTINUOUS
 62
     7
 10
-549.3394198793711
 20
422.6602788432848
 30
0.0
 11
-550.9175529321119
 21
404.6221355095022
 31
0.0
  0
ARC
  5
151
  8
1
  6
CONTINUOUS
 62
     7
 10
-553.906137026387
 20
404.8836027377487
 30
0.0
 40
3.000000000040032
 50
270.0
 51
354.9999999999336
  0
LINE
  5
152
  8
1
  6
CONTINUOUS
 62
     7
 10
-553.906137026387
 20
401.8836027377087
 30
0.0
 11
-557.1571435043347
 21
401.8836027375085
 31
0.0
  0
LINE
  5
153
  8
1
  6
CONTINUOUS
 62
     7
 10
-557.1571435043347
 20
401.8836027375084
 30
0.0
 11
-557.1571435043347
 21
404.8836027377486
 31
0.0
  0
LINE
  5
154
  8
1
  6
CONTINUOUS
 62
     7
 10
-552.0688750923882
 20
425.8836027375084
 30
0.0
 11
-552.1571435043347
 21
424.8746901722639
 31
0.0
  0
LINE
  5
155
  8
1
  6
CONTINUOUS
 62
     7
 10
-552.4434225204382
 20
421.6025060449753
 30
0.0
 11
-553.9061370263871
 21
404.8836027377487
 31
0.0
  0
LINE
  5
156
  8
1
  6
CONTINUOUS
 62
     7
 10
-569.1571435043347
 20
417.8836027375085
 30
0.0
 11
-569.1571435043347
 21
404.8836027376094
 31
0.0
  0
LINE
  5
157
  8
1
  6
CONTINUOUS
 62
     7
 10
-557.1571435043347
 20
417.8836027375085
 30
0.0
 11
-557.1571435043347
 21
404.8836027376094
 31
0.0
  0
ARC
  5
158
  8
1
  6
CONTINUOUS
 62
     7
 10
-563.1571435043347
 20
442.8836027375085
 30
0.0
 40
4.0
 50
172.8192442185453
 51
184.0846712574188
  0
ARC
  5
159
  8
1
  6
CONTINUOUS
 62
     7
 10
-563.1571435043347
 20
442.8836027375085
 30
0.0
 40
3.999999999999997
 50
295.9153287425811
 51
7.180755781454649
  0
LINE
  5
15A
  8
1
  6
CONTINUOUS
 62
     7
 10
-560.5571435043347
 20
423.4195011223707
 30
0.0
 11
-565.7571435043346
 21
423.4195011223707
 31
0.0
  0
LINE
  5
15B
  8
1
  6
CONTINUOUS
 62
     7
 10
-538.9071435043347
 20
479.7502975226985
 30
0.0
 11
-538.9071435043347
 21
476.5953080808869
 31
0.0
  0
LINE
  5
15C
  8
1
  6
CONTINUOUS
 62
     7
 10
-587.4071435043347
 20
479.7502975226985
 30
0.0
 11
-587.4071435043347
 21
476.5953080808869
 31
0.0
  0
LINE
  5
15D
  8
1
  6
CONTINUOUS
 62
     7
 10
-572.1571435043347
 20
425.7914811403423
 30
0.0
 11
-572.1571435043347
 21
420.5327497764226
 31
0.0
  0
POLYLINE
  5
15E
  8
1
  6
CONTINUOUS
 62
     7
 66
     1
 10
0.0
 20
0.0
 30
0.0
  0
VERTEX
  5
2B4
  8
1
  6
CONTINUOUS
 62
     7
 10
-570.7126461845171
 20
422.5623967647119
 30
0.0
  0
VERTEX
  5
2B5
  8
1
  6
CONTINUOUS
 62
     7
 10
-571.3262545249866
 20
422.1263320405349
 30
0.0
  0
VERTEX
  5
2B6
  8
1
  6
CONTINUOUS
 62
     7
 10
-571.7819415215952
 20
421.629904171444
 30
0.0
  0
VERTEX
  5
2B7
  8
1
  6
CONTINUOUS
 62
     7
 10
-572.0624462516838
 20
421.0919172995761
 30
0.0
  0
VERTEX
  5
2B8
  8
1
  6
CONTINUOUS
 62
     7
 10
-572.1571435043347
 20
420.5327497764226
 30
0.0
  0
SEQEND
  5
2C9
  8
1
  6
CONTINUOUS
 62
     7
  0
LINE
  5
15F
  8
1
  6
CONTINUOUS
 62
     7
 10
-561.1865935915067
 20
421.6874503148019
 30
0.0
 11
-565.1276934171628
 21
421.6874503148019
 31
0.0
  0
LINE
  5
160
  8
1
  6
CONTINUOUS
 62
     7
 10
-572.1571435043347
 20
420.5327497764226
 30
0.0
 11
-572.1571435043347
 21
419.0893741034485
 31
0.0
  0
POLYLINE
  5
161
  8
1
  6
CONTINUOUS
 62
     7
 66
     1
 10
0.0
 20
0.0
 30
0.0
  0
VERTEX
  5
2B9
  8
1
  6
CONTINUOUS
 62
     7
 10
-554.1571435043347
 20
420.5327497764226
 30
0.0
  0
VERTEX
  5
2BA
  8
1
  6
CONTINUOUS
 62
     7
 10
-554.2518407569855
 20
421.0919172995762
 30
0.0
  0
VERTEX
  5
2BB
  8
1
  6
CONTINUOUS
 62
     7
 10
-554.5323454870743
 20
421.629904171444
 30
0.0
  0
VERTEX
  5
2BC
  8
1
  6
CONTINUOUS
 62
     7
 10
-554.9880324836829
 20
422.1263320405349
 30
0.0
  0
VERTEX
  5
2BD
  8
1
  6
CONTINUOUS
 62
     7
 10
-555.6016408241524
 20
422.5623967647119
 30
0.0
  0
SEQEND
  5
2CA
  8
1
  6
CONTINUOUS
 62
     7
  0
LINE
  5
162
  8
1
  6
CONTINUOUS
 62
     7
 10
-554.1571435043347
 20
420.5327497764226
 30
0.0
 11
-554.1571435043347
 21
419.0893741034485
 31
0.0
  0
LINE
  5
163
  8
1
  6
CONTINUOUS
 62
     7
 10
-554.1571435043347
 20
425.7914811403423
 30
0.0
 11
-554.1571435043347
 21
420.5327497764225
 31
0.0
  0
LINE
  5
164
  8
1
  6
CONTINUOUS
 62
     7
 10
-572.1571435043347
 20
419.0893741034485
 30
0.0
 11
-572.1571435043347
 21
417.8836027375085
 31
0.0
  0
LINE
  5
165
  8
1
  6
CONTINUOUS
 62
     7
 10
-569.1571435043347
 20
418.7188412216321
 30
0.0
 11
-569.1571435043347
 21
417.8836027375084
 31
0.0
  0
LINE
  5
166
  8
1
  6
CONTINUOUS
 62
     7
 10
-554.1571435043347
 20
419.0893741034485
 30
0.0
 11
-554.1571435043347
 21
417.8836027375085
 31
0.0
  0
LINE
  5
167
  8
1
  6
CONTINUOUS
 62
     7
 10
-557.1571435043347
 20
418.7188412216321
 30
0.0
 11
-557.1571435043347
 21
417.8836027375085
 31
0.0
  0
LINE
  5
168
  8
1
  6
CONTINUOUS
 62
     7
 10
-538.9071435043347
 20
481.5406461008812
 30
0.0
 11
-538.9071435043347
 21
479.750297522649
 31
0.0
  0
LINE
  5
169
  8
1
  6
CONTINUOUS
 62
     7
 10
-587.4071435043347
 20
481.5406461008812
 30
0.0
 11
-587.4071435043347
 21
479.750297522649
 31
0.0
  0
LINE
  5
16A
  8
1
  6
CONTINUOUS
 62
     7
 10
-538.9071435043347
 20
483.7282791998363
 30
0.0
 11
-538.9071435043347
 21
481.5406461008812
 31
0.0
  0
LINE
  5
16B
  8
1
  6
CONTINUOUS
 62
     7
 10
-587.4071435043347
 20
483.7282791998363
 30
0.0
 11
-587.4071435043347
 21
481.5406461008812
 31
0.0
  0
LINE
  5
16C
  8
1
  6
CONTINUOUS
 62
     7
 10
-538.9071435043347
 20
483.8105579996784
 30
0.0
 11
-538.9071435043347
 21
483.7282791998363
 31
0.0
  0
LINE
  5
16D
  8
1
  6
CONTINUOUS
 62
     7
 10
-560.5571435043347
 20
500.7466831787086
 30
0.0
 11
-565.7571435043346
 21
500.7466831787086
 31
0.0
  0
LINE
  5
16E
  8
1
  6
CONTINUOUS
 62
     7
 10
-587.4071435043347
 20
483.8105579996785
 30
0.0
 11
-587.4071435043347
 21
483.7282791998363
 31
0.0
  0
LINE
  5
16F
  8
1
  6
CONTINUOUS
 62
     7
 10
-583.6571435043342
 20
466.1836027375084
 30
0.0
 11
-583.6571435043342
 21
462.8836027375084
 31
0.0
  0
LINE
  5
170
  8
1
  6
CONTINUOUS
 62
     7
 10
-583.6571435043342
 20
448.8836027375084
 30
0.0
 11
-583.6571435043342
 21
445.5836027375083
 31
0.0
  0
LINE
  5
171
  8
1
  6
CONTINUOUS
 62
     7
 10
-597.1571435043338
 20
448.4402270645344
 30
0.0
 11
-592.2093250317877
 21
445.5836027375084
 31
0.0
  0
ARC
  5
172
  8
1
  6
CONTINUOUS
 62
     7
 10
-594.6571435043338
 20
452.7703540834565
 30
0.0
 40
4.999999999999899
 50
231.0186047021868
 51
240.0000000000005
  0
ARC
  5
173
  8
1
  6
CONTINUOUS
 62
     7
 10
-594.6571435043338
 20
458.9968513915603
 30
0.0
 40
4.999999999999898
 50
119.9999999999998
 51
128.9813952978146
  0
LINE
  5
174
  8
1
  6
CONTINUOUS
 62
     7
 10
-592.2093250317876
 20
466.1836027375084
 30
0.0
 11
-597.1571435043338
 21
463.3269784104824
 31
0.0
  0
LINE
  5
175
  8
1
  6
CONTINUOUS
 62
     7
 10
-534.104961976881
 20
466.1836027375084
 30
0.0
 11
-529.1571435043347
 21
463.3269784104824
 31
0.0
  0
ARC
  5
176
  8
1
  6
CONTINUOUS
 62
     7
 10
-531.6571435043348
 20
458.9968513915603
 30
0.0
 40
4.999999999999996
 50
51.01860470218407
 51
59.99999999999954
  0
ARC
  5
177
  8
1
  6
CONTINUOUS
 62
     7
 10
-531.6571435043348
 20
452.7703540834565
 30
0.0
 40
4.999999999999997
 50
300.0
 51
308.9813952978159
  0
LINE
  5
178
  8
1
  6
CONTINUOUS
 62
     7
 10
-529.1571435043347
 20
448.4402270645343
 30
0.0
 11
-534.104961976881
 21
445.5836027375084
 31
0.0
  0
LINE
  5
179
  8
1
  6
CONTINUOUS
 62
     7
 10
-542.6571435043348
 20
445.5836027375084
 30
0.0
 11
-542.6571435043348
 21
448.8836027375085
 31
0.0
  0
LINE
  5
17A
  8
1
  6
CONTINUOUS
 62
     7
 10
-542.6571435043347
 20
462.8836027375084
 30
0.0
 11
-542.6571435043347
 21
466.1836027375084
 31
0.0
  0
ARC
  5
17B
  8
1
  6
CONTINUOUS
 62
     7
 10
-552.1571435043347
 20
455.8836027375084
 30
0.0
 40
2.249999999999978
 50
270.0
 51
162.7280205484749
  0
ARC
  5
17C
  8
1
  6
CONTINUOUS
 62
     7
 10
-552.1571435043347
 20
455.8836027375084
 30
0.0
 40
2.249999999999977
 50
197.2719794093096
 51
270.0
  0
ARC
  5
17D
  8
1
  6
CONTINUOUS
 62
     7
 10
-574.1571435043344
 20
455.8836027375084
 30
0.0
 40
2.249999999999932
 50
17.27197945153495
 51
270.0
  0
ARC
  5
17E
  8
1
  6
CONTINUOUS
 62
     7
 10
-574.1571435043344
 20
455.8836027375084
 30
0.0
 40
2.249999999999932
 50
270.0
 51
342.7280205906684
  0
LINE
  5
17F
  8
1
  6
CONTINUOUS
 62
     7
 10
-549.7681482053133
 20
443.3836027375082
 30
0.0
 11
-568.5065084097236
 21
443.3836027375082
 31
0.0
  0
LINE
  5
180
  8
1
  6
CONTINUOUS
 62
     7
 10
-568.2561630179279
 20
468.3836027375083
 30
0.0
 11
-558.0581239907416
 21
468.3836027375083
 31
0.0
  0
LINE
  5
181
  8
1
  6
CONTINUOUS
 62
     7
 10
-592.5853427666895
 20
453.7411742089451
 30
0.0
 11
-592.5853427666895
 21
455.3836027375085
 31
0.0
  0
ARC
  5
182
  8
1
  6
CONTINUOUS
 62
     7
 10
-592.0853427666895
 20
455.8836027375084
 30
0.0
 40
2.200000000000001
 50
256.8634412130551
 51
283.1365587869449
  0
LINE
  5
183
  8
1
  6
CONTINUOUS
 62
     7
 10
-591.5853427666895
 20
455.3836027375083
 30
0.0
 11
-591.5853427666895
 21
453.7411742089449
 31
0.0
  0
LINE
  5
184
  8
1
  6
CONTINUOUS
 62
     7
 10
-589.9429142381261
 20
455.3836027375084
 30
0.0
 11
-591.5853427666895
 21
455.3836027375084
 31
0.0
  0
ARC
  5
185
  8
1
  6
CONTINUOUS
 62
     7
 10
-592.0853427666895
 20
455.8836027375084
 30
0.0
 40
2.200000000000001
 50
346.8634412130552
 51
13.13655878695687
  0
LINE
  5
186
  8
1
  6
CONTINUOUS
 62
     7
 10
-591.5853427666893
 20
456.3836027375085
 30
0.0
 11
-589.9429142381261
 21
456.3836027375085
 31
0.0
  0
LINE
  5
187
  8
1
  6
CONTINUOUS
 62
     7
 10
-591.5853427666895
 20
458.0260312660717
 30
0.0
 11
-591.5853427666895
 21
456.3836027375084
 31
0.0
  0
ARC
  5
188
  8
1
  6
CONTINUOUS
 62
     7
 10
-592.0853427666895
 20
455.8836027375084
 30
0.0
 40
2.200000000000001
 50
76.86344121305513
 51
103.1365587869569
  0
LINE
  5
189
  8
1
  6
CONTINUOUS
 62
     7
 10
-592.5853427666895
 20
456.3836027375085
 30
0.0
 11
-592.5853427666895
 21
458.0260312660717
 31
0.0
  0
LINE
  5
18A
  8
1
  6
CONTINUOUS
 62
     7
 10
-594.2277712952529
 20
456.3836027375085
 30
0.0
 11
-592.5853427666895
 21
456.3836027375085
 31
0.0
  0
ARC
  5
18B
  8
1
  6
CONTINUOUS
 62
     7
 10
-592.0853427666895
 20
455.8836027375084
 30
0.0
 40
2.200000000000001
 50
166.8634412130551
 51
193.1365587869569
  0
LINE
  5
18C
  8
1
  6
CONTINUOUS
 62
     7
 10
-592.5853427666896
 20
455.3836027375084
 30
0.0
 11
-594.2277712952529
 21
455.3836027375084
 31
0.0
  0
CIRCLE
  5
18D
  8
1
  6
CONTINUOUS
 62
     7
 10
-592.0853427666895
 20
455.8836027375084
 30
0.0
 40
4.0
  0
ARC
  5
18E
  8
1
  6
CONTINUOUS
 62
     7
 10
-592.0853427666895
 20
455.8836027375084
 30
0.0
 40
1.21654992179303
 50
155.7324355160329
 51
204.2675644839671
  0
ARC
  5
18F
  8
1
  6
CONTINUOUS
 62
     7
 10
-592.0853427666895
 20
455.8836027375084
 30
0.0
 40
1.216549921793029
 50
245.7324355160328
 51
294.2675644839671
  0
ARC
  5
190
  8
1
  6
CONTINUOUS
 62
     7
 10
-592.0853427666895
 20
455.8836027375084
 30
0.0
 40
1.21654992179303
 50
335.7324355160329
 51
24.26756448396713
  0
ARC
  5
191
  8
1
  6
CONTINUOUS
 62
     7
 10
-592.0853427666895
 20
455.8836027375084
 30
0.0
 40
1.216549921793029
 50
65.73243551603288
 51
114.2675644839671
  0
LINE
  5
192
  8
1
  6
CONTINUOUS
 62
     7
 10
-534.7289442419802
 20
453.7411742089456
 30
0.0
 11
-534.7289442419802
 21
455.3836027375084
 31
0.0
  0
ARC
  5
193
  8
1
  6
CONTINUOUS
 62
     7
 10
-534.2289442419802
 20
455.8836027375084
 30
0.0
 40
2.200000000000001
 50
256.8634412130551
 51
283.1365587869449
  0
LINE
  5
194
  8
1
  6
CONTINUOUS
 62
     7
 10
-533.7289442419802
 20
455.3836027375084
 30
0.0
 11
-533.7289442419802
 21
453.7411742089456
 31
0.0
  0
LINE
  5
195
  8
1
  6
CONTINUOUS
 62
     7
 10
-532.0865157134174
 20
455.3836027375084
 30
0.0
 11
-533.7289442419802
 21
455.3836027375084
 31
0.0
  0
ARC
  5
196
  8
1
  6
CONTINUOUS
 62
     7
 10
-534.2289442419802
 20
455.8836027375084
 30
0.0
 40
2.200000000000001
 50
346.8634412130552
 51
13.13655878695687
  0
LINE
  5
197
  8
1
  6
CONTINUOUS
 62
     7
 10
-533.7289442419802
 20
456.3836027375084
 30
0.0
 11
-532.0865157134175
 21
456.3836027375084
 31
0.0
  0
LINE
  5
198
  8
1
  6
CONTINUOUS
 62
     7
 10
-533.7289442419802
 20
458.0260312660712
 30
0.0
 11
-533.7289442419802
 21
456.3836027375085
 31
0.0
  0
ARC
  5
199
  8
1
  6
CONTINUOUS
 62
     7
 10
-534.2289442419802
 20
455.8836027375084
 30
0.0
 40
2.200000000000001
 50
76.86344121305513
 51
103.1365587869569
  0
LINE
  5
19A
  8
1
  6
CONTINUOUS
 62
     7
 10
-534.7289442419802
 20
456.3836027375084
 30
0.0
 11
-534.7289442419802
 21
458.0260312660711
 31
0.0
  0
LINE
  5
19B
  8
1
  6
CONTINUOUS
 62
     7
 10
-536.3713727705431
 20
456.3836027375084
 30
0.0
 11
-534.7289442419801
 21
456.3836027375084
 31
0.0
  0
ARC
  5
19C
  8
1
  6
CONTINUOUS
 62
     7
 10
-534.2289442419802
 20
455.8836027375084
 30
0.0
 40
2.200000000000001
 50
166.8634412130551
 51
193.1365587869569
  0
LINE
  5
19D
  8
1
  6
CONTINUOUS
 62
     7
 10
-534.7289442419802
 20
455.3836027375084
 30
0.0
 11
-536.3713727705431
 21
455.3836027375084
 31
0.0
  0
CIRCLE
  5
19E
  8
1
  6
CONTINUOUS
 62
     7
 10
-534.2289442419802
 20
455.8836027375084
 30
0.0
 40
4.0
  0
ARC
  5
19F
  8
1
  6
CONTINUOUS
 62
     7
 10
-534.2289442419802
 20
455.8836027375084
 30
0.0
 40
1.21654992179303
 50
155.7324355160329
 51
204.2675644839671
  0
ARC
  5
1A0
  8
1
  6
CONTINUOUS
 62
     7
 10
-534.2289442419802
 20
455.8836027375084
 30
0.0
 40
1.21654992179303
 50
335.732435516033
 51
24.26756448396708
  0
ARC
  5
1A1
  8
1
  6
CONTINUOUS
 62
     7
 10
-534.2289442419802
 20
455.8836027375084
 30
0.0
 40
1.216549921793029
 50
245.7324355160328
 51
294.2675644839671
  0
ARC
  5
1A2
  8
1
  6
CONTINUOUS
 62
     7
 10
-534.2289442419802
 20
455.8836027375084
 30
0.0
 40
1.216549921793029
 50
65.73243551603288
 51
114.2675644839671
  0
CIRCLE
  5
1A3
  8
1
  6
CONTINUOUS
 62
     7
 10
-534.2289442419802
 20
455.8836027375084
 30
0.0
 40
4.5
  0
CIRCLE
  5
1A4
  8
1
  6
CONTINUOUS
 62
     7
 10
-592.0853427666895
 20
455.8836027375084
 30
0.0
 40
4.500000000000004
  0
ARC
  5
1A5
  8
1
  6
CONTINUOUS
 62
     7
 10
-550.4420542812998
 20
423.8836027375083
 30
0.0
 40
2.000000000000005
 50
24.99999999999983
 51
90.0
  0
LINE
  5
1A6
  8
1
  6
CONTINUOUS
 62
     7
 10
-550.4420542812998
 20
425.8836027375084
 30
0.0
 11
-553.5571435043347
 21
425.8836027375084
 31
0.0
  0
ARC
  5
1A7
  8
1
  6
CONTINUOUS
 62
     7
 10
-553.5571435043348
 20
423.8836027375083
 30
0.0
 40
1.999999999999999
 50
90.0
 51
180.0
  0
LINE
  5
1A8
  8
1
  6
CONTINUOUS
 62
     7
 10
-555.5571435043348
 20
423.8836027375083
 30
0.0
 11
-555.5571435043348
 21
423.3836027375083
 31
0.0
  0
ARC
  5
1A9
  8
1
  6
CONTINUOUS
 62
     7
 10
-563.1571435043347
 20
423.3836027375083
 30
0.0
 40
7.600000000000001
 50
179.9999999999999
 51
0.0000000000001137
  0
LINE
  5
1AA
  8
1
  6
CONTINUOUS
 62
     7
 10
-570.7571435043347
 20
423.3836027375083
 30
0.0
 11
-570.7571435043347
 21
423.8836027375083
 31
0.0
  0
ARC
  5
1AB
  8
1
  6
CONTINUOUS
 62
     7
 10
-572.7571435043347
 20
423.8836027375083
 30
0.0
 40
2.000000000000005
 50
0.0
 51
90.0
  0
LINE
  5
1AC
  8
1
  6
CONTINUOUS
 62
     7
 10
-572.7571435043347
 20
425.8836027375084
 30
0.0
 11
-575.8722327273697
 21
425.8836027375084
 31
0.0
  0
ARC
  5
1AD
  8
1
  6
CONTINUOUS
 62
     7
 10
-575.8722327273697
 20
423.8836027375083
 30
0.0
 40
2.000000000000001
 50
90.0
 51
155.0000000000002
  0
LINE
  5
1AE
  8
1
  6
CONTINUOUS
 62
     7
 10
-577.684848301443
 20
424.7288392609898
 30
0.0
 11
-579.4057441454564
 21
421.038366214027
 31
0.0
  0
ARC
  5
1AF
  8
1
  6
CONTINUOUS
 62
     7
 10
-581.2183597195298
 20
421.8836027375083
 30
0.0
 40
2.000000000000002
 50
270.0
 51
334.9999999999998
  0
LINE
  5
1B0
  8
1
  6
CONTINUOUS
 62
     7
 10
-581.2183597195298
 20
419.8836027375083
 30
0.0
 11
-584.1865807558576
 21
419.8836027375083
 31
0.0
  0
ARC
  5
1B1
  8
1
  6
CONTINUOUS
 62
     7
 10
-584.1865807558576
 20
417.8836027375083
 30
0.0
 40
2.000000000000003
 50
90.0
 51
135.0
  0
LINE
  5
1B2
  8
1
  6
CONTINUOUS
 62
     7
 10
-585.6007943182308
 20
419.2978162998815
 30
0.0
 11
-597.1652675053568
 21
407.7333431127554
 31
0.0
  0
ARC
  5
1B3
  8
1
  6
CONTINUOUS
 62
     7
 10
-593.629733599424
 20
404.1978092068227
 30
0.0
 40
4.999999999999998
 50
134.9999999999999
 51
239.47751218593
  0
ARC
  5
1B4
  8
1
  6
CONTINUOUS
 62
     7
 10
-563.1571435043347
 20
455.8836027375084
 30
0.0
 40
64.99999999999999
 50
239.47751218593
 51
248.8119442486778
  0
ARC
  5
1B5
  8
1
  6
CONTINUOUS
 62
     7
 10
-587.3729671708346
 20
393.412858511487
 30
0.0
 40
2.000000000000001
 50
350.0000000000001
 51
68.81194424867765
  0
LINE
  5
1B6
  8
1
  6
CONTINUOUS
 62
     7
 10
-585.4033516648102
 20
393.0655621561531
 30
0.0
 11
-586.4637226418313
 21
387.0518995121224
 31
0.0
  0
ARC
  5
1B7
  8
1
  6
CONTINUOUS
 62
     7
 10
-588.4333381478558
 20
387.3991958674563
 30
0.0
 40
2.000000000000002
 50
249.7419272145152
 51
349.9999999999997
  0
ARC
  5
1B8
  8
1
  6
CONTINUOUS
 62
     7
 10
-563.1571435043347
 20
455.8836027375084
 30
0.0
 40
75.0
 50
261.5699438282613
 51
249.7419272145153
  0
ARC
  5
1B9
  8
1
  6
CONTINUOUS
 62
     7
 10
-573.8590865905878
 20
383.6723265115712
 30
0.0
 40
2.0
 50
170.0000000000006
 51
261.5699438282612
  0
LINE
  5
1BA
  8
1
  6
CONTINUOUS
 62
     7
 10
-575.8287020966122
 20
384.019622866905
 30
0.0
 11
-574.7863867250952
 21
389.9308870836977
 31
0.0
  0
ARC
  5
1BB
  8
1
  6
CONTINUOUS
 62
     7
 10
-572.8167712190707
 20
389.5835907283639
 30
0.0
 40
2.000000000000004
 50
81.71057588031117
 51
170.0000000000005
  0
ARC
  5
1BC
  8
1
  6
CONTINUOUS
 62
     7
 10
-563.1571435043347
 20
455.8836027375084
 30
0.0
 40
65.0
 50
261.7105758803111
 51
269.3580321112592
  0
ARC
  5
1BD
  8
1
  6
CONTINUOUS
 62
     7
 10
-563.1571435043347
 20
393.3836027375084
 30
0.0
 40
2.599999999999993
 50
253.7335002378259
 51
286.2664997621739
  0
ARC
  5
1BE
  8
1
  6
CONTINUOUS
 62
     7
 10
-563.1571435043347
 20
455.8836027375084
 30
0.0
 40
65.0
 50
270.6419678887409
 51
300.5224878140702
  0
ARC
  5
1BF
  8
1
  6
CONTINUOUS
 62
     7
 10
-532.6845534092455
 20
404.1978092068227
 30
0.0
 40
5.000000000000004
 50
300.5224878140702
 51
45.0
  0
LINE
  5
1C0
  8
1
  6
CONTINUOUS
 62
     7
 10
-529.1490195033128
 20
407.7333431127554
 30
0.0
 11
-540.7134926904389
 21
419.2978162998815
 31
0.0
  0
ARC
  5
1C1
  8
1
  6
CONTINUOUS
 62
     7
 10
-542.1277062528119
 20
417.8836027375083
 30
0.0
 40
2.000000000000002
 50
45.0
 51
90.0
  0
LINE
  5
1C2
  8
1
  6
CONTINUOUS
 62
     7
 10
-542.1277062528119
 20
419.8836027375083
 30
0.0
 11
-545.0959272891398
 21
419.8836027375083
 31
0.0
  0
ARC
  5
1C3
  8
1
  6
CONTINUOUS
 62
     7
 10
-545.0959272891398
 20
421.8836027375083
 30
0.0
 40
1.999999999999998
 50
205.0000000000002
 51
270.0
  0
LINE
  5
1C4
  8
1
  6
CONTINUOUS
 62
     7
 10
-546.9085428632131
 20
421.038366214027
 30
0.0
 11
-548.6294387072264
 21
424.7288392609897
 31
0.0
  0
ARC
  5
1C5
  8
1
  6
CONTINUOUS
 62
     7
 10
-563.1571435043347
 20
455.8836027375084
 30
0.0
 40
13.5
 50
0.000000000000007
 51
240.0000000000002
  0
LINE
  5
1C6
  8
1
  6
CONTINUOUS
 62
     7
 10
-569.9071435043347
 20
444.1922597864184
 30
0.0
 11
-560.1571435043347
 21
438.5630946618196
 31
0.0
  0
ARC
  5
1C7
  8
1
  6
CONTINUOUS
 62
     7
 10
-556.6571435043348
 20
444.6252724883107
 30
0.0
 40
7.0
 50
240.0
 51
359.9999999999998
  0
LINE
  5
1C8
  8
1
  6
CONTINUOUS
 62
     7
 10
-549.6571435043348
 20
444.6252724883106
 30
0.0
 11
-549.6571435043348
 21
455.8836027375084
 31
0.0
  0
LINE
  5
1C9
  8
1
  6
CONTINUOUS
 62
     7
 10
-560.5571435043347
 20
480.8836027375084
 30
0.0
 11
-560.5571435043347
 21
518.3836027375083
 31
0.0
  0
ARC
  5
1CA
  8
1
  6
CONTINUOUS
 62
     7
 10
-563.1571435043347
 20
518.3836027375083
 30
0.0
 40
2.599999999999998
 50
0.000000000000007
 51
179.9999999999997
  0
LINE
  5
1CB
  8
1
  6
CONTINUOUS
 62
     7
 10
-565.7571435043347
 20
480.8836027375084
 30
0.0
 11
-565.7571435043347
 21
518.3836027375083
 31
0.0
  0
ARC
  5
1CC
  8
1
  6
CONTINUOUS
 62
     7
 10
-563.1571435043347
 20
480.8836027375084
 30
0.0
 40
2.599999999999998
 50
180.0
 51
359.9999999999998
  0
ARC
  5
1CD
  8
1
  6
CONTINUOUS
 62
     7
 10
-518.9629696801755
 20
500.0777765616676
 30
0.0
 40
2.599999999999998
 50
315.0
 51
135.0
  0
LINE
  5
1CE
  8
1
  6
CONTINUOUS
 62
     7
 10
-520.8014473112605
 20
501.9162541927527
 30
0.0
 11
-542.0146507468569
 21
480.7030507571562
 31
0.0
  0
ARC
  5
1CF
  8
1
  6
CONTINUOUS
 62
     7
 10
-540.1761731157719
 20
478.8645731260711
 30
0.0
 40
2.599999999999998
 50
135.0
 51
315.0
  0
LINE
  5
1D0
  8
1
  6
CONTINUOUS
 62
     7
 10
-538.337695484687
 20
477.0260954949861
 30
0.0
 11
-517.1244920490905
 21
498.2392989305825
 31
0.0
  0
ARC
  5
1D1
  8
1
  6
CONTINUOUS
 62
     7
 10
-509.0305557678073
 20
487.1336027375084
 30
0.0
 40
2.599999999999996
 50
299.9999999999998
 51
120.0000000000001
  0
LINE
  5
1D2
  8
1
  6
CONTINUOUS
 62
     7
 10
-510.3305557678074
 20
489.3852687873479
 30
0.0
 11
-536.3113178813405
 21
474.3852687873479
 31
0.0
  0
ARC
  5
1D3
  8
1
  6
CONTINUOUS
 62
     7
 10
-535.0113178813405
 20
472.1336027375083
 30
0.0
 40
2.599999999999999
 50
120.0000000000003
 51
300.0000000000001
  0
LINE
  5
1D4
  8
1
  6
CONTINUOUS
 62
     7
 10
-533.7113178813405
 20
469.8819366876689
 30
0.0
 11
-507.7305557678073
 21
484.8819366876689
 31
0.0
  0
ARC
  5
1D5
  8
1
  6
CONTINUOUS
 62
     7
 10
-518.9629696801755
 20
411.6894289133492
 30
0.0
 40
2.600000000000003
 50
225.0000000000001
 51
44.99999999999965
  0
LINE
  5
1D6
  8
1
  6
CONTINUOUS
 62
     7
 10
-517.1244920490905
 20
413.5279065444341
 30
0.0
 11
-538.337695484687
 21
434.7411099800306
 31
0.0
  0
ARC
  5
1D7
  8
1
  6
CONTINUOUS
 62
     7
 10
-540.1761731157719
 20
432.9026323489456
 30
0.0
 40
2.599999999999996
 50
45.00000000000008
 51
225.0000000000001
  0
LINE
  5
1D8
  8
1
  6
CONTINUOUS
 62
     7
 10
-542.0146507468569
 20
431.0641547178606
 30
0.0
 11
-520.8014473112605
 21
409.8509512822641
 31
0.0
  0
LINE
  5
1D9
  8
1
  6
CONTINUOUS
 62
     7
 10
-520.4071435043348
 20
464.3836027375084
 30
0.0
 11
-520.4071435043348
 21
464.6836027375084
 31
0.0
  0
ARC
  5
1DA
  8
1
  6
CONTINUOUS
 62
     7
 10
-521.9071435043347
 20
464.6836027375084
 30
0.0
 40
1.500000000000001
 50
0.0000000000001395
 51
90.0000000000003
  0
LINE
  5
1DB
  8
1
  6
CONTINUOUS
 62
     7
 10
-521.9071435043347
 20
466.1836027375084
 30
0.0
 11
-542.9071435043347
 21
466.1836027375084
 31
0.0
  0
ARC
  5
1DC
  8
1
  6
CONTINUOUS
 62
     7
 10
-542.9071435043347
 20
464.6836027375084
 30
0.0
 40
1.500000000000001
 50
90.00000000000016
 51
180.0000000000003
  0
LINE
  5
1DD
  8
1
  6
CONTINUOUS
 62
     7
 10
-544.4071435043347
 20
464.6836027375084
 30
0.0
 11
-544.4071435043347
 21
464.3836027375084
 31
0.0
  0
ARC
  5
1DE
  8
1
  6
CONTINUOUS
 62
     7
 10
-542.9071435043347
 20
464.3836027375084
 30
0.0
 40
1.500000000000001
 50
179.9999999999999
 51
224.8575490510887
  0
ARC
  5
1DF
  8
1
  6
CONTINUOUS
 62
     7
 10
-542.9071435043347
 20
447.3836027375084
 30
0.0
 40
1.499999999999998
 50
135.1424509489116
 51
180.0
  0
LINE
  5
1E0
  8
1
  6
CONTINUOUS
 62
     7
 10
-544.4071435043347
 20
447.0836027375083
 30
0.0
 11
-544.4071435043347
 21
447.3836027375084
 31
0.0
  0
ARC
  5
1E1
  8
1
  6
CONTINUOUS
 62
     7
 10
-542.9071435043347
 20
447.0836027375084
 30
0.0
 40
1.500000000000001
 50
180.0000000000002
 51
270.0000000000001
  0
LINE
  5
1E2
  8
1
  6
CONTINUOUS
 62
     7
 10
-521.9071435043347
 20
445.5836027375084
 30
0.0
 11
-542.9071435043347
 21
445.5836027375084
 31
0.0
  0
ARC
  5
1E3
  8
1
  6
CONTINUOUS
 62
     7
 10
-521.9071435043347
 20
447.0836027375084
 30
0.0
 40
1.500000000000001
 50
269.9999999999997
 51
0.0
  0
LINE
  5
1E4
  8
1
  6
CONTINUOUS
 62
     7
 10
-520.4071435043348
 20
447.3836027375084
 30
0.0
 11
-520.4071435043348
 21
447.0836027375083
 31
0.0
  0
ARC
  5
1E5
  8
1
  6
CONTINUOUS
 62
     7
 10
-521.9071435043347
 20
447.3836027375084
 30
0.0
 40
1.500000000000001
 50
0.0
 51
44.85754905108814
  0
ARC
  5
1E6
  8
1
  6
CONTINUOUS
 62
     7
 10
-521.9071435043347
 20
464.3836027375084
 30
0.0
 40
1.500000000000002
 50
315.1424509489118
 51
0.0000000000001705
  0
ARC
  5
1E7
  8
1
  6
CONTINUOUS
 62
     7
 10
-563.1571435043347
 20
430.8836027375084
 30
0.0
 40
2.599999999999998
 50
0.000000000000007
 51
180.0000000000002
  0
LINE
  5
1E8
  8
1
  6
CONTINUOUS
 62
     7
 10
-565.7571435043347
 20
423.3836027375083
 30
0.0
 11
-565.7571435043347
 21
430.8836027375083
 31
0.0
  0
ARC
  5
1E9
  8
1
  6
CONTINUOUS
 62
     7
 10
-563.1571435043347
 20
423.3836027375083
 30
0.0
 40
2.6
 50
180.0000000000003
 51
0.0
  0
LINE
  5
1EA
  8
1
  6
CONTINUOUS
 62
     7
 10
-560.5571435043347
 20
423.3836027375083
 30
0.0
 11
-560.5571435043347
 21
430.8836027375083
 31
0.0
  0
ARC
  5
1EB
  8
1
  6
CONTINUOUS
 62
     7
 10
-586.1381138928976
 20
478.8645731260711
 30
0.0
 40
2.599999999999996
 50
225.0
 51
45.00000000000006
  0
LINE
  5
1EC
  8
1
  6
CONTINUOUS
 62
     7
 10
-605.5128396974089
 20
501.9162541927527
 30
0.0
 11
-584.2996362618126
 21
480.7030507571562
 31
0.0
  0
ARC
  5
1ED
  8
1
  6
CONTINUOUS
 62
     7
 10
-607.351317328494
 20
500.0777765616676
 30
0.0
 40
2.599999999999998
 50
45.0
 51
225.0
  0
LINE
  5
1EE
  8
1
  6
CONTINUOUS
 62
     7
 10
-587.9765915239826
 20
477.0260954949861
 30
0.0
 11
-609.189794959579
 21
498.2392989305825
 31
0.0
  0
ARC
  5
1EF
  8
1
  6
CONTINUOUS
 62
     7
 10
-591.302969127329
 20
472.1336027375084
 30
0.0
 40
2.599999999999999
 50
239.9999999999999
 51
59.99999999999977
  0
LINE
  5
1F0
  8
1
  6
CONTINUOUS
 62
     7
 10
-615.9837312408621
 20
489.3852687873479
 30
0.0
 11
-590.0029691273289
 21
474.3852687873479
 31
0.0
  0
ARC
  5
1F1
  8
1
  6
CONTINUOUS
 62
     7
 10
-617.2837312408622
 20
487.1336027375085
 30
0.0
 40
2.599999999999996
 50
59.99999999999983
 51
240.0000000000001
  0
LINE
  5
1F2
  8
1
  6
CONTINUOUS
 62
     7
 10
-592.602969127329
 20
469.8819366876689
 30
0.0
 11
-618.5837312408622
 21
484.8819366876689
 31
0.0
  0
ARC
  5
1F3
  8
1
  6
CONTINUOUS
 62
     7
 10
-586.1381138928976
 20
432.9026323489456
 30
0.0
 40
2.599999999999996
 50
314.9999999999998
 51
134.9999999999999
  0
LINE
  5
1F4
  8
1
  6
CONTINUOUS
 62
     7
 10
-609.189794959579
 20
413.5279065444341
 30
0.0
 11
-587.9765915239826
 21
434.7411099800306
 31
0.0
  0
ARC
  5
1F5
  8
1
  6
CONTINUOUS
 62
     7
 10
-607.351317328494
 20
411.6894289133492
 30
0.0
 40
2.600000000000003
 50
135.0000000000003
 51
314.9999999999998
  0
LINE
  5
1F6
  8
1
  6
CONTINUOUS
 62
     7
 10
-584.2996362618126
 20
431.0641547178606
 30
0.0
 11
-605.5128396974089
 21
409.8509512822641
 31
0.0
  0
ARC
  5
1F7
  8
1
  6
CONTINUOUS
 62
     7
 10
-604.4071435043347
 20
447.3836027375084
 30
0.0
 40
1.500000000000001
 50
135.1424509489119
 51
180.0
  0
LINE
  5
1F8
  8
1
  6
CONTINUOUS
 62
     7
 10
-605.9071435043347
 20
447.3836027375084
 30
0.0
 11
-605.9071435043347
 21
447.0836027375083
 31
0.0
  0
ARC
  5
1F9
  8
1
  6
CONTINUOUS
 62
     7
 10
-604.4071435043347
 20
447.0836027375084
 30
0.0
 40
1.500000000000001
 50
180.0
 51
270.0000000000002
  0
LINE
  5
1FA
  8
1
  6
CONTINUOUS
 62
     7
 10
-604.4071435043347
 20
445.5836027375084
 30
0.0
 11
-583.4071435043347
 21
445.5836027375084
 31
0.0
  0
ARC
  5
1FB
  8
1
  6
CONTINUOUS
 62
     7
 10
-583.4071435043347
 20
447.0836027375084
 30
0.0
 40
1.500000000000001
 50
269.9999999999999
 51
359.9999999999998
  0
LINE
  5
1FC
  8
1
  6
CONTINUOUS
 62
     7
 10
-581.9071435043348
 20
447.0836027375084
 30
0.0
 11
-581.9071435043348
 21
447.3836027375084
 31
0.0
  0
ARC
  5
1FD
  8
1
  6
CONTINUOUS
 62
     7
 10
-583.4071435043347
 20
447.3836027375084
 30
0.0
 40
1.499999999999998
 50
0.000000000000007
 51
44.85754905108825
  0
ARC
  5
1FE
  8
1
  6
CONTINUOUS
 62
     7
 10
-583.4071435043347
 20
464.3836027375084
 30
0.0
 40
1.500000000000001
 50
315.1424509489112
 51
0.0000000000000568
  0
LINE
  5
1FF
  8
1
  6
CONTINUOUS
 62
     7
 10
-581.9071435043348
 20
464.6836027375084
 30
0.0
 11
-581.9071435043348
 21
464.3836027375085
 31
0.0
  0
ARC
  5
200
  8
1
  6
CONTINUOUS
 62
     7
 10
-583.4071435043347
 20
464.6836027375084
 30
0.0
 40
1.500000000000001
 50
359.9999999999997
 51
89.9999999999999
  0
LINE
  5
201
  8
1
  6
CONTINUOUS
 62
     7
 10
-604.4071435043347
 20
466.1836027375084
 30
0.0
 11
-583.4071435043347
 21
466.1836027375084
 31
0.0
  0
ARC
  5
202
  8
1
  6
CONTINUOUS
 62
     7
 10
-604.4071435043347
 20
464.6836027375084
 30
0.0
 40
1.500000000000001
 50
89.99999999999977
 51
179.9999999999999
  0
LINE
  5
203
  8
1
  6
CONTINUOUS
 62
     7
 10
-605.9071435043347
 20
464.3836027375084
 30
0.0
 11
-605.9071435043347
 21
464.6836027375084
 31
0.0
  0
ARC
  5
204
  8
1
  6
CONTINUOUS
 62
     7
 10
-604.4071435043347
 20
464.3836027375084
 30
0.0
 40
1.500000000000002
 50
179.9999999999999
 51
224.8575490510882
  0
CIRCLE
  5
205
  8
1
  6
CONTINUOUS
 62
     7
 10
-543.1571435043347
 20
425.8836027375084
 30
0.0
 40
2.600000000000001
  0
CIRCLE
  5
206
  8
1
  6
CONTINUOUS
 62
     7
 10
-583.1571435043347
 20
425.8836027375083
 30
0.0
 40
2.600000000000001
  0
CIRCLE
  5
207
  8
1
  6
CONTINUOUS
 62
     7
 10
-583.1571435043347
 20
485.8836027375084
 30
0.0
 40
2.600000000000001
  0
CIRCLE
  5
208
  8
1
  6
CONTINUOUS
 62
     7
 10
-543.1571435043347
 20
485.8836027375084
 30
0.0
 40
2.600000000000001
  0
LINE
  5
209
  8
1
  6
CONTINUOUS
 62
     7
 10
-604.4071435043347
 20
448.8836027375084
 30
0.0
 11
-602.9099372911063
 21
448.8836027375084
 31
0.0
  0
ARC
  5
20A
  8
1
  6
CONTINUOUS
 62
     7
 10
-604.4070919687662
 20
464.3837267192237
 30
0.0
 40
1.500123982600516
 50
224.8595174021116
 51
269.9980316489763
  0
LINE
  5
20B
  8
1
  6
CONTINUOUS
 62
     7
 10
-602.9099372911062
 20
462.8836027375084
 30
0.0
 11
-604.4071435043346
 21
462.8836027375084
 31
0.0
  0
ARC
  5
20C
  8
1
  6
CONTINUOUS
 62
     7
 10
-604.4070921667468
 20
447.3834792320853
 30
0.0
 40
1.500123506301599
 50
90.00196078996578
 51
135.140490158946
  0
LINE
  5
20D
  8
1
  6
CONTINUOUS
 62
     7
 10
-583.4071435043347
 20
462.8836027375084
 30
0.0
 11
-584.9043497175633
 21
462.8836027375084
 31
0.0
  0
ARC
  5
20E
  8
1
  6
CONTINUOUS
 62
     7
 10
-583.4071948419227
 20
464.3837262429316
 30
0.0
 40
1.500123506301621
 50
270.0019607899665
 51
315.1404901589451
  0
ARC
  5
20F
  8
1
  6
CONTINUOUS
 62
     7
 10
-583.4071950399033
 20
447.3834787557931
 30
0.0
 40
1.500123982600523
 50
44.85951740211203
 51
89.99803164897577
  0
LINE
  5
210
  8
1
  6
CONTINUOUS
 62
     7
 10
-584.9043497175633
 20
448.8836027375084
 30
0.0
 11
-583.4071435043347
 21
448.8836027375084
 31
0.0
  0
ARC
  5
211
  8
1
  6
CONTINUOUS
 62
     7
 10
-542.9070919687662
 20
447.3834787557931
 30
0.0
 40
1.500123982600523
 50
90.00196835102422
 51
135.1404825978879
  0
ARC
  5
212
  8
1
  6
CONTINUOUS
 62
     7
 10
-542.9070921667468
 20
464.3837262429316
 30
0.0
 40
1.500123506301622
 50
224.8595098410549
 51
269.9980392100335
  0
LINE
  5
213
  8
1
  6
CONTINUOUS
 62
     7
 10
-542.9071435043347
 20
462.8836027375084
 30
0.0
 11
-541.4099372911063
 21
462.8836027375084
 31
0.0
  0
LINE
  5
214
  8
1
  6
CONTINUOUS
 62
     7
 10
-541.4099372911063
 20
448.8836027375084
 30
0.0
 11
-542.9071435043347
 21
448.8836027375084
 31
0.0
  0
ARC
  5
215
  8
1
  6
CONTINUOUS
 62
     7
 10
-521.9071950399033
 20
464.3837267192237
 30
0.0
 40
1.500123982600519
 50
270.0019683510237
 51
315.1404825978882
  0
ARC
  5
216
  8
1
  6
CONTINUOUS
 62
     7
 10
-521.9071948419227
 20
447.3834792320852
 30
0.0
 40
1.500123506301596
 50
44.85950984105385
 51
89.99803921003422
  0
LINE
  5
217
  8
1
  6
CONTINUOUS
 62
     7
 10
-521.9071435043347
 20
448.8836027375084
 30
0.0
 11
-523.4043497175633
 21
448.8836027375084
 31
0.0
  0
LINE
  5
218
  8
1
  6
CONTINUOUS
 62
     7
 10
-523.4043497175633
 20
462.8836027375084
 30
0.0
 11
-521.9071435043347
 21
462.8836027375084
 31
0.0
  0
LINE
  5
219
  8
1
  6
CONTINUOUS
 62
     7
 10
-602.9099372911063
 20
448.8836027375084
 30
0.0
 11
-602.6985597480046
 21
448.8836027375084
 31
0.0
  0
LINE
  5
21A
  8
1
  6
CONTINUOUS
 62
     7
 10
-602.9099372911062
 20
462.8836027375084
 30
0.0
 11
-602.6985597480045
 21
462.8836027375084
 31
0.0
  0
LINE
  5
21B
  8
1
  6
CONTINUOUS
 62
     7
 10
-584.9043497175633
 20
448.8836027375084
 30
0.0
 11
-585.1157272606648
 21
448.8836027375084
 31
0.0
  0
LINE
  5
21C
  8
1
  6
CONTINUOUS
 62
     7
 10
-584.9043497175633
 20
462.8836027375084
 30
0.0
 11
-585.1157272606648
 21
462.8836027375084
 31
0.0
  0
LINE
  5
21D
  8
1
  6
CONTINUOUS
 62
     7
 10
-541.4099372911063
 20
448.8836027375084
 30
0.0
 11
-541.1985597480046
 21
448.8836027375084
 31
0.0
  0
LINE
  5
21E
  8
1
  6
CONTINUOUS
 62
     7
 10
-541.4099372911063
 20
462.8836027375084
 30
0.0
 11
-541.1985597480046
 21
462.8836027375084
 31
0.0
  0
LINE
  5
21F
  8
1
  6
CONTINUOUS
 62
     7
 10
-523.4043497175633
 20
448.8836027375084
 30
0.0
 11
-523.6157272606648
 21
448.8836027375084
 31
0.0
  0
LINE
  5
220
  8
1
  6
CONTINUOUS
 62
     7
 10
-523.4043497175633
 20
462.8836027375084
 30
0.0
 11
-523.6157272606648
 21
462.8836027375084
 31
0.0
  0
LINE
  5
221
  8
1
  6
CONTINUOUS
 62
     7
 10
-600.7289442419802
 20
448.8836027375084
 30
0.0
 11
-602.6985597480045
 21
448.8836027375084
 31
0.0
  0
LINE
  5
222
  8
1
  6
CONTINUOUS
 62
     7
 10
-602.6985597480045
 20
462.8836027375084
 30
0.0
 11
-600.7289442419802
 21
462.8836027375084
 31
0.0
  0
LINE
  5
223
  8
1
  6
CONTINUOUS
 62
     7
 10
-585.1157272606648
 20
448.8836027375084
 30
0.0
 11
-587.0853427666892
 21
448.8836027375084
 31
0.0
  0
LINE
  5
224
  8
1
  6
CONTINUOUS
 62
     7
 10
-587.0853427666893
 20
462.8836027375084
 30
0.0
 11
-585.1157272606649
 21
462.8836027375084
 31
0.0
  0
LINE
  5
225
  8
1
  6
CONTINUOUS
 62
     7
 10
-541.1985597480046
 20
448.8836027375084
 30
0.0
 11
-539.2289442419803
 21
448.8836027375084
 31
0.0
  0
LINE
  5
226
  8
1
  6
CONTINUOUS
 62
     7
 10
-539.2289442419802
 20
462.8836027375084
 30
0.0
 11
-541.1985597480045
 21
462.8836027375084
 31
0.0
  0
LINE
  5
227
  8
1
  6
CONTINUOUS
 62
     7
 10
-525.5853427666893
 20
448.8836027375084
 30
0.0
 11
-523.6157272606649
 21
448.8836027375084
 31
0.0
  0
LINE
  5
228
  8
1
  6
CONTINUOUS
 62
     7
 10
-523.6157272606649
 20
462.8836027375084
 30
0.0
 11
-525.5853427666893
 21
462.8836027375084
 31
0.0
  0
ARC
  5
229
  8
1
  6
CONTINUOUS
 62
     7
 10
-596.6571435043347
 20
455.8836027375084
 30
0.0
 40
2.5
 50
90.00000000000001
 51
270.0
  0
LINE
  5
22A
  8
1
  6
CONTINUOUS
 62
     7
 10
-596.6571435043347
 20
453.3836027375084
 30
0.0
 11
-595.8270001534635
 21
453.3836027375084
 31
0.0
  0
LINE
  5
22B
  8
1
  6
CONTINUOUS
 62
     7
 10
-595.8270001534635
 20
458.3836027375084
 30
0.0
 11
-596.6571435043347
 21
458.3836027375084
 31
0.0
  0
LINE
  5
22C
  8
1
  6
CONTINUOUS
 62
     7
 10
-600.7289442419802
 20
448.8836027375084
 30
0.0
 11
-587.0853427666893
 21
448.8836027375084
 31
0.0
  0
LINE
  5
22D
  8
1
  6
CONTINUOUS
 62
     7
 10
-587.0853427666893
 20
462.8836027375084
 30
0.0
 11
-600.7289442419802
 21
462.8836027375084
 31
0.0
  0
LINE
  5
22E
  8
1
  6
CONTINUOUS
 62
     7
 10
-529.6571435043347
 20
453.3836027375084
 30
0.0
 11
-530.4872868552063
 21
453.3836027375084
 31
0.0
  0
ARC
  5
22F
  8
1
  6
CONTINUOUS
 62
     7
 10
-529.6571435043347
 20
455.8836027375084
 30
0.0
 40
2.5
 50
270.0
 51
90.0
  0
LINE
  5
230
  8
1
  6
CONTINUOUS
 62
     7
 10
-530.4872868552063
 20
458.3836027375084
 30
0.0
 11
-529.6571435043347
 21
458.3836027375084
 31
0.0
  0
LINE
  5
231
  8
1
  6
CONTINUOUS
 62
     7
 10
-525.5853427666893
 20
448.8836027375084
 30
0.0
 11
-539.2289442419802
 21
448.8836027375084
 31
0.0
  0
LINE
  5
232
  8
1
  6
CONTINUOUS
 62
     7
 10
-539.2289442419802
 20
462.8836027375084
 30
0.0
 11
-525.5853427666893
 21
462.8836027375084
 31
0.0
  0
ARC
  5
233
  8
1
  6
CONTINUOUS
 62
     7
 10
-572.1571435043347
 20
422.6336027375083
 30
0.0
 40
2.0
 50
180.0
 51
269.9999999999999
  0
ARC
  5
234
  8
1
  6
CONTINUOUS
 62
     7
 10
-554.1571435043347
 20
422.6336027375083
 30
0.0
 40
2.000000000000002
 50
269.9999999999999
 51
0.0000000000001705
  0
ARC
  5
235
  8
1
  6
CONTINUOUS
 62
     7
 10
-538.9071435043347
 20
481.1269954288585
 30
0.0
 40
2.000000000000002
 50
270.0
 51
0.0000000000001137
  0
ARC
  5
236
  8
1
  6
CONTINUOUS
 62
     7
 10
-587.4071435043347
 20
481.1269954288584
 30
0.0
 40
2.000000000000002
 50
179.9999999999998
 51
270.0000000000001
  0
LINE
  5
237
  8
1
  6
CONTINUOUS
 62
     7
 10
-572.1571435043347
 20
417.8836027375085
 30
0.0
 11
-569.1571435043347
 21
417.8836027375085
 31
0.0
  0
LINE
  5
238
  8
1
  6
CONTINUOUS
 62
     7
 10
-557.1571435043347
 20
417.8836027375085
 30
0.0
 11
-554.1571435043347
 21
417.8836027375085
 31
0.0
  0
ENDBLK
  8
0
  0
ENDSEC
  0
SECTION
  2
ENTITIES
  0
INSERT
  5
101
  8
1
  6
CONTINUOUS
 62
     7
  2
D_FRAME_VIEW_3432
 10
0.0
 20
0.0
 30
0.0
  0
LINE
  5
102
  8
1
  6
CENTER
 62
     1
 10
-332.7645101985412
 20
412.4728256043793
 30
0.0
 11
-408.5898312908967
 21
428.589995143296
 31
0.0
  0
LINE
  5
104
  8
1
  6
CENTER
 62
     1
 10
-433.1023099468506
 20
455.8836027375084
 30
0.0
 11
-398.1023099468507
 21
455.8836027375084
 31
0.0
  0
INSERT
  5
239
  8
1
  6
CONTINUOUS
 62
     7
  2
D_FRAME_VIEW_2626
 10
0.0
 20
0.0
 30
0.0
  0
LINE
  5
23A
  8
1
  6
CENTER
 62
     1
 10
-640.1571435043347
 20
455.8836027375084
 30
0.0
 11
-486.1571435043348
 21
455.8836027375084
 31
0.0
  0
LINE
  5
23B
  8
1
  6
CENTER
 62
     1
 10
-563.1571435043347
 20
378.8836027375083
 30
0.0
 11
-563.1571435043347
 21
532.8836027375083
 31
0.0
  0
LINE
  5
23C
  8
1
  6
CENTER
 62
     1
 10
-403.861886199944
 20
451.8836027375084
 30
0.0
 11
-351.2618861999443
 21
451.8836027375084
 31
0.0
  0
LINE
  5
23D
  8
1
  6
CENTER
 62
     1
 10
-377.5618861999441
 20
425.5836027375086
 30
0.0
 11
-377.5618861999441
 21
478.1836027375082
 31
0.0
  0
TEXT
  5
23E
  8
1
  6
CONTINUOUS
 62
     7
 10
-464.1445304546042
 20
355.7092325536585
 30
0.0
 40
3.0
  1
PV4B-KSTK1L
  0
LINE
  5
23F
  8
1
  6
CONTINUOUS
 62
     2
 10
-463.9449462355221
 20
355.1512670666009
 30
0.0
 11
-445.0858553264312
 21
355.1512670666009
 31
0.0
  0
ENDSEC
  0
EOF
