  0
SECTION
  2
HEADER
  9
$ACADVER
  1
AC1004
  9
$INSBASE
 10
0.0
 20
0.0
  9
$EXTMIN
 10
330.0000000000001
 20
41.67045454545453
  9
$EXTMAX
 10
822.0
 20
523.0
  9
$LIMMIN
 10
0.0
 20
0.0
  9
$LIMMAX
 10
12.0
 20
9.0
  9
$ORTHOMODE
 70
     0
  9
$REGENMODE
 70
     1
  9
$FILLMODE
 70
     1
  9
$QTEXTMODE
 70
     0
  9
$DRAGMODE
 70
     2
  9
$LTSCALE
 40
1.0
  9
$OSMODE
 70
    37
  9
$ATTMODE
 70
     1
  9
$TEXTSIZE
 40
0.2
  9
$TRACEWID
 40
0.05
  9
$TEXTSTYLE
  7
STANDARD
  9
$CLAYER
  8
0
  9
$CELTYPE
  6
BYLAYER
  9
$CECOLOR
 62
   256
  9
$DIMSCALE
 40
1.0
  9
$DIMASZ
 40
3.0
  9
$DIMEXO
 40
0.0625
  9
$DIMDLI
 40
0.38
  9
$DIMRND
 40
0.0
  9
$DIMDLE
 40
0.0
  9
$DIMEXE
 40
1.5
  9
$DIMTP
 40
0.0
  9
$DIMTM
 40
0.0
  9
$DIMTXT
 40
3.0
  9
$DIMCEN
 40
0.09
  9
$DIMTSZ
 40
0.0
  9
$DIMTOL
 70
     0
  9
$DIMLIM
 70
     0
  9
$DIMTIH
 70
     1
  9
$DIMTOH
 70
     1
  9
$DIMSE1
 70
     0
  9
$DIMSE2
 70
     0
  9
$DIMTAD
 70
     1
  9
$DIMZIN
 70
     0
  9
$DIMBLK
  1

  9
$DIMASO
 70
     1
  9
$DIMSHO
 70
     1
  9
$DIMPOST
  1

  9
$DIMAPOST
  1

  9
$DIMALT
 70
     0
  9
$DIMALTD
 70
     2
  9
$DIMALTF
 40
25.4
  9
$DIMLFAC
 40
1.0
  9
$DIMTOFL
 70
     0
  9
$DIMTVP
 40
0.0
  9
$DIMTIX
 70
     0
  9
$DIMSOXD
 70
     0
  9
$DIMSAH
 70
     0
  9
$DIMBLK1
  1

  9
$DIMBLK2
  1

  9
$LUNITS
 70
     2
  9
$LUPREC
 70
     4
  9
$SKETCHINC
 40
0.1
  9
$FILLETRAD
 40
0.5
  9
$AUNITS
 70
     0
  9
$AUPREC
 70
     0
  9
$MENU
  1
.
  9
$ELEVATION
 40
0.0
  9
$THICKNESS
 40
0.0
  9
$LIMCHECK
 70
     0
  9
$CHAMFERA
 40
0.0
  9
$CHAMFERB
 40
0.0
  9
$SKPOLY
 70
     0
  9
$TDCREATE
 40
2460500.403980058
  9
$TDUPDATE
 40
2460500.403980255
  9
$TDINDWG
 40
0.0000000116
  9
$TDUSRTIMER
 40
0.0000000116
  9
$USRTIMER
 70
     1
  9
$ANGBASE
 50
0.0
  9
$ANGDIR
 70
     0
  9
$PDMODE
 70
     0
  9
$PDSIZE
 40
0.0
  9
$PLINEWID
 40
0.0
  9
$COORDS
 70
     1
  9
$SPLFRAME
 70
     0
  9
$SPLINETYPE
 70
     6
  9
$SPLINESEGS
 70
     8
  9
$ATTDIA
 70
     0
  9
$ATTREQ
 70
     1
  9
$SURFTAB1
 70
     6
  9
$SURFTAB2
 70
     6
  9
$SURFTYPE
 70
     6
  9
$SURFU
 70
     6
  9
$SURFV
 70
     6
  9
$UCSNAME
  2

  9
$UCSORG
 10
0.0
 20
0.0
 30
0.0
  9
$UCSXDIR
 10
1.0
 20
0.0
 30
0.0
  9
$UCSYDIR
 10
0.0
 20
1.0
 30
0.0
  9
$USERI1
 70
     0
  9
$USERI2
 70
     0
  9
$USERI3
 70
     0
  9
$USERI4
 70
     0
  9
$USERI5
 70
     0
  9
$USERR1
 40
0.0
  9
$USERR2
 40
0.0
  9
$USERR3
 40
0.0
  9
$USERR4
 40
0.0
  9
$USERR5
 40
0.0
  9
$WORLDVIEW
 70
     1
  0
ENDSEC
  0
SECTION
  2
TABLES
  0
TABLE
  2
LTYPE
 70
     2
  0
LTYPE
  2
CONTINUOUS
 70
     0
  3
Solid line
 72
    65
 73
     0
 40
0.0
  0
LTYPE
  2
CENTER
 70
     0
  3

 72
    65
 73
     0
 40
0.0
  0
ENDTAB
  0
TABLE
  2
LAYER
 70
     2
  0
LAYER
  2
0
 70
     0
 62
     7
  6
CONTINUOUS
  0
LAYER
  2
1
 70
     0
 62
     7
  6
CONTINUOUS
  0
ENDTAB
  0
TABLE
  2
STYLE
 70
     2
  0
STYLE
  2
STANDARD
 70
     0
 40
0.0
 41
1.0
 50
0.0
 71
     0
 42
0.2
  3
txt
  4

  0
STYLE
  2
ＭＳ_ゴシック
 70
     0
 40
0.0
 41
1.0
 50
0.0
 71
     0
 42
0.2
  3
ＭＳ ゴシック.shx
  4

  0
ENDTAB
  0
TABLE
  2
VIEW
 70
     0
  0
ENDTAB
  0
ENDSEC
  0
SECTION
  2
BLOCKS
  0
BLOCK
  8
0
  2
D_FRAME_VIEW_1523
 70
     0
 10
0.0
 20
0.0
  0
LINE
  8
1
  6
CONTINUOUS
 62
     7
 10
467.4477267507413
 20
119.3056752014031
 11
467.4477267507413
 21
107.5056752014031
  0
LINE
  8
1
  6
CONTINUOUS
 62
     7
 10
467.1
 20
119.2616322832991
 11
467.1
 21
116.6556752014031
  0
LINE
  8
1
  6
CONTINUOUS
 62
     7
 10
469.8137055369194
 20
115.8139341823342
 11
469.8137055369194
 21
115.7614577294042
  0
ARC
  8
1
  6
CONTINUOUS
 62
     7
 10
462.5
 20
113.4056752014031
 40
7.683749084919416
 50
9.740625098613066
 51
17.85401924936621
  0
ARC
  8
1
  6
CONTINUOUS
 62
     7
 10
467.0536095253207
 20
114.1323662066658
 40
3.073315940230979
 50
358.1605363943288
 51
10.7511708528279
  0
POLYLINE
  8
1
  6
CONTINUOUS
 62
     7
 66
     1
  0
VERTEX
  8
1
  6
CONTINUOUS
 62
     7
 10
470.1253417505003
 20
114.033715280308
  0
VERTEX
  8
1
  6
CONTINUOUS
 62
     7
 10
470.1023071223904
 20
113.9299095093268
  0
VERTEX
  8
1
  6
CONTINUOUS
 62
     7
 10
470.0729782780621
 20
113.9056752014031
  0
SEQEND
  8
1
  6
CONTINUOUS
 62
     7
  0
LINE
  8
1
  6
CONTINUOUS
 62
     7
 10
470.0729782780621
 20
113.9056752014031
 11
469.8137055369194
 21
113.9056752014031
  0
LINE
  8
1
  6
CONTINUOUS
 62
     7
 10
469.8137055369194
 20
113.9056752014031
 11
469.8137055369194
 21
112.905675201403
  0
LINE
  8
1
  6
CONTINUOUS
 62
     7
 10
469.8137055369194
 20
112.9056752014031
 11
470.0729782780621
 21
112.9056752014031
  0
LINE
  8
1
  6
CONTINUOUS
 62
     7
 10
470.0729782780621
 20
112.9056752014031
 11
470.1204212518997
 21
112.8169913905494
  0
ARC
  8
1
  6
CONTINUOUS
 62
     7
 10
467.3630955833173
 20
112.6436577160471
 40
2.762768431363768
 50
348.771289273009
 51
3.597049504237987
  0
ARC
  8
1
  6
CONTINUOUS
 62
     7
 10
462.5
 20
113.4056752014031
 40
7.683749084919417
 50
342.1459807506332
 51
350.2593749013868
  0
LINE
  8
1
  6
CONTINUOUS
 62
     7
 10
469.8137055369194
 20
111.0498926734019
 11
469.8137055369194
 21
110.9974162204719
  0
LINE
  8
1
  6
CONTINUOUS
 62
     7
 10
459.1000000000001
 20
110.9056752014031
 11
459.1000000000001
 21
113.4056752014031
  0
LINE
  8
1
  6
CONTINUOUS
 62
     7
 10
459.1000000000001
 20
113.4056752014031
 11
459.1000000000001
 21
115.9056752014031
  0
LINE
  8
1
  6
CONTINUOUS
 62
     7
 10
352.5522732492588
 20
119.3056752014031
 11
352.5522732492588
 21
107.5056752014031
  0
LINE
  8
1
  6
CONTINUOUS
 62
     7
 10
352.9
 20
119.2616322832991
 11
352.9
 21
116.6556752014031
  0
LINE
  8
1
  6
CONTINUOUS
 62
     7
 10
350.1862944630807
 20
115.8139341823342
 11
350.1862944630807
 21
115.7614577294042
  0
LINE
  8
1
  6
CONTINUOUS
 62
     7
 10
350.1862944630807
 20
111.0498926734019
 11
350.1862944630807
 21
110.9974162204719
  0
ARC
  8
1
  6
CONTINUOUS
 62
     7
 10
357.5000000000001
 20
113.4056752014031
 40
7.683749084919417
 50
189.7406250986132
 51
197.8540192493667
  0
LINE
  8
1
  6
CONTINUOUS
 62
     7
 10
349.9270217219379
 20
112.9056752014031
 11
349.8795787481003
 21
112.8169913905494
  0
ARC
  8
1
  6
CONTINUOUS
 62
     7
 10
352.6369044166827
 20
112.6436577160471
 40
2.762768431363768
 50
176.402950495762
 51
191.228710726991
  0
LINE
  8
1
  6
CONTINUOUS
 62
     7
 10
350.1862944630806
 20
112.9056752014031
 11
349.9270217219379
 21
112.9056752014031
  0
LINE
  8
1
  6
CONTINUOUS
 62
     7
 10
350.1862944630807
 20
113.9056752014031
 11
350.1862944630807
 21
112.905675201403
  0
LINE
  8
1
  6
CONTINUOUS
 62
     7
 10
349.9270217219379
 20
113.9056752014031
 11
350.1862944630807
 21
113.9056752014031
  0
ARC
  8
1
  6
CONTINUOUS
 62
     7
 10
352.9463904746793
 20
114.1323662066658
 40
3.073315940230979
 50
169.2488291471721
 51
181.8394636056711
  0
POLYLINE
  8
1
  6
CONTINUOUS
 62
     7
 66
     1
  0
VERTEX
  8
1
  6
CONTINUOUS
 62
     7
 10
349.8746582494998
 20
114.033715280308
  0
VERTEX
  8
1
  6
CONTINUOUS
 62
     7
 10
349.8976928776096
 20
113.9299095093268
  0
VERTEX
  8
1
  6
CONTINUOUS
 62
     7
 10
349.9270217219379
 20
113.9056752014031
  0
SEQEND
  8
1
  6
CONTINUOUS
 62
     7
  0
ARC
  8
1
  6
CONTINUOUS
 62
     7
 10
357.5000000000001
 20
113.4056752014031
 40
7.683749084919416
 50
162.1459807506338
 51
170.259374901387
  0
LINE
  8
1
  6
CONTINUOUS
 62
     7
 10
360.9
 20
110.9056752014031
 11
360.9
 21
113.4056752014031
  0
LINE
  8
1
  6
CONTINUOUS
 62
     7
 10
360.9
 20
113.4056752014031
 11
360.9
 21
115.9056752014031
  0
LINE
  8
1
  6
CONTINUOUS
 62
     7
 10
467.4477267507412
 20
133.6919832381186
 11
467.4477267507412
 21
121.8919832381186
  0
LINE
  8
1
  6
CONTINUOUS
 62
     7
 10
467.1
 20
133.6479403200145
 11
467.1
 21
131.0419832381185
  0
LINE
  8
1
  6
CONTINUOUS
 62
     7
 10
469.8137055369194
 20
130.2002422190497
 11
469.8137055369194
 21
130.1477657661197
  0
ARC
  8
1
  6
CONTINUOUS
 62
     7
 10
462.5
 20
127.7919832381185
 40
7.683749084919417
 50
9.740625098613009
 51
17.85401924936621
  0
ARC
  8
1
  6
CONTINUOUS
 62
     7
 10
467.0536095253218
 20
128.5186742433813
 40
3.0733159402299
 50
358.1605363943267
 51
10.75117085283011
  0
POLYLINE
  8
1
  6
CONTINUOUS
 62
     7
 66
     1
  0
VERTEX
  8
1
  6
CONTINUOUS
 62
     7
 10
470.1253417505002
 20
128.4200233170235
  0
VERTEX
  8
1
  6
CONTINUOUS
 62
     7
 10
470.1023071223904
 20
128.3162175460423
  0
VERTEX
  8
1
  6
CONTINUOUS
 62
     7
 10
470.0729782780621
 20
128.2919832381185
  0
SEQEND
  8
1
  6
CONTINUOUS
 62
     7
  0
LINE
  8
1
  6
CONTINUOUS
 62
     7
 10
470.0729782780621
 20
128.2919832381185
 11
469.8137055369194
 21
128.2919832381185
  0
LINE
  8
1
  6
CONTINUOUS
 62
     7
 10
469.8137055369194
 20
128.2919832381185
 11
469.8137055369194
 21
127.2919832381185
  0
LINE
  8
1
  6
CONTINUOUS
 62
     7
 10
469.8137055369194
 20
127.2919832381185
 11
470.0729782780621
 21
127.2919832381185
  0
LINE
  8
1
  6
CONTINUOUS
 62
     7
 10
470.0729782780621
 20
127.2919832381185
 11
470.1204212518997
 21
127.2032994272649
  0
ARC
  8
1
  6
CONTINUOUS
 62
     7
 10
467.3630955833169
 20
127.0299657527626
 40
2.762768431364128
 50
348.7712892730105
 51
3.597049504237361
  0
ARC
  8
1
  6
CONTINUOUS
 62
     7
 10
462.5
 20
127.7919832381185
 40
7.683749084919417
 50
342.1459807506332
 51
350.2593749013868
  0
LINE
  8
1
  6
CONTINUOUS
 62
     7
 10
469.8137055369194
 20
125.4362007101174
 11
469.8137055369194
 21
125.3837242571874
  0
LINE
  8
1
  6
CONTINUOUS
 62
     7
 10
459.1
 20
125.2919832381185
 11
459.1
 21
127.7919832381185
  0
LINE
  8
1
  6
CONTINUOUS
 62
     7
 10
459.1
 20
127.7919832381185
 11
459.1
 21
130.2919832381185
  0
LINE
  8
1
  6
CONTINUOUS
 62
     7
 10
352.5522732492589
 20
133.6919832381186
 11
352.5522732492589
 21
121.8919832381186
  0
LINE
  8
1
  6
CONTINUOUS
 62
     7
 10
352.9
 20
133.6479403200145
 11
352.9
 21
131.0419832381185
  0
LINE
  8
1
  6
CONTINUOUS
 62
     7
 10
350.1862944630807
 20
130.2002422190497
 11
350.1862944630807
 21
130.1477657661197
  0
LINE
  8
1
  6
CONTINUOUS
 62
     7
 10
350.1862944630807
 20
125.4362007101174
 11
350.1862944630807
 21
125.3837242571874
  0
ARC
  8
1
  6
CONTINUOUS
 62
     7
 10
357.5000000000001
 20
127.7919832381185
 40
7.683749084919417
 50
189.7406250986132
 51
197.8540192493667
  0
LINE
  8
1
  6
CONTINUOUS
 62
     7
 10
349.9270217219379
 20
127.2919832381185
 11
349.8795787481003
 21
127.2032994272649
  0
ARC
  8
1
  6
CONTINUOUS
 62
     7
 10
352.6369044166819
 20
127.0299657527625
 40
2.762768431362899
 50
176.4029504957597
 51
191.2287107269932
  0
LINE
  8
1
  6
CONTINUOUS
 62
     7
 10
350.1862944630807
 20
127.2919832381185
 11
349.9270217219379
 21
127.2919832381185
  0
LINE
  8
1
  6
CONTINUOUS
 62
     7
 10
350.1862944630807
 20
128.2919832381185
 11
350.1862944630807
 21
127.2919832381185
  0
LINE
  8
1
  6
CONTINUOUS
 62
     7
 10
349.9270217219379
 20
128.2919832381185
 11
350.1862944630807
 21
128.2919832381185
  0
ARC
  8
1
  6
CONTINUOUS
 62
     7
 10
352.9463904746794
 20
128.5186742433812
 40
3.073315940231041
 50
169.2488291471722
 51
181.8394636056709
  0
POLYLINE
  8
1
  6
CONTINUOUS
 62
     7
 66
     1
  0
VERTEX
  8
1
  6
CONTINUOUS
 62
     7
 10
349.8746582494998
 20
128.4200233170235
  0
VERTEX
  8
1
  6
CONTINUOUS
 62
     7
 10
349.8976928776096
 20
128.3162175460423
  0
VERTEX
  8
1
  6
CONTINUOUS
 62
     7
 10
349.9270217219379
 20
128.2919832381185
  0
SEQEND
  8
1
  6
CONTINUOUS
 62
     7
  0
ARC
  8
1
  6
CONTINUOUS
 62
     7
 10
357.5000000000001
 20
127.7919832381185
 40
7.683749084919417
 50
162.1459807506338
 51
170.259374901387
  0
LINE
  8
1
  6
CONTINUOUS
 62
     7
 10
360.9
 20
125.2919832381185
 11
360.9
 21
127.7919832381185
  0
LINE
  8
1
  6
CONTINUOUS
 62
     7
 10
360.9
 20
127.7919832381185
 11
360.9
 21
130.2919832381185
  0
LINE
  8
1
  6
CONTINUOUS
 62
     7
 10
467.1
 20
122.1556752014031
 11
465.5
 21
122.1556752014031
  0
LINE
  8
1
  6
CONTINUOUS
 62
     7
 10
467.1
 20
124.1556752014031
 11
467.1
 21
122.1556752014031
  0
LINE
  8
1
  6
CONTINUOUS
 62
     7
 10
465.5
 20
122.1556752014031
 11
465.5
 21
124.1556752014031
  0
LINE
  8
1
  6
CONTINUOUS
 62
     7
 10
465.5
 20
131.0419832381185
 11
467.1
 21
131.0419832381185
  0
LINE
  8
1
  6
CONTINUOUS
 62
     7
 10
467.1
 20
131.0419832381185
 11
467.1
 21
129.0419832381185
  0
LINE
  8
1
  6
CONTINUOUS
 62
     7
 10
465.5
 20
129.0419832381185
 11
465.5
 21
131.0419832381185
  0
LINE
  8
1
  6
CONTINUOUS
 62
     7
 10
467.1
 20
136.5419832381185
 11
465.5
 21
136.5419832381185
  0
LINE
  8
1
  6
CONTINUOUS
 62
     7
 10
467.1
 20
138.5419832381185
 11
467.1
 21
136.5419832381185
  0
LINE
  8
1
  6
CONTINUOUS
 62
     7
 10
465.5
 20
136.5419832381185
 11
465.5
 21
138.5419832381185
  0
LINE
  8
1
  6
CONTINUOUS
 62
     7
 10
465.5
 20
116.6556752014031
 11
467.1
 21
116.6556752014031
  0
LINE
  8
1
  6
CONTINUOUS
 62
     7
 10
467.1
 20
116.6556752014031
 11
467.1
 21
114.6556752014031
  0
LINE
  8
1
  6
CONTINUOUS
 62
     7
 10
465.5
 20
114.6556752014031
 11
465.5
 21
116.6556752014031
  0
LINE
  8
1
  6
CONTINUOUS
 62
     7
 10
467.1
 20
68.79198323811853
 11
465.5
 21
68.79198323811853
  0
LINE
  8
1
  6
CONTINUOUS
 62
     7
 10
467.1
 20
88.79198323811855
 11
467.1
 21
68.79198323811853
  0
LINE
  8
1
  6
CONTINUOUS
 62
     7
 10
465.5
 20
68.79198323811853
 11
465.5
 21
88.79198323811855
  0
LINE
  8
1
  6
CONTINUOUS
 62
     7
 10
352.9
 20
88.79198323811855
 11
352.9
 21
114.6556752014031
  0
LINE
  8
1
  6
CONTINUOUS
 62
     7
 10
354.5000000000001
 20
114.6556752014031
 11
354.5000000000001
 21
88.79198323811853
  0
LINE
  8
1
  6
CONTINUOUS
 62
     7
 10
352.9
 20
116.6556752014031
 11
354.5000000000001
 21
116.6556752014031
  0
LINE
  8
1
  6
CONTINUOUS
 62
     7
 10
354.5000000000001
 20
116.6556752014031
 11
354.5000000000001
 21
114.6556752014031
  0
LINE
  8
1
  6
CONTINUOUS
 62
     7
 10
352.9
 20
114.6556752014031
 11
352.9
 21
116.6556752014031
  0
LINE
  8
1
  6
CONTINUOUS
 62
     7
 10
467.1
 20
114.6556752014031
 11
467.1
 21
88.79198323811853
  0
LINE
  8
1
  6
CONTINUOUS
 62
     7
 10
465.5
 20
88.79198323811855
 11
465.5
 21
114.6556752014031
  0
ARC
  8
1
  6
CONTINUOUS
 62
     7
 10
463.5
 20
142.5985302992115
 40
2.000000000000001
 50
0.0
 51
65.00000000000011
  0
LINE
  8
1
  6
CONTINUOUS
 62
     7
 10
464.3452365234814
 20
144.4111458732849
 11
410.8452365234814
 21
169.3586055845773
  0
ARC
  8
1
  6
CONTINUOUS
 62
     7
 10
410.0
 20
167.545990010504
 40
1.999999999999999
 50
64.99999999999989
 51
115.0
  0
LINE
  8
1
  6
CONTINUOUS
 62
     7
 10
409.1547634765186
 20
169.3586055845773
 11
355.6547634765186
 21
144.4111458732849
  0
ARC
  8
1
  6
CONTINUOUS
 62
     7
 10
356.5000000000001
 20
142.5985302992116
 40
2.000000000000002
 50
114.9999999999998
 51
180.0
  0
LINE
  8
1
  6
CONTINUOUS
 62
     7
 10
354.5000000000001
 20
142.5985302992116
 11
354.5000000000001
 21
138.5419832381185
  0
LINE
  8
1
  6
CONTINUOUS
 62
     7
 10
352.9
 20
138.5419832381185
 11
352.9
 21
142.9807724556961
  0
ARC
  8
1
  6
CONTINUOUS
 62
     7
 10
410.0
 20
168.2080167618815
 40
2.999999999999996
 50
65.00000000000001
 51
115.0000000000002
  0
ARC
  8
1
  6
CONTINUOUS
 62
     7
 10
464.1
 20
142.980772455696
 40
3.000000000000003
 50
0.0
 51
65.00000000000009
  0
LINE
  8
1
  6
CONTINUOUS
 62
     7
 10
411.2678547852221
 20
170.9269401229914
 11
465.3678547852221
 21
145.699695816806
  0
LINE
  8
1
  6
CONTINUOUS
 62
     7
 10
354.6321452147779
 20
145.699695816806
 11
408.7321452147779
 21
170.9269401229914
  0
ARC
  8
1
  6
CONTINUOUS
 62
     7
 10
355.9
 20
142.980772455696
 40
3.000000000000001
 50
115.0
 51
180.0
  0
LINE
  8
1
  6
CONTINUOUS
 62
     7
 10
467.1
 20
142.980772455696
 11
467.1
 21
138.5419832381185
  0
LINE
  8
1
  6
CONTINUOUS
 62
     7
 10
465.5
 20
138.5419832381185
 11
465.5
 21
142.5985302992115
  0
LINE
  8
1
  6
CONTINUOUS
 62
     7
 10
354.5000000000001
 20
136.5419832381185
 11
352.9
 21
136.5419832381185
  0
LINE
  8
1
  6
CONTINUOUS
 62
     7
 10
352.9
 20
136.5419832381185
 11
352.9
 21
138.5419832381185
  0
LINE
  8
1
  6
CONTINUOUS
 62
     7
 10
354.5000000000001
 20
138.5419832381185
 11
354.5000000000001
 21
136.5419832381185
  0
LINE
  8
1
  6
CONTINUOUS
 62
     7
 10
354.5000000000001
 20
122.1556752014031
 11
352.9
 21
122.1556752014031
  0
LINE
  8
1
  6
CONTINUOUS
 62
     7
 10
354.5000000000001
 20
124.1556752014031
 11
354.5000000000001
 21
122.1556752014031
  0
LINE
  8
1
  6
CONTINUOUS
 62
     7
 10
352.9
 20
122.1556752014031
 11
352.9
 21
124.1556752014031
  0
LINE
  8
1
  6
CONTINUOUS
 62
     7
 10
354.5000000000001
 20
68.79198323811855
 11
352.9
 21
68.79198323811855
  0
LINE
  8
1
  6
CONTINUOUS
 62
     7
 10
354.5000000000001
 20
88.79198323811855
 11
354.5000000000001
 21
68.79198323811853
  0
LINE
  8
1
  6
CONTINUOUS
 62
     7
 10
352.9
 20
68.79198323811853
 11
352.9
 21
88.79198323811855
  0
LINE
  8
1
  6
CONTINUOUS
 62
     7
 10
352.9
 20
131.0419832381185
 11
354.5000000000001
 21
131.0419832381185
  0
LINE
  8
1
  6
CONTINUOUS
 62
     7
 10
354.5000000000001
 20
131.0419832381185
 11
354.5000000000001
 21
129.0419832381185
  0
LINE
  8
1
  6
CONTINUOUS
 62
     7
 10
352.9
 20
129.0419832381185
 11
352.9
 21
131.0419832381185
  0
LINE
  8
1
  6
CONTINUOUS
 62
     7
 10
467.1
 20
129.0419832381185
 11
467.1
 21
124.1556752014031
  0
LINE
  8
1
  6
CONTINUOUS
 62
     7
 10
465.5
 20
124.1556752014031
 11
465.5
 21
129.0419832381185
  0
LINE
  8
1
  6
CONTINUOUS
 62
     7
 10
354.5000000000001
 20
129.0419832381185
 11
354.5000000000001
 21
124.1556752014031
  0
LINE
  8
1
  6
CONTINUOUS
 62
     7
 10
352.9
 20
124.1556752014031
 11
352.9
 21
129.0419832381185
  0
LINE
  8
1
  6
CONTINUOUS
 62
     7
 10
467.1
 20
120.8917048916889
 11
467.1
 21
122.1556752014031
  0
LINE
  8
1
  6
CONTINUOUS
 62
     7
 10
465.5
 20
122.1556752014031
 11
465.5
 21
120.8917048916889
  0
LINE
  8
1
  6
CONTINUOUS
 62
     7
 10
354.5000000000001
 20
120.8917048916889
 11
354.5000000000001
 21
122.1556752014031
  0
LINE
  8
1
  6
CONTINUOUS
 62
     7
 10
352.9
 20
122.1556752014031
 11
352.9
 21
120.8917048916889
  0
LINE
  8
1
  6
CONTINUOUS
 62
     7
 10
467.1
 20
120.8917048916889
 11
467.1
 21
119.3056752014031
  0
LINE
  8
1
  6
CONTINUOUS
 62
     7
 10
465.5
 20
116.6556752014031
 11
465.5
 21
120.8917048916889
  0
LINE
  8
1
  6
CONTINUOUS
 62
     7
 10
354.5000000000001
 20
120.8917048916889
 11
354.5000000000001
 21
116.6556752014031
  0
LINE
  8
1
  6
CONTINUOUS
 62
     7
 10
352.9
 20
119.2616322832991
 11
352.9
 21
120.8917048916889
  0
LINE
  8
1
  6
CONTINUOUS
 62
     7
 10
354.5000000000001
 20
135.2780129284044
 11
354.5000000000001
 21
136.5419832381185
  0
LINE
  8
1
  6
CONTINUOUS
 62
     7
 10
352.9
 20
136.5419832381185
 11
352.9
 21
135.2780129284044
  0
LINE
  8
1
  6
CONTINUOUS
 62
     7
 10
467.1
 20
135.2780129284044
 11
467.1
 21
136.5419832381185
  0
LINE
  8
1
  6
CONTINUOUS
 62
     7
 10
465.5
 20
136.5419832381185
 11
465.5
 21
135.2780129284044
  0
LINE
  8
1
  6
CONTINUOUS
 62
     7
 10
354.5000000000001
 20
135.2780129284044
 11
354.5000000000001
 21
131.0419832381185
  0
LINE
  8
1
  6
CONTINUOUS
 62
     7
 10
352.9
 20
133.6479403200145
 11
352.9
 21
135.2780129284044
  0
LINE
  8
1
  6
CONTINUOUS
 62
     7
 10
467.1
 20
135.2780129284044
 11
467.1
 21
133.6919832381186
  0
LINE
  8
1
  6
CONTINUOUS
 62
     7
 10
465.5
 20
131.0419832381185
 11
465.5
 21
135.2780129284044
  0
ARC
  8
1
  6
CONTINUOUS
 62
     7
 10
464.9573593128808
 20
99.94198323811852
 40
2.762741699796981
 50
112.2490236572132
 51
247.7509763427856
  0
ARC
  8
1
  6
CONTINUOUS
 62
     7
 10
355.0426406871192
 20
99.94198323811852
 40
2.762741699796983
 50
292.2490236572144
 51
67.75097634278677
  0
LINE
  8
1
  6
CONTINUOUS
 62
     7
 10
434.709955703841
 20
157.6786153115758
 11
434.6562899856095
 21
156.5617551084383
  0
POLYLINE
  8
1
  6
CONTINUOUS
 62
     7
 66
     1
  0
VERTEX
  8
1
  6
CONTINUOUS
 62
     7
 10
434.9212648347114
 20
158.1317692050942
  0
VERTEX
  8
1
  6
CONTINUOUS
 62
     7
 10
434.9121373819903
 20
158.1353608726847
  0
VERTEX
  8
1
  6
CONTINUOUS
 62
     7
 10
434.9029694552971
 20
158.1376439474921
  0
VERTEX
  8
1
  6
CONTINUOUS
 62
     7
 10
434.8937831409701
 20
158.1386129293893
  0
VERTEX
  8
1
  6
CONTINUOUS
 62
     7
 10
434.8846005696452
 20
158.1382654840141
  0
VERTEX
  8
1
  6
CONTINUOUS
 62
     7
 10
434.8754438629412
 20
158.1366024483927
  0
VERTEX
  8
1
  6
CONTINUOUS
 62
     7
 10
434.8663350801662
 20
158.1336278289236
  0
VERTEX
  8
1
  6
CONTINUOUS
 62
     7
 10
434.857296165176
 20
158.1293487917258
  0
VERTEX
  8
1
  6
CONTINUOUS
 62
     7
 10
434.8483488935086
 20
158.1237756453746
  0
VERTEX
  8
1
  6
CONTINUOUS
 62
     7
 10
434.8395148199248
 20
158.1169218160676
  0
VERTEX
  8
1
  6
CONTINUOUS
 62
     7
 10
434.8308152264819
 20
158.1088038152801
  0
VERTEX
  8
1
  6
CONTINUOUS
 62
     7
 10
434.8222710712626
 20
158.099441199987
  0
VERTEX
  8
1
  6
CONTINUOUS
 62
     7
 10
434.813902937885
 20
158.0888565255486
  0
VERTEX
  8
1
  6
CONTINUOUS
 62
     7
 10
434.8057309859153
 20
158.0770752913727
  0
VERTEX
  8
1
  6
CONTINUOUS
 62
     7
 10
434.7977749023018
 20
158.0641258794844
  0
VERTEX
  8
1
  6
CONTINUOUS
 62
     7
 10
434.7900538539466
 20
158.0500394861511
  0
VERTEX
  8
1
  6
CONTINUOUS
 62
     7
 10
434.7825864415316
 20
158.0348500467282
  0
VERTEX
  8
1
  6
CONTINUOUS
 62
     7
 10
434.7753906547075
 20
158.0185941539057
  0
VERTEX
  8
1
  6
CONTINUOUS
 62
     7
 10
434.7684838287547
 20
158.0013109695533
  0
VERTEX
  8
1
  6
CONTINUOUS
 62
     7
 10
434.761882602822
 20
157.9830421303759
  0
VERTEX
  8
1
  6
CONTINUOUS
 62
     7
 10
434.755602879841
 20
157.9638316476072
  0
VERTEX
  8
1
  6
CONTINUOUS
 62
     7
 10
434.7496597882143
 20
157.9437258009829
  0
VERTEX
  8
1
  6
CONTINUOUS
 62
     7
 10
434.7440676453703
 20
157.9227730272486
  0
VERTEX
  8
1
  6
CONTINUOUS
 62
     7
 10
434.7388399232707
 20
157.9010238034714
  0
VERTEX
  8
1
  6
CONTINUOUS
 62
     7
 10
434.7339892159562
 20
157.8785305254364
  0
VERTEX
  8
1
  6
CONTINUOUS
 62
     7
 10
434.7295272092054
 20
157.8553473814205
  0
VERTEX
  8
1
  6
CONTINUOUS
 62
     7
 10
434.7254646523835
 20
157.8315302216484
  0
VERTEX
  8
1
  6
CONTINUOUS
 62
     7
 10
434.7218113325456
 20
157.8071364237441
  0
VERTEX
  8
1
  6
CONTINUOUS
 62
     7
 10
434.7185760508593
 20
157.7822247545032
  0
VERTEX
  8
1
  6
CONTINUOUS
 62
     7
 10
434.7157666014014
 20
157.7568552283192
  0
VERTEX
  8
1
  6
CONTINUOUS
 62
     7
 10
434.7133897523819
 20
157.7310889626025
  0
VERTEX
  8
1
  6
CONTINUOUS
 62
     7
 10
434.7114512298383
 20
157.7049880305442
  0
VERTEX
  8
1
  6
CONTINUOUS
 62
     7
 10
434.709955703841
 20
157.6786153115758
  0
SEQEND
  8
1
  6
CONTINUOUS
 62
     7
  0
POLYLINE
  8
1
  6
CONTINUOUS
 62
     7
 66
     1
  0
VERTEX
  8
1
  6
CONTINUOUS
 62
     7
 10
440.152201043654
 20
155.1408546320627
  0
VERTEX
  8
1
  6
CONTINUOUS
 62
     7
 10
440.1714424128886
 20
155.1589523284291
  0
VERTEX
  8
1
  6
CONTINUOUS
 62
     7
 10
440.1901908285799
 20
155.1772146785798
  0
VERTEX
  8
1
  6
CONTINUOUS
 62
     7
 10
440.2084011241523
 20
155.1955976869139
  0
VERTEX
  8
1
  6
CONTINUOUS
 62
     7
 10
440.2260294294086
 20
155.214057067154
  0
VERTEX
  8
1
  6
CONTINUOUS
 62
     7
 10
440.2430332762176
 20
155.2325483490364
  0
VERTEX
  8
1
  6
CONTINUOUS
 62
     7
 10
440.2593717008228
 20
155.2510269854433
  0
VERTEX
  8
1
  6
CONTINUOUS
 62
     7
 10
440.2750053425283
 20
155.269448459721
  0
VERTEX
  8
1
  6
CONTINUOUS
 62
     7
 10
440.2898965385219
 20
155.2877683929246
  0
VERTEX
  8
1
  6
CONTINUOUS
 62
     7
 10
440.3040094146081
 20
155.3059426507302
  0
VERTEX
  8
1
  6
CONTINUOUS
 62
     7
 10
440.3173099716324
 20
155.323927449759
  0
VERTEX
  8
1
  6
CONTINUOUS
 62
     7
 10
440.3297661673877
 20
155.3416794630548
  0
VERTEX
  8
1
  6
CONTINUOUS
 62
     7
 10
440.3413479938076
 20
155.3591559244628
  0
VERTEX
  8
1
  6
CONTINUOUS
 62
     7
 10
440.3520275492577
 20
155.3763147316565
  0
VERTEX
  8
1
  6
CONTINUOUS
 62
     7
 10
440.3617791057536
 20
155.3931145475665
  0
VERTEX
  8
1
  6
CONTINUOUS
 62
     7
 10
440.3705791709415
 20
155.4095148999649
  0
VERTEX
  8
1
  6
CONTINUOUS
 62
     7
 10
440.3784065446935
 20
155.4254762789662
  0
VERTEX
  8
1
  6
CONTINUOUS
 62
     7
 10
440.3852423701807
 20
155.4409602322103
  0
VERTEX
  8
1
  6
CONTINUOUS
 62
     7
 10
440.3910701793008
 20
155.4559294574976
  0
VERTEX
  8
1
  6
CONTINUOUS
 62
     7
 10
440.3958759323511
 20
155.4703478926533
  0
VERTEX
  8
1
  6
CONTINUOUS
 62
     7
 10
440.3996480518516
 20
155.4841808024041
  0
VERTEX
  8
1
  6
CONTINUOUS
 62
     7
 10
440.4023774504359
 20
155.4973948620589
  0
VERTEX
  8
1
  6
CONTINUOUS
 62
     7
 10
440.4040575527441
 20
155.5099582377906
  0
VERTEX
  8
1
  6
CONTINUOUS
 62
     7
 10
440.4046843112622
 20
155.5218406633265
  0
VERTEX
  8
1
  6
CONTINUOUS
 62
     7
 10
440.4042562160742
 20
155.5330135128627
  0
VERTEX
  8
1
  6
CONTINUOUS
 62
     7
 10
440.4027742984989
 20
155.5434498700263
  0
VERTEX
  8
1
  6
CONTINUOUS
 62
     7
 10
440.4002421286055
 20
155.5531245927185
  0
VERTEX
  8
1
  6
CONTINUOUS
 62
     7
 10
440.3966658066131
 20
155.562014373685
  0
VERTEX
  8
1
  6
CONTINUOUS
 62
     7
 10
440.3920539481946
 20
155.5700977966649
  0
VERTEX
  8
1
  6
CONTINUOUS
 62
     7
 10
440.3864176637209
 20
155.5773553879841
  0
VERTEX
  8
1
  6
CONTINUOUS
 62
     7
 10
440.379770531495
 20
155.5837696634694
  0
VERTEX
  8
1
  6
CONTINUOUS
 62
     7
 10
440.3721285650407
 20
155.5893251705695
  0
VERTEX
  8
1
  6
CONTINUOUS
 62
     7
 10
440.3635101745243
 20
155.594008525581
  0
SEQEND
  8
1
  6
CONTINUOUS
 62
     7
  0
LINE
  8
1
  6
CONTINUOUS
 62
     7
 10
439.3311321500437
 20
154.3818404064967
 11
440.1522010436539
 21
155.1408546320627
  0
POLYLINE
  8
1
  6
CONTINUOUS
 62
     7
 66
     1
  0
VERTEX
  8
1
  6
CONTINUOUS
 62
     7
 10
385.290044296159
 20
157.6786153115759
  0
VERTEX
  8
1
  6
CONTINUOUS
 62
     7
 10
385.2885487701618
 20
157.7049880305442
  0
VERTEX
  8
1
  6
CONTINUOUS
 62
     7
 10
385.2866102476181
 20
157.7310889626025
  0
VERTEX
  8
1
  6
CONTINUOUS
 62
     7
 10
385.2842333985986
 20
157.7568552283192
  0
VERTEX
  8
1
  6
CONTINUOUS
 62
     7
 10
385.2814239491408
 20
157.7822247545033
  0
VERTEX
  8
1
  6
CONTINUOUS
 62
     7
 10
385.2781886674545
 20
157.8071364237441
  0
VERTEX
  8
1
  6
CONTINUOUS
 62
     7
 10
385.2745353476166
 20
157.8315302216485
  0
VERTEX
  8
1
  6
CONTINUOUS
 62
     7
 10
385.2704727907946
 20
157.8553473814206
  0
VERTEX
  8
1
  6
CONTINUOUS
 62
     7
 10
385.2660107840438
 20
157.8785305254364
  0
VERTEX
  8
1
  6
CONTINUOUS
 62
     7
 10
385.2611600767293
 20
157.9010238034714
  0
VERTEX
  8
1
  6
CONTINUOUS
 62
     7
 10
385.2559323546297
 20
157.9227730272486
  0
VERTEX
  8
1
  6
CONTINUOUS
 62
     7
 10
385.2503402117857
 20
157.943725800983
  0
VERTEX
  8
1
  6
CONTINUOUS
 62
     7
 10
385.244397120159
 20
157.9638316476073
  0
VERTEX
  8
1
  6
CONTINUOUS
 62
     7
 10
385.238117397178
 20
157.9830421303759
  0
VERTEX
  8
1
  6
CONTINUOUS
 62
     7
 10
385.2315161712454
 20
158.0013109695533
  0
VERTEX
  8
1
  6
CONTINUOUS
 62
     7
 10
385.2246093452926
 20
158.0185941539057
  0
VERTEX
  8
1
  6
CONTINUOUS
 62
     7
 10
385.2174135584684
 20
158.0348500467282
  0
VERTEX
  8
1
  6
CONTINUOUS
 62
     7
 10
385.2099461460534
 20
158.0500394861511
  0
VERTEX
  8
1
  6
CONTINUOUS
 62
     7
 10
385.2022250976983
 20
158.0641258794844
  0
VERTEX
  8
1
  6
CONTINUOUS
 62
     7
 10
385.1942690140847
 20
158.0770752913727
  0
VERTEX
  8
1
  6
CONTINUOUS
 62
     7
 10
385.1860970621151
 20
158.0888565255486
  0
VERTEX
  8
1
  6
CONTINUOUS
 62
     7
 10
385.1777289287375
 20
158.099441199987
  0
VERTEX
  8
1
  6
CONTINUOUS
 62
     7
 10
385.1691847735181
 20
158.1088038152802
  0
VERTEX
  8
1
  6
CONTINUOUS
 62
     7
 10
385.1604851800752
 20
158.1169218160677
  0
VERTEX
  8
1
  6
CONTINUOUS
 62
     7
 10
385.1516511064915
 20
158.1237756453746
  0
VERTEX
  8
1
  6
CONTINUOUS
 62
     7
 10
385.142703834824
 20
158.1293487917258
  0
VERTEX
  8
1
  6
CONTINUOUS
 62
     7
 10
385.1336649198338
 20
158.1336278289237
  0
VERTEX
  8
1
  6
CONTINUOUS
 62
     7
 10
385.1245561370589
 20
158.1366024483927
  0
VERTEX
  8
1
  6
CONTINUOUS
 62
     7
 10
385.1153994303548
 20
158.1382654840141
  0
VERTEX
  8
1
  6
CONTINUOUS
 62
     7
 10
385.1062168590299
 20
158.1386129293894
  0
VERTEX
  8
1
  6
CONTINUOUS
 62
     7
 10
385.097030544703
 20
158.1376439474921
  0
VERTEX
  8
1
  6
CONTINUOUS
 62
     7
 10
385.0878626180098
 20
158.1353608726847
  0
VERTEX
  8
1
  6
CONTINUOUS
 62
     7
 10
385.0787351652887
 20
158.1317692050942
  0
SEQEND
  8
1
  6
CONTINUOUS
 62
     7
  0
LINE
  8
1
  6
CONTINUOUS
 62
     7
 10
385.3437100143904
 20
156.5617551084383
 11
385.290044296159
 21
157.6786153115759
  0
LINE
  8
1
  6
CONTINUOUS
 62
     7
 10
379.847798956346
 20
155.1408546320627
 11
380.6688678499563
 21
154.3818404064967
  0
POLYLINE
  8
1
  6
CONTINUOUS
 62
     7
 66
     1
  0
VERTEX
  8
1
  6
CONTINUOUS
 62
     7
 10
379.6364898254757
 20
155.594008525581
  0
VERTEX
  8
1
  6
CONTINUOUS
 62
     7
 10
379.6278714349593
 20
155.5893251705695
  0
VERTEX
  8
1
  6
CONTINUOUS
 62
     7
 10
379.620229468505
 20
155.5837696634694
  0
VERTEX
  8
1
  6
CONTINUOUS
 62
     7
 10
379.6135823362791
 20
155.5773553879841
  0
VERTEX
  8
1
  6
CONTINUOUS
 62
     7
 10
379.6079460518054
 20
155.5700977966649
  0
VERTEX
  8
1
  6
CONTINUOUS
 62
     7
 10
379.6033341933868
 20
155.562014373685
  0
VERTEX
  8
1
  6
CONTINUOUS
 62
     7
 10
379.5997578713945
 20
155.5531245927185
  0
VERTEX
  8
1
  6
CONTINUOUS
 62
     7
 10
379.5972257015011
 20
155.5434498700263
  0
VERTEX
  8
1
  6
CONTINUOUS
 62
     7
 10
379.5957437839258
 20
155.5330135128627
  0
VERTEX
  8
1
  6
CONTINUOUS
 62
     7
 10
379.5953156887378
 20
155.5218406633265
  0
VERTEX
  8
1
  6
CONTINUOUS
 62
     7
 10
379.5959424472559
 20
155.5099582377906
  0
VERTEX
  8
1
  6
CONTINUOUS
 62
     7
 10
379.597622549564
 20
155.4973948620589
  0
VERTEX
  8
1
  6
CONTINUOUS
 62
     7
 10
379.6003519481484
 20
155.4841808024041
  0
VERTEX
  8
1
  6
CONTINUOUS
 62
     7
 10
379.604124067649
 20
155.4703478926533
  0
VERTEX
  8
1
  6
CONTINUOUS
 62
     7
 10
379.6089298206992
 20
155.4559294574976
  0
VERTEX
  8
1
  6
CONTINUOUS
 62
     7
 10
379.6147576298193
 20
155.4409602322103
  0
VERTEX
  8
1
  6
CONTINUOUS
 62
     7
 10
379.6215934553065
 20
155.4254762789662
  0
VERTEX
  8
1
  6
CONTINUOUS
 62
     7
 10
379.6294208290586
 20
155.4095148999649
  0
VERTEX
  8
1
  6
CONTINUOUS
 62
     7
 10
379.6382208942464
 20
155.3931145475665
  0
VERTEX
  8
1
  6
CONTINUOUS
 62
     7
 10
379.6479724507423
 20
155.3763147316565
  0
VERTEX
  8
1
  6
CONTINUOUS
 62
     7
 10
379.6586520061924
 20
155.3591559244628
  0
VERTEX
  8
1
  6
CONTINUOUS
 62
     7
 10
379.6702338326123
 20
155.3416794630548
  0
VERTEX
  8
1
  6
CONTINUOUS
 62
     7
 10
379.6826900283676
 20
155.323927449759
  0
VERTEX
  8
1
  6
CONTINUOUS
 62
     7
 10
379.6959905853919
 20
155.3059426507302
  0
VERTEX
  8
1
  6
CONTINUOUS
 62
     7
 10
379.7101034614781
 20
155.2877683929246
  0
VERTEX
  8
1
  6
CONTINUOUS
 62
     7
 10
379.7249946574717
 20
155.269448459721
  0
VERTEX
  8
1
  6
CONTINUOUS
 62
     7
 10
379.7406282991772
 20
155.2510269854433
  0
VERTEX
  8
1
  6
CONTINUOUS
 62
     7
 10
379.7569667237825
 20
155.2325483490364
  0
VERTEX
  8
1
  6
CONTINUOUS
 62
     7
 10
379.7739705705914
 20
155.214057067154
  0
VERTEX
  8
1
  6
CONTINUOUS
 62
     7
 10
379.7915988758477
 20
155.1955976869139
  0
VERTEX
  8
1
  6
CONTINUOUS
 62
     7
 10
379.8098091714201
 20
155.1772146785798
  0
VERTEX
  8
1
  6
CONTINUOUS
 62
     7
 10
379.8285575871114
 20
155.1589523284291
  0
VERTEX
  8
1
  6
CONTINUOUS
 62
     7
 10
379.847798956346
 20
155.1408546320627
  0
SEQEND
  8
1
  6
CONTINUOUS
 62
     7
  0
POLYLINE
  8
1
  6
CONTINUOUS
 62
     7
 66
     1
  0
VERTEX
  8
1
  6
CONTINUOUS
 62
     7
 10
465.0
 20
96.93955656935549
  0
VERTEX
  8
1
  6
CONTINUOUS
 62
     7
 10
465.0245338371637
 20
96.92976638356474
  0
VERTEX
  8
1
  6
CONTINUOUS
 62
     7
 10
465.0490085701648
 20
96.92049255110513
  0
VERTEX
  8
1
  6
CONTINUOUS
 62
     7
 10
465.0733652372277
 20
96.91175741345137
  0
VERTEX
  8
1
  6
CONTINUOUS
 62
     7
 10
465.0975451610081
 20
96.90358201431516
  0
VERTEX
  8
1
  6
CONTINUOUS
 62
     7
 10
465.1214900899517
 20
96.89598604894913
  0
VERTEX
  8
1
  6
CONTINUOUS
 62
     7
 10
465.1451423386272
 20
96.88898781669911
  0
VERTEX
  8
1
  6
CONTINUOUS
 62
     7
 10
465.1684449266961
 20
96.88260417691964
  0
VERTEX
  8
1
  6
CONTINUOUS
 62
     7
 10
465.1913417161826
 20
96.87685050835805
  0
VERTEX
  8
1
  6
CONTINUOUS
 62
     7
 10
465.2137775467152
 20
96.87174067210587
  0
VERTEX
  8
1
  6
CONTINUOUS
 62
     7
 10
465.2356983684131
 20
96.8672869782062
  0
VERTEX
  8
1
  6
CONTINUOUS
 62
     7
 10
465.2570513720967
 20
96.86350015599773
  0
VERTEX
  8
1
  6
CONTINUOUS
 62
     7
 10
465.2777851165098
 20
96.86038932826688
  0
VERTEX
  8
1
  6
CONTINUOUS
 62
     7
 10
465.2978496522462
 20
96.85796198927008
  0
VERTEX
  8
1
  6
CONTINUOUS
 62
     7
 10
465.3171966420819
 20
96.85622398667964
  0
VERTEX
  8
1
  6
CONTINUOUS
 62
     7
 10
465.3357794774236
 20
96.855179507496
  0
VERTEX
  8
1
  6
CONTINUOUS
 62
     7
 10
465.3535533905933
 20
96.854831067961
  0
VERTEX
  8
1
  6
CONTINUOUS
 62
     7
 10
465.3704755626775
 20
96.855179507496
  0
VERTEX
  8
1
  6
CONTINUOUS
 62
     7
 10
465.3865052266814
 20
96.85622398667964
  0
VERTEX
  8
1
  6
CONTINUOUS
 62
     7
 10
465.4016037657403
 20
96.85796198927008
  0
VERTEX
  8
1
  6
CONTINUOUS
 62
     7
 10
465.4157348061512
 20
96.86038932826688
  0
VERTEX
  8
1
  6
CONTINUOUS
 62
     7
 10
465.4288643050002
 20
96.86350015599773
  0
VERTEX
  8
1
  6
CONTINUOUS
 62
     7
 10
465.4409606321742
 20
96.8672869782062
  0
VERTEX
  8
1
  6
CONTINUOUS
 62
     7
 10
465.4519946465617
 20
96.87174067210587
  0
VERTEX
  8
1
  6
CONTINUOUS
 62
     7
 10
465.4619397662556
 20
96.87685050835805
  0
VERTEX
  8
1
  6
CONTINUOUS
 62
     7
 10
465.4707720325915
 20
96.88260417691964
  0
VERTEX
  8
1
  6
CONTINUOUS
 62
     7
 10
465.4784701678661
 20
96.88898781669911
  0
VERTEX
  8
1
  6
CONTINUOUS
 62
     7
 10
465.4850156265973
 20
96.89598604894913
  0
VERTEX
  8
1
  6
CONTINUOUS
 62
     7
 10
465.4903926402017
 20
96.90358201431516
  0
VERTEX
  8
1
  6
CONTINUOUS
 62
     7
 10
465.4945882549824
 20
96.91175741345137
  0
VERTEX
  8
1
  6
CONTINUOUS
 62
     7
 10
465.4975923633361
 20
96.92049255110513
  0
VERTEX
  8
1
  6
CONTINUOUS
 62
     7
 10
465.4993977281026
 20
96.92976638356474
  0
VERTEX
  8
1
  6
CONTINUOUS
 62
     7
 10
465.5
 20
96.93955656935549
  0
SEQEND
  8
1
  6
CONTINUOUS
 62
     7
  0
LINE
  8
1
  6
CONTINUOUS
 62
     7
 10
463.9112945610959
 20
97.38493606708896
 11
465.0
 21
96.93955656935549
  0
LINE
  8
1
  6
CONTINUOUS
 62
     7
 10
355.0000000000001
 20
96.9395565693555
 11
356.0887054389041
 21
97.38493606708897
  0
POLYLINE
  8
1
  6
CONTINUOUS
 62
     7
 66
     1
  0
VERTEX
  8
1
  6
CONTINUOUS
 62
     7
 10
354.5000000000001
 20
96.9395565693555
  0
VERTEX
  8
1
  6
CONTINUOUS
 62
     7
 10
354.5006022718974
 20
96.92976638356474
  0
VERTEX
  8
1
  6
CONTINUOUS
 62
     7
 10
354.5024076366639
 20
96.92049255110513
  0
VERTEX
  8
1
  6
CONTINUOUS
 62
     7
 10
354.5054117450176
 20
96.91175741345137
  0
VERTEX
  8
1
  6
CONTINUOUS
 62
     7
 10
354.5096073597984
 20
96.90358201431518
  0
VERTEX
  8
1
  6
CONTINUOUS
 62
     7
 10
354.5149843734027
 20
96.89598604894913
  0
VERTEX
  8
1
  6
CONTINUOUS
 62
     7
 10
354.5215298321339
 20
96.88898781669913
  0
VERTEX
  8
1
  6
CONTINUOUS
 62
     7
 10
354.5292279674085
 20
96.88260417691966
  0
VERTEX
  8
1
  6
CONTINUOUS
 62
     7
 10
354.5380602337444
 20
96.87685050835805
  0
VERTEX
  8
1
  6
CONTINUOUS
 62
     7
 10
354.5480053534383
 20
96.87174067210587
  0
VERTEX
  8
1
  6
CONTINUOUS
 62
     7
 10
354.5590393678258
 20
96.8672869782062
  0
VERTEX
  8
1
  6
CONTINUOUS
 62
     7
 10
354.5711356949998
 20
96.86350015599773
  0
VERTEX
  8
1
  6
CONTINUOUS
 62
     7
 10
354.5842651938488
 20
96.86038932826688
  0
VERTEX
  8
1
  6
CONTINUOUS
 62
     7
 10
354.5983962342597
 20
96.8579619892701
  0
VERTEX
  8
1
  6
CONTINUOUS
 62
     7
 10
354.6134947733187
 20
96.85622398667964
  0
VERTEX
  8
1
  6
CONTINUOUS
 62
     7
 10
354.6295244373225
 20
96.855179507496
  0
VERTEX
  8
1
  6
CONTINUOUS
 62
     7
 10
354.6464466094067
 20
96.854831067961
  0
VERTEX
  8
1
  6
CONTINUOUS
 62
     7
 10
354.6642205225765
 20
96.855179507496
  0
VERTEX
  8
1
  6
CONTINUOUS
 62
     7
 10
354.6828033579182
 20
96.85622398667964
  0
VERTEX
  8
1
  6
CONTINUOUS
 62
     7
 10
354.7021503477538
 20
96.8579619892701
  0
VERTEX
  8
1
  6
CONTINUOUS
 62
     7
 10
354.7222148834902
 20
96.86038932826688
  0
VERTEX
  8
1
  6
CONTINUOUS
 62
     7
 10
354.7429486279034
 20
96.86350015599773
  0
VERTEX
  8
1
  6
CONTINUOUS
 62
     7
 10
354.764301631587
 20
96.8672869782062
  0
VERTEX
  8
1
  6
CONTINUOUS
 62
     7
 10
354.7862224532849
 20
96.87174067210587
  0
VERTEX
  8
1
  6
CONTINUOUS
 62
     7
 10
354.8086582838175
 20
96.87685050835806
  0
VERTEX
  8
1
  6
CONTINUOUS
 62
     7
 10
354.8315550733039
 20
96.88260417691966
  0
VERTEX
  8
1
  6
CONTINUOUS
 62
     7
 10
354.8548576613728
 20
96.88898781669913
  0
VERTEX
  8
1
  6
CONTINUOUS
 62
     7
 10
354.8785099100484
 20
96.89598604894913
  0
VERTEX
  8
1
  6
CONTINUOUS
 62
     7
 10
354.902454838992
 20
96.90358201431518
  0
VERTEX
  8
1
  6
CONTINUOUS
 62
     7
 10
354.9266347627724
 20
96.91175741345138
  0
VERTEX
  8
1
  6
CONTINUOUS
 62
     7
 10
354.9509914298352
 20
96.92049255110514
  0
VERTEX
  8
1
  6
CONTINUOUS
 62
     7
 10
354.9754661628363
 20
96.92976638356474
  0
VERTEX
  8
1
  6
CONTINUOUS
 62
     7
 10
355.0000000000001
 20
96.9395565693555
  0
SEQEND
  8
1
  6
CONTINUOUS
 62
     7
  0
LINE
  8
1
  6
CONTINUOUS
 62
     7
 10
464.0
 20
102.5353189977907
 11
463.911294561096
 21
102.4990304091481
  0
POLYLINE
  8
1
  6
CONTINUOUS
 62
     7
 66
     1
  0
VERTEX
  8
1
  6
CONTINUOUS
 62
     7
 10
465.5
 20
102.9444099068816
  0
VERTEX
  8
1
  6
CONTINUOUS
 62
     7
 10
465.4993977281026
 20
102.9542000926723
  0
VERTEX
  8
1
  6
CONTINUOUS
 62
     7
 10
465.4975923633361
 20
102.9634739251319
  0
VERTEX
  8
1
  6
CONTINUOUS
 62
     7
 10
465.4945882549824
 20
102.9722090627857
  0
VERTEX
  8
1
  6
CONTINUOUS
 62
     7
 10
465.4903926402017
 20
102.9803844619219
  0
VERTEX
  8
1
  6
CONTINUOUS
 62
     7
 10
465.4850156265973
 20
102.9879804272879
  0
VERTEX
  8
1
  6
CONTINUOUS
 62
     7
 10
465.4784701678661
 20
102.9949786595379
  0
VERTEX
  8
1
  6
CONTINUOUS
 62
     7
 10
465.4707720325915
 20
103.0013622993174
  0
VERTEX
  8
1
  6
CONTINUOUS
 62
     7
 10
465.4619397662556
 20
103.007115967879
  0
VERTEX
  8
1
  6
CONTINUOUS
 62
     7
 10
465.4519946465617
 20
103.0122258041312
  0
VERTEX
  8
1
  6
CONTINUOUS
 62
     7
 10
465.4409606321742
 20
103.0166794980309
  0
VERTEX
  8
1
  6
CONTINUOUS
 62
     7
 10
465.4288643050002
 20
103.0204663202393
  0
VERTEX
  8
1
  6
CONTINUOUS
 62
     7
 10
465.4157348061512
 20
103.0235771479702
  0
VERTEX
  8
1
  6
CONTINUOUS
 62
     7
 10
465.4016037657403
 20
103.026004486967
  0
VERTEX
  8
1
  6
CONTINUOUS
 62
     7
 10
465.3865052266814
 20
103.0277424895574
  0
VERTEX
  8
1
  6
CONTINUOUS
 62
     7
 10
465.3704755626775
 20
103.0287869687411
  0
VERTEX
  8
1
  6
CONTINUOUS
 62
     7
 10
465.3535533905933
 20
103.0291354082761
  0
VERTEX
  8
1
  6
CONTINUOUS
 62
     7
 10
465.3357794774236
 20
103.0287869687411
  0
VERTEX
  8
1
  6
CONTINUOUS
 62
     7
 10
465.3171966420818
 20
103.0277424895574
  0
VERTEX
  8
1
  6
CONTINUOUS
 62
     7
 10
465.2978496522462
 20
103.026004486967
  0
VERTEX
  8
1
  6
CONTINUOUS
 62
     7
 10
465.2777851165098
 20
103.0235771479702
  0
VERTEX
  8
1
  6
CONTINUOUS
 62
     7
 10
465.2570513720967
 20
103.0204663202393
  0
VERTEX
  8
1
  6
CONTINUOUS
 62
     7
 10
465.2356983684131
 20
103.0166794980309
  0
VERTEX
  8
1
  6
CONTINUOUS
 62
     7
 10
465.2137775467152
 20
103.0122258041312
  0
VERTEX
  8
1
  6
CONTINUOUS
 62
     7
 10
465.1913417161826
 20
103.007115967879
  0
VERTEX
  8
1
  6
CONTINUOUS
 62
     7
 10
465.1684449266961
 20
103.0013622993174
  0
VERTEX
  8
1
  6
CONTINUOUS
 62
     7
 10
465.1451423386272
 20
102.9949786595379
  0
VERTEX
  8
1
  6
CONTINUOUS
 62
     7
 10
465.1214900899516
 20
102.9879804272879
  0
VERTEX
  8
1
  6
CONTINUOUS
 62
     7
 10
465.0975451610081
 20
102.9803844619219
  0
VERTEX
  8
1
  6
CONTINUOUS
 62
     7
 10
465.0733652372277
 20
102.9722090627857
  0
VERTEX
  8
1
  6
CONTINUOUS
 62
     7
 10
465.0490085701648
 20
102.9634739251319
  0
VERTEX
  8
1
  6
CONTINUOUS
 62
     7
 10
465.0245338371637
 20
102.9542000926723
  0
VERTEX
  8
1
  6
CONTINUOUS
 62
     7
 10
465.0
 20
102.9444099068816
  0
SEQEND
  8
1
  6
CONTINUOUS
 62
     7
  0
POLYLINE
  8
1
  6
CONTINUOUS
 62
     7
 66
     1
  0
VERTEX
  8
1
  6
CONTINUOUS
 62
     7
 10
355.0000000000001
 20
102.9444099068816
  0
VERTEX
  8
1
  6
CONTINUOUS
 62
     7
 10
354.9754661628363
 20
102.9542000926723
  0
VERTEX
  8
1
  6
CONTINUOUS
 62
     7
 10
354.9509914298352
 20
102.9634739251319
  0
VERTEX
  8
1
  6
CONTINUOUS
 62
     7
 10
354.9266347627724
 20
102.9722090627857
  0
VERTEX
  8
1
  6
CONTINUOUS
 62
     7
 10
354.902454838992
 20
102.9803844619219
  0
VERTEX
  8
1
  6
CONTINUOUS
 62
     7
 10
354.8785099100484
 20
102.9879804272879
  0
VERTEX
  8
1
  6
CONTINUOUS
 62
     7
 10
354.8548576613728
 20
102.9949786595379
  0
VERTEX
  8
1
  6
CONTINUOUS
 62
     7
 10
354.8315550733039
 20
103.0013622993174
  0
VERTEX
  8
1
  6
CONTINUOUS
 62
     7
 10
354.8086582838175
 20
103.007115967879
  0
VERTEX
  8
1
  6
CONTINUOUS
 62
     7
 10
354.7862224532849
 20
103.0122258041312
  0
VERTEX
  8
1
  6
CONTINUOUS
 62
     7
 10
354.764301631587
 20
103.0166794980309
  0
VERTEX
  8
1
  6
CONTINUOUS
 62
     7
 10
354.7429486279034
 20
103.0204663202393
  0
VERTEX
  8
1
  6
CONTINUOUS
 62
     7
 10
354.7222148834902
 20
103.0235771479702
  0
VERTEX
  8
1
  6
CONTINUOUS
 62
     7
 10
354.7021503477538
 20
103.026004486967
  0
VERTEX
  8
1
  6
CONTINUOUS
 62
     7
 10
354.6828033579182
 20
103.0277424895574
  0
VERTEX
  8
1
  6
CONTINUOUS
 62
     7
 10
354.6642205225765
 20
103.0287869687411
  0
VERTEX
  8
1
  6
CONTINUOUS
 62
     7
 10
354.6464466094067
 20
103.0291354082761
  0
VERTEX
  8
1
  6
CONTINUOUS
 62
     7
 10
354.6295244373225
 20
103.0287869687411
  0
VERTEX
  8
1
  6
CONTINUOUS
 62
     7
 10
354.6134947733187
 20
103.0277424895574
  0
VERTEX
  8
1
  6
CONTINUOUS
 62
     7
 10
354.5983962342597
 20
103.026004486967
  0
VERTEX
  8
1
  6
CONTINUOUS
 62
     7
 10
354.5842651938488
 20
103.0235771479702
  0
VERTEX
  8
1
  6
CONTINUOUS
 62
     7
 10
354.5711356949998
 20
103.0204663202393
  0
VERTEX
  8
1
  6
CONTINUOUS
 62
     7
 10
354.5590393678258
 20
103.0166794980309
  0
VERTEX
  8
1
  6
CONTINUOUS
 62
     7
 10
354.5480053534383
 20
103.0122258041312
  0
VERTEX
  8
1
  6
CONTINUOUS
 62
     7
 10
354.5380602337444
 20
103.007115967879
  0
VERTEX
  8
1
  6
CONTINUOUS
 62
     7
 10
354.5292279674085
 20
103.0013622993174
  0
VERTEX
  8
1
  6
CONTINUOUS
 62
     7
 10
354.5215298321339
 20
102.9949786595379
  0
VERTEX
  8
1
  6
CONTINUOUS
 62
     7
 10
354.5149843734027
 20
102.9879804272879
  0
VERTEX
  8
1
  6
CONTINUOUS
 62
     7
 10
354.5096073597984
 20
102.9803844619219
  0
VERTEX
  8
1
  6
CONTINUOUS
 62
     7
 10
354.5054117450176
 20
102.9722090627857
  0
VERTEX
  8
1
  6
CONTINUOUS
 62
     7
 10
354.5024076366639
 20
102.9634739251319
  0
VERTEX
  8
1
  6
CONTINUOUS
 62
     7
 10
354.5006022718974
 20
102.9542000926723
  0
VERTEX
  8
1
  6
CONTINUOUS
 62
     7
 10
354.5000000000001
 20
102.9444099068816
  0
SEQEND
  8
1
  6
CONTINUOUS
 62
     7
  0
LINE
  8
1
  6
CONTINUOUS
 62
     7
 10
356.088705438904
 20
102.4990304091481
 11
356.0000000000001
 21
102.5353189977907
  0
LINE
  8
1
  6
CONTINUOUS
 62
     7
 10
428.4433634661959
 20
161.1524642220057
 11
428.2320543353255
 21
160.6993103284874
  0
LINE
  8
1
  6
CONTINUOUS
 62
     7
 10
391.7679456646745
 20
160.6993103284874
 11
391.5566365338042
 21
161.1524642220057
  0
LINE
  8
1
  6
CONTINUOUS
 62
     7
 10
446.6301024121695
 20
152.1201596151512
 11
446.8414115430398
 21
152.5733135086695
  0
LINE
  8
1
  6
CONTINUOUS
 62
     7
 10
373.1585884569602
 20
152.5733135086695
 11
373.3698975878306
 21
152.1201596151512
  0
LINE
  8
1
  6
CONTINUOUS
 62
     7
 10
465.5
 20
110.0919832381186
 11
465.0
 21
110.0919832381186
  0
LINE
  8
1
  6
CONTINUOUS
 62
     7
 10
355.0000000000001
 20
110.0919832381186
 11
354.5000000000001
 21
110.0919832381186
  0
LINE
  8
1
  6
CONTINUOUS
 62
     7
 10
354.5000000000001
 20
89.79198323811856
 11
355.0000000000001
 21
89.79198323811856
  0
LINE
  8
1
  6
CONTINUOUS
 62
     7
 10
465.0
 20
89.79198323811856
 11
465.5
 21
89.79198323811855
  0
ARC
  8
1
  6
CONTINUOUS
 62
     7
 10
365.4
 20
92.79198323811856
 40
3.000000000000003
 50
270.0
 51
0.0
  0
ARC
  8
1
  6
CONTINUOUS
 62
     7
 10
365.4
 20
107.0919832381186
 40
3.000000000000003
 50
0.0
 51
90.0
  0
LINE
  8
1
  6
CONTINUOUS
 62
     7
 10
368.4
 20
92.79198323811856
 11
368.4
 21
107.0919832381185
  0
LINE
  8
1
  6
CONTINUOUS
 62
     7
 10
360.15
 20
104.0919832381185
 11
360.15
 21
95.79198323811855
  0
ARC
  8
1
  6
CONTINUOUS
 62
     7
 10
362.4
 20
95.79198323811855
 40
2.250000000000002
 50
180.0
 51
0.0
  0
LINE
  8
1
  6
CONTINUOUS
 62
     7
 10
364.65
 20
95.79198323811855
 11
364.65
 21
104.0919832381185
  0
ARC
  8
1
  6
CONTINUOUS
 62
     7
 10
362.4
 20
104.0919832381185
 40
2.250000000000002
 50
0.0
 51
180.0
  0
LINE
  8
1
  6
CONTINUOUS
 62
     7
 10
355.0000000000001
 20
89.79198323811856
 11
365.4
 21
89.79198323811856
  0
LINE
  8
1
  6
CONTINUOUS
 62
     7
 10
365.4
 20
110.0919832381186
 11
356.0900881703194
 21
110.0919832381186
  0
ARC
  8
1
  6
CONTINUOUS
 62
     7
 10
454.6
 20
92.79198323811856
 40
3.000000000000003
 50
180.0
 51
270.0
  0
LINE
  8
1
  6
CONTINUOUS
 62
     7
 10
451.6
 20
92.79198323811856
 11
451.6
 21
107.0919832381185
  0
ARC
  8
1
  6
CONTINUOUS
 62
     7
 10
454.6
 20
107.0919832381186
 40
2.999999999999999
 50
90.0
 51
180.0
  0
LINE
  8
1
  6
CONTINUOUS
 62
     7
 10
455.35
 20
95.79198323811855
 11
455.35
 21
104.0919832381185
  0
ARC
  8
1
  6
CONTINUOUS
 62
     7
 10
457.6
 20
95.79198323811855
 40
2.250000000000002
 50
180.0
 51
0.0
  0
LINE
  8
1
  6
CONTINUOUS
 62
     7
 10
459.85
 20
104.0919832381185
 11
459.85
 21
95.79198323811855
  0
ARC
  8
1
  6
CONTINUOUS
 62
     7
 10
457.6
 20
104.0919832381185
 40
2.250000000000002
 50
0.0
 51
180.0
  0
LINE
  8
1
  6
CONTINUOUS
 62
     7
 10
465.0
 20
89.79198323811856
 11
454.6
 21
89.79198323811856
  0
LINE
  8
1
  6
CONTINUOUS
 62
     7
 10
454.6
 20
110.0919832381186
 11
463.9099118296807
 21
110.0919832381186
  0
ARC
  8
1
  6
CONTINUOUS
 62
     7
 10
380.4840508710437
 20
143.9624134151921
 40
3.000000000000002
 50
204.9999999999999
 51
295.0000000000001
  0
ARC
  8
1
  6
CONTINUOUS
 62
     7
 10
393.4442522256679
 20
150.0058545580842
 40
2.999999999999999
 50
295.0000000000001
 51
25.00000000000012
  0
LINE
  8
1
  6
CONTINUOUS
 62
     7
 10
394.71210701089
 20
147.2869311969742
 11
381.7519056562659
 21
141.2434900540822
  0
ARC
  8
1
  6
CONTINUOUS
 62
     7
 10
381.9351194469317
 20
147.9491915615242
 40
2.250000000000007
 50
221.3902034603579
 51
295.0000000000001
  0
LINE
  8
1
  6
CONTINUOUS
 62
     7
 10
390.4083651682524
 20
149.4177306131395
 11
382.8860105358482
 21
145.9099990406917
  0
ARC
  8
1
  6
CONTINUOUS
 62
     7
 10
389.4574740793358
 20
151.456923133972
 40
2.250000000000002
 50
294.9999999999999
 51
8.60979653964233
  0
LINE
  8
1
  6
CONTINUOUS
 62
     7
 10
377.7651275099338
 20
142.69455862997
 11
376.7655927259363
 21
144.8380678915428
  0
LINE
  8
1
  6
CONTINUOUS
 62
     7
 10
373.8072648937514
 20
151.1822224007994
 11
373.3698975878306
 21
152.1201596151512
  0
LINE
  8
1
  6
CONTINUOUS
 62
     7
 10
391.7679456646745
 20
160.6993103284874
 11
392.2053129705953
 21
159.7613731141356
  0
LINE
  8
1
  6
CONTINUOUS
 62
     7
 10
395.1636408027803
 20
153.417218604879
 11
396.1631755867778
 21
151.2737093433063
  0
ARC
  8
1
  6
CONTINUOUS
 62
     7
 10
426.5557477743322
 20
150.0058545580841
 40
3.0
 50
154.9999999999999
 51
245.0
  0
ARC
  8
1
  6
CONTINUOUS
 62
     7
 10
439.5159491289563
 20
143.9624134151921
 40
3.0
 50
244.9999999999999
 51
335.0000000000001
  0
LINE
  8
1
  6
CONTINUOUS
 62
     7
 10
425.28789298911
 20
147.2869311969742
 11
438.2480943437342
 21
141.2434900540822
  0
LINE
  8
1
  6
CONTINUOUS
 62
     7
 10
429.5916348317477
 20
149.4177306131395
 11
437.1139894641519
 21
145.9099990406917
  0
ARC
  8
1
  6
CONTINUOUS
 62
     7
 10
438.0648805530684
 20
147.9491915615242
 40
2.250000000000007
 50
245.0
 51
318.6097965396416
  0
ARC
  8
1
  6
CONTINUOUS
 62
     7
 10
430.5425259206642
 20
151.456923133972
 40
2.250000000000004
 50
171.3902034603581
 51
245.0000000000001
  0
LINE
  8
1
  6
CONTINUOUS
 62
     7
 10
442.2348724900662
 20
142.69455862997
 11
443.2344072740638
 21
144.8380678915428
  0
LINE
  8
1
  6
CONTINUOUS
 62
     7
 10
446.1927351062487
 20
151.1822224007994
 11
446.6301024121695
 21
152.1201596151512
  0
LINE
  8
1
  6
CONTINUOUS
 62
     7
 10
428.2320543353255
 20
160.6993103284874
 11
427.7946870294047
 21
159.7613731141356
  0
LINE
  8
1
  6
CONTINUOUS
 62
     7
 10
424.8363591972198
 20
153.417218604879
 11
423.8368244132222
 21
151.2737093433063
  0
LINE
  8
1
  6
CONTINUOUS
 62
     7
 10
405.1069140666314
 20
162.4673547507906
 11
405.6985796330683
 21
161.1985238489393
  0
LINE
  8
1
  6
CONTINUOUS
 62
     7
 10
358.1612655172849
 20
139.0315102286298
 11
357.5695999508479
 21
140.3003411304811
  0
ARC
  8
1
  6
CONTINUOUS
 62
     7
 10
360.2885233119579
 20
141.5681959157032
 40
3.000000000000001
 50
115.0000000000001
 51
205.0
  0
LINE
  8
1
  6
CONTINUOUS
 62
     7
 10
401.1201359202993
 20
163.9184233266784
 11
359.0206685267357
 21
144.2871192768131
  0
ARC
  8
1
  6
CONTINUOUS
 62
     7
 10
402.3879907055214
 20
161.1994999655685
 40
3.000000000000001
 50
25.00000000000007
 51
114.9999999999998
  0
LINE
  8
1
  6
CONTINUOUS
 62
     7
 10
461.8387344827152
 20
139.0315102286298
 11
460.7399270021893
 21
136.6751099823345
  0
LINE
  8
1
  6
CONTINUOUS
 62
     7
 10
460.7399270021893
 20
136.6751099823345
 11
413.2026128864059
 21
158.842123602644
  0
LINE
  8
1
  6
CONTINUOUS
 62
     7
 10
413.2026128864059
 20
158.842123602644
 11
414.3014203669317
 21
161.1985238489393
  0
ARC
  8
1
  6
CONTINUOUS
 62
     7
 10
459.7114766880422
 20
141.5681959157032
 40
3.000000000000001
 50
334.9999999999999
 51
65.00000000000004
  0
LINE
  8
1
  6
CONTINUOUS
 62
     7
 10
461.8387344827152
 20
139.0315102286298
 11
462.4304000491521
 21
140.3003411304811
  0
LINE
  8
1
  6
CONTINUOUS
 62
     7
 10
418.8798640797008
 20
163.9184233266784
 11
460.9793314732643
 21
144.2871192768131
  0
ARC
  8
1
  6
CONTINUOUS
 62
     7
 10
417.6120092944786
 20
161.1994999655685
 40
3.000000000000001
 50
65.00000000000051
 51
154.9999999999999
  0
LINE
  8
1
  6
CONTINUOUS
 62
     7
 10
414.8930859333687
 20
162.4673547507906
 11
414.3014203669317
 21
161.1985238489393
  0
LINE
  8
1
  6
CONTINUOUS
 62
     7
 10
406.7973871135941
 20
158.842123602644
 11
359.2600729978107
 21
136.6751099823345
  0
LINE
  8
1
  6
CONTINUOUS
 62
     7
 10
359.2600729978107
 20
136.6751099823345
 11
358.1612655172849
 21
139.0315102286298
  0
LINE
  8
1
  6
CONTINUOUS
 62
     7
 10
405.6985796330683
 20
161.1985238489393
 11
406.7973871135941
 21
158.842123602644
  0
ARC
  8
1
  6
CONTINUOUS
 62
     7
 10
410.0
 20
158.128770679756
 40
2.0
 50
65.00000000000011
 51
115.0000000000002
  0
ARC
  8
1
  6
CONTINUOUS
 62
     7
 10
410.0
 20
158.128770679756
 40
3.0
 50
65.00000000000036
 51
115.0000000000001
  0
LINE
  8
1
  6
CONTINUOUS
 62
     7
 10
413.2026128864059
 20
158.842123602644
 11
410.8452365234814
 21
159.9413862538293
  0
LINE
  8
1
  6
CONTINUOUS
 62
     7
 10
409.1547634765186
 20
159.9413862538293
 11
406.7973871135941
 21
158.842123602644
  0
LINE
  8
1
  6
CONTINUOUS
 62
     7
 10
406.3747688518534
 20
159.7484313896806
 11
408.7321452147779
 21
160.8476940408659
  0
LINE
  8
1
  6
CONTINUOUS
 62
     7
 10
411.2678547852221
 20
160.8476940408659
 11
413.6252311481466
 21
159.7484313896806
  0
ARC
  8
1
  6
CONTINUOUS
 62
     7
 10
462.0
 20
133.880772455696
 40
2.0
 50
0.0000000000007958
 51
64.99999999999989
  0
ARC
  8
1
  6
CONTINUOUS
 62
     7
 10
462.0
 20
133.8807724556961
 40
3.0
 50
0.0000000000000663
 51
65.00000000000026
  0
LINE
  8
1
  6
CONTINUOUS
 62
     7
 10
465.0
 20
133.8807724556961
 11
465.0
 21
125.0562188746081
  0
LINE
  8
1
  6
CONTINUOUS
 62
     7
 10
464.0
 20
125.056218874608
 11
464.0
 21
133.8807724556961
  0
LINE
  8
1
  6
CONTINUOUS
 62
     7
 10
462.8452365234814
 20
135.6933880297694
 11
460.7399270021893
 21
136.6751099823345
  0
LINE
  8
1
  6
CONTINUOUS
 62
     7
 10
461.16254526393
 20
137.5814177693711
 11
463.2678547852221
 21
136.599695816806
  0
ARC
  8
1
  6
CONTINUOUS
 62
     7
 10
358.0000000000001
 20
133.8807724556961
 40
3.0
 50
114.9999999999998
 51
179.9999999999996
  0
ARC
  8
1
  6
CONTINUOUS
 62
     7
 10
358.0000000000001
 20
133.8807724556961
 40
2.0
 50
114.9999999999994
 51
179.9999999999999
  0
LINE
  8
1
  6
CONTINUOUS
 62
     7
 10
356.0000000000001
 20
133.8807724556961
 11
356.0000000000001
 21
125.0562188746081
  0
LINE
  8
1
  6
CONTINUOUS
 62
     7
 10
355.0000000000001
 20
125.056218874608
 11
355.0000000000001
 21
133.880772455696
  0
LINE
  8
1
  6
CONTINUOUS
 62
     7
 10
359.2600729978107
 20
136.6751099823345
 11
357.1547634765186
 21
135.6933880297694
  0
LINE
  8
1
  6
CONTINUOUS
 62
     7
 10
356.7321452147779
 20
136.599695816806
 11
358.83745473607
 21
137.5814177693712
  0
LINE
  8
1
  6
CONTINUOUS
 62
     7
 10
465.0
 20
120.7919832381185
 11
464.0
 21
120.7919832381185
  0
LINE
  8
1
  6
CONTINUOUS
 62
     7
 10
465.0
 20
125.0562188746081
 11
465.0
 21
120.7919832381185
  0
LINE
  8
1
  6
CONTINUOUS
 62
     7
 10
464.0
 20
120.7919832381185
 11
464.0
 21
125.056218874608
  0
LINE
  8
1
  6
CONTINUOUS
 62
     7
 10
356.0000000000001
 20
120.7919832381186
 11
355.0000000000001
 21
120.7919832381186
  0
LINE
  8
1
  6
CONTINUOUS
 62
     7
 10
356.0000000000001
 20
125.056218874608
 11
356.0000000000001
 21
120.7919832381185
  0
LINE
  8
1
  6
CONTINUOUS
 62
     7
 10
355.0000000000001
 20
120.7919832381185
 11
355.0000000000001
 21
125.056218874608
  0
LINE
  8
1
  6
CONTINUOUS
 62
     7
 10
465.0
 20
101.3745075099633
 11
465.0
 21
120.7919832381185
  0
LINE
  8
1
  6
CONTINUOUS
 62
     7
 10
464.0
 20
120.7919832381175
 11
464.0
 21
101.3745075099624
  0
LINE
  8
1
  6
CONTINUOUS
 62
     7
 10
356.0000000000001
 20
101.3745075099633
 11
356.0000000000001
 21
120.7919832381185
  0
LINE
  8
1
  6
CONTINUOUS
 62
     7
 10
355.0000000000001
 20
120.7919832381175
 11
355.0000000000001
 21
101.3745075099624
  0
LINE
  8
1
  6
CONTINUOUS
 62
     7
 10
465.0
 20
100.7919832381185
 11
464.0
 21
100.7919832381185
  0
LINE
  8
1
  6
CONTINUOUS
 62
     7
 10
465.0
 20
101.3745075099633
 11
465.0
 21
100.7919832381187
  0
LINE
  8
1
  6
CONTINUOUS
 62
     7
 10
464.0
 20
100.7919832381187
 11
464.0
 21
101.3745075099634
  0
LINE
  8
1
  6
CONTINUOUS
 62
     7
 10
356.0000000000001
 20
100.7919832381185
 11
355.0000000000001
 21
100.7919832381185
  0
LINE
  8
1
  6
CONTINUOUS
 62
     7
 10
356.0000000000001
 20
101.3745075099633
 11
356.0000000000001
 21
100.7919832381187
  0
LINE
  8
1
  6
CONTINUOUS
 62
     7
 10
355.0000000000001
 20
100.7919832381187
 11
355.0000000000001
 21
101.3745075099634
  0
LINE
  8
1
  6
CONTINUOUS
 62
     7
 10
358.0000000000001
 20
116.5056752014031
 11
358.0000000000001
 21
110.3056752014031
  0
LINE
  8
1
  6
CONTINUOUS
 62
     7
 10
462.0
 20
116.5056752014031
 11
462.0
 21
110.3056752014031
  0
LINE
  8
1
  6
CONTINUOUS
 62
     7
 10
462.0
 20
130.8919832381186
 11
462.0
 21
124.6919832381186
  0
LINE
  8
1
  6
CONTINUOUS
 62
     7
 10
358.0000000000001
 20
130.8919832381186
 11
358.0000000000001
 21
124.6919832381186
  0
LINE
  8
1
  6
CONTINUOUS
 62
     7
 10
467.1000000000001
 20
107.5056752014031
 11
467.4477267507413
 21
107.5056752014031
  0
LINE
  8
1
  6
CONTINUOUS
 62
     7
 10
467.4477267507413
 20
119.3056752014031
 11
467.1000000000001
 21
119.3056752014031
  0
ARC
  8
1
  6
CONTINUOUS
 62
     7
 10
462.5
 20
113.4056752014031
 40
7.700000000000001
 50
18.22569456717412
 51
50.01687854571706
  0
ARC
  8
1
  6
CONTINUOUS
 62
     7
 10
462.5
 20
113.4056752014031
 40
7.699999999999997
 50
309.983121454283
 51
341.7743054328258
  0
LINE
  8
1
  6
CONTINUOUS
 62
     7
 10
465.5
 20
115.9056752014031
 11
465.0
 21
115.9056752014031
  0
LINE
  8
1
  6
CONTINUOUS
 62
     7
 10
461.9999800000001
 20
115.9056752014031
 11
459.1000000000001
 21
115.9056752014031
  0
LINE
  8
1
  6
CONTINUOUS
 62
     7
 10
459.1000000000001
 20
110.9056752014031
 11
461.9999800000001
 21
110.9056752014031
  0
LINE
  8
1
  6
CONTINUOUS
 62
     7
 10
465.0
 20
110.9056752014031
 11
465.5
 21
110.9056752014031
  0
LINE
  8
1
  6
CONTINUOUS
 62
     7
 10
352.9
 20
119.3056752014031
 11
352.5522732492588
 21
119.3056752014031
  0
LINE
  8
1
  6
CONTINUOUS
 62
     7
 10
352.5522732492588
 20
107.5056752014031
 11
352.9
 21
107.5056752014031
  0
ARC
  8
1
  6
CONTINUOUS
 62
     7
 10
357.5000000000001
 20
113.4056752014031
 40
7.700000000000001
 50
198.2256945671741
 51
230.016878545717
  0
ARC
  8
1
  6
CONTINUOUS
 62
     7
 10
357.5000000000001
 20
113.4056752014031
 40
7.699999999999999
 50
129.983121454283
 51
161.7743054328259
  0
LINE
  8
1
  6
CONTINUOUS
 62
     7
 10
354.5000000000001
 20
110.9056752014031
 11
355.0000000000001
 21
110.9056752014031
  0
LINE
  8
1
  6
CONTINUOUS
 62
     7
 10
358.00002
 20
110.9056752014031
 11
360.9
 21
110.9056752014031
  0
LINE
  8
1
  6
CONTINUOUS
 62
     7
 10
360.9
 20
115.9056752014031
 11
358.00002
 21
115.9056752014031
  0
LINE
  8
1
  6
CONTINUOUS
 62
     7
 10
355.0000000000001
 20
115.9056752014031
 11
354.5000000000001
 21
115.9056752014031
  0
LINE
  8
1
  6
CONTINUOUS
 62
     7
 10
467.1
 20
121.8919832381186
 11
467.4477267507412
 21
121.8919832381186
  0
LINE
  8
1
  6
CONTINUOUS
 62
     7
 10
467.4477267507412
 20
133.6919832381186
 11
467.1
 21
133.6919832381186
  0
ARC
  8
1
  6
CONTINUOUS
 62
     7
 10
462.5
 20
127.7919832381185
 40
7.700000000000001
 50
18.22569456717412
 51
50.01687854571706
  0
ARC
  8
1
  6
CONTINUOUS
 62
     7
 10
462.5
 20
127.7919832381185
 40
7.699999999999999
 50
309.983121454283
 51
341.7743054328258
  0
LINE
  8
1
  6
CONTINUOUS
 62
     7
 10
465.5
 20
130.2919832381185
 11
465.0
 21
130.2919832381185
  0
LINE
  8
1
  6
CONTINUOUS
 62
     7
 10
461.9999800000001
 20
130.2919832381185
 11
459.1000000000001
 21
130.2919832381185
  0
LINE
  8
1
  6
CONTINUOUS
 62
     7
 10
459.1
 20
125.2919832381185
 11
461.99998
 21
125.2919832381185
  0
LINE
  8
1
  6
CONTINUOUS
 62
     7
 10
465.0
 20
125.2919832381186
 11
465.5
 21
125.2919832381186
  0
LINE
  8
1
  6
CONTINUOUS
 62
     7
 10
352.9
 20
133.6919832381186
 11
352.5522732492589
 21
133.6919832381186
  0
LINE
  8
1
  6
CONTINUOUS
 62
     7
 10
352.5522732492589
 20
121.8919832381186
 11
352.9
 21
121.8919832381186
  0
ARC
  8
1
  6
CONTINUOUS
 62
     7
 10
357.5000000000001
 20
127.7919832381185
 40
7.700000000000002
 50
198.2256945671741
 51
230.016878545717
  0
ARC
  8
1
  6
CONTINUOUS
 62
     7
 10
357.5000000000001
 20
127.7919832381185
 40
7.699999999999999
 50
129.9831214542829
 51
161.7743054328258
  0
LINE
  8
1
  6
CONTINUOUS
 62
     7
 10
354.5000000000001
 20
125.2919832381185
 11
355.0000000000001
 21
125.2919832381185
  0
LINE
  8
1
  6
CONTINUOUS
 62
     7
 10
358.00002
 20
125.2919832381185
 11
360.9
 21
125.2919832381185
  0
LINE
  8
1
  6
CONTINUOUS
 62
     7
 10
360.9
 20
130.2919832381185
 11
358.0000200000001
 21
130.2919832381185
  0
LINE
  8
1
  6
CONTINUOUS
 62
     7
 10
355.0000000000001
 20
130.2919832381185
 11
354.5000000000001
 21
130.2919832381185
  0
ARC
  8
1
  6
CONTINUOUS
 62
     7
 10
356.5000000000001
 20
117.0056752014031
 40
0.5000000000000004
 50
180.0
 51
270.0
  0
ARC
  8
1
  6
CONTINUOUS
 62
     7
 10
356.5000000000001
 20
109.8056752014031
 40
0.5000000000000004
 50
90.0
 51
180.0
  0
ARC
  8
1
  6
CONTINUOUS
 62
     7
 10
463.5
 20
109.8056752014031
 40
0.5000000000000004
 50
0.0
 51
90.0
  0
ARC
  8
1
  6
CONTINUOUS
 62
     7
 10
463.5
 20
117.0056752014031
 40
0.5000000000000004
 50
270.0
 51
0.0
  0
LINE
  8
1
  6
CONTINUOUS
 62
     7
 10
358.0000000000001
 20
116.5056752014031
 11
356.5000000000001
 21
116.5056752014031
  0
LINE
  8
1
  6
CONTINUOUS
 62
     7
 10
356.5000000000001
 20
110.3056752014031
 11
358.0000000000001
 21
110.3056752014031
  0
LINE
  8
1
  6
CONTINUOUS
 62
     7
 10
462.0
 20
110.3056752014031
 11
463.5
 21
110.3056752014031
  0
LINE
  8
1
  6
CONTINUOUS
 62
     7
 10
463.5
 20
116.5056752014031
 11
462.0
 21
116.5056752014031
  0
ARC
  8
1
  6
CONTINUOUS
 62
     7
 10
356.5000000000001
 20
131.3919832381186
 40
0.5000000000000004
 50
180.0
 51
270.0
  0
ARC
  8
1
  6
CONTINUOUS
 62
     7
 10
356.5000000000001
 20
124.1919832381186
 40
0.5000000000000004
 50
90.0
 51
180.0
  0
ARC
  8
1
  6
CONTINUOUS
 62
     7
 10
463.5
 20
124.1919832381186
 40
0.5000000000000004
 50
0.0
 51
90.0
  0
ARC
  8
1
  6
CONTINUOUS
 62
     7
 10
463.5
 20
131.3919832381186
 40
0.5000000000000004
 50
270.0
 51
359.9999999999998
  0
LINE
  8
1
  6
CONTINUOUS
 62
     7
 10
462.0000000000002
 20
124.6919832381186
 11
463.5000000000002
 21
124.6919832381186
  0
LINE
  8
1
  6
CONTINUOUS
 62
     7
 10
463.5000000000002
 20
130.8919832381186
 11
462.0000000000002
 21
130.8919832381186
  0
LINE
  8
1
  6
CONTINUOUS
 62
     7
 10
357.9999999999998
 20
130.8919832381186
 11
356.4999999999998
 21
130.8919832381186
  0
LINE
  8
1
  6
CONTINUOUS
 62
     7
 10
356.4999999999998
 20
124.6919832381186
 11
357.9999999999998
 21
124.6919832381186
  0
ENDBLK
  8
0
  0
BLOCK
  8
0
  2
D_FRAME_VIEW_2326
 70
     0
 10
0.0
 20
0.0
  0
LINE
  8
1
  6
CONTINUOUS
 62
     7
 10
467.4477267507413
 20
480.4377096005127
 11
467.4477267507413
 21
468.6377096005128
  0
LINE
  8
1
  6
CONTINUOUS
 62
     7
 10
469.8137055369194
 20
476.9459685814439
 11
469.8137055369194
 21
476.8934921285139
  0
LINE
  8
1
  6
CONTINUOUS
 62
     7
 10
469.8137055369194
 20
474.0377096005127
 11
470.0729782780621
 21
474.0377096005127
  0
LINE
  8
1
  6
CONTINUOUS
 62
     7
 10
470.0729782780621
 20
474.0377096005127
 11
470.1216641018771
 21
473.9410670238951
  0
ARC
  8
1
  6
CONTINUOUS
 62
     7
 10
467.2670949116191
 20
473.7852942532852
 40
2.8588162616778
 50
348.9571868540502
 51
3.123511224522531
  0
ARC
  8
1
  6
CONTINUOUS
 62
     7
 10
462.5
 20
474.5377096005128
 40
7.683749084919439
 50
342.1459807506332
 51
350.2593749013868
  0
LINE
  8
1
  6
CONTINUOUS
 62
     7
 10
469.8137055369194
 20
472.1819270725116
 11
469.8137055369194
 21
472.1294506195816
  0
ARC
  8
1
  6
CONTINUOUS
 62
     7
 10
462.5
 20
474.5377096005128
 40
7.683749084919403
 50
9.740625098613009
 51
17.85401924936621
  0
ARC
  8
1
  6
CONTINUOUS
 62
     7
 10
467.4422873859406
 20
475.3080030975707
 40
2.683490925855774
 50
355.9447155554806
 51
11.3846410225334
  0
LINE
  8
1
  6
CONTINUOUS
 62
     7
 10
470.1190595970093
 20
475.118229339637
 11
470.0729782780621
 21
475.0377096005127
  0
LINE
  8
1
  6
CONTINUOUS
 62
     7
 10
470.0729782780621
 20
475.0377096005127
 11
469.8137055369194
 21
475.0377096005127
  0
LINE
  8
1
  6
CONTINUOUS
 62
     7
 10
469.8137055369194
 20
475.0377096005127
 11
469.8137055369194
 21
474.0377096005127
  0
LINE
  8
1
  6
CONTINUOUS
 62
     7
 10
352.5522732492588
 20
480.4377096005127
 11
352.5522732492588
 21
468.6377096005128
  0
LINE
  8
1
  6
CONTINUOUS
 62
     7
 10
350.1862944630807
 20
476.9459685814439
 11
350.1862944630807
 21
476.8934921285139
  0
LINE
  8
1
  6
CONTINUOUS
 62
     7
 10
349.9270217219379
 20
475.0377096005127
 11
350.1862944630807
 21
475.0377096005127
  0
ARC
  8
1
  6
CONTINUOUS
 62
     7
 10
352.5577126140595
 20
475.3080030975707
 40
2.683490925855774
 50
168.6153589774666
 51
184.0552844445194
  0
LINE
  8
1
  6
CONTINUOUS
 62
     7
 10
349.8809404029907
 20
475.118229339637
 11
349.9270217219379
 21
475.0377096005127
  0
ARC
  8
1
  6
CONTINUOUS
 62
     7
 10
357.5000000000001
 20
474.5377096005128
 40
7.683749084919403
 50
162.1459807506338
 51
170.259374901387
  0
LINE
  8
1
  6
CONTINUOUS
 62
     7
 10
350.1862944630807
 20
472.1819270725116
 11
350.1862944630807
 21
472.1294506195816
  0
ARC
  8
1
  6
CONTINUOUS
 62
     7
 10
357.5000000000001
 20
474.5377096005128
 40
7.683749084919439
 50
189.7406250986132
 51
197.8540192493667
  0
LINE
  8
1
  6
CONTINUOUS
 62
     7
 10
349.9270217219379
 20
474.0377096005127
 11
349.878335898123
 21
473.9410670238951
  0
ARC
  8
1
  6
CONTINUOUS
 62
     7
 10
352.732905088381
 20
473.7852942532852
 40
2.8588162616778
 50
176.8764887754775
 51
191.0428131459498
  0
LINE
  8
1
  6
CONTINUOUS
 62
     7
 10
350.1862944630806
 20
474.0377096005127
 11
349.9270217219379
 21
474.0377096005127
  0
LINE
  8
1
  6
CONTINUOUS
 62
     7
 10
350.1862944630807
 20
475.0377096005127
 11
350.1862944630807
 21
474.0377096005127
  0
LINE
  8
1
  6
CONTINUOUS
 62
     7
 10
467.4477267507412
 20
496.4153233482767
 11
467.4477267507412
 21
484.6153233482767
  0
LINE
  8
1
  6
CONTINUOUS
 62
     7
 10
469.8137055369194
 20
492.9235823292078
 11
469.8137055369194
 21
492.8711058762779
  0
LINE
  8
1
  6
CONTINUOUS
 62
     7
 10
469.8137055369194
 20
490.0153233482768
 11
470.0729782780621
 21
490.0153233482768
  0
LINE
  8
1
  6
CONTINUOUS
 62
     7
 10
470.0729782780621
 20
490.0153233482768
 11
470.1216641018771
 21
489.9186807716591
  0
ARC
  8
1
  6
CONTINUOUS
 62
     7
 10
467.2670949116193
 20
489.7629080010491
 40
2.858816261677578
 50
348.9571868540504
 51
3.123511224522758
  0
ARC
  8
1
  6
CONTINUOUS
 62
     7
 10
462.5
 20
490.5153233482768
 40
7.683749084919431
 50
342.1459807506332
 51
350.2593749013868
  0
LINE
  8
1
  6
CONTINUOUS
 62
     7
 10
469.8137055369194
 20
488.1595408202756
 11
469.8137055369194
 21
488.1070643673456
  0
ARC
  8
1
  6
CONTINUOUS
 62
     7
 10
462.5
 20
490.5153233482768
 40
7.683749084919421
 50
9.740625098613009
 51
17.85401924936621
  0
ARC
  8
1
  6
CONTINUOUS
 62
     7
 10
467.4422873859406
 20
491.2856168453347
 40
2.683490925855774
 50
355.9447155554806
 51
11.3846410225334
  0
LINE
  8
1
  6
CONTINUOUS
 62
     7
 10
470.1190595970093
 20
491.0958430874011
 11
470.0729782780621
 21
491.0153233482768
  0
LINE
  8
1
  6
CONTINUOUS
 62
     7
 10
470.0729782780621
 20
491.0153233482768
 11
469.8137055369194
 21
491.0153233482768
  0
LINE
  8
1
  6
CONTINUOUS
 62
     7
 10
469.8137055369194
 20
491.0153233482768
 11
469.8137055369194
 21
490.0153233482768
  0
LINE
  8
1
  6
CONTINUOUS
 62
     7
 10
352.5522732492589
 20
496.4153233482767
 11
352.5522732492589
 21
484.6153233482767
  0
LINE
  8
1
  6
CONTINUOUS
 62
     7
 10
350.1862944630807
 20
492.9235823292078
 11
350.1862944630807
 21
492.8711058762779
  0
LINE
  8
1
  6
CONTINUOUS
 62
     7
 10
349.9270217219379
 20
491.0153233482768
 11
350.1862944630807
 21
491.0153233482768
  0
ARC
  8
1
  6
CONTINUOUS
 62
     7
 10
352.5577126140595
 20
491.2856168453347
 40
2.683490925855774
 50
168.6153589774666
 51
184.0552844445194
  0
LINE
  8
1
  6
CONTINUOUS
 62
     7
 10
349.8809404029907
 20
491.0958430874011
 11
349.9270217219379
 21
491.0153233482768
  0
ARC
  8
1
  6
CONTINUOUS
 62
     7
 10
357.5000000000001
 20
490.5153233482768
 40
7.683749084919421
 50
162.1459807506338
 51
170.259374901387
  0
LINE
  8
1
  6
CONTINUOUS
 62
     7
 10
350.1862944630807
 20
488.1595408202756
 11
350.1862944630807
 21
488.1070643673456
  0
ARC
  8
1
  6
CONTINUOUS
 62
     7
 10
357.5000000000001
 20
490.5153233482768
 40
7.683749084919431
 50
189.7406250986132
 51
197.8540192493667
  0
LINE
  8
1
  6
CONTINUOUS
 62
     7
 10
349.9270217219379
 20
490.0153233482768
 11
349.878335898123
 21
489.9186807716591
  0
ARC
  8
1
  6
CONTINUOUS
 62
     7
 10
352.7329050883807
 20
489.7629080010491
 40
2.858816261677578
 50
176.8764887754773
 51
191.0428131459496
  0
LINE
  8
1
  6
CONTINUOUS
 62
     7
 10
350.1862944630807
 20
490.0153233482768
 11
349.9270217219379
 21
490.0153233482768
  0
LINE
  8
1
  6
CONTINUOUS
 62
     7
 10
350.1862944630807
 20
491.0153233482768
 11
350.1862944630807
 21
490.0153233482768
  0
LINE
  8
1
  6
CONTINUOUS
 62
     9
 10
408.7321452147779
 20
463.5153233482768
 11
408.7321452147779
 21
503.5153233482768
  0
LINE
  8
1
  6
CONTINUOUS
 62
     9
 10
411.2678547852221
 20
503.5153233482768
 11
411.2678547852221
 21
463.5153233482768
  0
LINE
  8
1
  6
CONTINUOUS
 62
     7
 10
408.7321452147779
 20
503.5153233482768
 11
411.2678547852221
 21
503.5153233482768
  0
LINE
  8
1
  6
CONTINUOUS
 62
     7
 10
411.2678547852221
 20
463.5153233482768
 11
408.7321452147779
 21
463.5153233482768
  0
LINE
  8
1
  6
CONTINUOUS
 62
     9
 10
465.3678547852221
 20
463.5153233482768
 11
465.3678547852221
 21
503.5153233482768
  0
POLYLINE
  8
1
  6
CONTINUOUS
 62
     7
 66
     1
  0
VERTEX
  8
1
  6
CONTINUOUS
 62
     7
 10
425.4943215368344
 20
501.5153233482768
  0
VERTEX
  8
1
  6
CONTINUOUS
 62
     7
 10
425.4594926368418
 20
501.905503992309
  0
VERTEX
  8
1
  6
CONTINUOUS
 62
     7
 10
425.3563443919586
 20
502.2806902130069
  0
VERTEX
  8
1
  6
CONTINUOUS
 62
     7
 10
425.1888407313894
 20
502.626463814316
  0
VERTEX
  8
1
  6
CONTINUOUS
 62
     7
 10
424.9634187268727
 20
502.9295369106499
  0
VERTEX
  8
1
  6
CONTINUOUS
 62
     7
 10
424.688741219624
 20
503.1782625728819
  0
VERTEX
  8
1
  6
CONTINUOUS
 62
     7
 10
424.3753639122059
 20
503.3630824132993
  0
VERTEX
  8
1
  6
CONTINUOUS
 62
     7
 10
424.0353297187985
 20
503.4768939090832
  0
VERTEX
  8
1
  6
CONTINUOUS
 62
     7
 10
423.6817059627611
 20
503.5153233482768
  0
SEQEND
  8
1
  6
CONTINUOUS
 62
     7
  0
LINE
  8
1
  6
CONTINUOUS
 62
     7
 10
425.4943215368344
 20
501.5153233482768
 11
425.4943215368344
 21
499.5153233482768
  0
LINE
  8
1
  6
CONTINUOUS
 62
     7
 10
425.4943215368344
 20
499.5153233482768
 11
429.119552684981
 21
499.5153233482768
  0
LINE
  8
1
  6
CONTINUOUS
 62
     7
 10
429.119552684981
 20
499.5153233482768
 11
429.119552684981
 21
502.0153233482767
  0
LINE
  8
1
  6
CONTINUOUS
 62
     7
 10
437.8991615165644
 20
499.5833662382971
 11
436.9974835620815
 21
502.0153233482768
  0
POLYLINE
  8
1
  6
CONTINUOUS
 62
     7
 66
     1
  0
VERTEX
  8
1
  6
CONTINUOUS
 62
     7
 10
438.7379919302416
 20
499.5833662382972
  0
VERTEX
  8
1
  6
CONTINUOUS
 62
     7
 10
438.7305017108118
 20
499.5643081159875
  0
VERTEX
  8
1
  6
CONTINUOUS
 62
     7
 10
438.7222934123176
 20
499.5455935542443
  0
VERTEX
  8
1
  6
CONTINUOUS
 62
     7
 10
438.7133891687612
 20
499.5272704589601
  0
VERTEX
  8
1
  6
CONTINUOUS
 62
     7
 10
438.7038111141453
 20
499.5093867360271
  0
VERTEX
  8
1
  6
CONTINUOUS
 62
     7
 10
438.6935655388122
 20
499.4919592430906
  0
VERTEX
  8
1
  6
CONTINUOUS
 62
     7
 10
438.6826633200857
 20
499.4750017027345
  0
VERTEX
  8
1
  6
CONTINUOUS
 62
     7
 10
438.6711334724402
 20
499.4585573182593
  0
VERTEX
  8
1
  6
CONTINUOUS
 62
     7
 10
438.6590050103495
 20
499.4426692929651
  0
VERTEX
  8
1
  6
CONTINUOUS
 62
     7
 10
438.6462866659958
 20
499.4273531033262
  0
VERTEX
  8
1
  6
CONTINUOUS
 62
     7
 10
438.6329912250362
 20
499.4126202963511
  0
VERTEX
  8
1
  6
CONTINUOUS
 62
     7
 10
438.6191537821585
 20
499.3985081811424
  0
VERTEX
  8
1
  6
CONTINUOUS
 62
     7
 10
438.60480943205
 20
499.3850540668028
  0
VERTEX
  8
1
  6
CONTINUOUS
 62
     7
 10
438.5899691078864
 20
499.3722716217729
  0
VERTEX
  8
1
  6
CONTINUOUS
 62
     7
 10
438.5746471510126
 20
499.3601698990045
  0
VERTEX
  8
1
  6
CONTINUOUS
 62
     7
 10
438.5588837683705
 20
499.3487792843662
  0
VERTEX
  8
1
  6
CONTINUOUS
 62
     7
 10
438.5427191669017
 20
499.338130163727
  0
VERTEX
  8
1
  6
CONTINUOUS
 62
     7
 10
438.5261661792238
 20
499.3282340205006
  0
VERTEX
  8
1
  6
CONTINUOUS
 62
     7
 10
438.5092403068157
 20
499.3190971638884
  0
VERTEX
  8
1
  6
CONTINUOUS
 62
     7
 10
438.4919857599112
 20
499.3107422184424
  0
VERTEX
  8
1
  6
CONTINUOUS
 62
     7
 10
438.4744467487445
 20
499.3031918087143
  0
VERTEX
  8
1
  6
CONTINUOUS
 62
     7
 10
438.4566376514338
 20
499.2964549163617
  0
VERTEX
  8
1
  6
CONTINUOUS
 62
     7
 10
438.4385747020402
 20
499.2905349328204
  0
VERTEX
  8
1
  6
CONTINUOUS
 62
     7
 10
438.4203048947113
 20
499.2854460973091
  0
VERTEX
  8
1
  6
CONTINUOUS
 62
     7
 10
438.4018752235949
 20
499.2812026490467
  0
VERTEX
  8
1
  6
CONTINUOUS
 62
     7
 10
438.3833012157424
 20
499.2778108202088
  0
VERTEX
  8
1
  6
CONTINUOUS
 62
     7
 10
438.3645993900396
 20
499.2752709909246
  0
VERTEX
  8
1
  6
CONTINUOUS
 62
     7
 10
438.3458182283853
 20
499.2735886223429
  0
VERTEX
  8
1
  6
CONTINUOUS
 62
     7
 10
438.3270062126788
 20
499.2727691756124
  0
VERTEX
  8
1
  6
CONTINUOUS
 62
     7
 10
438.3081795906474
 20
499.2728159615353
  0
VERTEX
  8
1
  6
CONTINUOUS
 62
     7
 10
438.2893547103878
 20
499.2737263384493
  0
VERTEX
  8
1
  6
CONTINUOUS
 62
     7
 10
438.2705802043541
 20
499.2754968388074
  0
VERTEX
  8
1
  6
CONTINUOUS
 62
     7
 10
438.2519047050001
 20
499.2781239950627
  0
VERTEX
  8
1
  6
CONTINUOUS
 62
     7
 10
438.2333447325944
 20
499.2816081053269
  0
VERTEX
  8
1
  6
CONTINUOUS
 62
     7
 10
438.2149160135427
 20
499.2859435790073
  0
VERTEX
  8
1
  6
CONTINUOUS
 62
     7
 10
438.1966659895044
 20
499.2911181155009
  0
VERTEX
  8
1
  6
CONTINUOUS
 62
     7
 10
438.178642102139
 20
499.2971194142045
  0
VERTEX
  8
1
  6
CONTINUOUS
 62
     7
 10
438.1608606886051
 20
499.303944752317
  0
VERTEX
  8
1
  6
CONTINUOUS
 62
     7
 10
438.1433364198613
 20
499.3115857445116
  0
VERTEX
  8
1
  6
CONTINUOUS
 62
     7
 10
438.1261142382675
 20
499.3200215963964
  0
VERTEX
  8
1
  6
CONTINUOUS
 62
     7
 10
438.1092390861833
 20
499.3292315135792
  0
VERTEX
  8
1
  6
CONTINUOUS
 62
     7
 10
438.0927266670562
 20
499.3392098274452
  0
VERTEX
  8
1
  6
CONTINUOUS
 62
     7
 10
438.0765901917529
 20
499.3499455892119
  0
VERTEX
  8
1
  6
CONTINUOUS
 62
     7
 10
438.0608708637621
 20
499.3614100842357
  0
VERTEX
  8
1
  6
CONTINUOUS
 62
     7
 10
438.0456098865722
 20
499.3735745978735
  0
VERTEX
  8
1
  6
CONTINUOUS
 62
     7
 10
438.0308218967974
 20
499.3864306720443
  0
VERTEX
  8
1
  6
CONTINUOUS
 62
     7
 10
438.016518280839
 20
499.3999650964926
  0
VERTEX
  8
1
  6
CONTINUOUS
 62
     7
 10
438.0027353668662
 20
499.4141420283125
  0
VERTEX
  8
1
  6
CONTINUOUS
 62
     7
 10
437.9895094830484
 20
499.4289256245983
  0
VERTEX
  8
1
  6
CONTINUOUS
 62
     7
 10
437.9757113716099
 20
499.4457589543239
  0
VERTEX
  8
1
  6
CONTINUOUS
 62
     7
 10
437.962606313809
 20
499.4632839487703
  0
VERTEX
  8
1
  6
CONTINUOUS
 62
     7
 10
437.9502336438894
 20
499.481445512609
  0
VERTEX
  8
1
  6
CONTINUOUS
 62
     7
 10
437.938632696094
 20
499.5001885505121
  0
VERTEX
  8
1
  6
CONTINUOUS
 62
     7
 10
437.9274541534306
 20
499.5201818294574
  0
VERTEX
  8
1
  6
CONTINUOUS
 62
     7
 10
437.9171276476586
 20
499.5407551323005
  0
VERTEX
  8
1
  6
CONTINUOUS
 62
     7
 10
437.9078778404963
 20
499.5613782165776
  0
SEQEND
  8
1
  6
CONTINUOUS
 62
     7
  0
LINE
  8
1
  6
CONTINUOUS
 62
     7
 10
439.6396698847245
 20
502.0153233482768
 11
438.7379919302416
 21
499.5833662382972
  0
LINE
  8
1
  6
CONTINUOUS
 62
     7
 10
447.517600761825
 20
499.5153233482768
 11
447.517600761825
 21
502.0153233482767
  0
LINE
  8
1
  6
CONTINUOUS
 62
     7
 10
451.1428319099716
 20
499.5153233482768
 11
447.517600761825
 21
499.5153233482768
  0
LINE
  8
1
  6
CONTINUOUS
 62
     7
 10
451.1428319099716
 20
501.5153233482768
 11
451.1428319099716
 21
499.5153233482768
  0
POLYLINE
  8
1
  6
CONTINUOUS
 62
     7
 66
     1
  0
VERTEX
  8
1
  6
CONTINUOUS
 62
     7
 10
452.9554474840448
 20
503.5153233482768
  0
VERTEX
  8
1
  6
CONTINUOUS
 62
     7
 10
452.6018237280074
 20
503.4768939090832
  0
VERTEX
  8
1
  6
CONTINUOUS
 62
     7
 10
452.2617895346
 20
503.3630824132993
  0
VERTEX
  8
1
  6
CONTINUOUS
 62
     7
 10
451.948412227182
 20
503.1782625728818
  0
VERTEX
  8
1
  6
CONTINUOUS
 62
     7
 10
451.6737347199332
 20
502.9295369106498
  0
VERTEX
  8
1
  6
CONTINUOUS
 62
     7
 10
451.4483127154165
 20
502.6264638143159
  0
VERTEX
  8
1
  6
CONTINUOUS
 62
     7
 10
451.2808090548473
 20
502.2806902130069
  0
VERTEX
  8
1
  6
CONTINUOUS
 62
     7
 10
451.1776608099641
 20
501.905503992309
  0
VERTEX
  8
1
  6
CONTINUOUS
 62
     7
 10
451.1428319099716
 20
501.5153233482767
  0
SEQEND
  8
1
  6
CONTINUOUS
 62
     7
  0
LINE
  8
1
  6
CONTINUOUS
 62
     7
 10
452.9554474840448
 20
503.5153233482768
 11
465.3678547852221
 21
503.5153233482768
  0
LINE
  8
1
  6
CONTINUOUS
 62
     7
 10
411.2678547852221
 20
503.5153233482768
 11
423.6817059627611
 21
503.5153233482768
  0
LINE
  8
1
  6
CONTINUOUS
 62
     7
 10
411.2678547852221
 20
463.5153233482768
 11
465.3678547852221
 21
463.5153233482768
  0
LINE
  8
1
  6
CONTINUOUS
 62
     9
 10
354.6321452147779
 20
503.5153233482768
 11
354.6321452147779
 21
463.5153233482768
  0
LINE
  8
1
  6
CONTINUOUS
 62
     7
 10
354.6321452147779
 20
503.5153233482768
 11
367.0445525159552
 21
503.5153233482768
  0
POLYLINE
  8
1
  6
CONTINUOUS
 62
     7
 66
     1
  0
VERTEX
  8
1
  6
CONTINUOUS
 62
     7
 10
368.8571680900284
 20
501.5153233482768
  0
VERTEX
  8
1
  6
CONTINUOUS
 62
     7
 10
368.8223391900359
 20
501.905503992309
  0
VERTEX
  8
1
  6
CONTINUOUS
 62
     7
 10
368.7191909451527
 20
502.2806902130069
  0
VERTEX
  8
1
  6
CONTINUOUS
 62
     7
 10
368.5516872845835
 20
502.626463814316
  0
VERTEX
  8
1
  6
CONTINUOUS
 62
     7
 10
368.3262652800668
 20
502.9295369106499
  0
VERTEX
  8
1
  6
CONTINUOUS
 62
     7
 10
368.051587772818
 20
503.1782625728819
  0
VERTEX
  8
1
  6
CONTINUOUS
 62
     7
 10
367.7382104654
 20
503.3630824132993
  0
VERTEX
  8
1
  6
CONTINUOUS
 62
     7
 10
367.3981762719926
 20
503.4768939090832
  0
VERTEX
  8
1
  6
CONTINUOUS
 62
     7
 10
367.0445525159552
 20
503.5153233482768
  0
SEQEND
  8
1
  6
CONTINUOUS
 62
     7
  0
LINE
  8
1
  6
CONTINUOUS
 62
     7
 10
368.8571680900285
 20
499.5153233482768
 11
368.8571680900285
 21
501.5153233482768
  0
LINE
  8
1
  6
CONTINUOUS
 62
     7
 10
372.482399238175
 20
499.5153233482768
 11
368.8571680900285
 21
499.5153233482768
  0
LINE
  8
1
  6
CONTINUOUS
 62
     7
 10
372.482399238175
 20
502.0153233482767
 11
372.482399238175
 21
499.5153233482768
  0
LINE
  8
1
  6
CONTINUOUS
 62
     7
 10
381.2620080697585
 20
499.5833662382972
 11
380.3603301152756
 21
502.0153233482767
  0
POLYLINE
  8
1
  6
CONTINUOUS
 62
     7
 66
     1
  0
VERTEX
  8
1
  6
CONTINUOUS
 62
     7
 10
382.1008384834357
 20
499.5833662382971
  0
VERTEX
  8
1
  6
CONTINUOUS
 62
     7
 10
382.093348264006
 20
499.5643081159875
  0
VERTEX
  8
1
  6
CONTINUOUS
 62
     7
 10
382.0851399655118
 20
499.5455935542444
  0
VERTEX
  8
1
  6
CONTINUOUS
 62
     7
 10
382.0762357219554
 20
499.5272704589602
  0
VERTEX
  8
1
  6
CONTINUOUS
 62
     7
 10
382.0666576673394
 20
499.5093867360271
  0
VERTEX
  8
1
  6
CONTINUOUS
 62
     7
 10
382.0564120920063
 20
499.4919592430906
  0
VERTEX
  8
1
  6
CONTINUOUS
 62
     7
 10
382.0455098732799
 20
499.4750017027346
  0
VERTEX
  8
1
  6
CONTINUOUS
 62
     7
 10
382.0339800256343
 20
499.4585573182593
  0
VERTEX
  8
1
  6
CONTINUOUS
 62
     7
 10
382.0218515635436
 20
499.4426692929652
  0
VERTEX
  8
1
  6
CONTINUOUS
 62
     7
 10
382.0091332191898
 20
499.4273531033262
  0
VERTEX
  8
1
  6
CONTINUOUS
 62
     7
 10
381.9958377782303
 20
499.4126202963511
  0
VERTEX
  8
1
  6
CONTINUOUS
 62
     7
 10
381.9820003353527
 20
499.3985081811425
  0
VERTEX
  8
1
  6
CONTINUOUS
 62
     7
 10
381.9676559852442
 20
499.3850540668028
  0
VERTEX
  8
1
  6
CONTINUOUS
 62
     7
 10
381.9528156610805
 20
499.3722716217729
  0
VERTEX
  8
1
  6
CONTINUOUS
 62
     7
 10
381.9374937042067
 20
499.3601698990045
  0
VERTEX
  8
1
  6
CONTINUOUS
 62
     7
 10
381.9217303215645
 20
499.3487792843662
  0
VERTEX
  8
1
  6
CONTINUOUS
 62
     7
 10
381.9055657200958
 20
499.338130163727
  0
VERTEX
  8
1
  6
CONTINUOUS
 62
     7
 10
381.8890127324179
 20
499.3282340205006
  0
VERTEX
  8
1
  6
CONTINUOUS
 62
     7
 10
381.8720868600098
 20
499.3190971638884
  0
VERTEX
  8
1
  6
CONTINUOUS
 62
     7
 10
381.8548323131054
 20
499.3107422184424
  0
VERTEX
  8
1
  6
CONTINUOUS
 62
     7
 10
381.8372933019386
 20
499.3031918087143
  0
VERTEX
  8
1
  6
CONTINUOUS
 62
     7
 10
381.8194842046279
 20
499.2964549163617
  0
VERTEX
  8
1
  6
CONTINUOUS
 62
     7
 10
381.8014212552342
 20
499.2905349328204
  0
VERTEX
  8
1
  6
CONTINUOUS
 62
     7
 10
381.7831514479054
 20
499.2854460973091
  0
VERTEX
  8
1
  6
CONTINUOUS
 62
     7
 10
381.764721776789
 20
499.2812026490467
  0
VERTEX
  8
1
  6
CONTINUOUS
 62
     7
 10
381.7461477689366
 20
499.2778108202088
  0
VERTEX
  8
1
  6
CONTINUOUS
 62
     7
 10
381.7274459432336
 20
499.2752709909246
  0
VERTEX
  8
1
  6
CONTINUOUS
 62
     7
 10
381.7086647815794
 20
499.2735886223429
  0
VERTEX
  8
1
  6
CONTINUOUS
 62
     7
 10
381.689852765873
 20
499.2727691756124
  0
VERTEX
  8
1
  6
CONTINUOUS
 62
     7
 10
381.6710261438415
 20
499.2728159615353
  0
VERTEX
  8
1
  6
CONTINUOUS
 62
     7
 10
381.6522012635819
 20
499.2737263384493
  0
VERTEX
  8
1
  6
CONTINUOUS
 62
     7
 10
381.6334267575482
 20
499.2754968388074
  0
VERTEX
  8
1
  6
CONTINUOUS
 62
     7
 10
381.6147512581942
 20
499.2781239950627
  0
VERTEX
  8
1
  6
CONTINUOUS
 62
     7
 10
381.5961912857885
 20
499.2816081053269
  0
VERTEX
  8
1
  6
CONTINUOUS
 62
     7
 10
381.5777625667368
 20
499.2859435790073
  0
VERTEX
  8
1
  6
CONTINUOUS
 62
     7
 10
381.5595125426985
 20
499.2911181155009
  0
VERTEX
  8
1
  6
CONTINUOUS
 62
     7
 10
381.5414886553331
 20
499.2971194142045
  0
VERTEX
  8
1
  6
CONTINUOUS
 62
     7
 10
381.5237072417992
 20
499.303944752317
  0
VERTEX
  8
1
  6
CONTINUOUS
 62
     7
 10
381.5061829730555
 20
499.3115857445116
  0
VERTEX
  8
1
  6
CONTINUOUS
 62
     7
 10
381.4889607914616
 20
499.3200215963964
  0
VERTEX
  8
1
  6
CONTINUOUS
 62
     7
 10
381.4720856393774
 20
499.3292315135792
  0
VERTEX
  8
1
  6
CONTINUOUS
 62
     7
 10
381.4555732202502
 20
499.3392098274452
  0
VERTEX
  8
1
  6
CONTINUOUS
 62
     7
 10
381.439436744947
 20
499.3499455892119
  0
VERTEX
  8
1
  6
CONTINUOUS
 62
     7
 10
381.4237174169562
 20
499.3614100842357
  0
VERTEX
  8
1
  6
CONTINUOUS
 62
     7
 10
381.4084564397663
 20
499.3735745978735
  0
VERTEX
  8
1
  6
CONTINUOUS
 62
     7
 10
381.3936684499914
 20
499.3864306720443
  0
VERTEX
  8
1
  6
CONTINUOUS
 62
     7
 10
381.3793648340331
 20
499.3999650964926
  0
VERTEX
  8
1
  6
CONTINUOUS
 62
     7
 10
381.3655819200604
 20
499.4141420283125
  0
VERTEX
  8
1
  6
CONTINUOUS
 62
     7
 10
381.3523560362425
 20
499.4289256245983
  0
VERTEX
  8
1
  6
CONTINUOUS
 62
     7
 10
381.338557924804
 20
499.4457589543239
  0
VERTEX
  8
1
  6
CONTINUOUS
 62
     7
 10
381.3254528670032
 20
499.4632839487703
  0
VERTEX
  8
1
  6
CONTINUOUS
 62
     7
 10
381.3130801970834
 20
499.481445512609
  0
VERTEX
  8
1
  6
CONTINUOUS
 62
     7
 10
381.3014792492882
 20
499.5001885505121
  0
VERTEX
  8
1
  6
CONTINUOUS
 62
     7
 10
381.2903007066247
 20
499.5201818294574
  0
VERTEX
  8
1
  6
CONTINUOUS
 62
     7
 10
381.2799742008527
 20
499.5407551323005
  0
VERTEX
  8
1
  6
CONTINUOUS
 62
     7
 10
381.270532424416
 20
499.5618395661958
  0
VERTEX
  8
1
  6
CONTINUOUS
 62
     7
 10
381.2620080697585
 20
499.5833662382972
  0
SEQEND
  8
1
  6
CONTINUOUS
 62
     7
  0
LINE
  8
1
  6
CONTINUOUS
 62
     7
 10
383.0025164379186
 20
502.0153233482768
 11
382.1008384834357
 21
499.5833662382971
  0
LINE
  8
1
  6
CONTINUOUS
 62
     7
 10
390.8804473150191
 20
502.0153233482767
 11
390.8804473150191
 21
499.5153233482768
  0
LINE
  8
1
  6
CONTINUOUS
 62
     7
 10
390.8804473150191
 20
499.5153233482768
 11
394.5056784631657
 21
499.5153233482768
  0
LINE
  8
1
  6
CONTINUOUS
 62
     7
 10
394.5056784631657
 20
499.5153233482768
 11
394.5056784631657
 21
501.5153233482768
  0
POLYLINE
  8
1
  6
CONTINUOUS
 62
     7
 66
     1
  0
VERTEX
  8
1
  6
CONTINUOUS
 62
     7
 10
396.318294037239
 20
503.5153233482768
  0
VERTEX
  8
1
  6
CONTINUOUS
 62
     7
 10
395.9646702812016
 20
503.4768939090832
  0
VERTEX
  8
1
  6
CONTINUOUS
 62
     7
 10
395.6246360877942
 20
503.3630824132993
  0
VERTEX
  8
1
  6
CONTINUOUS
 62
     7
 10
395.3112587803761
 20
503.1782625728819
  0
VERTEX
  8
1
  6
CONTINUOUS
 62
     7
 10
395.0365812731274
 20
502.9295369106499
  0
VERTEX
  8
1
  6
CONTINUOUS
 62
     7
 10
394.8111592686107
 20
502.626463814316
  0
VERTEX
  8
1
  6
CONTINUOUS
 62
     7
 10
394.6436556080415
 20
502.2806902130069
  0
VERTEX
  8
1
  6
CONTINUOUS
 62
     7
 10
394.5405073631582
 20
501.905503992309
  0
VERTEX
  8
1
  6
CONTINUOUS
 62
     7
 10
394.5056784631657
 20
501.5153233482768
  0
SEQEND
  8
1
  6
CONTINUOUS
 62
     7
  0
LINE
  8
1
  6
CONTINUOUS
 62
     7
 10
396.318294037239
 20
503.5153233482768
 11
408.7321452147779
 21
503.5153233482768
  0
LINE
  8
1
  6
CONTINUOUS
 62
     7
 10
354.6321452147779
 20
463.5153233482768
 11
408.7321452147779
 21
463.5153233482768
  0
POLYLINE
  8
1
  6
CONTINUOUS
 62
     7
 66
     1
  0
VERTEX
  8
1
  6
CONTINUOUS
 62
     7
 10
391.7679456646745
 20
501.9153233482768
  0
VERTEX
  8
1
  6
CONTINUOUS
 62
     7
 10
391.7267212982881
 20
501.9057159884784
  0
VERTEX
  8
1
  6
CONTINUOUS
 62
     7
 10
391.687081161183
 20
501.8772631145324
  0
VERTEX
  8
1
  6
CONTINUOUS
 62
     7
 10
391.6505486015977
 20
501.831058154428
  0
VERTEX
  8
1
  6
CONTINUOUS
 62
     7
 10
391.6185275453095
 20
501.7688767388701
  0
VERTEX
  8
1
  6
CONTINUOUS
 62
     7
 10
391.5922485435538
 20
501.6931084647866
  0
VERTEX
  8
1
  6
CONTINUOUS
 62
     7
 10
391.5727214836306
 20
501.6066650644593
  0
VERTEX
  8
1
  6
CONTINUOUS
 62
     7
 10
391.5606967795021
 20
501.5128685092848
  0
VERTEX
  8
1
  6
CONTINUOUS
 62
     7
 10
391.5566365338042
 20
501.4153233482767
  0
SEQEND
  8
1
  6
CONTINUOUS
 62
     7
  0
POLYLINE
  8
1
  6
CONTINUOUS
 62
     7
 66
     1
  0
VERTEX
  8
1
  6
CONTINUOUS
 62
     7
 10
391.5143747076301
 20
503.5153233482768
  0
VERTEX
  8
1
  6
CONTINUOUS
 62
     7
 10
391.3907016084707
 20
503.4865012688816
  0
VERTEX
  8
1
  6
CONTINUOUS
 62
     7
 10
391.2717811971555
 20
503.4011426470437
  0
VERTEX
  8
1
  6
CONTINUOUS
 62
     7
 10
391.1621835183997
 20
503.2625277667306
  0
VERTEX
  8
1
  6
CONTINUOUS
 62
     7
 10
391.0661203495349
 20
503.0759835200565
  0
VERTEX
  8
1
  6
CONTINUOUS
 62
     7
 10
390.9872833442678
 20
502.8486786978061
  0
VERTEX
  8
1
  6
CONTINUOUS
 62
     7
 10
390.9287021644985
 20
502.5893484968244
  0
VERTEX
  8
1
  6
CONTINUOUS
 62
     7
 10
390.8926280521128
 20
502.3079588313009
  0
VERTEX
  8
1
  6
CONTINUOUS
 62
     7
 10
390.8804473150191
 20
502.0153233482767
  0
SEQEND
  8
1
  6
CONTINUOUS
 62
     7
  0
LINE
  8
1
  6
CONTINUOUS
 62
     7
 10
391.5143747076301
 20
503.5153233482768
 11
396.1631755867778
 21
503.5153233482768
  0
LINE
  8
1
  6
CONTINUOUS
 62
     9
 10
396.1631755867778
 20
503.5079864444404
 11
396.1631755867778
 21
503.5153233482768
  0
LINE
  8
1
  6
CONTINUOUS
 62
     7
 10
391.7679456646745
 20
501.9153233482767
 11
394.5423007347184
 21
501.9153233482767
  0
LINE
  8
1
  6
CONTINUOUS
 62
     7
 10
391.5566365338042
 20
499.5153233482768
 11
391.5566365338042
 21
501.4153233482767
  0
POLYLINE
  8
1
  6
CONTINUOUS
 62
     7
 66
     1
  0
VERTEX
  8
1
  6
CONTINUOUS
 62
     7
 10
429.119552684981
 20
502.0153233482767
  0
VERTEX
  8
1
  6
CONTINUOUS
 62
     7
 10
429.1073719478873
 20
502.3079588313009
  0
VERTEX
  8
1
  6
CONTINUOUS
 62
     7
 10
429.0712978355016
 20
502.5893484968244
  0
VERTEX
  8
1
  6
CONTINUOUS
 62
     7
 10
429.0127166557323
 20
502.8486786978062
  0
VERTEX
  8
1
  6
CONTINUOUS
 62
     7
 10
428.9338796504651
 20
503.0759835200566
  0
VERTEX
  8
1
  6
CONTINUOUS
 62
     7
 10
428.8378164816004
 20
503.2625277667307
  0
VERTEX
  8
1
  6
CONTINUOUS
 62
     7
 10
428.7282188028446
 20
503.4011426470438
  0
VERTEX
  8
1
  6
CONTINUOUS
 62
     7
 10
428.6092983915293
 20
503.4865012688817
  0
VERTEX
  8
1
  6
CONTINUOUS
 62
     7
 10
428.4856252923699
 20
503.5153233482769
  0
SEQEND
  8
1
  6
CONTINUOUS
 62
     7
  0
POLYLINE
  8
1
  6
CONTINUOUS
 62
     7
 66
     1
  0
VERTEX
  8
1
  6
CONTINUOUS
 62
     7
 10
428.4433634661959
 20
501.4153233482767
  0
VERTEX
  8
1
  6
CONTINUOUS
 62
     7
 10
428.4393032204979
 20
501.5128685092848
  0
VERTEX
  8
1
  6
CONTINUOUS
 62
     7
 10
428.4272785163694
 20
501.6066650644593
  0
VERTEX
  8
1
  6
CONTINUOUS
 62
     7
 10
428.4077514564462
 20
501.6931084647865
  0
VERTEX
  8
1
  6
CONTINUOUS
 62
     7
 10
428.3814724546906
 20
501.7688767388699
  0
VERTEX
  8
1
  6
CONTINUOUS
 62
     7
 10
428.3494513984023
 20
501.831058154428
  0
VERTEX
  8
1
  6
CONTINUOUS
 62
     7
 10
428.3129188388171
 20
501.8772631145323
  0
VERTEX
  8
1
  6
CONTINUOUS
 62
     7
 10
428.2732787017119
 20
501.9057159884783
  0
VERTEX
  8
1
  6
CONTINUOUS
 62
     7
 10
428.2320543353255
 20
501.9153233482767
  0
SEQEND
  8
1
  6
CONTINUOUS
 62
     7
  0
LINE
  8
1
  6
CONTINUOUS
 62
     7
 10
428.2320543353255
 20
501.9153233482767
 11
425.4576992652817
 21
501.9153233482767
  0
LINE
  8
1
  6
CONTINUOUS
 62
     9
 10
423.8368244132222
 20
503.5153233482768
 11
423.8368244132222
 21
503.5079864444404
  0
LINE
  8
1
  6
CONTINUOUS
 62
     7
 10
428.4856252923699
 20
503.5153233482768
 11
423.8368244132222
 21
503.5153233482768
  0
LINE
  8
1
  6
CONTINUOUS
 62
     7
 10
428.4433634661959
 20
501.4153233482767
 11
428.4433634661959
 21
499.5153233482768
  0
LINE
  8
1
  6
CONTINUOUS
 62
     7
 10
428.4856252923699
 20
503.5153233482768
 11
436.3635561694704
 21
503.5153233482768
  0
POLYLINE
  8
1
  6
CONTINUOUS
 62
     7
 66
     1
  0
VERTEX
  8
1
  6
CONTINUOUS
 62
     7
 10
436.9974835620814
 20
502.0153233482768
  0
VERTEX
  8
1
  6
CONTINUOUS
 62
     7
 10
436.887490766883
 20
502.307958831301
  0
VERTEX
  8
1
  6
CONTINUOUS
 62
     7
 10
436.7787357384728
 20
502.5893484968245
  0
VERTEX
  8
1
  6
CONTINUOUS
 62
     7
 10
436.6753978716021
 20
502.8486786978062
  0
VERTEX
  8
1
  6
CONTINUOUS
 62
     7
 10
436.5814483825422
 20
503.0759835200566
  0
VERTEX
  8
1
  6
CONTINUOUS
 62
     7
 10
436.5004976974703
 20
503.2625277667307
  0
VERTEX
  8
1
  6
CONTINUOUS
 62
     7
 10
436.4356567058159
 20
503.4011426470437
  0
VERTEX
  8
1
  6
CONTINUOUS
 62
     7
 10
436.389417210525
 20
503.4865012688817
  0
VERTEX
  8
1
  6
CONTINUOUS
 62
     7
 10
436.3635561694704
 20
503.5153233482768
  0
SEQEND
  8
1
  6
CONTINUOUS
 62
     7
  0
POLYLINE
  8
1
  6
CONTINUOUS
 62
     7
 66
     1
  0
VERTEX
  8
1
  6
CONTINUOUS
 62
     7
 10
383.6364438305296
 20
503.5153233482768
  0
VERTEX
  8
1
  6
CONTINUOUS
 62
     7
 10
383.610582789475
 20
503.4865012688817
  0
VERTEX
  8
1
  6
CONTINUOUS
 62
     7
 10
383.5643432941841
 20
503.4011426470437
  0
VERTEX
  8
1
  6
CONTINUOUS
 62
     7
 10
383.4995023025297
 20
503.2625277667307
  0
VERTEX
  8
1
  6
CONTINUOUS
 62
     7
 10
383.4185516174577
 20
503.0759835200566
  0
VERTEX
  8
1
  6
CONTINUOUS
 62
     7
 10
383.3246021283978
 20
502.8486786978062
  0
VERTEX
  8
1
  6
CONTINUOUS
 62
     7
 10
383.2212642615271
 20
502.5893484968245
  0
VERTEX
  8
1
  6
CONTINUOUS
 62
     7
 10
383.112509233117
 20
502.307958831301
  0
VERTEX
  8
1
  6
CONTINUOUS
 62
     7
 10
383.0025164379185
 20
502.0153233482768
  0
SEQEND
  8
1
  6
CONTINUOUS
 62
     7
  0
LINE
  8
1
  6
CONTINUOUS
 62
     7
 10
383.6364438305296
 20
503.5153233482766
 11
391.5143747076301
 21
503.5153233482768
  0
LINE
  8
1
  6
CONTINUOUS
 62
     7
 10
383.6364438305296
 20
503.5153233482768
 11
382.923724948817
 21
503.5153233482768
  0
LINE
  8
1
  6
CONTINUOUS
 62
     7
 10
437.9078778404963
 20
499.5613782165776
 11
437.8991615165653
 21
499.5833662382959
  0
LINE
  8
1
  6
CONTINUOUS
 62
     7
 10
436.3635561694704
 20
503.5153233482768
 11
437.0762750511831
 21
503.5153233482768
  0
POLYLINE
  8
1
  6
CONTINUOUS
 62
     7
 66
     1
  0
VERTEX
  8
1
  6
CONTINUOUS
 62
     7
 10
380.9942575078866
 20
503.5153233482768
  0
VERTEX
  8
1
  6
CONTINUOUS
 62
     7
 10
380.7727723506226
 20
503.4865012688816
  0
VERTEX
  8
1
  6
CONTINUOUS
 62
     7
 10
380.5811710232828
 20
503.4011426470437
  0
VERTEX
  8
1
  6
CONTINUOUS
 62
     7
 10
380.4268166574257
 20
503.2625277667306
  0
VERTEX
  8
1
  6
CONTINUOUS
 62
     7
 10
380.3156410047682
 20
503.0759835200566
  0
VERTEX
  8
1
  6
CONTINUOUS
 62
     7
 10
380.2519164832938
 20
502.8486786978062
  0
VERTEX
  8
1
  6
CONTINUOUS
 62
     7
 10
380.2380919906259
 20
502.5893484968244
  0
VERTEX
  8
1
  6
CONTINUOUS
 62
     7
 10
380.2746987942646
 20
502.307958831301
  0
VERTEX
  8
1
  6
CONTINUOUS
 62
     7
 10
380.3603301152755
 20
502.0153233482768
  0
SEQEND
  8
1
  6
CONTINUOUS
 62
     7
  0
LINE
  8
1
  6
CONTINUOUS
 62
     7
 10
380.9942575078867
 20
503.5153233482766
 11
382.923724948817
 21
503.5153233482768
  0
POLYLINE
  8
1
  6
CONTINUOUS
 62
     7
 66
     1
  0
VERTEX
  8
1
  6
CONTINUOUS
 62
     7
 10
439.6396698847245
 20
502.0153233482768
  0
VERTEX
  8
1
  6
CONTINUOUS
 62
     7
 10
439.7253012057354
 20
502.307958831301
  0
VERTEX
  8
1
  6
CONTINUOUS
 62
     7
 10
439.7619080093742
 20
502.5893484968244
  0
VERTEX
  8
1
  6
CONTINUOUS
 62
     7
 10
439.7480835167062
 20
502.8486786978062
  0
VERTEX
  8
1
  6
CONTINUOUS
 62
     7
 10
439.6843589952318
 20
503.0759835200566
  0
VERTEX
  8
1
  6
CONTINUOUS
 62
     7
 10
439.5731833425743
 20
503.2625277667306
  0
VERTEX
  8
1
  6
CONTINUOUS
 62
     7
 10
439.4188289767172
 20
503.4011426470437
  0
VERTEX
  8
1
  6
CONTINUOUS
 62
     7
 10
439.2272276493774
 20
503.4865012688817
  0
VERTEX
  8
1
  6
CONTINUOUS
 62
     7
 10
439.0057424921134
 20
503.5153233482768
  0
SEQEND
  8
1
  6
CONTINUOUS
 62
     7
  0
LINE
  8
1
  6
CONTINUOUS
 62
     7
 10
439.0057424921134
 20
503.5153233482768
 11
437.0762750511831
 21
503.5153233482768
  0
POLYLINE
  8
1
  6
CONTINUOUS
 62
     7
 66
     1
  0
VERTEX
  8
1
  6
CONTINUOUS
 62
     7
 10
447.517600761825
 20
502.0153233482767
  0
VERTEX
  8
1
  6
CONTINUOUS
 62
     7
 10
447.5054200247312
 20
502.3079588313009
  0
VERTEX
  8
1
  6
CONTINUOUS
 62
     7
 10
447.4693459123455
 20
502.5893484968244
  0
VERTEX
  8
1
  6
CONTINUOUS
 62
     7
 10
447.4107647325762
 20
502.8486786978061
  0
VERTEX
  8
1
  6
CONTINUOUS
 62
     7
 10
447.3319277273091
 20
503.0759835200565
  0
VERTEX
  8
1
  6
CONTINUOUS
 62
     7
 10
447.2358645584443
 20
503.2625277667306
  0
VERTEX
  8
1
  6
CONTINUOUS
 62
     7
 10
447.1262668796886
 20
503.4011426470437
  0
VERTEX
  8
1
  6
CONTINUOUS
 62
     7
 10
447.0073464683733
 20
503.4865012688816
  0
VERTEX
  8
1
  6
CONTINUOUS
 62
     7
 10
446.8836733692139
 20
503.5153233482768
  0
SEQEND
  8
1
  6
CONTINUOUS
 62
     7
  0
LINE
  8
1
  6
CONTINUOUS
 62
     7
 10
439.0057424921134
 20
503.5153233482768
 11
446.8836733692139
 21
503.5153233482768
  0
POLYLINE
  8
1
  6
CONTINUOUS
 62
     7
 66
     1
  0
VERTEX
  8
1
  6
CONTINUOUS
 62
     7
 10
373.1163266307861
 20
503.5153233482769
  0
VERTEX
  8
1
  6
CONTINUOUS
 62
     7
 10
372.9926535316268
 20
503.4865012688817
  0
VERTEX
  8
1
  6
CONTINUOUS
 62
     7
 10
372.8737331203115
 20
503.4011426470438
  0
VERTEX
  8
1
  6
CONTINUOUS
 62
     7
 10
372.7641354415557
 20
503.2625277667307
  0
VERTEX
  8
1
  6
CONTINUOUS
 62
     7
 10
372.6680722726909
 20
503.0759835200566
  0
VERTEX
  8
1
  6
CONTINUOUS
 62
     7
 10
372.5892352674238
 20
502.8486786978062
  0
VERTEX
  8
1
  6
CONTINUOUS
 62
     7
 10
372.5306540876545
 20
502.5893484968244
  0
VERTEX
  8
1
  6
CONTINUOUS
 62
     7
 10
372.4945799752688
 20
502.3079588313009
  0
VERTEX
  8
1
  6
CONTINUOUS
 62
     7
 10
372.482399238175
 20
502.0153233482767
  0
SEQEND
  8
1
  6
CONTINUOUS
 62
     7
  0
LINE
  8
1
  6
CONTINUOUS
 62
     7
 10
373.1163266307861
 20
503.5153233482768
 11
380.9942575078867
 21
503.5153233482766
  0
LINE
  8
1
  6
CONTINUOUS
 62
     7
 10
450.4666426911865
 20
499.5153233482768
 11
450.4666426911865
 21
501.5153233482768
  0
LINE
  8
1
  6
CONTINUOUS
 62
     7
 10
452.2792582652597
 20
503.5153233482768
 11
452.9554474840448
 21
503.5153233482768
  0
POLYLINE
  8
1
  6
CONTINUOUS
 62
     7
 66
     1
  0
VERTEX
  8
1
  6
CONTINUOUS
 62
     7
 10
452.2792582652597
 20
503.5153233482768
  0
VERTEX
  8
1
  6
CONTINUOUS
 62
     7
 10
451.9256345092223
 20
503.4768939090832
  0
VERTEX
  8
1
  6
CONTINUOUS
 62
     7
 10
451.5856003158149
 20
503.3630824132993
  0
VERTEX
  8
1
  6
CONTINUOUS
 62
     7
 10
451.2722230083968
 20
503.1782625728819
  0
VERTEX
  8
1
  6
CONTINUOUS
 62
     7
 10
450.9975455011481
 20
502.9295369106499
  0
VERTEX
  8
1
  6
CONTINUOUS
 62
     7
 10
450.7721234966314
 20
502.626463814316
  0
VERTEX
  8
1
  6
CONTINUOUS
 62
     7
 10
450.6046198360622
 20
502.2806902130069
  0
VERTEX
  8
1
  6
CONTINUOUS
 62
     7
 10
450.501471591179
 20
501.905503992309
  0
VERTEX
  8
1
  6
CONTINUOUS
 62
     7
 10
450.4666426911865
 20
501.5153233482768
  0
SEQEND
  8
1
  6
CONTINUOUS
 62
     7
  0
LINE
  8
1
  6
CONTINUOUS
 62
     7
 10
367.0445525159552
 20
503.5153233482768
 11
367.7207417347403
 21
503.5153233482768
  0
POLYLINE
  8
1
  6
CONTINUOUS
 62
     7
 66
     1
  0
VERTEX
  8
1
  6
CONTINUOUS
 62
     7
 10
369.5333573088135
 20
501.5153233482768
  0
VERTEX
  8
1
  6
CONTINUOUS
 62
     7
 10
369.498528408821
 20
501.905503992309
  0
VERTEX
  8
1
  6
CONTINUOUS
 62
     7
 10
369.3953801639378
 20
502.2806902130069
  0
VERTEX
  8
1
  6
CONTINUOUS
 62
     7
 10
369.2278765033686
 20
502.626463814316
  0
VERTEX
  8
1
  6
CONTINUOUS
 62
     7
 10
369.0024544988519
 20
502.9295369106499
  0
VERTEX
  8
1
  6
CONTINUOUS
 62
     7
 10
368.7277769916032
 20
503.1782625728819
  0
VERTEX
  8
1
  6
CONTINUOUS
 62
     7
 10
368.4143996841851
 20
503.3630824132993
  0
VERTEX
  8
1
  6
CONTINUOUS
 62
     7
 10
368.0743654907777
 20
503.4768939090832
  0
VERTEX
  8
1
  6
CONTINUOUS
 62
     7
 10
367.7207417347403
 20
503.5153233482768
  0
SEQEND
  8
1
  6
CONTINUOUS
 62
     7
  0
LINE
  8
1
  6
CONTINUOUS
 62
     7
 10
369.5333573088136
 20
501.5153233482768
 11
369.5333573088136
 21
499.5153233482768
  0
LINE
  8
1
  6
CONTINUOUS
 62
     7
 10
467.1
 20
503.5153233482768
 11
467.1
 21
463.5153233482768
  0
LINE
  8
1
  6
CONTINUOUS
 62
     7
 10
465.3678547852221
 20
503.5153233482768
 11
467.1
 21
503.5153233482768
  0
LINE
  8
1
  6
CONTINUOUS
 62
     7
 10
467.1
 20
463.5153233482768
 11
465.3678547852221
 21
463.5153233482768
  0
LINE
  8
1
  6
CONTINUOUS
 62
     7
 10
352.9
 20
463.5153233482768
 11
352.9
 21
503.5153233482768
  0
LINE
  8
1
  6
CONTINUOUS
 62
     7
 10
352.9
 20
503.5153233482768
 11
354.6321452147779
 21
503.5153233482768
  0
LINE
  8
1
  6
CONTINUOUS
 62
     7
 10
354.6321452147779
 20
463.5153233482768
 11
352.9
 21
463.5153233482768
  0
LINE
  8
1
  6
CONTINUOUS
 62
     7
 10
451.6
 20
503.3695838130906
 11
451.6
 21
503.5153233482768
  0
LINE
  8
1
  6
CONTINUOUS
 62
     7
 10
451.6
 20
503.5153233482768
 11
452.2792582652597
 21
503.5153233482768
  0
LINE
  8
1
  6
CONTINUOUS
 62
     7
 10
367.7207417347403
 20
503.5153233482768
 11
368.4
 21
503.5153233482768
  0
LINE
  8
1
  6
CONTINUOUS
 62
     7
 10
368.4
 20
503.5153233482768
 11
368.4
 21
503.3695838130905
  0
LINE
  8
1
  6
CONTINUOUS
 62
     7
 10
405.6985796330683
 20
207.5275423851586
 11
405.1069140666313
 21
207.5275423851586
  0
POLYLINE
  8
1
  6
CONTINUOUS
 62
     7
 66
     1
  0
VERTEX
  8
1
  6
CONTINUOUS
 62
     7
 10
401.1201359202993
 20
208.4153038631264
  0
VERTEX
  8
1
  6
CONTINUOUS
 62
     7
 10
401.6749330285429
 20
208.2421101905161
  0
VERTEX
  8
1
  6
CONTINUOUS
 62
     7
 10
402.2571325434254
 20
208.0755722536161
  0
VERTEX
  8
1
  6
CONTINUOUS
 62
     7
 10
402.8443608640911
 20
207.922090011946
  0
VERTEX
  8
1
  6
CONTINUOUS
 62
     7
 10
403.4140511354984
 20
207.7875617019791
  0
VERTEX
  8
1
  6
CONTINUOUS
 62
     7
 10
403.944310480003
 20
207.6771571712233
  0
VERTEX
  8
1
  6
CONTINUOUS
 62
     7
 10
404.4147613283683
 20
207.59511920388
  0
VERTEX
  8
1
  6
CONTINUOUS
 62
     7
 10
404.8073245183238
 20
207.5446004730265
  0
VERTEX
  8
1
  6
CONTINUOUS
 62
     7
 10
405.1069140666314
 20
207.5275423851586
  0
SEQEND
  8
1
  6
CONTINUOUS
 62
     7
  0
LINE
  8
1
  6
CONTINUOUS
 62
     7
 10
401.1201359202993
 20
208.4153038631264
 11
359.0206685267357
 21
222.161290943729
  0
POLYLINE
  8
1
  6
CONTINUOUS
 62
     7
 66
     1
  0
VERTEX
  8
1
  6
CONTINUOUS
 62
     7
 10
357.5695999508479
 20
223.0490524216967
  0
VERTEX
  8
1
  6
CONTINUOUS
 62
     7
 10
357.3596352905981
 20
223.0280089299438
  0
VERTEX
  8
1
  6
CONTINUOUS
 62
     7
 10
357.2885233119579
 20
222.9658760842423
  0
SEQEND
  8
1
  6
CONTINUOUS
 62
     7
  0
LINE
  8
1
  6
CONTINUOUS
 62
     7
 10
357.5695999508479
 20
223.0490524216968
 11
358.1612655172849
 21
223.0490524216968
  0
POLYLINE
  8
1
  6
CONTINUOUS
 62
     7
 66
     1
  0
VERTEX
  8
1
  6
CONTINUOUS
 62
     7
 10
401.1201359202993
 20
207.372438129691
  0
VERTEX
  8
1
  6
CONTINUOUS
 62
     7
 10
401.6749330285429
 20
207.1992444570807
  0
VERTEX
  8
1
  6
CONTINUOUS
 62
     7
 10
402.2571325434254
 20
207.0327065201808
  0
VERTEX
  8
1
  6
CONTINUOUS
 62
     7
 10
402.8443608640911
 20
206.8792242785106
  0
VERTEX
  8
1
  6
CONTINUOUS
 62
     7
 10
403.4140511354984
 20
206.7446959685438
  0
VERTEX
  8
1
  6
CONTINUOUS
 62
     7
 10
403.9443104800029
 20
206.634291437788
  0
VERTEX
  8
1
  6
CONTINUOUS
 62
     7
 10
404.4147613283683
 20
206.5522534704446
  0
VERTEX
  8
1
  6
CONTINUOUS
 62
     7
 10
404.8073245183238
 20
206.5017347395911
  0
VERTEX
  8
1
  6
CONTINUOUS
 62
     7
 10
405.1069140666314
 20
206.4846766517232
  0
SEQEND
  8
1
  6
CONTINUOUS
 62
     7
  0
LINE
  8
1
  6
CONTINUOUS
 62
     7
 10
462.4304000491521
 20
223.0490524216968
 11
461.8387344827152
 21
223.0490524216968
  0
POLYLINE
  8
1
  6
CONTINUOUS
 62
     7
 66
     1
  0
VERTEX
  8
1
  6
CONTINUOUS
 62
     7
 10
460.9793314732643
 20
222.161290943729
  0
VERTEX
  8
1
  6
CONTINUOUS
 62
     7
 10
461.467764989352
 20
222.3281481587634
  0
VERTEX
  8
1
  6
CONTINUOUS
 62
     7
 10
461.8935976127613
 20
222.4890579387421
  0
VERTEX
  8
1
  6
CONTINUOUS
 62
     7
 10
462.2416510254808
 20
222.6382848381465
  0
VERTEX
  8
1
  6
CONTINUOUS
 62
     7
 10
462.4995192607226
 20
222.7705098344064
  0
VERTEX
  8
1
  6
CONTINUOUS
 62
     7
 10
462.6580108994541
 20
222.881019918391
  0
VERTEX
  8
1
  6
CONTINUOUS
 62
     7
 10
462.7114766880422
 20
222.9658760842424
  0
SEQEND
  8
1
  6
CONTINUOUS
 62
     7
  0
LINE
  8
1
  6
CONTINUOUS
 62
     7
 10
418.8798640797008
 20
208.4153038631264
 11
460.9793314732643
 21
222.161290943729
  0
POLYLINE
  8
1
  6
CONTINUOUS
 62
     7
 66
     1
  0
VERTEX
  8
1
  6
CONTINUOUS
 62
     7
 10
414.8930859333686
 20
207.5275423851586
  0
VERTEX
  8
1
  6
CONTINUOUS
 62
     7
 10
415.1926754816762
 20
207.5446004730265
  0
VERTEX
  8
1
  6
CONTINUOUS
 62
     7
 10
415.5852386716317
 20
207.59511920388
  0
VERTEX
  8
1
  6
CONTINUOUS
 62
     7
 10
416.0556895199971
 20
207.6771571712233
  0
VERTEX
  8
1
  6
CONTINUOUS
 62
     7
 10
416.5859488645016
 20
207.7875617019791
  0
VERTEX
  8
1
  6
CONTINUOUS
 62
     7
 10
417.1556391359089
 20
207.922090011946
  0
VERTEX
  8
1
  6
CONTINUOUS
 62
     7
 10
417.7428674565746
 20
208.0755722536161
  0
VERTEX
  8
1
  6
CONTINUOUS
 62
     7
 10
418.3250669714571
 20
208.2421101905161
  0
VERTEX
  8
1
  6
CONTINUOUS
 62
     7
 10
418.8798640797007
 20
208.4153038631264
  0
SEQEND
  8
1
  6
CONTINUOUS
 62
     7
  0
LINE
  8
1
  6
CONTINUOUS
 62
     7
 10
414.3014203669317
 20
207.5275423851586
 11
414.8930859333687
 21
207.5275423851586
  0
POLYLINE
  8
1
  6
CONTINUOUS
 62
     7
 66
     1
  0
VERTEX
  8
1
  6
CONTINUOUS
 62
     7
 10
414.8930859333686
 20
206.4846766517232
  0
VERTEX
  8
1
  6
CONTINUOUS
 62
     7
 10
415.1926754816762
 20
206.5017347395912
  0
VERTEX
  8
1
  6
CONTINUOUS
 62
     7
 10
415.5852386716317
 20
206.5522534704446
  0
VERTEX
  8
1
  6
CONTINUOUS
 62
     7
 10
416.055689519997
 20
206.634291437788
  0
VERTEX
  8
1
  6
CONTINUOUS
 62
     7
 10
416.5859488645016
 20
206.7446959685438
  0
VERTEX
  8
1
  6
CONTINUOUS
 62
     7
 10
417.1556391359089
 20
206.8792242785106
  0
VERTEX
  8
1
  6
CONTINUOUS
 62
     7
 10
417.7428674565746
 20
207.0327065201808
  0
VERTEX
  8
1
  6
CONTINUOUS
 62
     7
 10
418.3250669714571
 20
207.1992444570808
  0
VERTEX
  8
1
  6
CONTINUOUS
 62
     7
 10
418.8798640797007
 20
207.372438129691
  0
SEQEND
  8
1
  6
CONTINUOUS
 62
     7
  0
LINE
  8
1
  6
CONTINUOUS
 62
     7
 10
401.1201359202993
 20
207.372438129691
 11
359.0206685267357
 21
221.1184252102937
  0
LINE
  8
1
  6
CONTINUOUS
 62
     7
 10
418.8798640797008
 20
207.372438129691
 11
460.9793314732643
 21
221.1184252102937
  0
POLYLINE
  8
1
  6
CONTINUOUS
 62
     7
 66
     1
  0
VERTEX
  8
1
  6
CONTINUOUS
 62
     7
 10
405.6985796330683
 20
207.5275423851586
  0
VERTEX
  8
1
  6
CONTINUOUS
 62
     7
 10
405.8304976055049
 20
207.5596037813906
  0
VERTEX
  8
1
  6
CONTINUOUS
 62
     7
 10
405.9573460442413
 20
207.6545558686099
  0
VERTEX
  8
1
  6
CONTINUOUS
 62
     7
 10
406.0742502349141
 20
207.8087496913542
  0
VERTEX
  8
1
  6
CONTINUOUS
 62
     7
 10
406.1767176150365
 20
208.0162596674884
  0
VERTEX
  8
1
  6
CONTINUOUS
 62
     7
 10
406.2608104206548
 20
208.2691113050026
  0
VERTEX
  8
1
  6
CONTINUOUS
 62
     7
 10
406.3232970124087
 20
208.557587657268
  0
VERTEX
  8
1
  6
CONTINUOUS
 62
     7
 10
406.3617760656201
 20
208.8706027398464
  0
VERTEX
  8
1
  6
CONTINUOUS
 62
     7
 10
406.3747688518534
 20
209.1961275586552
  0
SEQEND
  8
1
  6
CONTINUOUS
 62
     7
  0
LINE
  8
1
  6
CONTINUOUS
 62
     7
 10
406.3747688518534
 20
211.6990053189005
 11
406.3747688518534
 21
209.1961275586552
  0
LINE
  8
1
  6
CONTINUOUS
 62
     7
 10
406.7973871135941
 20
209.1961275586552
 11
406.7973871135941
 21
211.56101532697
  0
POLYLINE
  8
1
  6
CONTINUOUS
 62
     7
 66
     1
  0
VERTEX
  8
1
  6
CONTINUOUS
 62
     7
 10
405.6985796330683
 20
206.4846766517232
  0
VERTEX
  8
1
  6
CONTINUOUS
 62
     7
 10
405.9129463382778
 20
206.5367764206003
  0
VERTEX
  8
1
  6
CONTINUOUS
 62
     7
 10
406.1190750512244
 20
206.6910735623316
  0
VERTEX
  8
1
  6
CONTINUOUS
 62
     7
 10
406.3090443610677
 20
206.9416385242911
  0
VERTEX
  8
1
  6
CONTINUOUS
 62
     7
 10
406.4755538537667
 20
207.2788422355092
  0
VERTEX
  8
1
  6
CONTINUOUS
 62
     7
 10
406.6122046628963
 20
207.6897261464698
  0
VERTEX
  8
1
  6
CONTINUOUS
 62
     7
 10
406.7137453744965
 20
208.1585002189011
  0
VERTEX
  8
1
  6
CONTINUOUS
 62
     7
 10
406.776273835965
 20
208.6671497280909
  0
VERTEX
  8
1
  6
CONTINUOUS
 62
     7
 10
406.7973871135941
 20
209.1961275586552
  0
SEQEND
  8
1
  6
CONTINUOUS
 62
     7
  0
LINE
  8
1
  6
CONTINUOUS
 62
     7
 10
405.1069140666314
 20
206.4846766517232
 11
405.6985796330683
 21
206.4846766517232
  0
POLYLINE
  8
1
  6
CONTINUOUS
 62
     7
 66
     1
  0
VERTEX
  8
1
  6
CONTINUOUS
 62
     7
 10
413.2026128864059
 20
209.1961275586552
  0
VERTEX
  8
1
  6
CONTINUOUS
 62
     7
 10
413.223726164035
 20
208.6671497280909
  0
VERTEX
  8
1
  6
CONTINUOUS
 62
     7
 10
413.2862546255036
 20
208.1585002189011
  0
VERTEX
  8
1
  6
CONTINUOUS
 62
     7
 10
413.3877953371038
 20
207.6897261464698
  0
VERTEX
  8
1
  6
CONTINUOUS
 62
     7
 10
413.5244461462334
 20
207.2788422355092
  0
VERTEX
  8
1
  6
CONTINUOUS
 62
     7
 10
413.6909556389323
 20
206.9416385242911
  0
VERTEX
  8
1
  6
CONTINUOUS
 62
     7
 10
413.8809249487757
 20
206.6910735623316
  0
VERTEX
  8
1
  6
CONTINUOUS
 62
     7
 10
414.0870536617222
 20
206.5367764206003
  0
VERTEX
  8
1
  6
CONTINUOUS
 62
     7
 10
414.3014203669317
 20
206.4846766517232
  0
SEQEND
  8
1
  6
CONTINUOUS
 62
     7
  0
LINE
  8
1
  6
CONTINUOUS
 62
     7
 10
413.2026128864059
 20
209.1961275586552
 11
413.2026128864059
 21
211.56101532697
  0
LINE
  8
1
  6
CONTINUOUS
 62
     7
 10
413.6252311481466
 20
211.6990053189004
 11
413.6252311481466
 21
209.1961275586551
  0
POLYLINE
  8
1
  6
CONTINUOUS
 62
     7
 66
     1
  0
VERTEX
  8
1
  6
CONTINUOUS
 62
     7
 10
413.6252311481466
 20
209.1961275586551
  0
VERTEX
  8
1
  6
CONTINUOUS
 62
     7
 10
413.6382239343799
 20
208.8706027398463
  0
VERTEX
  8
1
  6
CONTINUOUS
 62
     7
 10
413.6767029875913
 20
208.557587657268
  0
VERTEX
  8
1
  6
CONTINUOUS
 62
     7
 10
413.7391895793453
 20
208.2691113050026
  0
VERTEX
  8
1
  6
CONTINUOUS
 62
     7
 10
413.8232823849635
 20
208.0162596674884
  0
VERTEX
  8
1
  6
CONTINUOUS
 62
     7
 10
413.9257497650859
 20
207.8087496913542
  0
VERTEX
  8
1
  6
CONTINUOUS
 62
     7
 10
414.0426539557588
 20
207.6545558686099
  0
VERTEX
  8
1
  6
CONTINUOUS
 62
     7
 10
414.1695023944951
 20
207.5596037813906
  0
VERTEX
  8
1
  6
CONTINUOUS
 62
     7
 10
414.3014203669317
 20
207.5275423851586
  0
SEQEND
  8
1
  6
CONTINUOUS
 62
     7
  0
LINE
  8
1
  6
CONTINUOUS
 62
     7
 10
414.8930859333687
 20
206.4846766517232
 11
414.3014203669317
 21
206.4846766517232
  0
POLYLINE
  8
1
  6
CONTINUOUS
 62
     7
 66
     1
  0
VERTEX
  8
1
  6
CONTINUOUS
 62
     7
 10
358.1612655172849
 20
223.0490524216968
  0
VERTEX
  8
1
  6
CONTINUOUS
 62
     7
 10
358.2931834897215
 20
223.0811138179289
  0
VERTEX
  8
1
  6
CONTINUOUS
 62
     7
 10
358.4200319284579
 20
223.1760659051481
  0
VERTEX
  8
1
  6
CONTINUOUS
 62
     7
 10
358.5369361191307
 20
223.3302597278924
  0
VERTEX
  8
1
  6
CONTINUOUS
 62
     7
 10
358.6394034992531
 20
223.5377697040266
  0
VERTEX
  8
1
  6
CONTINUOUS
 62
     7
 10
358.7234963048713
 20
223.7906213415409
  0
VERTEX
  8
1
  6
CONTINUOUS
 62
     7
 10
358.7859828966253
 20
224.0790976938062
  0
VERTEX
  8
1
  6
CONTINUOUS
 62
     7
 10
358.8244619498367
 20
224.3921127763846
  0
VERTEX
  8
1
  6
CONTINUOUS
 62
     7
 10
358.83745473607
 20
224.7176375951934
  0
SEQEND
  8
1
  6
CONTINUOUS
 62
     7
  0
POLYLINE
  8
1
  6
CONTINUOUS
 62
     7
 66
     1
  0
VERTEX
  8
1
  6
CONTINUOUS
 62
     7
 10
461.16254526393
 20
224.7176375951934
  0
VERTEX
  8
1
  6
CONTINUOUS
 62
     7
 10
461.1755380501634
 20
224.3921127763846
  0
VERTEX
  8
1
  6
CONTINUOUS
 62
     7
 10
461.2140171033748
 20
224.0790976938062
  0
VERTEX
  8
1
  6
CONTINUOUS
 62
     7
 10
461.2765036951287
 20
223.7906213415408
  0
VERTEX
  8
1
  6
CONTINUOUS
 62
     7
 10
461.360596500747
 20
223.5377697040266
  0
VERTEX
  8
1
  6
CONTINUOUS
 62
     7
 10
461.4630638808694
 20
223.3302597278924
  0
VERTEX
  8
1
  6
CONTINUOUS
 62
     7
 10
461.5799680715422
 20
223.1760659051481
  0
VERTEX
  8
1
  6
CONTINUOUS
 62
     7
 10
461.7068165102785
 20
223.0811138179288
  0
VERTEX
  8
1
  6
CONTINUOUS
 62
     7
 10
461.8387344827152
 20
223.0490524216968
  0
SEQEND
  8
1
  6
CONTINUOUS
 62
     7
  0
LINE
  8
1
  6
CONTINUOUS
 62
     9
 10
408.7321452147779
 20
210.9292933240682
 11
408.7321452147779
 21
463.5153233482768
  0
LINE
  8
1
  6
CONTINUOUS
 62
     9
 10
411.2678547852221
 20
463.5153233482768
 11
411.2678547852221
 21
210.9292933240681
  0
POLYLINE
  8
1
  6
CONTINUOUS
 62
     7
 66
     1
  0
VERTEX
  8
1
  6
CONTINUOUS
 62
     7
 10
408.7321452147779
 20
210.9292933240682
  0
VERTEX
  8
1
  6
CONTINUOUS
 62
     7
 10
409.3506811581857
 20
210.7822744862036
  0
VERTEX
  8
1
  6
CONTINUOUS
 62
     7
 10
410.0
 20
210.7324813427027
  0
VERTEX
  8
1
  6
CONTINUOUS
 62
     7
 10
410.6493188418143
 20
210.7822744862036
  0
VERTEX
  8
1
  6
CONTINUOUS
 62
     7
 10
411.2678547852221
 20
210.9292933240682
  0
SEQEND
  8
1
  6
CONTINUOUS
 62
     7
  0
LINE
  8
1
  6
CONTINUOUS
 62
     7
 10
358.83745473607
 20
224.7176375951934
 11
358.83745473607
 21
227.2205153554386
  0
LINE
  8
1
  6
CONTINUOUS
 62
     7
 10
356.7321452147779
 20
227.9079244670506
 11
358.83745473607
 21
227.2205153554386
  0
LINE
  8
1
  6
CONTINUOUS
 62
     9
 10
356.7321452147779
 20
463.5153233482768
 11
356.7321452147779
 21
227.9079244670506
  0
LINE
  8
1
  6
CONTINUOUS
 62
     7
 10
406.3747688518534
 20
211.6990053189005
 11
408.7321452147779
 21
210.9292933240682
  0
LINE
  8
1
  6
CONTINUOUS
 62
     9
 10
463.2678547852221
 20
227.9079244670505
 11
463.2678547852221
 21
463.5153233482767
  0
LINE
  8
1
  6
CONTINUOUS
 62
     7
 10
461.16254526393
 20
227.2205153554385
 11
463.2678547852221
 21
227.9079244670505
  0
LINE
  8
1
  6
CONTINUOUS
 62
     7
 10
461.16254526393
 20
224.7176375951934
 11
461.16254526393
 21
227.2205153554385
  0
LINE
  8
1
  6
CONTINUOUS
 62
     7
 10
411.2678547852221
 20
210.9292933240681
 11
413.6252311481466
 21
211.6990053189004
  0
POLYLINE
  8
1
  6
CONTINUOUS
 62
     7
 66
     1
  0
VERTEX
  8
1
  6
CONTINUOUS
 62
     7
 10
462.7114766880422
 20
222.9658760842424
  0
VERTEX
  8
1
  6
CONTINUOUS
 62
     7
 10
462.640364709402
 20
223.0280089299438
  0
VERTEX
  8
1
  6
CONTINUOUS
 62
     7
 10
462.4304000491522
 20
223.0490524216968
  0
SEQEND
  8
1
  6
CONTINUOUS
 62
     7
  0
POLYLINE
  8
1
  6
CONTINUOUS
 62
     7
 66
     1
  0
VERTEX
  8
1
  6
CONTINUOUS
 62
     7
 10
460.9793314732643
 20
221.1184252102937
  0
VERTEX
  8
1
  6
CONTINUOUS
 62
     7
 10
461.467764989352
 20
221.285282425328
  0
VERTEX
  8
1
  6
CONTINUOUS
 62
     7
 10
461.8935976127613
 20
221.4461922053068
  0
VERTEX
  8
1
  6
CONTINUOUS
 62
     7
 10
462.2416510254808
 20
221.5954191047112
  0
VERTEX
  8
1
  6
CONTINUOUS
 62
     7
 10
462.4995192607226
 20
221.727644100971
  0
VERTEX
  8
1
  6
CONTINUOUS
 62
     7
 10
462.6580108994541
 20
221.8381541849557
  0
VERTEX
  8
1
  6
CONTINUOUS
 62
     7
 10
462.7114766880422
 20
221.923010350807
  0
SEQEND
  8
1
  6
CONTINUOUS
 62
     7
  0
POLYLINE
  8
1
  6
CONTINUOUS
 62
     7
 66
     1
  0
VERTEX
  8
1
  6
CONTINUOUS
 62
     7
 10
357.2885233119579
 20
222.9658760842423
  0
VERTEX
  8
1
  6
CONTINUOUS
 62
     7
 10
357.341989100546
 20
222.881019918391
  0
VERTEX
  8
1
  6
CONTINUOUS
 62
     7
 10
357.5004807392774
 20
222.7705098344063
  0
VERTEX
  8
1
  6
CONTINUOUS
 62
     7
 10
357.7583489745192
 20
222.6382848381464
  0
VERTEX
  8
1
  6
CONTINUOUS
 62
     7
 10
358.1064023872387
 20
222.4890579387421
  0
VERTEX
  8
1
  6
CONTINUOUS
 62
     7
 10
358.532235010648
 20
222.3281481587633
  0
VERTEX
  8
1
  6
CONTINUOUS
 62
     7
 10
359.0206685267358
 20
222.1612909437289
  0
SEQEND
  8
1
  6
CONTINUOUS
 62
     7
  0
POLYLINE
  8
1
  6
CONTINUOUS
 62
     7
 66
     1
  0
VERTEX
  8
1
  6
CONTINUOUS
 62
     7
 10
357.2885233119579
 20
221.923010350807
  0
VERTEX
  8
1
  6
CONTINUOUS
 62
     7
 10
357.341989100546
 20
221.8381541849557
  0
VERTEX
  8
1
  6
CONTINUOUS
 62
     7
 10
357.5004807392774
 20
221.727644100971
  0
VERTEX
  8
1
  6
CONTINUOUS
 62
     7
 10
357.7583489745192
 20
221.5954191047112
  0
VERTEX
  8
1
  6
CONTINUOUS
 62
     7
 10
358.1064023872387
 20
221.4461922053068
  0
VERTEX
  8
1
  6
CONTINUOUS
 62
     7
 10
358.532235010648
 20
221.285282425328
  0
VERTEX
  8
1
  6
CONTINUOUS
 62
     7
 10
359.0206685267358
 20
221.1184252102937
  0
SEQEND
  8
1
  6
CONTINUOUS
 62
     7
  0
LINE
  8
1
  6
CONTINUOUS
 62
     7
 10
355.0000000000001
 20
229.8117351003142
 11
355.0000000000001
 21
463.5153233482767
  0
POLYLINE
  8
1
  6
CONTINUOUS
 62
     7
 66
     1
  0
VERTEX
  8
1
  6
CONTINUOUS
 62
     7
 10
355.0000000000001
 20
229.8117351003143
  0
VERTEX
  8
1
  6
CONTINUOUS
 62
     7
 10
355.0534657885881
 20
229.4169172939395
  0
VERTEX
  8
1
  6
CONTINUOUS
 62
     7
 10
355.2119574273196
 20
229.0361723178092
  0
VERTEX
  8
1
  6
CONTINUOUS
 62
     7
 10
355.4698256625614
 20
228.6830713921896
  0
VERTEX
  8
1
  6
CONTINUOUS
 62
     7
 10
355.8178790752809
 20
228.3702003967071
  0
VERTEX
  8
1
  6
CONTINUOUS
 62
     7
 10
356.2437116986902
 20
228.1087112610282
  0
VERTEX
  8
1
  6
CONTINUOUS
 62
     7
 10
356.732145214778
 20
227.9079244670506
  0
SEQEND
  8
1
  6
CONTINUOUS
 62
     7
  0
LINE
  8
1
  6
CONTINUOUS
 62
     7
 10
465.0
 20
463.5153233482768
 11
465.0
 21
229.8117351003143
  0
POLYLINE
  8
1
  6
CONTINUOUS
 62
     7
 66
     1
  0
VERTEX
  8
1
  6
CONTINUOUS
 62
     7
 10
463.2678547852221
 20
227.9079244670506
  0
VERTEX
  8
1
  6
CONTINUOUS
 62
     7
 10
463.7562883013098
 20
228.1087112610282
  0
VERTEX
  8
1
  6
CONTINUOUS
 62
     7
 10
464.1821209247191
 20
228.3702003967071
  0
VERTEX
  8
1
  6
CONTINUOUS
 62
     7
 10
464.5301743374387
 20
228.6830713921896
  0
VERTEX
  8
1
  6
CONTINUOUS
 62
     7
 10
464.7880425726805
 20
229.0361723178092
  0
VERTEX
  8
1
  6
CONTINUOUS
 62
     7
 10
464.9465342114119
 20
229.4169172939396
  0
VERTEX
  8
1
  6
CONTINUOUS
 62
     7
 10
465.0
 20
229.8117351003143
  0
SEQEND
  8
1
  6
CONTINUOUS
 62
     7
  0
LINE
  8
1
  6
CONTINUOUS
 62
     7
 10
467.1000000000001
 20
468.6377096005128
 11
467.4477267507413
 21
468.6377096005128
  0
LINE
  8
1
  6
CONTINUOUS
 62
     7
 10
467.4477267507413
 20
480.4377096005127
 11
467.1000000000001
 21
480.4377096005127
  0
ARC
  8
1
  6
CONTINUOUS
 62
     7
 10
462.5
 20
474.5377096005128
 40
7.700000000000038
 50
309.983121454283
 51
341.7743054328258
  0
ARC
  8
1
  6
CONTINUOUS
 62
     7
 10
462.5
 20
474.5377096005128
 40
7.700000000000004
 50
18.22569456717412
 51
50.01687854571706
  0
LINE
  8
1
  6
CONTINUOUS
 62
     7
 10
352.9
 20
480.4377096005127
 11
352.5522732492588
 21
480.4377096005127
  0
LINE
  8
1
  6
CONTINUOUS
 62
     7
 10
352.5522732492588
 20
468.6377096005128
 11
352.9
 21
468.6377096005128
  0
ARC
  8
1
  6
CONTINUOUS
 62
     7
 10
357.5000000000001
 20
474.5377096005128
 40
7.700000000000021
 50
198.2256945671741
 51
230.016878545717
  0
ARC
  8
1
  6
CONTINUOUS
 62
     7
 10
357.5000000000001
 20
474.5377096005128
 40
7.699999999999996
 50
129.983121454283
 51
161.7743054328259
  0
LINE
  8
1
  6
CONTINUOUS
 62
     7
 10
467.1
 20
484.6153233482767
 11
467.4477267507412
 21
484.6153233482767
  0
LINE
  8
1
  6
CONTINUOUS
 62
     7
 10
467.4477267507412
 20
496.4153233482767
 11
467.1
 21
496.4153233482767
  0
ARC
  8
1
  6
CONTINUOUS
 62
     7
 10
462.5
 20
490.5153233482768
 40
7.700000000000002
 50
309.983121454283
 51
341.7743054328258
  0
ARC
  8
1
  6
CONTINUOUS
 62
     7
 10
462.5
 20
490.5153233482768
 40
7.700000000000004
 50
18.22569456717412
 51
50.01687854571706
  0
LINE
  8
1
  6
CONTINUOUS
 62
     7
 10
352.9
 20
496.4153233482767
 11
352.5522732492589
 21
496.4153233482767
  0
LINE
  8
1
  6
CONTINUOUS
 62
     7
 10
352.5522732492589
 20
484.6153233482767
 11
352.9
 21
484.6153233482767
  0
ARC
  8
1
  6
CONTINUOUS
 62
     7
 10
357.5000000000001
 20
490.5153233482768
 40
7.700000000000002
 50
129.9831214542829
 51
161.7743054328258
  0
ARC
  8
1
  6
CONTINUOUS
 62
     7
 10
357.5000000000001
 20
490.5153233482768
 40
7.700000000000004
 50
198.2256945671741
 51
230.016878545717
  0
LINE
  8
1
  6
CONTINUOUS
 62
     7
 10
462.7114766880422
 20
221.923010350807
 11
462.7114766880422
 21
222.9658760842423
  0
LINE
  8
1
  6
CONTINUOUS
 62
     7
 10
357.2885233119579
 20
222.9658760842422
 11
357.2885233119579
 21
221.923010350807
  0
ENDBLK
  8
0
  0
BLOCK
  8
0
  2
D_FRAME_VIEW_2073
 70
     0
 10
0.0
 20
0.0
  0
CIRCLE
  8
1
  6
CONTINUOUS
 62
     7
 10
779.5377096005128
 20
113.4056752014031
 40
5.900000000000016
  0
LINE
  8
1
  6
CONTINUOUS
 62
     7
 10
779.0377096005128
 20
115.7614577294042
 11
779.0377096005128
 21
114.7056752014031
  0
POLYLINE
  8
1
  6
CONTINUOUS
 62
     7
 66
     1
  0
VERTEX
  8
1
  6
CONTINUOUS
 62
     7
 10
779.0377096005128
 20
114.7056752014031
  0
VERTEX
  8
1
  6
CONTINUOUS
 62
     7
 10
779.0370439654045
 20
114.6731096479409
  0
VERTEX
  8
1
  6
CONTINUOUS
 62
     7
 10
779.0350484338027
 20
114.6405324644233
  0
VERTEX
  8
1
  6
CONTINUOUS
 62
     7
 10
779.0317250662919
 20
114.6080258722882
  0
VERTEX
  8
1
  6
CONTINUOUS
 62
     7
 10
779.0270759234571
 20
114.5756720929735
  0
VERTEX
  8
1
  6
CONTINUOUS
 62
     7
 10
779.0209062887113
 20
114.5425857757831
  0
VERTEX
  8
1
  6
CONTINUOUS
 62
     7
 10
779.0133343309827
 20
114.5097217065042
  0
VERTEX
  8
1
  6
CONTINUOUS
 62
     7
 10
779.0043782118353
 20
114.4771703589364
  0
VERTEX
  8
1
  6
CONTINUOUS
 62
     7
 10
778.9940560928335
 20
114.4450222068794
  0
VERTEX
  8
1
  6
CONTINUOUS
 62
     7
 10
778.9826997861002
 20
114.4141530983436
  0
VERTEX
  8
1
  6
CONTINUOUS
 62
     7
 10
778.9700614303222
 20
114.383723616373
  0
VERTEX
  8
1
  6
CONTINUOUS
 62
     7
 10
778.9561731385651
 20
114.3538149108782
  0
VERTEX
  8
1
  6
CONTINUOUS
 62
     7
 10
778.9410670238952
 20
114.3245081317697
  0
VERTEX
  8
1
  6
CONTINUOUS
 62
     7
 10
778.9242428407417
 20
114.2949844342942
  0
VERTEX
  8
1
  6
CONTINUOUS
 62
     7
 10
778.906151987354
 20
114.2661578253994
  0
VERTEX
  8
1
  6
CONTINUOUS
 62
     7
 10
778.8868460141267
 20
114.2381105353096
  0
VERTEX
  8
1
  6
CONTINUOUS
 62
     7
 10
778.8663764714554
 20
114.2109247942489
  0
VERTEX
  8
1
  6
CONTINUOUS
 62
     7
 10
778.8457291818506
 20
114.1857638800025
  0
VERTEX
  8
1
  6
CONTINUOUS
 62
     7
 10
778.8240524754918
 20
114.1614379403176
  0
VERTEX
  8
1
  6
CONTINUOUS
 62
     7
 10
778.8014042672656
 20
114.1380098803417
  0
VERTEX
  8
1
  6
CONTINUOUS
 62
     7
 10
778.7778424720589
 20
114.1155426052219
  0
VERTEX
  8
1
  6
CONTINUOUS
 62
     7
 10
778.7526509464549
 20
114.093441187923
  0
VERTEX
  8
1
  6
CONTINUOUS
 62
     7
 10
778.7265372133297
 20
114.07239895294
  0
VERTEX
  8
1
  6
CONTINUOUS
 62
     7
 10
778.699575681786
 20
114.0524717128695
  0
VERTEX
  8
1
  6
CONTINUOUS
 62
     7
 10
778.6718407609262
 20
114.033715280308
  0
VERTEX
  8
1
  6
CONTINUOUS
 62
     7
 10
778.6443685052341
 20
114.0167453326975
  0
VERTEX
  8
1
  6
CONTINUOUS
 62
     7
 10
778.6162258604387
 20
114.0008929525436
  0
VERTEX
  8
1
  6
CONTINUOUS
 62
     7
 10
778.5874866413982
 20
113.9861949405274
  0
VERTEX
  8
1
  6
CONTINUOUS
 62
     7
 10
778.5582246629707
 20
113.9726880973299
  0
VERTEX
  8
1
  6
CONTINUOUS
 62
     7
 10
778.5276106878499
 20
113.9600527331064
  0
VERTEX
  8
1
  6
CONTINUOUS
 62
     7
 10
778.4965000987792
 20
113.9486947010956
  0
VERTEX
  8
1
  6
CONTINUOUS
 62
     7
 10
778.4649771400116
 20
113.9386387202011
  0
VERTEX
  8
1
  6
CONTINUOUS
 62
     7
 10
778.4331260558009
 20
113.9299095093268
  0
VERTEX
  8
1
  6
CONTINUOUS
 62
     7
 10
778.3945586028922
 20
113.9212117538602
  0
VERTEX
  8
1
  6
CONTINUOUS
 62
     7
 10
778.355587735935
 20
113.9144294720649
  0
VERTEX
  8
1
  6
CONTINUOUS
 62
     7
 10
778.3163589499035
 20
113.9095726372104
  0
VERTEX
  8
1
  6
CONTINUOUS
 62
     7
 10
778.2770177397714
 20
113.9066512225665
  0
VERTEX
  8
1
  6
CONTINUOUS
 62
     7
 10
778.2377096005127
 20
113.9056752014031
  0
SEQEND
  8
1
  6
CONTINUOUS
 62
     7
  0
LINE
  8
1
  6
CONTINUOUS
 62
     7
 10
778.2377096005127
 20
113.9056752014031
 11
777.1819270725116
 21
113.9056752014031
  0
ARC
  8
1
  6
CONTINUOUS
 62
     7
 10
779.5377096005128
 20
113.4056752014031
 40
2.40825898093116
 50
168.017151870203
 51
191.9828481297979
  0
LINE
  8
1
  6
CONTINUOUS
 62
     7
 10
777.1819270725117
 20
112.9056752014031
 11
778.2377096005127
 21
112.9056752014031
  0
POLYLINE
  8
1
  6
CONTINUOUS
 62
     7
 66
     1
  0
VERTEX
  8
1
  6
CONTINUOUS
 62
     7
 10
778.2377096005129
 20
112.9056752014031
  0
VERTEX
  8
1
  6
CONTINUOUS
 62
     7
 10
778.2702751539749
 20
112.9050095662948
  0
VERTEX
  8
1
  6
CONTINUOUS
 62
     7
 10
778.3028523374926
 20
112.9030140346929
  0
VERTEX
  8
1
  6
CONTINUOUS
 62
     7
 10
778.3353589296277
 20
112.8996906671822
  0
VERTEX
  8
1
  6
CONTINUOUS
 62
     7
 10
778.3677127089425
 20
112.8950415243474
  0
VERTEX
  8
1
  6
CONTINUOUS
 62
     7
 10
778.4007990261327
 20
112.8888718896016
  0
VERTEX
  8
1
  6
CONTINUOUS
 62
     7
 10
778.4336630954117
 20
112.881299931873
  0
VERTEX
  8
1
  6
CONTINUOUS
 62
     7
 10
778.4662144429794
 20
112.8723438127256
  0
VERTEX
  8
1
  6
CONTINUOUS
 62
     7
 10
778.4983625950366
 20
112.8620216937238
  0
VERTEX
  8
1
  6
CONTINUOUS
 62
     7
 10
778.5292317035723
 20
112.8506653869906
  0
VERTEX
  8
1
  6
CONTINUOUS
 62
     7
 10
778.5596611855428
 20
112.8380270312124
  0
VERTEX
  8
1
  6
CONTINUOUS
 62
     7
 10
778.5895698910376
 20
112.8241387394554
  0
VERTEX
  8
1
  6
CONTINUOUS
 62
     7
 10
778.6188766701462
 20
112.8090326247855
  0
VERTEX
  8
1
  6
CONTINUOUS
 62
     7
 10
778.6484003676215
 20
112.7922084416321
  0
VERTEX
  8
1
  6
CONTINUOUS
 62
     7
 10
778.6772269765164
 20
112.7741175882442
  0
VERTEX
  8
1
  6
CONTINUOUS
 62
     7
 10
778.7052742666062
 20
112.754811615017
  0
VERTEX
  8
1
  6
CONTINUOUS
 62
     7
 10
778.732460007667
 20
112.7343420723457
  0
VERTEX
  8
1
  6
CONTINUOUS
 62
     7
 10
778.7576209219134
 20
112.713694782741
  0
VERTEX
  8
1
  6
CONTINUOUS
 62
     7
 10
778.7819468615983
 20
112.6920180763821
  0
VERTEX
  8
1
  6
CONTINUOUS
 62
     7
 10
778.8053749215742
 20
112.6693698681559
  0
VERTEX
  8
1
  6
CONTINUOUS
 62
     7
 10
778.827842196694
 20
112.6458080729491
  0
VERTEX
  8
1
  6
CONTINUOUS
 62
     7
 10
778.8499436139929
 20
112.6206165473451
  0
VERTEX
  8
1
  6
CONTINUOUS
 62
     7
 10
778.8709858489758
 20
112.59450281422
  0
VERTEX
  8
1
  6
CONTINUOUS
 62
     7
 10
778.8909130890463
 20
112.5675412826762
  0
VERTEX
  8
1
  6
CONTINUOUS
 62
     7
 10
778.9096695216078
 20
112.5398063618165
  0
VERTEX
  8
1
  6
CONTINUOUS
 62
     7
 10
778.9266394692183
 20
112.5123341061244
  0
VERTEX
  8
1
  6
CONTINUOUS
 62
     7
 10
778.9424918493722
 20
112.484191461329
  0
VERTEX
  8
1
  6
CONTINUOUS
 62
     7
 10
778.9571898613885
 20
112.4554522422885
  0
VERTEX
  8
1
  6
CONTINUOUS
 62
     7
 10
778.970696704586
 20
112.426190263861
  0
VERTEX
  8
1
  6
CONTINUOUS
 62
     7
 10
778.9833320688094
 20
112.3955762887402
  0
VERTEX
  8
1
  6
CONTINUOUS
 62
     7
 10
778.9946901008203
 20
112.3644656996694
  0
VERTEX
  8
1
  6
CONTINUOUS
 62
     7
 10
779.0047460817148
 20
112.3329427409019
  0
VERTEX
  8
1
  6
CONTINUOUS
 62
     7
 10
779.0134752925891
 20
112.3010916566913
  0
VERTEX
  8
1
  6
CONTINUOUS
 62
     7
 10
779.0221730480556
 20
112.2625242037824
  0
VERTEX
  8
1
  6
CONTINUOUS
 62
     7
 10
779.028955329851
 20
112.2235533368253
  0
VERTEX
  8
1
  6
CONTINUOUS
 62
     7
 10
779.0338121647054
 20
112.1843245507938
  0
VERTEX
  8
1
  6
CONTINUOUS
 62
     7
 10
779.0367335793493
 20
112.1449833406617
  0
VERTEX
  8
1
  6
CONTINUOUS
 62
     7
 10
779.0377096005128
 20
112.1056752014031
  0
SEQEND
  8
1
  6
CONTINUOUS
 62
     7
  0
LINE
  8
1
  6
CONTINUOUS
 62
     7
 10
779.0377096005128
 20
112.1056752014031
 11
779.0377096005128
 21
111.0498926734019
  0
ARC
  8
1
  6
CONTINUOUS
 62
     7
 10
779.5377096005128
 20
113.4056752014031
 40
2.408258980931144
 50
258.017151870203
 51
281.9828481297978
  0
LINE
  8
1
  6
CONTINUOUS
 62
     7
 10
780.0377096005128
 20
111.049892673402
 11
780.0377096005128
 21
112.1056752014031
  0
POLYLINE
  8
1
  6
CONTINUOUS
 62
     7
 66
     1
  0
VERTEX
  8
1
  6
CONTINUOUS
 62
     7
 10
780.0377096005128
 20
112.1056752014031
  0
VERTEX
  8
1
  6
CONTINUOUS
 62
     7
 10
780.0383752356212
 20
112.1382407548652
  0
VERTEX
  8
1
  6
CONTINUOUS
 62
     7
 10
780.040370767223
 20
112.1708179383829
  0
VERTEX
  8
1
  6
CONTINUOUS
 62
     7
 10
780.0436941347336
 20
112.203324530518
  0
VERTEX
  8
1
  6
CONTINUOUS
 62
     7
 10
780.0483432775684
 20
112.2356783098327
  0
VERTEX
  8
1
  6
CONTINUOUS
 62
     7
 10
780.0545129123142
 20
112.2687646270231
  0
VERTEX
  8
1
  6
CONTINUOUS
 62
     7
 10
780.0620848700429
 20
112.301628696302
  0
VERTEX
  8
1
  6
CONTINUOUS
 62
     7
 10
780.0710409891902
 20
112.3341800438698
  0
VERTEX
  8
1
  6
CONTINUOUS
 62
     7
 10
780.081363108192
 20
112.3663281959268
  0
VERTEX
  8
1
  6
CONTINUOUS
 62
     7
 10
780.0927194149253
 20
112.3971973044626
  0
VERTEX
  8
1
  6
CONTINUOUS
 62
     7
 10
780.1053577707034
 20
112.4276267864332
  0
VERTEX
  8
1
  6
CONTINUOUS
 62
     7
 10
780.1192460624604
 20
112.457535491928
  0
VERTEX
  8
1
  6
CONTINUOUS
 62
     7
 10
780.1343521771304
 20
112.4868422710365
  0
VERTEX
  8
1
  6
CONTINUOUS
 62
     7
 10
780.1511763602838
 20
112.5163659685119
  0
VERTEX
  8
1
  6
CONTINUOUS
 62
     7
 10
780.1692672136717
 20
112.5451925774067
  0
VERTEX
  8
1
  6
CONTINUOUS
 62
     7
 10
780.1885731868988
 20
112.5732398674966
  0
VERTEX
  8
1
  6
CONTINUOUS
 62
     7
 10
780.2090427295702
 20
112.6004256085573
  0
VERTEX
  8
1
  6
CONTINUOUS
 62
     7
 10
780.229690019175
 20
112.6255865228037
  0
VERTEX
  8
1
  6
CONTINUOUS
 62
     7
 10
780.2513667255338
 20
112.6499124624885
  0
VERTEX
  8
1
  6
CONTINUOUS
 62
     7
 10
780.27401493376
 20
112.6733405224645
  0
VERTEX
  8
1
  6
CONTINUOUS
 62
     7
 10
780.2975767289668
 20
112.6958077975842
  0
VERTEX
  8
1
  6
CONTINUOUS
 62
     7
 10
780.3227682545707
 20
112.7179092148831
  0
VERTEX
  8
1
  6
CONTINUOUS
 62
     7
 10
780.3488819876959
 20
112.7389514498661
  0
VERTEX
  8
1
  6
CONTINUOUS
 62
     7
 10
780.3758435192395
 20
112.7588786899366
  0
VERTEX
  8
1
  6
CONTINUOUS
 62
     7
 10
780.4035784400993
 20
112.7776351224981
  0
VERTEX
  8
1
  6
CONTINUOUS
 62
     7
 10
780.4310506957914
 20
112.7946050701087
  0
VERTEX
  8
1
  6
CONTINUOUS
 62
     7
 10
780.4591933405869
 20
112.8104574502626
  0
VERTEX
  8
1
  6
CONTINUOUS
 62
     7
 10
780.4879325596274
 20
112.8251554622788
  0
VERTEX
  8
1
  6
CONTINUOUS
 62
     7
 10
780.5171945380549
 20
112.8386623054763
  0
VERTEX
  8
1
  6
CONTINUOUS
 62
     7
 10
780.5478085131756
 20
112.8512976696997
  0
VERTEX
  8
1
  6
CONTINUOUS
 62
     7
 10
780.5789191022465
 20
112.8626557017106
  0
VERTEX
  8
1
  6
CONTINUOUS
 62
     7
 10
780.610442061014
 20
112.8727116826051
  0
VERTEX
  8
1
  6
CONTINUOUS
 62
     7
 10
780.6422931452246
 20
112.8814408934794
  0
VERTEX
  8
1
  6
CONTINUOUS
 62
     7
 10
780.6808605981334
 20
112.8901386489459
  0
VERTEX
  8
1
  6
CONTINUOUS
 62
     7
 10
780.7198314650906
 20
112.8969209307413
  0
VERTEX
  8
1
  6
CONTINUOUS
 62
     7
 10
780.759060251122
 20
112.9017777655958
  0
VERTEX
  8
1
  6
CONTINUOUS
 62
     7
 10
780.7984014612541
 20
112.9046991802396
  0
VERTEX
  8
1
  6
CONTINUOUS
 62
     7
 10
780.8377096005128
 20
112.9056752014031
  0
SEQEND
  8
1
  6
CONTINUOUS
 62
     7
  0
LINE
  8
1
  6
CONTINUOUS
 62
     7
 10
780.8377096005128
 20
112.9056752014031
 11
781.8934921285139
 21
112.9056752014031
  0
ARC
  8
1
  6
CONTINUOUS
 62
     7
 10
779.5377096005128
 20
113.4056752014031
 40
2.408258980931052
 50
348.017151870203
 51
11.98284812979784
  0
LINE
  8
1
  6
CONTINUOUS
 62
     7
 10
781.8934921285139
 20
113.9056752014031
 11
780.8377096005128
 21
113.9056752014031
  0
POLYLINE
  8
1
  6
CONTINUOUS
 62
     7
 66
     1
  0
VERTEX
  8
1
  6
CONTINUOUS
 62
     7
 10
780.8377096005128
 20
113.9056752014031
  0
VERTEX
  8
1
  6
CONTINUOUS
 62
     7
 10
780.8051440470507
 20
113.9063408365114
  0
VERTEX
  8
1
  6
CONTINUOUS
 62
     7
 10
780.772566863533
 20
113.9083363681132
  0
VERTEX
  8
1
  6
CONTINUOUS
 62
     7
 10
780.7400602713979
 20
113.9116597356239
  0
VERTEX
  8
1
  6
CONTINUOUS
 62
     7
 10
780.7077064920832
 20
113.9163088784588
  0
VERTEX
  8
1
  6
CONTINUOUS
 62
     7
 10
780.6746201748929
 20
113.9224785132045
  0
VERTEX
  8
1
  6
CONTINUOUS
 62
     7
 10
780.6417561056139
 20
113.9300504709332
  0
VERTEX
  8
1
  6
CONTINUOUS
 62
     7
 10
780.6092047580461
 20
113.9390065900805
  0
VERTEX
  8
1
  6
CONTINUOUS
 62
     7
 10
780.577056605989
 20
113.9493287090824
  0
VERTEX
  8
1
  6
CONTINUOUS
 62
     7
 10
780.5461874974533
 20
113.9606850158156
  0
VERTEX
  8
1
  6
CONTINUOUS
 62
     7
 10
780.5157580154828
 20
113.9733233715937
  0
VERTEX
  8
1
  6
CONTINUOUS
 62
     7
 10
780.4858493099879
 20
113.9872116633507
  0
VERTEX
  8
1
  6
CONTINUOUS
 62
     7
 10
780.4565425308795
 20
114.0023177780207
  0
VERTEX
  8
1
  6
CONTINUOUS
 62
     7
 10
780.427018833404
 20
114.0191419611741
  0
VERTEX
  8
1
  6
CONTINUOUS
 62
     7
 10
780.3981922245091
 20
114.0372328145619
  0
VERTEX
  8
1
  6
CONTINUOUS
 62
     7
 10
780.3701449344193
 20
114.0565387877891
  0
VERTEX
  8
1
  6
CONTINUOUS
 62
     7
 10
780.3429591933586
 20
114.0770083304605
  0
VERTEX
  8
1
  6
CONTINUOUS
 62
     7
 10
780.3177982791121
 20
114.0976556200652
  0
VERTEX
  8
1
  6
CONTINUOUS
 62
     7
 10
780.2934723394274
 20
114.1193323264241
  0
VERTEX
  8
1
  6
CONTINUOUS
 62
     7
 10
780.2700442794513
 20
114.1419805346503
  0
VERTEX
  8
1
  6
CONTINUOUS
 62
     7
 10
780.2475770043317
 20
114.1655423298571
  0
VERTEX
  8
1
  6
CONTINUOUS
 62
     7
 10
780.2254755870326
 20
114.190733855461
  0
VERTEX
  8
1
  6
CONTINUOUS
 62
     7
 10
780.2044333520498
 20
114.2168475885862
  0
VERTEX
  8
1
  6
CONTINUOUS
 62
     7
 10
780.1845061119792
 20
114.2438091201299
  0
VERTEX
  8
1
  6
CONTINUOUS
 62
     7
 10
780.1657496794178
 20
114.2715440409896
  0
VERTEX
  8
1
  6
CONTINUOUS
 62
     7
 10
780.1487797318072
 20
114.2990162966817
  0
VERTEX
  8
1
  6
CONTINUOUS
 62
     7
 10
780.1329273516533
 20
114.3271589414771
  0
VERTEX
  8
1
  6
CONTINUOUS
 62
     7
 10
780.1182293396371
 20
114.3558981605177
  0
VERTEX
  8
1
  6
CONTINUOUS
 62
     7
 10
780.1047224964395
 20
114.3851601389452
  0
VERTEX
  8
1
  6
CONTINUOUS
 62
     7
 10
780.0920871322161
 20
114.4157741140659
  0
VERTEX
  8
1
  6
CONTINUOUS
 62
     7
 10
780.0807291002053
 20
114.4468847031368
  0
VERTEX
  8
1
  6
CONTINUOUS
 62
     7
 10
780.0706731193108
 20
114.4784076619043
  0
VERTEX
  8
1
  6
CONTINUOUS
 62
     7
 10
780.0619439084365
 20
114.5102587461149
  0
VERTEX
  8
1
  6
CONTINUOUS
 62
     7
 10
780.05324615297
 20
114.5488261990237
  0
VERTEX
  8
1
  6
CONTINUOUS
 62
     7
 10
780.0464638711746
 20
114.5877970659809
  0
VERTEX
  8
1
  6
CONTINUOUS
 62
     7
 10
780.0416070363201
 20
114.6270258520124
  0
VERTEX
  8
1
  6
CONTINUOUS
 62
     7
 10
780.0386856216762
 20
114.6663670621444
  0
VERTEX
  8
1
  6
CONTINUOUS
 62
     7
 10
780.0377096005128
 20
114.7056752014031
  0
SEQEND
  8
1
  6
CONTINUOUS
 62
     7
  0
LINE
  8
1
  6
CONTINUOUS
 62
     7
 10
780.0377096005128
 20
114.7056752014031
 11
780.0377096005128
 21
115.7614577294042
  0
ARC
  8
1
  6
CONTINUOUS
 62
     7
 10
779.5377096005128
 20
113.4056752014031
 40
2.408258980931108
 50
78.01715187020298
 51
101.9828481297978
  0
CIRCLE
  8
1
  6
CONTINUOUS
 62
     7
 10
795.5153233482768
 20
127.7919832381186
 40
5.900000000000016
  0
LINE
  8
1
  6
CONTINUOUS
 62
     7
 10
795.0153233482769
 20
130.1477657661196
 11
795.0153233482769
 21
129.0919832381186
  0
LINE
  8
1
  6
CONTINUOUS
 62
     7
 10
794.2153233482768
 20
128.2919832381185
 11
793.1595408202757
 21
128.2919832381185
  0
ARC
  8
1
  6
CONTINUOUS
 62
     7
 10
795.5153233482768
 20
127.7919832381186
 40
2.408258980931155
 50
168.017151870203
 51
191.9828481297979
  0
LINE
  8
1
  6
CONTINUOUS
 62
     7
 10
793.1595408202758
 20
127.2919832381185
 11
794.2153233482768
 21
127.2919832381185
  0
LINE
  8
1
  6
CONTINUOUS
 62
     7
 10
795.0153233482769
 20
126.4919832381186
 11
795.0153233482769
 21
125.4362007101174
  0
ARC
  8
1
  6
CONTINUOUS
 62
     7
 10
795.5153233482768
 20
127.7919832381186
 40
2.408258980931121
 50
258.017151870203
 51
281.9828481297978
  0
LINE
  8
1
  6
CONTINUOUS
 62
     7
 10
796.0153233482769
 20
125.4362007101175
 11
796.0153233482769
 21
126.4919832381186
  0
LINE
  8
1
  6
CONTINUOUS
 62
     7
 10
796.8153233482768
 20
127.2919832381186
 11
797.871105876278
 21
127.2919832381186
  0
ARC
  8
1
  6
CONTINUOUS
 62
     7
 10
795.5153233482768
 20
127.7919832381186
 40
2.40825898093116
 50
348.017151870203
 51
11.98284812979784
  0
LINE
  8
1
  6
CONTINUOUS
 62
     7
 10
797.8711058762779
 20
128.2919832381186
 11
796.8153233482768
 21
128.2919832381186
  0
LINE
  8
1
  6
CONTINUOUS
 62
     7
 10
796.0153233482769
 20
129.0919832381186
 11
796.0153233482769
 21
130.1477657661197
  0
ARC
  8
1
  6
CONTINUOUS
 62
     7
 10
795.5153233482768
 20
127.7919832381186
 40
2.408258980931117
 50
78.01715187020298
 51
101.9828481297978
  0
POLYLINE
  8
1
  6
CONTINUOUS
 62
     7
 66
     1
  0
VERTEX
  8
1
  6
CONTINUOUS
 62
     7
 10
795.0153233482769
 20
129.0919832381186
  0
VERTEX
  8
1
  6
CONTINUOUS
 62
     7
 10
795.0146577131685
 20
129.0594176846564
  0
VERTEX
  8
1
  6
CONTINUOUS
 62
     7
 10
795.0126621815666
 20
129.0268405011388
  0
VERTEX
  8
1
  6
CONTINUOUS
 62
     7
 10
795.009338814056
 20
128.9943339090036
  0
VERTEX
  8
1
  6
CONTINUOUS
 62
     7
 10
795.0046896712212
 20
128.961980129689
  0
VERTEX
  8
1
  6
CONTINUOUS
 62
     7
 10
794.9985200364753
 20
128.9288938124986
  0
VERTEX
  8
1
  6
CONTINUOUS
 62
     7
 10
794.9909480787467
 20
128.8960297432197
  0
VERTEX
  8
1
  6
CONTINUOUS
 62
     7
 10
794.9819919595993
 20
128.8634783956518
  0
VERTEX
  8
1
  6
CONTINUOUS
 62
     7
 10
794.9716698405975
 20
128.8313302435948
  0
VERTEX
  8
1
  6
CONTINUOUS
 62
     7
 10
794.9603135338643
 20
128.800461135059
  0
VERTEX
  8
1
  6
CONTINUOUS
 62
     7
 10
794.9476751780861
 20
128.7700316530885
  0
VERTEX
  8
1
  6
CONTINUOUS
 62
     7
 10
794.9337868863292
 20
128.7401229475937
  0
VERTEX
  8
1
  6
CONTINUOUS
 62
     7
 10
794.9186807716592
 20
128.7108161684852
  0
VERTEX
  8
1
  6
CONTINUOUS
 62
     7
 10
794.9018565885058
 20
128.6812924710097
  0
VERTEX
  8
1
  6
CONTINUOUS
 62
     7
 10
794.883765735118
 20
128.6524658621149
  0
VERTEX
  8
1
  6
CONTINUOUS
 62
     7
 10
794.8644597618908
 20
128.6244185720251
  0
VERTEX
  8
1
  6
CONTINUOUS
 62
     7
 10
794.8439902192193
 20
128.5972328309643
  0
VERTEX
  8
1
  6
CONTINUOUS
 62
     7
 10
794.8233429296147
 20
128.572071916718
  0
VERTEX
  8
1
  6
CONTINUOUS
 62
     7
 10
794.8016662232559
 20
128.5477459770331
  0
VERTEX
  8
1
  6
CONTINUOUS
 62
     7
 10
794.7790180150296
 20
128.5243179170571
  0
VERTEX
  8
1
  6
CONTINUOUS
 62
     7
 10
794.7554562198228
 20
128.5018506419374
  0
VERTEX
  8
1
  6
CONTINUOUS
 62
     7
 10
794.7302646942188
 20
128.4797492246385
  0
VERTEX
  8
1
  6
CONTINUOUS
 62
     7
 10
794.7041509610937
 20
128.4587069896555
  0
VERTEX
  8
1
  6
CONTINUOUS
 62
     7
 10
794.6771894295499
 20
128.438779749585
  0
VERTEX
  8
1
  6
CONTINUOUS
 62
     7
 10
794.6494545086903
 20
128.4200233170235
  0
VERTEX
  8
1
  6
CONTINUOUS
 62
     7
 10
794.6219822529981
 20
128.403053369413
  0
VERTEX
  8
1
  6
CONTINUOUS
 62
     7
 10
794.5938396082028
 20
128.3872009892591
  0
VERTEX
  8
1
  6
CONTINUOUS
 62
     7
 10
794.5651003891621
 20
128.3725029772428
  0
VERTEX
  8
1
  6
CONTINUOUS
 62
     7
 10
794.5358384107348
 20
128.3589961340454
  0
VERTEX
  8
1
  6
CONTINUOUS
 62
     7
 10
794.505224435614
 20
128.3463607698219
  0
VERTEX
  8
1
  6
CONTINUOUS
 62
     7
 10
794.4741138465431
 20
128.335002737811
  0
VERTEX
  8
1
  6
CONTINUOUS
 62
     7
 10
794.4425908877755
 20
128.3249467569166
  0
VERTEX
  8
1
  6
CONTINUOUS
 62
     7
 10
794.410739803565
 20
128.3162175460423
  0
VERTEX
  8
1
  6
CONTINUOUS
 62
     7
 10
794.3721723506561
 20
128.3075197905757
  0
VERTEX
  8
1
  6
CONTINUOUS
 62
     7
 10
794.333201483699
 20
128.3007375087803
  0
VERTEX
  8
1
  6
CONTINUOUS
 62
     7
 10
794.2939726976674
 20
128.2958806739259
  0
VERTEX
  8
1
  6
CONTINUOUS
 62
     7
 10
794.2546314875354
 20
128.292959259282
  0
VERTEX
  8
1
  6
CONTINUOUS
 62
     7
 10
794.2153233482768
 20
128.2919832381185
  0
SEQEND
  8
1
  6
CONTINUOUS
 62
     7
  0
POLYLINE
  8
1
  6
CONTINUOUS
 62
     7
 66
     1
  0
VERTEX
  8
1
  6
CONTINUOUS
 62
     7
 10
794.2153233482768
 20
127.2919832381185
  0
VERTEX
  8
1
  6
CONTINUOUS
 62
     7
 10
794.2478889017389
 20
127.2913176030102
  0
VERTEX
  8
1
  6
CONTINUOUS
 62
     7
 10
794.2804660852565
 20
127.2893220714084
  0
VERTEX
  8
1
  6
CONTINUOUS
 62
     7
 10
794.3129726773917
 20
127.2859987038977
  0
VERTEX
  8
1
  6
CONTINUOUS
 62
     7
 10
794.3453264567064
 20
127.2813495610629
  0
VERTEX
  8
1
  6
CONTINUOUS
 62
     7
 10
794.3784127738968
 20
127.2751799263171
  0
VERTEX
  8
1
  6
CONTINUOUS
 62
     7
 10
794.4112768431756
 20
127.2676079685885
  0
VERTEX
  8
1
  6
CONTINUOUS
 62
     7
 10
794.4438281907435
 20
127.2586518494411
  0
VERTEX
  8
1
  6
CONTINUOUS
 62
     7
 10
794.4759763428005
 20
127.2483297304393
  0
VERTEX
  8
1
  6
CONTINUOUS
 62
     7
 10
794.5068454513363
 20
127.236973423706
  0
VERTEX
  8
1
  6
CONTINUOUS
 62
     7
 10
794.5372749333068
 20
127.2243350679279
  0
VERTEX
  8
1
  6
CONTINUOUS
 62
     7
 10
794.5671836388016
 20
127.2104467761709
  0
VERTEX
  8
1
  6
CONTINUOUS
 62
     7
 10
794.5964904179101
 20
127.1953406615009
  0
VERTEX
  8
1
  6
CONTINUOUS
 62
     7
 10
794.6260141153856
 20
127.1785164783476
  0
VERTEX
  8
1
  6
CONTINUOUS
 62
     7
 10
794.6548407242803
 20
127.1604256249597
  0
VERTEX
  8
1
  6
CONTINUOUS
 62
     7
 10
794.6828880143704
 20
127.1411196517325
  0
VERTEX
  8
1
  6
CONTINUOUS
 62
     7
 10
794.710073755431
 20
127.1206501090611
  0
VERTEX
  8
1
  6
CONTINUOUS
 62
     7
 10
794.7352346696774
 20
127.1000028194564
  0
VERTEX
  8
1
  6
CONTINUOUS
 62
     7
 10
794.7595606093622
 20
127.0783261130976
  0
VERTEX
  8
1
  6
CONTINUOUS
 62
     7
 10
794.7829886693381
 20
127.0556779048714
  0
VERTEX
  8
1
  6
CONTINUOUS
 62
     7
 10
794.8054559444579
 20
127.0321161096646
  0
VERTEX
  8
1
  6
CONTINUOUS
 62
     7
 10
794.8275573617569
 20
127.0069245840606
  0
VERTEX
  8
1
  6
CONTINUOUS
 62
     7
 10
794.8485995967397
 20
126.9808108509354
  0
VERTEX
  8
1
  6
CONTINUOUS
 62
     7
 10
794.8685268368102
 20
126.9538493193917
  0
VERTEX
  8
1
  6
CONTINUOUS
 62
     7
 10
794.8872832693719
 20
126.926114398532
  0
VERTEX
  8
1
  6
CONTINUOUS
 62
     7
 10
794.9042532169824
 20
126.8986421428399
  0
VERTEX
  8
1
  6
CONTINUOUS
 62
     7
 10
794.9201055971363
 20
126.8704994980445
  0
VERTEX
  8
1
  6
CONTINUOUS
 62
     7
 10
794.9348036091525
 20
126.8417602790039
  0
VERTEX
  8
1
  6
CONTINUOUS
 62
     7
 10
794.94831045235
 20
126.8124983005765
  0
VERTEX
  8
1
  6
CONTINUOUS
 62
     7
 10
794.9609458165735
 20
126.7818843254557
  0
VERTEX
  8
1
  6
CONTINUOUS
 62
     7
 10
794.9723038485843
 20
126.7507737363849
  0
VERTEX
  8
1
  6
CONTINUOUS
 62
     7
 10
794.9823598294787
 20
126.7192507776174
  0
VERTEX
  8
1
  6
CONTINUOUS
 62
     7
 10
794.9910890403531
 20
126.6873996934067
  0
VERTEX
  8
1
  6
CONTINUOUS
 62
     7
 10
794.9997867958195
 20
126.6488322404979
  0
VERTEX
  8
1
  6
CONTINUOUS
 62
     7
 10
795.006569077615
 20
126.6098613735408
  0
VERTEX
  8
1
  6
CONTINUOUS
 62
     7
 10
795.0114259124696
 20
126.5706325875093
  0
VERTEX
  8
1
  6
CONTINUOUS
 62
     7
 10
795.0143473271133
 20
126.5312913773772
  0
VERTEX
  8
1
  6
CONTINUOUS
 62
     7
 10
795.0153233482769
 20
126.4919832381186
  0
SEQEND
  8
1
  6
CONTINUOUS
 62
     7
  0
POLYLINE
  8
1
  6
CONTINUOUS
 62
     7
 66
     1
  0
VERTEX
  8
1
  6
CONTINUOUS
 62
     7
 10
796.8153233482767
 20
128.2919832381186
  0
VERTEX
  8
1
  6
CONTINUOUS
 62
     7
 10
796.7827577948146
 20
128.2926488732269
  0
VERTEX
  8
1
  6
CONTINUOUS
 62
     7
 10
796.750180611297
 20
128.2946444048287
  0
VERTEX
  8
1
  6
CONTINUOUS
 62
     7
 10
796.7176740191619
 20
128.2979677723394
  0
VERTEX
  8
1
  6
CONTINUOUS
 62
     7
 10
796.6853202398471
 20
128.3026169151742
  0
VERTEX
  8
1
  6
CONTINUOUS
 62
     7
 10
796.6522339226568
 20
128.30878654992
  0
VERTEX
  8
1
  6
CONTINUOUS
 62
     7
 10
796.6193698533779
 20
128.3163585076487
  0
VERTEX
  8
1
  6
CONTINUOUS
 62
     7
 10
796.58681850581
 20
128.325314626796
  0
VERTEX
  8
1
  6
CONTINUOUS
 62
     7
 10
796.5546703537531
 20
128.3356367457979
  0
VERTEX
  8
1
  6
CONTINUOUS
 62
     7
 10
796.5238012452172
 20
128.3469930525311
  0
VERTEX
  8
1
  6
CONTINUOUS
 62
     7
 10
796.4933717632467
 20
128.3596314083092
  0
VERTEX
  8
1
  6
CONTINUOUS
 62
     7
 10
796.4634630577519
 20
128.3735197000662
  0
VERTEX
  8
1
  6
CONTINUOUS
 62
     7
 10
796.4341562786434
 20
128.3886258147362
  0
VERTEX
  8
1
  6
CONTINUOUS
 62
     7
 10
796.404632581168
 20
128.4054499978895
  0
VERTEX
  8
1
  6
CONTINUOUS
 62
     7
 10
796.3758059722732
 20
128.4235408512774
  0
VERTEX
  8
1
  6
CONTINUOUS
 62
     7
 10
796.3477586821833
 20
128.4428468245046
  0
VERTEX
  8
1
  6
CONTINUOUS
 62
     7
 10
796.3205729411226
 20
128.463316367176
  0
VERTEX
  8
1
  6
CONTINUOUS
 62
     7
 10
796.2954120268761
 20
128.4839636567807
  0
VERTEX
  8
1
  6
CONTINUOUS
 62
     7
 10
796.2710860871913
 20
128.5056403631395
  0
VERTEX
  8
1
  6
CONTINUOUS
 62
     7
 10
796.2476580272154
 20
128.5282885713657
  0
VERTEX
  8
1
  6
CONTINUOUS
 62
     7
 10
796.2251907520956
 20
128.5518503665726
  0
VERTEX
  8
1
  6
CONTINUOUS
 62
     7
 10
796.2030893347968
 20
128.5770418921765
  0
VERTEX
  8
1
  6
CONTINUOUS
 62
     7
 10
796.1820470998138
 20
128.6031556253017
  0
VERTEX
  8
1
  6
CONTINUOUS
 62
     7
 10
796.1621198597433
 20
128.6301171568454
  0
VERTEX
  8
1
  6
CONTINUOUS
 62
     7
 10
796.1433634271817
 20
128.6578520777051
  0
VERTEX
  8
1
  6
CONTINUOUS
 62
     7
 10
796.1263934795712
 20
128.6853243333972
  0
VERTEX
  8
1
  6
CONTINUOUS
 62
     7
 10
796.1105410994173
 20
128.7134669781926
  0
VERTEX
  8
1
  6
CONTINUOUS
 62
     7
 10
796.0958430874011
 20
128.7422061972332
  0
VERTEX
  8
1
  6
CONTINUOUS
 62
     7
 10
796.0823362442036
 20
128.7714681756607
  0
VERTEX
  8
1
  6
CONTINUOUS
 62
     7
 10
796.0697008799801
 20
128.8020821507814
  0
VERTEX
  8
1
  6
CONTINUOUS
 62
     7
 10
796.0583428479692
 20
128.8331927398523
  0
VERTEX
  8
1
  6
CONTINUOUS
 62
     7
 10
796.0482868670748
 20
128.8647156986197
  0
VERTEX
  8
1
  6
CONTINUOUS
 62
     7
 10
796.0395576562005
 20
128.8965667828304
  0
VERTEX
  8
1
  6
CONTINUOUS
 62
     7
 10
796.030859900734
 20
128.9351342357392
  0
VERTEX
  8
1
  6
CONTINUOUS
 62
     7
 10
796.0240776189386
 20
128.9741051026963
  0
VERTEX
  8
1
  6
CONTINUOUS
 62
     7
 10
796.019220784084
 20
129.0133338887279
  0
VERTEX
  8
1
  6
CONTINUOUS
 62
     7
 10
796.0162993694403
 20
129.0526750988599
  0
VERTEX
  8
1
  6
CONTINUOUS
 62
     7
 10
796.0153233482769
 20
129.0919832381186
  0
SEQEND
  8
1
  6
CONTINUOUS
 62
     7
  0
POLYLINE
  8
1
  6
CONTINUOUS
 62
     7
 66
     1
  0
VERTEX
  8
1
  6
CONTINUOUS
 62
     7
 10
796.0153233482769
 20
126.4919832381186
  0
VERTEX
  8
1
  6
CONTINUOUS
 62
     7
 10
796.0159889833851
 20
126.5245487915807
  0
VERTEX
  8
1
  6
CONTINUOUS
 62
     7
 10
796.0179845149869
 20
126.5571259750983
  0
VERTEX
  8
1
  6
CONTINUOUS
 62
     7
 10
796.0213078824976
 20
126.5896325672335
  0
VERTEX
  8
1
  6
CONTINUOUS
 62
     7
 10
796.0259570253326
 20
126.6219863465482
  0
VERTEX
  8
1
  6
CONTINUOUS
 62
     7
 10
796.0321266600782
 20
126.6550726637385
  0
VERTEX
  8
1
  6
CONTINUOUS
 62
     7
 10
796.0396986178068
 20
126.6879367330175
  0
VERTEX
  8
1
  6
CONTINUOUS
 62
     7
 10
796.0486547369543
 20
126.7204880805853
  0
VERTEX
  8
1
  6
CONTINUOUS
 62
     7
 10
796.0589768559562
 20
126.7526362326423
  0
VERTEX
  8
1
  6
CONTINUOUS
 62
     7
 10
796.0703331626894
 20
126.7835053411781
  0
VERTEX
  8
1
  6
CONTINUOUS
 62
     7
 10
796.0829715184674
 20
126.8139348231486
  0
VERTEX
  8
1
  6
CONTINUOUS
 62
     7
 10
796.0968598102245
 20
126.8438435286434
  0
VERTEX
  8
1
  6
CONTINUOUS
 62
     7
 10
796.1119659248944
 20
126.873150307752
  0
VERTEX
  8
1
  6
CONTINUOUS
 62
     7
 10
796.1287901080478
 20
126.9026740052274
  0
VERTEX
  8
1
  6
CONTINUOUS
 62
     7
 10
796.1468809614356
 20
126.9315006141222
  0
VERTEX
  8
1
  6
CONTINUOUS
 62
     7
 10
796.1661869346627
 20
126.9595479042121
  0
VERTEX
  8
1
  6
CONTINUOUS
 62
     7
 10
796.1866564773342
 20
126.9867336452728
  0
VERTEX
  8
1
  6
CONTINUOUS
 62
     7
 10
796.2073037669389
 20
127.0118945595192
  0
VERTEX
  8
1
  6
CONTINUOUS
 62
     7
 10
796.2289804732978
 20
127.036220499204
  0
VERTEX
  8
1
  6
CONTINUOUS
 62
     7
 10
796.2516286815239
 20
127.05964855918
  0
VERTEX
  8
1
  6
CONTINUOUS
 62
     7
 10
796.2751904767308
 20
127.0821158342997
  0
VERTEX
  8
1
  6
CONTINUOUS
 62
     7
 10
796.3003820023348
 20
127.1042172515986
  0
VERTEX
  8
1
  6
CONTINUOUS
 62
     7
 10
796.3264957354598
 20
127.1252594865816
  0
VERTEX
  8
1
  6
CONTINUOUS
 62
     7
 10
796.3534572670037
 20
127.1451867266521
  0
VERTEX
  8
1
  6
CONTINUOUS
 62
     7
 10
796.3811921878632
 20
127.1639431592136
  0
VERTEX
  8
1
  6
CONTINUOUS
 62
     7
 10
796.4086644435554
 20
127.1809131068241
  0
VERTEX
  8
1
  6
CONTINUOUS
 62
     7
 10
796.4368070883509
 20
127.1967654869781
  0
VERTEX
  8
1
  6
CONTINUOUS
 62
     7
 10
796.4655463073914
 20
127.2114634989943
  0
VERTEX
  8
1
  6
CONTINUOUS
 62
     7
 10
796.4948082858189
 20
127.2249703421917
  0
VERTEX
  8
1
  6
CONTINUOUS
 62
     7
 10
796.5254222609395
 20
127.2376057064152
  0
VERTEX
  8
1
  6
CONTINUOUS
 62
     7
 10
796.5565328500105
 20
127.2489637384261
  0
VERTEX
  8
1
  6
CONTINUOUS
 62
     7
 10
796.588055808778
 20
127.2590197193205
  0
VERTEX
  8
1
  6
CONTINUOUS
 62
     7
 10
796.6199068929885
 20
127.2677489301949
  0
VERTEX
  8
1
  6
CONTINUOUS
 62
     7
 10
796.6584743458974
 20
127.2764466856614
  0
VERTEX
  8
1
  6
CONTINUOUS
 62
     7
 10
796.6974452128545
 20
127.2832289674568
  0
VERTEX
  8
1
  6
CONTINUOUS
 62
     7
 10
796.7366739988861
 20
127.2880858023113
  0
VERTEX
  8
1
  6
CONTINUOUS
 62
     7
 10
796.7760152090182
 20
127.2910072169551
  0
VERTEX
  8
1
  6
CONTINUOUS
 62
     7
 10
796.8153233482768
 20
127.2919832381186
  0
SEQEND
  8
1
  6
CONTINUOUS
 62
     7
  0
POLYLINE
  8
1
  6
CONTINUOUS
 62
     7
 66
     1
  0
VERTEX
  8
1
  6
CONTINUOUS
 62
     7
 10
807.0153233482769
 20
98.48431821502415
  0
VERTEX
  8
1
  6
CONTINUOUS
 62
     7
 10
807.307958831301
 20
98.37639454990317
  0
VERTEX
  8
1
  6
CONTINUOUS
 62
     7
 10
807.5893484968244
 20
98.29620003203182
  0
VERTEX
  8
1
  6
CONTINUOUS
 62
     7
 10
807.8486786978062
 20
98.24681649175828
  0
VERTEX
  8
1
  6
CONTINUOUS
 62
     7
 10
808.0759835200566
 20
98.23014171084064
  0
VERTEX
  8
1
  6
CONTINUOUS
 62
     7
 10
808.2625277667307
 20
98.24681649175827
  0
VERTEX
  8
1
  6
CONTINUOUS
 62
     7
 10
808.4011426470438
 20
98.29620003203182
  0
VERTEX
  8
1
  6
CONTINUOUS
 62
     7
 10
808.4865012688817
 20
98.37639454990315
  0
VERTEX
  8
1
  6
CONTINUOUS
 62
     7
 10
808.5153233482769
 20
98.48431821502413
  0
SEQEND
  8
1
  6
CONTINUOUS
 62
     7
  0
LINE
  8
1
  6
CONTINUOUS
 62
     7
 10
807.0153233482769
 20
98.48431821502413
 11
804.5833662382972
 21
99.4792097600157
  0
LINE
  8
1
  6
CONTINUOUS
 62
     7
 10
808.5153233482768
 20
98.48431821502409
 11
808.5153233482768
 21
99.4792097600157
  0
ARC
  8
1
  6
CONTINUOUS
 62
     7
 10
788.8714579692154
 20
107.3442681377728
 40
2.750000000000004
 50
252.0000000000001
 51
71.99999999999996
  0
ARC
  8
1
  6
CONTINUOUS
 62
     7
 10
795.5153233482768
 20
127.7919832381185
 40
18.75
 50
201.5932396307988
 51
207.0618491436796
  0
ARC
  8
1
  6
CONTINUOUS
 62
     7
 10
795.5153233482768
 20
127.7919832381185
 40
18.75
 50
236.9381508563205
 51
252.0
  0
ARC
  8
1
  6
CONTINUOUS
 62
     7
 10
776.2215601184557
 20
120.1556752014031
 40
2.000000000000002
 50
21.59323963079879
 51
90.0
  0
LINE
  8
1
  6
CONTINUOUS
 62
     7
 10
770.5153233482768
 20
122.1556752014031
 11
776.2215601184557
 21
122.1556752014031
  0
ARC
  8
1
  6
CONTINUOUS
 62
     7
 10
770.5153233482768
 20
124.1556752014031
 40
2.000000000000002
 50
180.0
 51
270.0
  0
LINE
  8
1
  6
CONTINUOUS
 62
     7
 10
768.5153233482768
 20
129.0419832381185
 11
768.5153233482768
 21
124.1556752014031
  0
ARC
  8
1
  6
CONTINUOUS
 62
     7
 10
770.5153233482768
 20
129.0419832381185
 40
2.000000000000002
 50
90.00000000000001
 51
180.0
  0
LINE
  8
1
  6
CONTINUOUS
 62
     7
 10
788.766302695749
 20
131.0419832381185
 11
770.5153233482768
 21
131.0419832381185
  0
ARC
  8
1
  6
CONTINUOUS
 62
     7
 10
788.766302695749
 20
129.0419832381185
 40
2.000000000000028
 50
43.08281315009086
 51
90.0
  0
ARC
  8
1
  6
CONTINUOUS
 62
     7
 10
811.4929370960407
 20
142.178291274834
 40
18.75
 50
201.5932396307988
 51
207.0618491436793
  0
ARC
  8
1
  6
CONTINUOUS
 62
     7
 10
792.1991738662198
 20
134.5419832381185
 40
2.000000000000002
 50
21.59323963079884
 51
90.0
  0
LINE
  8
1
  6
CONTINUOUS
 62
     7
 10
770.5153233482768
 20
136.5419832381185
 11
792.1991738662198
 21
136.5419832381185
  0
ARC
  8
1
  6
CONTINUOUS
 62
     7
 10
770.5153233482768
 20
138.5419832381185
 40
2.000000000000002
 50
180.0
 51
270.0
  0
LINE
  8
1
  6
CONTINUOUS
 62
     7
 10
768.5153233482768
 20
142.9807724556961
 11
768.5153233482768
 21
138.5419832381185
  0
LINE
  8
1
  6
CONTINUOUS
 62
     9
 10
808.5153233482768
 20
142.9807724556961
 11
768.5153233482768
 21
142.9807724556961
  0
LINE
  8
1
  6
CONTINUOUS
 62
     7
 10
808.5153233482768
 20
142.9807724556961
 11
808.5153233482768
 21
116.0919832381186
  0
ARC
  8
1
  6
CONTINUOUS
 62
     7
 10
806.5153233482768
 20
116.0919832381186
 40
2.000000000000002
 50
269.9999999999999
 51
0.0
  0
LINE
  8
1
  6
CONTINUOUS
 62
     7
 10
804.5153233482768
 20
110.0919832381186
 11
804.5153233482768
 21
114.0919832381186
  0
LINE
  8
1
  6
CONTINUOUS
 62
     7
 10
807.0153233482769
 20
110.0919832381186
 11
804.5153233482768
 21
110.0919832381186
  0
LINE
  8
1
  6
CONTINUOUS
 62
     7
 10
804.5833662382973
 20
100.4047567162214
 11
807.0153233482769
 21
101.399648261213
  0
POLYLINE
  8
1
  6
CONTINUOUS
 62
     7
 66
     1
  0
VERTEX
  8
1
  6
CONTINUOUS
 62
     7
 10
804.5833662382972
 20
99.4792097600157
  0
VERTEX
  8
1
  6
CONTINUOUS
 62
     7
 10
804.5643081159875
 20
99.48747430274265
  0
VERTEX
  8
1
  6
CONTINUOUS
 62
     7
 10
804.5455935542444
 20
99.49653115805346
  0
VERTEX
  8
1
  6
CONTINUOUS
 62
     7
 10
804.5272704589602
 20
99.5063559037786
  0
VERTEX
  8
1
  6
CONTINUOUS
 62
     7
 10
804.5093867360272
 20
99.51692411774852
  0
VERTEX
  8
1
  6
CONTINUOUS
 62
     7
 10
804.4919592430907
 20
99.5282288593381
  0
VERTEX
  8
1
  6
CONTINUOUS
 62
     7
 10
804.4750017027346
 20
99.54025812674851
  0
VERTEX
  8
1
  6
CONTINUOUS
 62
     7
 10
804.4585573182594
 20
99.55297990604966
  0
VERTEX
  8
1
  6
CONTINUOUS
 62
     7
 10
804.4426692929652
 20
99.56636218331147
  0
VERTEX
  8
1
  6
CONTINUOUS
 62
     7
 10
804.4273531033264
 20
99.58039532363722
  0
VERTEX
  8
1
  6
CONTINUOUS
 62
     7
 10
804.4126202963512
 20
99.59506521961477
  0
VERTEX
  8
1
  6
CONTINUOUS
 62
     7
 10
804.3985081811426
 20
99.61033314854092
  0
VERTEX
  8
1
  6
CONTINUOUS
 62
     7
 10
804.3850540668029
 20
99.62616038771249
  0
VERTEX
  8
1
  6
CONTINUOUS
 62
     7
 10
804.372271621773
 20
99.64253487370495
  0
VERTEX
  8
1
  6
CONTINUOUS
 62
     7
 10
804.3601698990046
 20
99.65944078259481
  0
VERTEX
  8
1
  6
CONTINUOUS
 62
     7
 10
804.3487792843663
 20
99.67683375093031
  0
VERTEX
  8
1
  6
CONTINUOUS
 62
     7
 10
804.3381301637272
 20
99.69466941525975
  0
VERTEX
  8
1
  6
CONTINUOUS
 62
     7
 10
804.3282340205006
 20
99.71293361635638
  0
VERTEX
  8
1
  6
CONTINUOUS
 62
     7
 10
804.3190971638886
 20
99.73160925023066
  0
VERTEX
  8
1
  6
CONTINUOUS
 62
     7
 10
804.3107422184426
 20
99.75064753628672
  0
VERTEX
  8
1
  6
CONTINUOUS
 62
     7
 10
804.3031918087144
 20
99.76999969392855
  0
VERTEX
  8
1
  6
CONTINUOUS
 62
     7
 10
804.2964549163617
 20
99.78964985865784
  0
VERTEX
  8
1
  6
CONTINUOUS
 62
     7
 10
804.2905349328204
 20
99.80958011817015
  0
VERTEX
  8
1
  6
CONTINUOUS
 62
     7
 10
804.2854460973092
 20
99.82973862016055
  0
VERTEX
  8
1
  6
CONTINUOUS
 62
     7
 10
804.2812026490468
 20
99.8500735123241
  0
VERTEX
  8
1
  6
CONTINUOUS
 62
     7
 10
804.2778108202089
 20
99.87056766245512
  0
VERTEX
  8
1
  6
CONTINUOUS
 62
     7
 10
804.2752709909248
 20
99.89120284398
  0
VERTEX
  8
1
  6
CONTINUOUS
 62
     7
 10
804.273588622343
 20
99.91192556304176
  0
VERTEX
  8
1
  6
CONTINUOUS
 62
     7
 10
804.2727691756127
 20
99.93268232578345
  0
VERTEX
  8
1
  6
CONTINUOUS
 62
     7
 10
804.2728159615353
 20
99.95345520482165
  0
VERTEX
  8
1
  6
CONTINUOUS
 62
     7
 10
804.2737263384494
 20
99.97422616202714
  0
VERTEX
  8
1
  6
CONTINUOUS
 62
     7
 10
804.2754968388075
 20
99.99494153742415
  0
VERTEX
  8
1
  6
CONTINUOUS
 62
     7
 10
804.278123995063
 20
100.015547671037
  0
VERTEX
  8
1
  6
CONTINUOUS
 62
     7
 10
804.281608105327
 20
100.036026334766
  0
VERTEX
  8
1
  6
CONTINUOUS
 62
     7
 10
804.2859435790075
 20
100.0563601764424
  0
VERTEX
  8
1
  6
CONTINUOUS
 62
     7
 10
804.291118115501
 20
100.0764968499868
  0
VERTEX
  8
1
  6
CONTINUOUS
 62
     7
 10
804.2971194142045
 20
100.0963840093197
  0
VERTEX
  8
1
  6
CONTINUOUS
 62
     7
 10
804.303944752317
 20
100.1160036283809
  0
VERTEX
  8
1
  6
CONTINUOUS
 62
     7
 10
804.3115857445117
 20
100.1353395195587
  0
VERTEX
  8
1
  6
CONTINUOUS
 62
     7
 10
804.3200215963965
 20
100.1543420944457
  0
VERTEX
  8
1
  6
CONTINUOUS
 62
     7
 10
804.3292315135793
 20
100.1729617646346
  0
VERTEX
  8
1
  6
CONTINUOUS
 62
     7
 10
804.3392098274453
 20
100.1911812032881
  0
VERTEX
  8
1
  6
CONTINUOUS
 62
     7
 10
804.349945589212
 20
100.2089858338276
  0
VERTEX
  8
1
  6
CONTINUOUS
 62
     7
 10
804.3614100842359
 20
100.2263301932336
  0
VERTEX
  8
1
  6
CONTINUOUS
 62
     7
 10
804.3735745978736
 20
100.2431688184867
  0
VERTEX
  8
1
  6
CONTINUOUS
 62
     7
 10
804.3864306720445
 20
100.2594855598701
  0
VERTEX
  8
1
  6
CONTINUOUS
 62
     7
 10
804.3999650964927
 20
100.2752678538799
  0
VERTEX
  8
1
  6
CONTINUOUS
 62
     7
 10
804.4141420283127
 20
100.2904756168164
  0
VERTEX
  8
1
  6
CONTINUOUS
 62
     7
 10
804.4289256245984
 20
100.3050687649797
  0
VERTEX
  8
1
  6
CONTINUOUS
 62
     7
 10
804.4457589543241
 20
100.3202932964644
  0
VERTEX
  8
1
  6
CONTINUOUS
 62
     7
 10
804.4632839487704
 20
100.3347531278685
  0
VERTEX
  8
1
  6
CONTINUOUS
 62
     7
 10
804.4814455126091
 20
100.3484048586566
  0
VERTEX
  8
1
  6
CONTINUOUS
 62
     7
 10
804.5001885505122
 20
100.3612050882929
  0
VERTEX
  8
1
  6
CONTINUOUS
 62
     7
 10
804.5201818294574
 20
100.3735392454339
  0
VERTEX
  8
1
  6
CONTINUOUS
 62
     7
 10
804.5407551323005
 20
100.3849332838828
  0
VERTEX
  8
1
  6
CONTINUOUS
 62
     7
 10
804.5618395661959
 20
100.3953511315188
  0
VERTEX
  8
1
  6
CONTINUOUS
 62
     7
 10
804.5833662382973
 20
100.4047567162214
  0
SEQEND
  8
1
  6
CONTINUOUS
 62
     7
  0
LINE
  8
1
  6
CONTINUOUS
 62
     7
 10
804.5153233482768
 20
89.79198323811856
 11
807.0153233482769
 21
89.79198323811856
  0
LINE
  8
1
  6
CONTINUOUS
 62
     7
 10
804.5153233482768
 20
85.79198323811855
 11
804.5153233482768
 21
89.79198323811856
  0
LINE
  8
1
  6
CONTINUOUS
 62
     7
 10
806.5153233482768
 20
85.79198323811855
 11
804.5153233482768
 21
85.79198323811855
  0
ARC
  8
1
  6
CONTINUOUS
 62
     7
 10
806.5153233482768
 20
83.79198323811855
 40
2.000000000000002
 50
0.0000000000000035
 51
90.00000000000006
  0
LINE
  8
1
  6
CONTINUOUS
 62
     7
 10
808.5153233482768
 20
83.79198323811855
 11
808.5153233482768
 21
71.79198323811855
  0
ARC
  8
1
  6
CONTINUOUS
 62
     7
 10
805.5153233482768
 20
71.79198323811855
 40
3.000000000000003
 50
269.9999999999999
 51
0.0
  0
LINE
  8
1
  6
CONTINUOUS
 62
     7
 10
788.5153233482768
 20
68.79198323811853
 11
805.5153233482768
 21
68.79198323811853
  0
ARC
  8
1
  6
CONTINUOUS
 62
     7
 10
788.5153233482768
 20
88.79198323811855
 40
20.00000000000002
 50
180.0
 51
270.0
  0
ARC
  8
1
  6
CONTINUOUS
 62
     7
 10
770.5153233482768
 20
114.6556752014031
 40
2.000000000000002
 50
90.00000000000001
 51
180.0
  0
LINE
  8
1
  6
CONTINUOUS
 62
     7
 10
772.7886889479851
 20
116.6556752014031
 11
770.5153233482768
 21
116.6556752014031
  0
ARC
  8
1
  6
CONTINUOUS
 62
     7
 10
772.7886889479851
 20
114.6556752014031
 40
2.000000000000008
 50
43.08281315009938
 51
89.99999999999999
  0
ARC
  8
1
  6
CONTINUOUS
 62
     7
 10
795.5153233482768
 20
127.7919832381185
 40
24.24999999999999
 50
235.1268679514817
 51
252.0
  0
LINE
  8
1
  6
CONTINUOUS
 62
     7
 10
797.0153233482769
 20
76.79198323811853
 11
788.0153233482769
 21
76.79198323811855
  0
ARC
  8
1
  6
CONTINUOUS
 62
     7
 10
797.0153233482769
 20
79.79198323811853
 40
3.000000000000003
 50
270.0000000000021
 51
90.0
  0
LINE
  8
1
  6
CONTINUOUS
 62
     7
 10
788.0153233482769
 20
82.79198323811855
 11
797.0153233482769
 21
82.79198323811853
  0
ARC
  8
1
  6
CONTINUOUS
 62
     7
 10
788.0153233482769
 20
79.79198323811855
 40
3.000000000000003
 50
89.99999999999892
 51
270.0
  0
LINE
  8
1
  6
CONTINUOUS
 62
     7
 10
804.5153233482768
 20
114.0919832381186
 11
806.5153233482768
 21
114.0919832381186
  0
LINE
  8
1
  6
CONTINUOUS
 62
     7
 10
768.5153233482768
 20
114.6556752014031
 11
768.5153233482768
 21
88.79198323811855
  0
LINE
  8
1
  6
CONTINUOUS
 62
     7
 10
808.5153233482768
 20
100.4047567162214
 11
808.5153233482768
 21
99.4792097600157
  0
LINE
  8
1
  6
CONTINUOUS
 62
     9
 10
768.5153233482768
 20
145.699695816806
 11
808.5153233482768
 21
145.699695816806
  0
LINE
  8
1
  6
CONTINUOUS
 62
     7
 10
768.5153233482768
 20
142.9807724556961
 11
768.5153233482768
 21
145.699695816806
  0
LINE
  8
1
  6
CONTINUOUS
 62
     7
 10
808.5153233482768
 20
145.699695816806
 11
808.5153233482768
 21
142.9807724556961
  0
POLYLINE
  8
1
  6
CONTINUOUS
 62
     7
 66
     1
  0
VERTEX
  8
1
  6
CONTINUOUS
 62
     7
 10
808.5153233482769
 20
101.399648261213
  0
VERTEX
  8
1
  6
CONTINUOUS
 62
     7
 10
808.4865012688817
 20
101.507571926334
  0
VERTEX
  8
1
  6
CONTINUOUS
 62
     7
 10
808.4011426470438
 20
101.5877664442053
  0
VERTEX
  8
1
  6
CONTINUOUS
 62
     7
 10
808.2625277667307
 20
101.6371499844789
  0
VERTEX
  8
1
  6
CONTINUOUS
 62
     7
 10
808.0759835200566
 20
101.6538247653965
  0
VERTEX
  8
1
  6
CONTINUOUS
 62
     7
 10
807.8486786978062
 20
101.6371499844789
  0
VERTEX
  8
1
  6
CONTINUOUS
 62
     7
 10
807.5893484968244
 20
101.5877664442053
  0
VERTEX
  8
1
  6
CONTINUOUS
 62
     7
 10
807.307958831301
 20
101.507571926334
  0
VERTEX
  8
1
  6
CONTINUOUS
 62
     7
 10
807.0153233482769
 20
101.399648261213
  0
SEQEND
  8
1
  6
CONTINUOUS
 62
     7
  0
LINE
  8
1
  6
CONTINUOUS
 62
     7
 10
808.5153233482768
 20
100.4047567162214
 11
808.5153233482768
 21
101.399648261213
  0
LINE
  8
1
  6
CONTINUOUS
 62
     7
 10
808.5153233482768
 20
110.0919832381186
 11
808.5153233482768
 21
101.399648261213
  0
LINE
  8
1
  6
CONTINUOUS
 62
     7
 10
807.0153233482769
 20
110.0919832381186
 11
808.5153233482768
 21
110.0919832381186
  0
LINE
  8
1
  6
CONTINUOUS
 62
     7
 10
808.5153233482768
 20
98.48431821502409
 11
808.5153233482768
 21
89.79198323811858
  0
LINE
  8
1
  6
CONTINUOUS
 62
     7
 10
808.5153233482768
 20
89.79198323811858
 11
807.0153233482769
 21
89.79198323811858
  0
LINE
  8
1
  6
CONTINUOUS
 62
     7
 10
808.5153233482768
 20
170.9269401229914
 11
808.5153233482768
 21
165.1382662517086
  0
POLYLINE
  8
1
  6
CONTINUOUS
 62
     7
 66
     1
  0
VERTEX
  8
1
  6
CONTINUOUS
 62
     7
 10
806.5153233482768
 20
164.2930297282272
  0
VERTEX
  8
1
  6
CONTINUOUS
 62
     7
 10
806.905503992309
 20
164.3092707110188
  0
VERTEX
  8
1
  6
CONTINUOUS
 62
     7
 10
807.2806902130069
 20
164.3573695275331
  0
VERTEX
  8
1
  6
CONTINUOUS
 62
     7
 10
807.6264638143159
 20
164.4354777672256
  0
VERTEX
  8
1
  6
CONTINUOUS
 62
     7
 10
807.9295369106499
 20
164.5405937742484
  0
VERTEX
  8
1
  6
CONTINUOUS
 62
     7
 10
808.1782625728819
 20
164.6686779994014
  0
VERTEX
  8
1
  6
CONTINUOUS
 62
     7
 10
808.3630824132994
 20
164.8148082377424
  0
VERTEX
  8
1
  6
CONTINUOUS
 62
     7
 10
808.4768939090832
 20
164.9733687861628
  0
VERTEX
  8
1
  6
CONTINUOUS
 62
     7
 10
808.5153233482768
 20
165.1382662517086
  0
SEQEND
  8
1
  6
CONTINUOUS
 62
     7
  0
LINE
  8
1
  6
CONTINUOUS
 62
     7
 10
806.5153233482768
 20
164.2930297282272
 11
804.5153233482768
 21
164.2930297282271
  0
LINE
  8
1
  6
CONTINUOUS
 62
     7
 10
804.5153233482768
 20
164.2930297282271
 11
804.5153233482768
 21
162.6025566812644
  0
LINE
  8
1
  6
CONTINUOUS
 62
     7
 10
804.5153233482768
 20
162.6025566812644
 11
807.0153233482768
 21
162.6025566812644
  0
LINE
  8
1
  6
CONTINUOUS
 62
     7
 10
804.5833662382971
 20
158.5085578474919
 11
807.0153233482769
 21
158.9290171828567
  0
LINE
  8
1
  6
CONTINUOUS
 62
     7
 10
804.5833662382972
 20
158.1174048017008
 11
804.3195307322769
 21
158.2236764464733
  0
LINE
  8
1
  6
CONTINUOUS
 62
     7
 10
807.0153233482769
 20
157.6969454663359
 11
804.5833662382972
 21
158.1174048017008
  0
LINE
  8
1
  6
CONTINUOUS
 62
     7
 10
804.5153233482768
 20
154.0234059679282
 11
807.0153233482769
 21
154.0234059679282
  0
LINE
  8
1
  6
CONTINUOUS
 62
     7
 10
804.5153233482768
 20
152.3329329209654
 11
804.5153233482768
 21
154.0234059679282
  0
LINE
  8
1
  6
CONTINUOUS
 62
     7
 10
806.5153233482768
 20
152.3329329209654
 11
804.5153233482768
 21
152.3329329209654
  0
POLYLINE
  8
1
  6
CONTINUOUS
 62
     7
 66
     1
  0
VERTEX
  8
1
  6
CONTINUOUS
 62
     7
 10
808.5153233482768
 20
151.4876963974839
  0
VERTEX
  8
1
  6
CONTINUOUS
 62
     7
 10
808.4768939090832
 20
151.6525938630297
  0
VERTEX
  8
1
  6
CONTINUOUS
 62
     7
 10
808.3630824132994
 20
151.8111544114502
  0
VERTEX
  8
1
  6
CONTINUOUS
 62
     7
 10
808.1782625728819
 20
151.9572846497912
  0
VERTEX
  8
1
  6
CONTINUOUS
 62
     7
 10
807.9295369106499
 20
152.0853688749442
  0
VERTEX
  8
1
  6
CONTINUOUS
 62
     7
 10
807.6264638143159
 20
152.190484881967
  0
VERTEX
  8
1
  6
CONTINUOUS
 62
     7
 10
807.2806902130069
 20
152.2685931216594
  0
VERTEX
  8
1
  6
CONTINUOUS
 62
     7
 10
806.905503992309
 20
152.3166919381737
  0
VERTEX
  8
1
  6
CONTINUOUS
 62
     7
 10
806.5153233482768
 20
152.3329329209653
  0
SEQEND
  8
1
  6
CONTINUOUS
 62
     7
  0
LINE
  8
1
  6
CONTINUOUS
 62
     7
 10
768.5153233482768
 20
170.9269401229914
 11
768.5153233482768
 21
145.699695816806
  0
LINE
  8
1
  6
CONTINUOUS
 62
     7
 10
808.5153233482768
 20
151.487696397484
 11
808.5153233482768
 21
145.699695816806
  0
POLYLINE
  8
1
  6
CONTINUOUS
 62
     7
 66
     1
  0
VERTEX
  8
1
  6
CONTINUOUS
 62
     7
 10
806.8640867469614
 20
152.3199823182215
  0
VERTEX
  8
1
  6
CONTINUOUS
 62
     7
 10
806.815666625803
 20
152.3916366359406
  0
VERTEX
  8
1
  6
CONTINUOUS
 62
     7
 10
806.7534822622536
 20
152.4539572749706
  0
VERTEX
  8
1
  6
CONTINUOUS
 62
     7
 10
806.6796716231553
 20
152.5048015831686
  0
VERTEX
  8
1
  6
CONTINUOUS
 62
     7
 10
806.5967723994964
 20
152.5424214772731
  0
VERTEX
  8
1
  6
CONTINUOUS
 62
     7
 10
806.5076347578029
 20
152.5655235439306
  0
VERTEX
  8
1
  6
CONTINUOUS
 62
     7
 10
806.4153233482768
 20
152.5733135086695
  0
SEQEND
  8
1
  6
CONTINUOUS
 62
     7
  0
POLYLINE
  8
1
  6
CONTINUOUS
 62
     7
 66
     1
  0
VERTEX
  8
1
  6
CONTINUOUS
 62
     7
 10
808.5153233482769
 20
152.6639442873732
  0
VERTEX
  8
1
  6
CONTINUOUS
 62
     7
 10
808.4865012688816
 20
152.9291621044012
  0
VERTEX
  8
1
  6
CONTINUOUS
 62
     7
 10
808.4011426470438
 20
153.1841877494568
  0
VERTEX
  8
1
  6
CONTINUOUS
 62
     7
 10
808.2625277667306
 20
153.4192207300203
  0
VERTEX
  8
1
  6
CONTINUOUS
 62
     7
 10
808.0759835200566
 20
153.6252288604568
  0
VERTEX
  8
1
  6
CONTINUOUS
 62
     7
 10
807.8486786978062
 20
153.7942953638443
  0
VERTEX
  8
1
  6
CONTINUOUS
 62
     7
 10
807.5893484968245
 20
153.9199231092713
  0
VERTEX
  8
1
  6
CONTINUOUS
 62
     7
 10
807.307958831301
 20
153.9972842929337
  0
VERTEX
  8
1
  6
CONTINUOUS
 62
     7
 10
807.0153233482769
 20
154.0234059679281
  0
SEQEND
  8
1
  6
CONTINUOUS
 62
     7
  0
LINE
  8
1
  6
CONTINUOUS
 62
     7
 10
808.5153233482768
 20
151.487696397484
 11
808.5153233482768
 21
152.6639442873732
  0
LINE
  8
1
  6
CONTINUOUS
 62
     7
 10
806.4153233482768
 20
152.5733135086695
 11
804.5153233482768
 21
152.5733135086695
  0
POLYLINE
  8
1
  6
CONTINUOUS
 62
     7
 66
     1
  0
VERTEX
  8
1
  6
CONTINUOUS
 62
     7
 10
808.5153233482769
 20
156.3374837857809
  0
VERTEX
  8
1
  6
CONTINUOUS
 62
     7
 10
808.4865012688817
 20
156.5570910910548
  0
VERTEX
  8
1
  6
CONTINUOUS
 62
     7
 10
808.4011426470438
 20
156.7782250683664
  0
VERTEX
  8
1
  6
CONTINUOUS
 62
     7
 10
808.2625277667307
 20
156.992387662981
  0
VERTEX
  8
1
  6
CONTINUOUS
 62
     7
 10
808.0759835200566
 20
157.1913487264912
  0
VERTEX
  8
1
  6
CONTINUOUS
 62
     7
 10
807.8486786978063
 20
157.3674622968051
  0
VERTEX
  8
1
  6
CONTINUOUS
 62
     7
 10
807.5893484968245
 20
157.513960428181
  0
VERTEX
  8
1
  6
CONTINUOUS
 62
     7
 10
807.307958831301
 20
157.6252132795873
  0
VERTEX
  8
1
  6
CONTINUOUS
 62
     7
 10
807.0153233482769
 20
157.6969454663358
  0
SEQEND
  8
1
  6
CONTINUOUS
 62
     7
  0
LINE
  8
1
  6
CONTINUOUS
 62
     7
 10
808.5153233482768
 20
156.3374837857809
 11
808.5153233482768
 21
152.6639442873732
  0
POLYLINE
  8
1
  6
CONTINUOUS
 62
     7
 66
     1
  0
VERTEX
  8
1
  6
CONTINUOUS
 62
     7
 10
804.3195307322769
 20
158.2236764464733
  0
VERTEX
  8
1
  6
CONTINUOUS
 62
     7
 10
804.3190971638885
 20
158.2240734355197
  0
VERTEX
  8
1
  6
CONTINUOUS
 62
     7
 10
804.3107422184426
 20
158.2321193628792
  0
VERTEX
  8
1
  6
CONTINUOUS
 62
     7
 10
804.3031918087144
 20
158.2402979381027
  0
VERTEX
  8
1
  6
CONTINUOUS
 62
     7
 10
804.2964549163617
 20
158.2486024565635
  0
VERTEX
  8
1
  6
CONTINUOUS
 62
     7
 10
804.2905349328204
 20
158.2570253481946
  0
VERTEX
  8
1
  6
CONTINUOUS
 62
     7
 10
804.2854460973092
 20
158.2655446992651
  0
VERTEX
  8
1
  6
CONTINUOUS
 62
     7
 10
804.2812026490468
 20
158.2741385960439
  0
VERTEX
  8
1
  6
CONTINUOUS
 62
     7
 10
804.2778108202089
 20
158.2827997981481
  0
VERTEX
  8
1
  6
CONTINUOUS
 62
     7
 10
804.2752709909247
 20
158.2915206026949
  0
VERTEX
  8
1
  6
CONTINUOUS
 62
     7
 10
804.273588622343
 20
158.3002784022033
  0
VERTEX
  8
1
  6
CONTINUOUS
 62
     7
 10
804.2727691756126
 20
158.3090505891926
  0
VERTEX
  8
1
  6
CONTINUOUS
 62
     7
 10
804.2728159615353
 20
158.3178295872231
  0
VERTEX
  8
1
  6
CONTINUOUS
 62
     7
 10
804.2737263384493
 20
158.3266077730519
  0
VERTEX
  8
1
  6
CONTINUOUS
 62
     7
 10
804.2754968388075
 20
158.3353624689935
  0
VERTEX
  8
1
  6
CONTINUOUS
 62
     7
 10
804.2781239950629
 20
158.3440709973622
  0
VERTEX
  8
1
  6
CONTINUOUS
 62
     7
 10
804.281608105327
 20
158.3527256546301
  0
VERTEX
  8
1
  6
CONTINUOUS
 62
     7
 10
804.2859435790074
 20
158.3613191074539
  0
VERTEX
  8
1
  6
CONTINUOUS
 62
     7
 10
804.291118115501
 20
158.3698292334245
  0
VERTEX
  8
1
  6
CONTINUOUS
 62
     7
 10
804.2971194142045
 20
158.3782339101327
  0
VERTEX
  8
1
  6
CONTINUOUS
 62
     7
 10
804.303944752317
 20
158.3865255194363
  0
VERTEX
  8
1
  6
CONTINUOUS
 62
     7
 10
804.3115857445116
 20
158.3946972201551
  0
VERTEX
  8
1
  6
CONTINUOUS
 62
     7
 10
804.3200215963965
 20
158.4027280553224
  0
VERTEX
  8
1
  6
CONTINUOUS
 62
     7
 10
804.3292315135792
 20
158.4105970679718
  0
VERTEX
  8
1
  6
CONTINUOUS
 62
     7
 10
804.3392098274452
 20
158.4182969354655
  0
VERTEX
  8
1
  6
CONTINUOUS
 62
     7
 10
804.3499455892119
 20
158.425821497475
  0
VERTEX
  8
1
  6
CONTINUOUS
 62
     7
 10
804.3614100842358
 20
158.4331515404981
  0
VERTEX
  8
1
  6
CONTINUOUS
 62
     7
 10
804.3735745978735
 20
158.4402678510327
  0
VERTEX
  8
1
  6
CONTINUOUS
 62
     7
 10
804.3864306720444
 20
158.4471636039135
  0
VERTEX
  8
1
  6
CONTINUOUS
 62
     7
 10
804.3999650964926
 20
158.4538334895742
  0
VERTEX
  8
1
  6
CONTINUOUS
 62
     7
 10
804.4141420283125
 20
158.4602605679114
  0
VERTEX
  8
1
  6
CONTINUOUS
 62
     7
 10
804.4289256245983
 20
158.4664278988215
  0
VERTEX
  8
1
  6
CONTINUOUS
 62
     7
 10
804.445758954324
 20
158.4728620638534
  0
VERTEX
  8
1
  6
CONTINUOUS
 62
     7
 10
804.4632839487703
 20
158.4789730526665
  0
VERTEX
  8
1
  6
CONTINUOUS
 62
     7
 10
804.4814455126091
 20
158.4847425234019
  0
VERTEX
  8
1
  6
CONTINUOUS
 62
     7
 10
804.5001885505122
 20
158.4901521342007
  0
VERTEX
  8
1
  6
CONTINUOUS
 62
     7
 10
804.5201818294574
 20
158.4953647742517
  0
VERTEX
  8
1
  6
CONTINUOUS
 62
     7
 10
804.5407551323005
 20
158.5001801029751
  0
VERTEX
  8
1
  6
CONTINUOUS
 62
     7
 10
804.5618395661958
 20
158.5045828756341
  0
VERTEX
  8
1
  6
CONTINUOUS
 62
     7
 10
804.583366238296
 20
158.5085578474943
  0
SEQEND
  8
1
  6
CONTINUOUS
 62
     7
  0
POLYLINE
  8
1
  6
CONTINUOUS
 62
     7
 66
     1
  0
VERTEX
  8
1
  6
CONTINUOUS
 62
     7
 10
808.5153233482769
 20
157.5695555023017
  0
VERTEX
  8
1
  6
CONTINUOUS
 62
     7
 10
808.4865012688817
 20
157.8803838310839
  0
VERTEX
  8
1
  6
CONTINUOUS
 62
     7
 10
808.4011426470438
 20
158.1693011438833
  0
VERTEX
  8
1
  6
CONTINUOUS
 62
     7
 10
808.2625277667307
 20
158.4252045103959
  0
VERTEX
  8
1
  6
CONTINUOUS
 62
     7
 10
808.0759835200566
 20
158.6382597077587
  0
VERTEX
  8
1
  6
CONTINUOUS
 62
     7
 10
807.8486786978062
 20
158.80027914422
  0
VERTEX
  8
1
  6
CONTINUOUS
 62
     7
 10
807.5893484968245
 20
158.9050365036979
  0
VERTEX
  8
1
  6
CONTINUOUS
 62
     7
 10
807.3079588313011
 20
158.9485060196164
  0
VERTEX
  8
1
  6
CONTINUOUS
 62
     7
 10
807.0153233482769
 20
158.9290171828567
  0
SEQEND
  8
1
  6
CONTINUOUS
 62
     7
  0
LINE
  8
1
  6
CONTINUOUS
 62
     7
 10
808.5153233482768
 20
156.3374837857809
 11
808.5153233482768
 21
157.5695555023017
  0
POLYLINE
  8
1
  6
CONTINUOUS
 62
     7
 66
     1
  0
VERTEX
  8
1
  6
CONTINUOUS
 62
     7
 10
808.515323348277
 20
161.2430950007094
  0
VERTEX
  8
1
  6
CONTINUOUS
 62
     7
 10
808.4865012688817
 20
161.5083128177375
  0
VERTEX
  8
1
  6
CONTINUOUS
 62
     7
 10
808.4011426470438
 20
161.763338462793
  0
VERTEX
  8
1
  6
CONTINUOUS
 62
     7
 10
808.2625277667307
 20
161.9983714433566
  0
VERTEX
  8
1
  6
CONTINUOUS
 62
     7
 10
808.0759835200566
 20
162.2043795737931
  0
VERTEX
  8
1
  6
CONTINUOUS
 62
     7
 10
807.8486786978062
 20
162.3734460771807
  0
VERTEX
  8
1
  6
CONTINUOUS
 62
     7
 10
807.5893484968244
 20
162.4990738226076
  0
VERTEX
  8
1
  6
CONTINUOUS
 62
     7
 10
807.307958831301
 20
162.57643500627
  0
VERTEX
  8
1
  6
CONTINUOUS
 62
     7
 10
807.0153233482768
 20
162.6025566812644
  0
SEQEND
  8
1
  6
CONTINUOUS
 62
     7
  0
LINE
  8
1
  6
CONTINUOUS
 62
     7
 10
808.5153233482768
 20
161.2430950007094
 11
808.5153233482768
 21
157.5695555023017
  0
LINE
  8
1
  6
CONTINUOUS
 62
     7
 10
804.5153233482768
 20
162.8429372689685
 11
806.5153233482768
 21
162.8429372689685
  0
LINE
  8
1
  6
CONTINUOUS
 62
     7
 10
808.5153233482768
 20
165.1382662517086
 11
808.5153233482768
 21
163.6881737924499
  0
POLYLINE
  8
1
  6
CONTINUOUS
 62
     7
 66
     1
  0
VERTEX
  8
1
  6
CONTINUOUS
 62
     7
 10
806.5153233482768
 20
162.8429372689685
  0
VERTEX
  8
1
  6
CONTINUOUS
 62
     7
 10
806.905503992309
 20
162.8591782517601
  0
VERTEX
  8
1
  6
CONTINUOUS
 62
     7
 10
807.2806902130069
 20
162.9072770682745
  0
VERTEX
  8
1
  6
CONTINUOUS
 62
     7
 10
807.6264638143159
 20
162.9853853079669
  0
VERTEX
  8
1
  6
CONTINUOUS
 62
     7
 10
807.9295369106499
 20
163.0905013149897
  0
VERTEX
  8
1
  6
CONTINUOUS
 62
     7
 10
808.1782625728819
 20
163.2185855401427
  0
VERTEX
  8
1
  6
CONTINUOUS
 62
     7
 10
808.3630824132994
 20
163.3647157784837
  0
VERTEX
  8
1
  6
CONTINUOUS
 62
     7
 10
808.4768939090832
 20
163.5232763269041
  0
VERTEX
  8
1
  6
CONTINUOUS
 62
     7
 10
808.5153233482768
 20
163.6881737924499
  0
SEQEND
  8
1
  6
CONTINUOUS
 62
     7
  0
LINE
  8
1
  6
CONTINUOUS
 62
     7
 10
808.5153233482768
 20
171.2080167618815
 11
808.5153233482768
 21
170.9269401229914
  0
LINE
  8
1
  6
CONTINUOUS
 62
     7
 10
768.5153233482768
 20
170.9269401229914
 11
768.5153233482768
 21
171.2080167618815
  0
LINE
  8
1
  6
CONTINUOUS
 62
     7
 10
549.1822744820175
 20
120.7919832381186
 11
569.5178359269537
 21
120.7919832381186
  0
ARC
  8
1
  6
CONTINUOUS
 62
     7
 10
549.1822744820175
 20
130.7919832381185
 40
10.00000000000002
 50
214.9999999999999
 51
270.0
  0
LINE
  8
1
  6
CONTINUOUS
 62
     7
 10
534.8117351003143
 20
133.8807724556961
 11
540.9907540391276
 21
125.0562188746081
  0
LINE
  8
1
  6
CONTINUOUS
 62
     9
 10
794.6788453439999
 20
133.8807724556961
 11
534.8117351003143
 21
133.8807724556961
  0
ARC
  8
1
  6
CONTINUOUS
 62
     7
 10
771.507934694194
 20
130.7919832381187
 40
29.99999999999998
 50
258.6906076058718
 51
264.2750117263826
  0
ARC
  8
1
  6
CONTINUOUS
 62
     7
 10
569.5178359269537
 20
-879.2080167618814
 40
1000.0
 50
78.69060760587178
 51
90.0
  0
ARC
  8
1
  6
CONTINUOUS
 62
     7
 10
758.0153233482768
 20
123.5862118721785
 40
3.000000000000018
 50
330.0000000000007
 51
149.9999999999997
  0
LINE
  8
1
  6
CONTINUOUS
 62
     7
 10
750.9172471369235
 20
117.2919832381185
 11
755.4172471369235
 21
125.0862118721785
  0
ARC
  8
1
  6
CONTINUOUS
 62
     7
 10
753.5153233482768
 20
115.7919832381185
 40
3.000000000000012
 50
150.0000000000019
 51
329.9999999999998
  0
LINE
  8
1
  6
CONTINUOUS
 62
     7
 10
760.6133995596301
 20
122.0862118721785
 11
756.1133995596301
 21
114.2919832381185
  0
LINE
  8
1
  6
CONTINUOUS
 62
     9
 10
532.9079244670506
 20
136.599695816806
 11
770.0383332299189
 21
136.599695816806
  0
LINE
  8
1
  6
CONTINUOUS
 62
     7
 10
534.8117351003143
 20
133.8807724556961
 11
532.9079244670507
 21
136.599695816806
  0
LINE
  8
1
  6
CONTINUOUS
 62
     7
 10
529.7176375951934
 20
137.5814177693711
 11
532.2205153554386
 21
137.5814177693711
  0
LINE
  8
1
  6
CONTINUOUS
 62
     7
 10
516.6990053189004
 20
159.7484313896806
 11
516.335163651686
 21
159.7484313896806
  0
LINE
  8
1
  6
CONTINUOUS
 62
     7
 10
515.9292933240682
 20
160.8476940408659
 11
516.6990053189004
 21
159.7484313896806
  0
LINE
  8
1
  6
CONTINUOUS
 62
     7
 10
532.2205153554386
 20
137.5814177693711
 11
532.9079244670506
 21
136.599695816806
  0
POLYLINE
  8
1
  6
CONTINUOUS
 62
     7
 66
     1
  0
VERTEX
  8
1
  6
CONTINUOUS
 62
     7
 10
527.0061866882616
 20
140.3003411304811
  0
VERTEX
  8
1
  6
CONTINUOUS
 62
     7
 10
526.9891286003935
 20
140.8551382387247
  0
VERTEX
  8
1
  6
CONTINUOUS
 62
     7
 10
526.9386098695401
 20
141.4373377536072
  0
VERTEX
  8
1
  6
CONTINUOUS
 62
     7
 10
526.8565719021967
 20
142.0245660742729
  0
VERTEX
  8
1
  6
CONTINUOUS
 62
     7
 10
526.7461673714408
 20
142.5942563456802
  0
VERTEX
  8
1
  6
CONTINUOUS
 62
     7
 10
526.6116390614741
 20
143.1245156901847
  0
VERTEX
  8
1
  6
CONTINUOUS
 62
     7
 10
526.458156819804
 20
143.5949665385502
  0
VERTEX
  8
1
  6
CONTINUOUS
 62
     7
 10
526.291618882904
 20
143.9875297285056
  0
VERTEX
  8
1
  6
CONTINUOUS
 62
     7
 10
526.1184252102937
 20
144.2871192768131
  0
SEQEND
  8
1
  6
CONTINUOUS
 62
     7
  0
LINE
  8
1
  6
CONTINUOUS
 62
     7
 10
527.0061866882616
 20
139.0315102286298
 11
527.0061866882616
 21
140.3003411304811
  0
LINE
  8
1
  6
CONTINUOUS
 62
     7
 10
511.4846766517234
 20
162.4673547507906
 11
511.4846766517234
 21
161.1985238489393
  0
POLYLINE
  8
1
  6
CONTINUOUS
 62
     7
 66
     1
  0
VERTEX
  8
1
  6
CONTINUOUS
 62
     7
 10
512.372438129691
 20
163.9184233266785
  0
VERTEX
  8
1
  6
CONTINUOUS
 62
     7
 10
512.1802913781305
 20
164.1283879869283
  0
VERTEX
  8
1
  6
CONTINUOUS
 62
     7
 10
511.9972539170319
 20
164.1994999655685
  0
SEQEND
  8
1
  6
CONTINUOUS
 62
     7
  0
LINE
  8
1
  6
CONTINUOUS
 62
     7
 10
512.372438129691
 20
163.9184233266784
 11
526.1184252102937
 21
144.2871192768131
  0
POLYLINE
  8
1
  6
CONTINUOUS
 62
     7
 66
     1
  0
VERTEX
  8
1
  6
CONTINUOUS
 62
     7
 10
528.049052421697
 20
140.3003411304811
  0
VERTEX
  8
1
  6
CONTINUOUS
 62
     7
 10
528.031994333829
 20
140.8551382387247
  0
VERTEX
  8
1
  6
CONTINUOUS
 62
     7
 10
527.9814756029755
 20
141.4373377536072
  0
VERTEX
  8
1
  6
CONTINUOUS
 62
     7
 10
527.8994376356321
 20
142.0245660742729
  0
VERTEX
  8
1
  6
CONTINUOUS
 62
     7
 10
527.7890331048762
 20
142.5942563456802
  0
VERTEX
  8
1
  6
CONTINUOUS
 62
     7
 10
527.6545047949095
 20
143.1245156901848
  0
VERTEX
  8
1
  6
CONTINUOUS
 62
     7
 10
527.5010225532394
 20
143.5949665385502
  0
VERTEX
  8
1
  6
CONTINUOUS
 62
     7
 10
527.3344846163394
 20
143.9875297285056
  0
VERTEX
  8
1
  6
CONTINUOUS
 62
     7
 10
527.1612909437291
 20
144.2871192768131
  0
SEQEND
  8
1
  6
CONTINUOUS
 62
     7
  0
POLYLINE
  8
1
  6
CONTINUOUS
 62
     7
 66
     1
  0
VERTEX
  8
1
  6
CONTINUOUS
 62
     7
 10
528.2922226850392
 20
138.2776988183532
  0
VERTEX
  8
1
  6
CONTINUOUS
 62
     7
 10
528.4984452185139
 20
138.0414941788608
  0
VERTEX
  8
1
  6
CONTINUOUS
 62
     7
 10
528.7556394336999
 20
137.8466798760725
  0
VERTEX
  8
1
  6
CONTINUOUS
 62
     7
 10
529.0530526209138
 20
137.7014006563174
  0
VERTEX
  8
1
  6
CONTINUOUS
 62
     7
 10
529.378250606021
 20
137.6117303158974
  0
VERTEX
  8
1
  6
CONTINUOUS
 62
     7
 10
529.7176375951934
 20
137.5814177693711
  0
SEQEND
  8
1
  6
CONTINUOUS
 62
     7
  0
POLYLINE
  8
1
  6
CONTINUOUS
 62
     7
 66
     1
  0
VERTEX
  8
1
  6
CONTINUOUS
 62
     7
 10
527.0061866882616
 20
139.0315102286298
  0
VERTEX
  8
1
  6
CONTINUOUS
 62
     7
 10
527.0510779307654
 20
138.604499336914
  0
VERTEX
  8
1
  6
CONTINUOUS
 62
     7
 10
527.1842652041806
 20
138.1916277751363
  0
VERTEX
  8
1
  6
CONTINUOUS
 62
     7
 10
527.4013383661929
 20
137.8065666869304
  0
SEQEND
  8
1
  6
CONTINUOUS
 62
     7
  0
LINE
  8
1
  6
CONTINUOUS
 62
     7
 10
528.0490524216968
 20
140.3003411304811
 11
528.0490524216968
 21
139.0315102286298
  0
LINE
  8
1
  6
CONTINUOUS
 62
     7
 10
532.8551188998598
 20
136.6751099823345
 11
529.7176375951935
 21
136.6751099823345
  0
POLYLINE
  8
1
  6
CONTINUOUS
 62
     7
 66
     1
  0
VERTEX
  8
1
  6
CONTINUOUS
 62
     7
 10
528.0490524216968
 20
139.0315102286298
  0
VERTEX
  8
1
  6
CONTINUOUS
 62
     7
 10
528.0766778016991
 20
138.7687342952663
  0
VERTEX
  8
1
  6
CONTINUOUS
 62
     7
 10
528.158639200724
 20
138.5146594880184
  0
VERTEX
  8
1
  6
CONTINUOUS
 62
     7
 10
528.2922226850392
 20
138.2776988183532
  0
SEQEND
  8
1
  6
CONTINUOUS
 62
     7
  0
POLYLINE
  8
1
  6
CONTINUOUS
 62
     7
 66
     1
  0
VERTEX
  8
1
  6
CONTINUOUS
 62
     7
 10
527.4013383661929
 20
137.8065666869304
  0
VERTEX
  8
1
  6
CONTINUOUS
 62
     7
 10
527.7364499830893
 20
137.4227341477552
  0
VERTEX
  8
1
  6
CONTINUOUS
 62
     7
 10
528.1543905827665
 20
137.1061609057242
  0
VERTEX
  8
1
  6
CONTINUOUS
 62
     7
 10
528.6376870119891
 20
136.8700821736223
  0
VERTEX
  8
1
  6
CONTINUOUS
 62
     7
 10
529.1661337377883
 20
136.7243678704397
  0
VERTEX
  8
1
  6
CONTINUOUS
 62
     7
 10
529.7176375951935
 20
136.6751099823345
  0
SEQEND
  8
1
  6
CONTINUOUS
 62
     7
  0
POLYLINE
  8
1
  6
CONTINUOUS
 62
     7
 66
     1
  0
VERTEX
  8
1
  6
CONTINUOUS
 62
     7
 10
511.4846766517232
 20
161.1985238489393
  0
VERTEX
  8
1
  6
CONTINUOUS
 62
     7
 10
511.5295678942271
 20
160.7715129572236
  0
VERTEX
  8
1
  6
CONTINUOUS
 62
     7
 10
511.6627551676424
 20
160.3586413954458
  0
VERTEX
  8
1
  6
CONTINUOUS
 62
     7
 10
511.8798283296546
 20
159.9735803072399
  0
SEQEND
  8
1
  6
CONTINUOUS
 62
     7
  0
LINE
  8
1
  6
CONTINUOUS
 62
     7
 10
513.4153038631264
 20
163.9184233266784
 11
527.1612909437291
 21
144.2871192768131
  0
POLYLINE
  8
1
  6
CONTINUOUS
 62
     7
 66
     1
  0
VERTEX
  8
1
  6
CONTINUOUS
 62
     7
 10
511.9972539170319
 20
164.1994999655685
  0
VERTEX
  8
1
  6
CONTINUOUS
 62
     7
 10
511.8527164303215
 20
164.1460341769804
  0
VERTEX
  8
1
  6
CONTINUOUS
 62
     7
 10
511.7267038306133
 20
163.987542538249
  0
VERTEX
  8
1
  6
CONTINUOUS
 62
     7
 10
511.6237076932507
 20
163.7296743030072
  0
VERTEX
  8
1
  6
CONTINUOUS
 62
     7
 10
511.5473991980377
 20
163.3816208902876
  0
VERTEX
  8
1
  6
CONTINUOUS
 62
     7
 10
511.5004982742225
 20
162.9557882668783
  0
VERTEX
  8
1
  6
CONTINUOUS
 62
     7
 10
511.4846766517232
 20
162.4673547507906
  0
SEQEND
  8
1
  6
CONTINUOUS
 62
     7
  0
POLYLINE
  8
1
  6
CONTINUOUS
 62
     7
 66
     1
  0
VERTEX
  8
1
  6
CONTINUOUS
 62
     7
 10
513.4153038631264
 20
163.9184233266784
  0
VERTEX
  8
1
  6
CONTINUOUS
 62
     7
 10
513.2231571115659
 20
164.1283879869283
  0
VERTEX
  8
1
  6
CONTINUOUS
 62
     7
 10
513.0401196504673
 20
164.1994999655685
  0
SEQEND
  8
1
  6
CONTINUOUS
 62
     7
  0
LINE
  8
1
  6
CONTINUOUS
 62
     7
 10
515.9292933240682
 20
160.8476940408659
 11
515.7324813427027
 21
161.128770679756
  0
LINE
  8
1
  6
CONTINUOUS
 62
     7
 10
808.5153233482768
 20
171.2080167618815
 11
768.5153233482768
 21
171.2080167618815
  0
LINE
  8
1
  6
CONTINUOUS
 62
     7
 10
511.8798283296546
 20
159.9735803072399
 11
527.4013383661928
 21
137.8065666869304
  0
LINE
  8
1
  6
CONTINUOUS
 62
     7
 10
513.0401196504672
 20
164.1994999655685
 11
511.997253917032
 21
164.1994999655685
  0
LINE
  8
1
  6
CONTINUOUS
 62
     7
 10
768.5153233482768
 20
161.128770679756
 11
515.7324813427027
 21
161.128770679756
  0
ENDBLK
  8
0
  0
ENDSEC
  0
SECTION
  2
ENTITIES
  0
INSERT
  8
1
  6
CONTINUOUS
 62
     7
  2
D_FRAME_VIEW_1523
 10
0.0
 20
0.0
 30
0.0
  0
LINE
  8
1
  6
CENTER
 62
     1
 10
410.0
 20
199.0
 11
410.0
 21
523.0
  0
LINE
  8
1
  6
CENTER
 62
     1
 10
822.0
 20
120.0
 11
504.0
 21
120.0
  0
LINE
  8
1
  6
CENTER
 62
     1
 10
410.0
 20
60.0
 11
410.0
 21
180.0
  0
LINE
  8
1
  6
CENTER
 62
     1
 10
330.0000000000001
 20
120.0
 11
486.0
 21
120.0
  0
TEXT
  8
1
  6
CONTINUOUS
 62
     7
 10
541.8549612354634
 20
41.32842003251218
 40
3.0
  1
PV4B-RF
  0
INSERT
  8
1
  6
CONTINUOUS
 62
     7
  2
D_FRAME_VIEW_2326
 10
0.0
 20
0.0
 30
0.0
  0
INSERT
  8
1
  6
CONTINUOUS
 62
     7
  2
D_FRAME_VIEW_2073
 10
0.0
 20
0.0
 30
0.0
  0
ENDSEC
  0
EOF
