  0
SECTION
  2
HEADER
  9
$ACADVER
  1
AC1004
  9
$INSBASE
 10
0.0
 20
0.0
  9
$EXTMIN
 10
-454.3500000000001
 20
-65.15154532916335
  9
$EXTMAX
 10
-226.5151213375033
 20
158.35
  9
$LIMMIN
 10
0.0
 20
0.0
  9
$LIMMAX
 10
12.0
 20
9.0
  9
$ORTHOMODE
 70
     0
  9
$REGENMODE
 70
     1
  9
$FILLMODE
 70
     1
  9
$QTEXTMODE
 70
     0
  9
$DRAGMODE
 70
     2
  9
$LTSCALE
 40
1.0
  9
$OSMODE
 70
    37
  9
$ATTMODE
 70
     1
  9
$TEXTSIZE
 40
0.2
  9
$TRACEWID
 40
0.05
  9
$TEXTSTYLE
  7
STANDARD
  9
$CLAYER
  8
0
  9
$CELTYPE
  6
BYLAYER
  9
$CECOLOR
 62
   256
  9
$DIMSCALE
 40
1.0
  9
$DIMASZ
 40
3.0
  9
$DIMEXO
 40
0.0625
  9
$DIMDLI
 40
0.38
  9
$DIMRND
 40
0.0
  9
$DIMDLE
 40
0.0
  9
$DIMEXE
 40
1.5
  9
$DIMTP
 40
0.0
  9
$DIMTM
 40
0.0
  9
$DIMTXT
 40
3.0
  9
$DIMCEN
 40
0.09
  9
$DIMTSZ
 40
0.0
  9
$DIMTOL
 70
     0
  9
$DIMLIM
 70
     0
  9
$DIMTIH
 70
     1
  9
$DIMTOH
 70
     1
  9
$DIMSE1
 70
     0
  9
$DIMSE2
 70
     0
  9
$DIMTAD
 70
     1
  9
$DIMZIN
 70
     0
  9
$DIMBLK
  1

  9
$DIMASO
 70
     1
  9
$DIMSHO
 70
     1
  9
$DIMPOST
  1

  9
$DIMAPOST
  1

  9
$DIMALT
 70
     0
  9
$DIMALTD
 70
     2
  9
$DIMALTF
 40
25.4
  9
$DIMLFAC
 40
1.0
  9
$DIMTOFL
 70
     0
  9
$DIMTVP
 40
0.0
  9
$DIMTIX
 70
     0
  9
$DIMSOXD
 70
     0
  9
$DIMSAH
 70
     0
  9
$DIMBLK1
  1

  9
$DIMBLK2
  1

  9
$LUNITS
 70
     2
  9
$LUPREC
 70
     4
  9
$SKETCHINC
 40
0.1
  9
$FILLETRAD
 40
0.5
  9
$AUNITS
 70
     0
  9
$AUPREC
 70
     0
  9
$MENU
  1
.
  9
$ELEVATION
 40
0.0
  9
$THICKNESS
 40
0.0
  9
$LIMCHECK
 70
     0
  9
$CHAMFERA
 40
0.0
  9
$CHAMFERB
 40
0.0
  9
$SKPOLY
 70
     0
  9
$TDCREATE
 40
2459207.39933206
  9
$TDUPDATE
 40
2459207.399332234
  9
$TDINDWG
 40
0.0000000116
  9
$TDUSRTIMER
 40
0.0000000116
  9
$USRTIMER
 70
     1
  9
$ANGBASE
 50
0.0
  9
$ANGDIR
 70
     0
  9
$PDMODE
 70
     0
  9
$PDSIZE
 40
0.0
  9
$PLINEWID
 40
0.0
  9
$COORDS
 70
     1
  9
$SPLFRAME
 70
     0
  9
$SPLINETYPE
 70
     6
  9
$SPLINESEGS
 70
     8
  9
$ATTDIA
 70
     0
  9
$ATTREQ
 70
     1
  9
$SURFTAB1
 70
     6
  9
$SURFTAB2
 70
     6
  9
$SURFTYPE
 70
     6
  9
$SURFU
 70
     6
  9
$SURFV
 70
     6
  9
$UCSNAME
  2

  9
$UCSORG
 10
0.0
 20
0.0
 30
0.0
  9
$UCSXDIR
 10
1.0
 20
0.0
 30
0.0
  9
$UCSYDIR
 10
0.0
 20
1.0
 30
0.0
  9
$USERI1
 70
     0
  9
$USERI2
 70
     0
  9
$USERI3
 70
     0
  9
$USERI4
 70
     0
  9
$USERI5
 70
     0
  9
$USERR1
 40
0.0
  9
$USERR2
 40
0.0
  9
$USERR3
 40
0.0
  9
$USERR4
 40
0.0
  9
$USERR5
 40
0.0
  9
$WORLDVIEW
 70
     1
  0
ENDSEC
  0
SECTION
  2
TABLES
  0
TABLE
  2
LTYPE
 70
     1
  0
LTYPE
  2
CONTINUOUS
 70
     0
  3
Solid line
 72
    65
 73
     0
 40
0.0
  0
ENDTAB
  0
TABLE
  2
LAYER
 70
     2
  0
LAYER
  2
0
 70
     0
 62
     7
  6
CONTINUOUS
  0
LAYER
  2
1
 70
     0
 62
     7
  6
CONTINUOUS
  0
ENDTAB
  0
TABLE
  2
STYLE
 70
     2
  0
STYLE
  2
STANDARD
 70
     0
 40
0.0
 41
1.0
 50
0.0
 71
     0
 42
0.2
  3
txt
  4

  0
STYLE
  2
ＭＳ_ゴシック
 70
     0
 40
0.0
 41
1.0
 50
0.0
 71
     0
 42
0.2
  3
ＭＳ ゴシック.shx
  4

  0
ENDTAB
  0
TABLE
  2
VIEW
 70
     0
  0
ENDTAB
  0
ENDSEC
  0
SECTION
  2
BLOCKS
  0
BLOCK
  8
0
  2
D_FRAME_VIEW_1491
 70
     0
 10
0.0
 20
0.0
  0
LINE
  8
1
  6
CONTINUOUS
 62
     7
 10
-427.0000000000001
 20
145.5
 11
-427.0000000000001
 21
142.0313730334031
  0
LINE
  8
1
  6
CONTINUOUS
 62
     7
 10
-425.3575714714372
 20
145.5
 11
-427.0
 21
145.5
  0
ARC
  8
1
  6
CONTINUOUS
 62
     7
 10
-427.5000000000001
 20
146.0
 40
2.200000000000001
 50
346.8634412130552
 51
13.13655878695693
  0
LINE
  8
1
  6
CONTINUOUS
 62
     7
 10
-427.0000000000001
 20
146.5
 11
-425.3575714714373
 21
146.5
  0
LINE
  8
1
  6
CONTINUOUS
 62
     7
 10
-427.0000000000001
 20
149.9686269665969
 11
-427.0000000000001
 21
146.5
  0
ARC
  8
1
  6
CONTINUOUS
 62
     7
 10
-427.5000000000001
 20
146.0
 40
4.000000000000003
 50
277.1807557814582
 51
82.81924421854171
  0
LINE
  8
1
  6
CONTINUOUS
 62
     7
 10
-428.0000000000001
 20
146.5
 11
-428.0000000000001
 21
149.9686269665969
  0
LINE
  8
1
  6
CONTINUOUS
 62
     7
 10
-429.6424285285628
 20
146.5
 11
-428.0000000000001
 21
146.5
  0
ARC
  8
1
  6
CONTINUOUS
 62
     7
 10
-427.5000000000001
 20
146.0
 40
2.2
 50
166.8634412130551
 51
193.1365587869449
  0
LINE
  8
1
  6
CONTINUOUS
 62
     7
 10
-428.0000000000001
 20
142.0313730334031
 11
-428.0000000000001
 21
145.5
  0
ARC
  8
1
  6
CONTINUOUS
 62
     7
 10
-427.5000000000001
 20
146.0
 40
4.000000000000003
 50
97.18075578145823
 51
262.8192442185417
  0
LINE
  8
1
  6
CONTINUOUS
 62
     7
 10
-428.0000000000001
 20
145.5
 11
-429.6424285285628
 21
145.5
  0
ARC
  8
1
  6
CONTINUOUS
 62
     7
 10
-427.5000000000001
 20
146.0
 40
1.21654992179303
 50
335.732435516033
 51
24.26756448396713
  0
ARC
  8
1
  6
CONTINUOUS
 62
     7
 10
-427.5000000000001
 20
146.0
 40
1.21654992179303
 50
155.7324355160329
 51
204.2675644839671
  0
ARC
  8
1
  6
CONTINUOUS
 62
     7
 10
-427.5000000000001
 20
146.0
 40
1.704282510358893
 50
252.9396640240005
 51
287.0603359759996
  0
ARC
  8
1
  6
CONTINUOUS
 62
     7
 10
-427.5000000000001
 20
146.0
 40
4.000000000000003
 50
262.8192442185417
 51
277.1807557814582
  0
ARC
  8
1
  6
CONTINUOUS
 62
     7
 10
-427.5000000000001
 20
146.0
 40
1.21654992179303
 50
65.7324355160329
 51
114.2675644839671
  0
ARC
  8
1
  6
CONTINUOUS
 62
     7
 10
-427.5000000000001
 20
146.0
 40
1.704282510358894
 50
72.93966402400035
 51
107.0603359759996
  0
ARC
  8
1
  6
CONTINUOUS
 62
     7
 10
-427.5000000000001
 20
146.0
 40
1.21654992179303
 50
245.7324355160328
 51
294.2675644839671
  0
ARC
  8
1
  6
CONTINUOUS
 62
     7
 10
-427.5000000000001
 20
146.0
 40
4.000000000000003
 50
82.81924421854171
 51
97.18075578145826
  0
LINE
  8
1
  6
CONTINUOUS
 62
     7
 10
-368.0000000000001
 20
57.50000000000001
 11
-368.0000000000001
 21
60.96862696659689
  0
ARC
  8
1
  6
CONTINUOUS
 62
     7
 10
-367.5000000000001
 20
57.00000000000001
 40
2.2
 50
166.8634412130551
 51
193.1365587869449
  0
LINE
  8
1
  6
CONTINUOUS
 62
     7
 10
-368.0000000000001
 20
56.50000000000001
 11
-369.6424285285629
 21
56.50000000000001
  0
LINE
  8
1
  6
CONTINUOUS
 62
     7
 10
-368.0000000000001
 20
53.03137303340312
 11
-368.0000000000001
 21
56.50000000000001
  0
ARC
  8
1
  6
CONTINUOUS
 62
     7
 10
-367.5000000000001
 20
57.00000000000001
 40
4.000000000000003
 50
97.18075578145823
 51
262.8192442185417
  0
LINE
  8
1
  6
CONTINUOUS
 62
     7
 10
-369.6424285285629
 20
57.50000000000001
 11
-368.0000000000001
 21
57.50000000000001
  0
ARC
  8
1
  6
CONTINUOUS
 62
     7
 10
-367.5000000000001
 20
57.00000000000001
 40
2.200000000000001
 50
346.8634412130552
 51
13.13655878695693
  0
LINE
  8
1
  6
CONTINUOUS
 62
     7
 10
-367.0000000000001
 20
57.50000000000001
 11
-365.3575714714373
 21
57.50000000000001
  0
ARC
  8
1
  6
CONTINUOUS
 62
     7
 10
-367.5000000000001
 20
57.00000000000001
 40
4.000000000000003
 50
277.1807557814582
 51
82.81924421854171
  0
LINE
  8
1
  6
CONTINUOUS
 62
     7
 10
-367.0000000000001
 20
60.96862696659689
 11
-367.0000000000001
 21
57.50000000000001
  0
LINE
  8
1
  6
CONTINUOUS
 62
     7
 10
-367.0000000000001
 20
56.50000000000001
 11
-367.0000000000001
 21
53.03137303340312
  0
LINE
  8
1
  6
CONTINUOUS
 62
     7
 10
-365.3575714714372
 20
56.50000000000001
 11
-367.0
 21
56.50000000000001
  0
ARC
  8
1
  6
CONTINUOUS
 62
     7
 10
-367.5000000000001
 20
57.00000000000001
 40
1.21654992179303
 50
335.732435516033
 51
24.26756448396713
  0
ARC
  8
1
  6
CONTINUOUS
 62
     7
 10
-367.5000000000001
 20
57.00000000000001
 40
1.21654992179303
 50
155.7324355160329
 51
204.2675644839671
  0
ARC
  8
1
  6
CONTINUOUS
 62
     7
 10
-367.5000000000001
 20
57.00000000000001
 40
1.21654992179303
 50
245.7324355160328
 51
294.2675644839671
  0
ARC
  8
1
  6
CONTINUOUS
 62
     7
 10
-367.5000000000001
 20
57.00000000000001
 40
1.704282510358893
 50
252.9396640240005
 51
287.0603359759996
  0
ARC
  8
1
  6
CONTINUOUS
 62
     7
 10
-367.5000000000001
 20
57.00000000000001
 40
4.000000000000003
 50
262.8192442185417
 51
277.1807557814582
  0
ARC
  8
1
  6
CONTINUOUS
 62
     7
 10
-367.5000000000001
 20
57.00000000000001
 40
1.21654992179303
 50
65.7324355160329
 51
114.2675644839671
  0
ARC
  8
1
  6
CONTINUOUS
 62
     7
 10
-367.5000000000001
 20
57.00000000000001
 40
1.704282510358894
 50
72.93966402400035
 51
107.0603359759996
  0
ARC
  8
1
  6
CONTINUOUS
 62
     7
 10
-367.5000000000001
 20
57.00000000000001
 40
4.000000000000003
 50
82.81924421854171
 51
97.18075578145826
  0
ARC
  8
1
  6
CONTINUOUS
 62
     7
 10
-367.5000000000001
 20
47.65
 40
5.999999999999998
 50
211.2363073227075
 51
270.0
  0
ARC
  8
1
  6
CONTINUOUS
 62
     7
 10
-367.5000000000001
 20
47.65
 40
5.999999999999996
 50
270.0
 51
328.7636926772926
  0
ARC
  8
1
  6
CONTINUOUS
 62
     7
 10
-367.5000000000001
 20
47.15
 40
4.000000000000002
 50
230.8050325740169
 51
309.194967425983
  0
ARC
  8
1
  6
CONTINUOUS
 62
     7
 10
-367.5000000000001
 20
40.95
 40
4.000000000000007
 50
50.80503257401688
 51
129.1949674259829
  0
POLYLINE
  8
1
  6
CONTINUOUS
 62
     7
 66
     1
  0
VERTEX
  8
1
  6
CONTINUOUS
 62
     7
 10
-444.351523048436
 20
158.35
  0
VERTEX
  8
1
  6
CONTINUOUS
 62
     7
 10
-446.3022913679119
 20
158.1578978161774
  0
VERTEX
  8
1
  6
CONTINUOUS
 62
     7
 10
-448.1780047082192
 20
157.5889707904067
  0
VERTEX
  8
1
  6
CONTINUOUS
 62
     7
 10
-449.9066083195377
 20
156.6650740183613
  0
VERTEX
  8
1
  6
CONTINUOUS
 62
     7
 10
-451.4216986112567
 20
155.4216986112568
  0
VERTEX
  8
1
  6
CONTINUOUS
 62
     7
 10
-452.6650740183612
 20
153.9066083195378
  0
VERTEX
  8
1
  6
CONTINUOUS
 62
     7
 10
-453.5889707904066
 20
152.1780047082194
  0
VERTEX
  8
1
  6
CONTINUOUS
 62
     7
 10
-454.1578978161774
 20
150.3022913679119
  0
VERTEX
  8
1
  6
CONTINUOUS
 62
     7
 10
-454.35
 20
148.3515230484361
  0
SEQEND
  8
1
  6
CONTINUOUS
 62
     7
  0
POLYLINE
  8
1
  6
CONTINUOUS
 62
     7
 66
     1
  0
VERTEX
  8
1
  6
CONTINUOUS
 62
     7
 10
-340.65
 20
148.3515230484361
  0
VERTEX
  8
1
  6
CONTINUOUS
 62
     7
 10
-340.8421021838226
 20
150.3022913679119
  0
VERTEX
  8
1
  6
CONTINUOUS
 62
     7
 10
-341.4110292095933
 20
152.1780047082194
  0
VERTEX
  8
1
  6
CONTINUOUS
 62
     7
 10
-342.3349259816388
 20
153.9066083195378
  0
VERTEX
  8
1
  6
CONTINUOUS
 62
     7
 10
-343.5783013887432
 20
155.4216986112568
  0
VERTEX
  8
1
  6
CONTINUOUS
 62
     7
 10
-345.0933916804622
 20
156.6650740183613
  0
VERTEX
  8
1
  6
CONTINUOUS
 62
     7
 10
-346.8219952917806
 20
157.5889707904067
  0
VERTEX
  8
1
  6
CONTINUOUS
 62
     7
 10
-348.6977086320881
 20
158.1578978161774
  0
VERTEX
  8
1
  6
CONTINUOUS
 62
     7
 10
-350.6484769515639
 20
158.3500000000001
  0
SEQEND
  8
1
  6
CONTINUOUS
 62
     7
  0
POLYLINE
  8
1
  6
CONTINUOUS
 62
     7
 66
     1
  0
VERTEX
  8
1
  6
CONTINUOUS
 62
     7
 10
-350.6484769515639
 20
44.64999999999999
  0
VERTEX
  8
1
  6
CONTINUOUS
 62
     7
 10
-348.6977086320881
 20
44.84210218382261
  0
VERTEX
  8
1
  6
CONTINUOUS
 62
     7
 10
-346.8219952917807
 20
45.41102920959329
  0
VERTEX
  8
1
  6
CONTINUOUS
 62
     7
 10
-345.0933916804622
 20
46.33492598163877
  0
VERTEX
  8
1
  6
CONTINUOUS
 62
     7
 10
-343.5783013887432
 20
47.57830138874325
  0
VERTEX
  8
1
  6
CONTINUOUS
 62
     7
 10
-342.3349259816388
 20
49.0933916804622
  0
VERTEX
  8
1
  6
CONTINUOUS
 62
     7
 10
-341.4110292095933
 20
50.82199529178066
  0
VERTEX
  8
1
  6
CONTINUOUS
 62
     7
 10
-340.8421021838226
 20
52.69770863208807
  0
VERTEX
  8
1
  6
CONTINUOUS
 62
     7
 10
-340.65
 20
54.64847695156389
  0
SEQEND
  8
1
  6
CONTINUOUS
 62
     7
  0
POLYLINE
  8
1
  6
CONTINUOUS
 62
     7
 66
     1
  0
VERTEX
  8
1
  6
CONTINUOUS
 62
     7
 10
-454.35
 20
54.64847695156392
  0
VERTEX
  8
1
  6
CONTINUOUS
 62
     7
 10
-454.1578978161774
 20
52.6977086320881
  0
VERTEX
  8
1
  6
CONTINUOUS
 62
     7
 10
-453.5889707904067
 20
50.82199529178069
  0
VERTEX
  8
1
  6
CONTINUOUS
 62
     7
 10
-452.6650740183612
 20
49.09339168046224
  0
VERTEX
  8
1
  6
CONTINUOUS
 62
     7
 10
-451.4216986112568
 20
47.57830138874328
  0
VERTEX
  8
1
  6
CONTINUOUS
 62
     7
 10
-449.9066083195378
 20
46.33492598163879
  0
VERTEX
  8
1
  6
CONTINUOUS
 62
     7
 10
-448.1780047082194
 20
45.41102920959332
  0
VERTEX
  8
1
  6
CONTINUOUS
 62
     7
 10
-446.3022913679119
 20
44.84210218382263
  0
VERTEX
  8
1
  6
CONTINUOUS
 62
     7
 10
-444.3515230484361
 20
44.65
  0
SEQEND
  8
1
  6
CONTINUOUS
 62
     7
  0
POLYLINE
  8
1
  6
CONTINUOUS
 62
     7
 66
     1
  0
VERTEX
  8
1
  6
CONTINUOUS
 62
     7
 10
-372.4888086618999
 20
44.3165651146374
  0
VERTEX
  8
1
  6
CONTINUOUS
 62
     7
 10
-372.5066059609307
 20
44.34204159425278
  0
VERTEX
  8
1
  6
CONTINUOUS
 62
     7
 10
-372.5254425176958
 20
44.36675958351406
  0
VERTEX
  8
1
  6
CONTINUOUS
 62
     7
 10
-372.5454281982304
 20
44.3908392428114
  0
VERTEX
  8
1
  6
CONTINUOUS
 62
     7
 10
-372.5664001283375
 20
44.41406499485895
  0
VERTEX
  8
1
  6
CONTINUOUS
 62
     7
 10
-372.5888099830429
 20
44.43687131267759
  0
VERTEX
  8
1
  6
CONTINUOUS
 62
     7
 10
-372.6121707222686
 20
44.45870261060185
  0
VERTEX
  8
1
  6
CONTINUOUS
 62
     7
 10
-372.6366226474112
 20
44.47966764884165
  0
VERTEX
  8
1
  6
CONTINUOUS
 62
     7
 10
-372.6619514490501
 20
44.49956441388154
  0
VERTEX
  8
1
  6
CONTINUOUS
 62
     7
 10
-372.6871782263798
 20
44.5177139299392
  0
VERTEX
  8
1
  6
CONTINUOUS
 62
     7
 10
-372.7131346832599
 20
44.53480362136524
  0
VERTEX
  8
1
  6
CONTINUOUS
 62
     7
 10
-372.739964308591
 20
44.5509105066518
  0
VERTEX
  8
1
  6
CONTINUOUS
 62
     7
 10
-372.767442015414
 20
44.56588502339955
  0
VERTEX
  8
1
  6
CONTINUOUS
 62
     7
 10
-372.7961379975503
 20
44.57998768993124
  0
VERTEX
  8
1
  6
CONTINUOUS
 62
     7
 10
-372.8254085997153
 20
44.59285533975714
  0
VERTEX
  8
1
  6
CONTINUOUS
 62
     7
 10
-372.8554222828417
 20
44.60454415912118
  0
VERTEX
  8
1
  6
CONTINUOUS
 62
     7
 10
-372.885909860142
 20
44.61493440785939
  0
VERTEX
  8
1
  6
CONTINUOUS
 62
     7
 10
-372.9130983312718
 20
44.62299062976344
  0
VERTEX
  8
1
  6
CONTINUOUS
 62
     7
 10
-372.9405717770549
 20
44.63001383641151
  0
VERTEX
  8
1
  6
CONTINUOUS
 62
     7
 10
-372.9684518531646
 20
44.63602470460837
  0
VERTEX
  8
1
  6
CONTINUOUS
 62
     7
 10
-372.9965402194163
 20
44.64097170794251
  0
VERTEX
  8
1
  6
CONTINUOUS
 62
     7
 10
-373.0253050553561
 20
44.64490663858769
  0
VERTEX
  8
1
  6
CONTINUOUS
 62
     7
 10
-373.0542005857508
 20
44.64772581715305
  0
VERTEX
  8
1
  6
CONTINUOUS
 62
     7
 10
-373.0833593558833
 20
44.64943101850957
  0
VERTEX
  8
1
  6
CONTINUOUS
 62
     7
 10
-373.1125624006952
 20
44.65
  0
SEQEND
  8
1
  6
CONTINUOUS
 62
     7
  0
POLYLINE
  8
1
  6
CONTINUOUS
 62
     7
 66
     1
  0
VERTEX
  8
1
  6
CONTINUOUS
 62
     7
 10
-361.8874375993049
 20
44.65
  0
VERTEX
  8
1
  6
CONTINUOUS
 62
     7
 10
-361.9185002967824
 20
44.64935618170109
  0
VERTEX
  8
1
  6
CONTINUOUS
 62
     7
 10
-361.9495097114325
 20
44.64742695688036
  0
VERTEX
  8
1
  6
CONTINUOUS
 62
     7
 10
-361.9806268008894
 20
44.64418776561924
  0
VERTEX
  8
1
  6
CONTINUOUS
 62
     7
 10
-362.01158182356
 20
44.6396543101275
  0
VERTEX
  8
1
  6
CONTINUOUS
 62
     7
 10
-362.0429869403389
 20
44.63369245307121
  0
VERTEX
  8
1
  6
CONTINUOUS
 62
     7
 10
-362.0741096659933
 20
44.62639854588209
  0
VERTEX
  8
1
  6
CONTINUOUS
 62
     7
 10
-362.1051183511364
 20
44.61771641788553
  0
VERTEX
  8
1
  6
CONTINUOUS
 62
     7
 10
-362.1357260478152
 20
44.60771207681401
  0
VERTEX
  8
1
  6
CONTINUOUS
 62
     7
 10
-362.1648244529285
 20
44.59682228391542
  0
VERTEX
  8
1
  6
CONTINUOUS
 62
     7
 10
-362.1934471975541
 20
44.58473744681241
  0
VERTEX
  8
1
  6
CONTINUOUS
 62
     7
 10
-362.2217379735903
 20
44.57138114724501
  0
VERTEX
  8
1
  6
CONTINUOUS
 62
     7
 10
-362.2494475512614
 20
44.55685743976041
  0
VERTEX
  8
1
  6
CONTINUOUS
 62
     7
 10
-362.2771089501029
 20
44.54083727994276
  0
VERTEX
  8
1
  6
CONTINUOUS
 62
     7
 10
-362.3040631572023
 20
44.52365387944366
  0
VERTEX
  8
1
  6
CONTINUOUS
 62
     7
 10
-362.3304503789353
 20
44.50519855631288
  0
VERTEX
  8
1
  6
CONTINUOUS
 62
     7
 10
-362.356021788797
 20
44.48562849132617
  0
VERTEX
  8
1
  6
CONTINUOUS
 62
     7
 10
-362.3778386873069
 20
44.46748925464745
  0
VERTEX
  8
1
  6
CONTINUOUS
 62
     7
 10
-362.3989544238823
 20
44.44853840647171
  0
VERTEX
  8
1
  6
CONTINUOUS
 62
     7
 10
-362.4194539045199
 20
44.42868621134336
  0
VERTEX
  8
1
  6
CONTINUOUS
 62
     7
 10
-362.4391839403643
 20
44.40806912981259
  0
VERTEX
  8
1
  6
CONTINUOUS
 62
     7
 10
-362.4584480547711
 20
44.38632631034328
  0
VERTEX
  8
1
  6
CONTINUOUS
 62
     7
 10
-362.4768564297175
 20
44.36385437141566
  0
VERTEX
  8
1
  6
CONTINUOUS
 62
     7
 10
-362.4944842739887
 20
44.34054401455361
  0
VERTEX
  8
1
  6
CONTINUOUS
 62
     7
 10
-362.5111913381001
 20
44.3165651146374
  0
SEQEND
  8
1
  6
CONTINUOUS
 62
     7
  0
LINE
  8
1
  6
CONTINUOUS
 62
     7
 10
-350.6484769515639
 20
158.35
 11
-444.351523048436
 21
158.35
  0
LINE
  8
1
  6
CONTINUOUS
 62
     7
 10
-454.35
 20
148.3515230484361
 11
-454.35
 21
54.64847695156393
  0
LINE
  8
1
  6
CONTINUOUS
 62
     7
 10
-340.65
 20
54.64847695156391
 11
-340.65
 21
148.3515230484361
  0
LINE
  8
1
  6
CONTINUOUS
 62
     7
 10
-444.3515230484361
 20
44.65
 11
-373.1125624006952
 21
44.65
  0
LINE
  8
1
  6
CONTINUOUS
 62
     7
 10
-361.8874375993049
 20
44.65
 11
-350.6484769515639
 21
44.65
  0
ENDBLK
  8
0
  0
BLOCK
  8
0
  2
D_FRAME_VIEW_1650
 70
     0
 10
0.0
 20
0.0
  0
LINE
  8
1
  6
CONTINUOUS
 62
     7
 10
-278.7526213375033
 20
142.0
 11
-278.7526213375033
 21
142.0313730334031
  0
LINE
  8
1
  6
CONTINUOUS
 62
     7
 10
-278.7760967204831
 20
149.9686269665969
 11
-278.7526213375033
 21
149.9686269665969
  0
LINE
  8
1
  6
CONTINUOUS
 62
     7
 10
-278.7526213375033
 20
149.9686269665969
 11
-278.7526213375033
 21
150.0
  0
LINE
  8
1
  6
CONTINUOUS
 62
     7
 10
-278.7760967204831
 20
142.0313730334031
 11
-278.7526213375033
 21
142.0313730334031
  0
LINE
  8
1
  6
CONTINUOUS
 62
     7
 10
-278.7760967204831
 20
149.9686269665969
 11
-278.7760967204832
 21
142.0313730334031
  0
ARC
  8
1
  6
CONTINUOUS
 62
     7
 10
-273.6526213375033
 20
146.0
 40
6.480740698407815
 50
184.4248625294275
 51
217.761243907035
  0
LINE
  8
1
  6
CONTINUOUS
 62
     7
 10
-279.7689928108525
 20
145.5
 11
-280.1140453291634
 21
145.5
  0
LINE
  8
1
  6
CONTINUOUS
 62
     7
 10
-279.7689928108525
 20
146.5000000000005
 11
-279.7689928108525
 21
145.5
  0
LINE
  8
1
  6
CONTINUOUS
 62
     7
 10
-280.1140453291633
 20
146.5
 11
-279.7689928108525
 21
146.5
  0
ARC
  8
1
  6
CONTINUOUS
 62
     7
 10
-273.6526213375033
 20
146.0
 40
6.48074069840782
 50
142.2387560929649
 51
175.5751374705725
  0
ARC
  8
1
  6
CONTINUOUS
 62
     7
 10
-273.6526213375033
 20
57.00000000000001
 40
6.480740698407815
 50
184.4248625294275
 51
217.761243907035
  0
LINE
  8
1
  6
CONTINUOUS
 62
     7
 10
-279.7689928108525
 20
56.50000000000001
 11
-280.1140453291634
 21
56.50000000000001
  0
LINE
  8
1
  6
CONTINUOUS
 62
     7
 10
-279.7689928108525
 20
57.50000000000046
 11
-279.7689928108525
 21
56.50000000000001
  0
LINE
  8
1
  6
CONTINUOUS
 62
     7
 10
-280.1140453291633
 20
57.50000000000001
 11
-279.7689928108525
 21
57.50000000000001
  0
ARC
  8
1
  6
CONTINUOUS
 62
     7
 10
-273.6526213375033
 20
57.00000000000001
 40
6.48074069840782
 50
142.2387560929649
 51
175.5751374705725
  0
LINE
  8
1
  6
CONTINUOUS
 62
     7
 10
-278.7760967204831
 20
60.96862696659689
 11
-278.7760967204832
 21
53.03137303340312
  0
LINE
  8
1
  6
CONTINUOUS
 62
     7
 10
-278.7526213375033
 20
53.0
 11
-278.7526213375033
 21
53.03137303340311
  0
LINE
  8
1
  6
CONTINUOUS
 62
     7
 10
-278.7760967204831
 20
60.96862696659689
 11
-278.7526213375033
 21
60.96862696659689
  0
LINE
  8
1
  6
CONTINUOUS
 62
     7
 10
-278.7526213375033
 20
60.9686269665969
 11
-278.7526213375033
 21
61.00000000000002
  0
LINE
  8
1
  6
CONTINUOUS
 62
     7
 10
-278.7760967204831
 20
53.03137303340312
 11
-278.7526213375033
 21
53.03137303340312
  0
LINE
  8
1
  6
CONTINUOUS
 62
     7
 10
-226.5526213375033
 20
147.5
 11
-226.5526213375033
 21
55.50000000000002
  0
LINE
  8
1
  6
CONTINUOUS
 62
     7
 10
-226.5526213375033
 20
152.0
 11
-226.5526213375033
 21
147.5
  0
ARC
  8
1
  6
CONTINUOUS
 62
     7
 10
-230.0526213375033
 20
152.0
 40
3.500000000000003
 50
0.0
 51
90.0
  0
LINE
  8
1
  6
CONTINUOUS
 62
     7
 10
-271.5526213375033
 20
155.5
 11
-230.0526213375033
 21
155.5
  0
LINE
  8
1
  6
CONTINUOUS
 62
     7
 10
-226.5526213375033
 20
55.50000000000001
 11
-226.5526213375033
 21
51.0
  0
ARC
  8
1
  6
CONTINUOUS
 62
     7
 10
-230.0526213375033
 20
51.00000000000001
 40
3.500000000000003
 50
270.0
 51
0.0
  0
LINE
  8
1
  6
CONTINUOUS
 62
     7
 10
-230.0526213375033
 20
47.50000000000001
 11
-271.5526213375033
 21
47.50000000000001
  0
CIRCLE
  8
1
  6
CONTINUOUS
 62
     7
 10
-246.0526213375033
 20
125.5
 40
13.50000000000001
  0
CIRCLE
  8
1
  6
CONTINUOUS
 62
     7
 10
-246.0526213375033
 20
77.50000000000001
 40
13.50000000000001
  0
LINE
  8
1
  6
CONTINUOUS
 62
     7
 10
-232.6106162787332
 20
126.75
 11
-234.5135767459304
 21
126.9831772716303
  0
LINE
  8
1
  6
CONTINUOUS
 62
     7
 10
-234.5135767459304
 20
124.0168227283697
 11
-232.6106162787332
 21
124.25
  0
ARC
  8
1
  6
CONTINUOUS
 62
     7
 10
-246.0526213375033
 20
125.5
 40
11.63397459621559
 50
352.675616447846
 51
7.324383552154018
  0
ARC
  8
1
  6
CONTINUOUS
 62
     7
 10
-246.0526213375033
 20
125.5
 40
11.50000000000001
 50
7.494717453926738
 51
90.0
  0
LINE
  8
1
  6
CONTINUOUS
 62
     7
 10
-245.0326213375033
 20
137.0
 11
-246.0526213375033
 21
137.0
  0
ARC
  8
1
  6
CONTINUOUS
 62
     7
 10
-246.0526213375033
 20
125.5
 40
13.29999999999997
 50
5.500677761752513
 51
86.64846826934956
  0
ARC
  8
1
  6
CONTINUOUS
 62
     7
 10
-246.0526213375033
 20
125.5
 40
13.29999999999999
 50
273.3515317306505
 51
354.4993222382476
  0
LINE
  8
1
  6
CONTINUOUS
 62
     7
 10
-246.0526213375033
 20
114.0
 11
-245.0326213375033
 21
114.0
  0
ARC
  8
1
  6
CONTINUOUS
 62
     7
 10
-246.0526213375033
 20
125.5
 40
11.5
 50
270.0
 51
352.5052825460734
  0
ARC
  8
1
  6
CONTINUOUS
 62
     7
 10
-246.0526213375033
 20
125.5
 40
11.5
 50
90.0
 51
270.0
  0
LINE
  8
1
  6
CONTINUOUS
 62
     7
 10
-234.6508670865119
 20
127.0
 11
-234.5135767459304
 21
126.9831772716303
  0
LINE
  8
1
  6
CONTINUOUS
 62
     7
 10
-234.5135767459304
 20
124.0168227283697
 11
-234.6508670865119
 21
124.0
  0
ARC
  8
1
  6
CONTINUOUS
 62
     7
 10
-246.0526213375033
 20
125.5
 40
11.63397459621556
 50
265.031045598183
 51
274.968954401817
  0
LINE
  8
1
  6
CONTINUOUS
 62
     7
 10
-247.0726213375033
 20
114.0
 11
-247.060309029254
 21
113.9097484746325
  0
LINE
  8
1
  6
CONTINUOUS
 62
     7
 10
-246.0526213375033
 20
114.0
 11
-247.0726213375033
 21
114.0
  0
LINE
  8
1
  6
CONTINUOUS
 62
     7
 10
-245.0326213375033
 20
114.0
 11
-246.0526213375033
 21
114.0
  0
LINE
  8
1
  6
CONTINUOUS
 62
     7
 10
-245.0449336457527
 20
113.9097484746325
 11
-245.0326213375033
 21
114.0
  0
ARC
  8
1
  6
CONTINUOUS
 62
     7
 10
-246.0526213375033
 20
77.50000000000001
 40
13.09999999999998
 50
273.5235177736264
 51
354.3055387771652
  0
ARC
  8
1
  6
CONTINUOUS
 62
     7
 10
-246.0526213375033
 20
77.50000000000001
 40
11.69147244677738
 50
265.094732090241
 51
274.905267909759
  0
ARC
  8
1
  6
CONTINUOUS
 62
     7
 10
-246.0526213375033
 20
77.50000000000001
 40
13.09999999999999
 50
93.5235177736264
 51
266.4764822263735
  0
ARC
  8
1
  6
CONTINUOUS
 62
     7
 10
-246.0526213375033
 20
77.50000000000001
 40
11.69147244677738
 50
85.09473209024102
 51
94.90526790975893
  0
ARC
  8
1
  6
CONTINUOUS
 62
     7
 10
-246.0526213375033
 20
77.50000000000001
 40
13.09999999999998
 50
5.694461222834774
 51
86.47648222637359
  0
ARC
  8
1
  6
CONTINUOUS
 62
     7
 10
-246.0526213375033
 20
77.50000000000001
 40
11.69147244677742
 50
352.7474825641393
 51
7.252517435860681
  0
ARC
  8
1
  6
CONTINUOUS
 62
     7
 10
-246.0526213375033
 20
77.50000000000001
 40
11.67777777777779
 50
270.0
 51
274.7508579890114
  0
ARC
  8
1
  6
CONTINUOUS
 62
     7
 10
-246.0526213375033
 20
77.50000000000001
 40
11.67777777777778
 50
274.7508579890114
 51
352.9022406006786
  0
ARC
  8
1
  6
CONTINUOUS
 62
     7
 10
-246.0526213375033
 20
77.50000000000001
 40
11.6777777777778
 50
352.9022406006786
 51
7.097759399321376
  0
ARC
  8
1
  6
CONTINUOUS
 62
     7
 10
-246.0526213375033
 20
77.50000000000001
 40
11.6777777777778
 50
7.097759399321366
 51
85.24914201098844
  0
ARC
  8
1
  6
CONTINUOUS
 62
     7
 10
-246.0526213375033
 20
77.50000000000001
 40
11.67777777777777
 50
85.24914201098846
 51
94.75085798901122
  0
ARC
  8
1
  6
CONTINUOUS
 62
     7
 10
-246.0526213375033
 20
77.50000000000001
 40
11.67777777777777
 50
94.75085798901128
 51
265.2491420109891
  0
ARC
  8
1
  6
CONTINUOUS
 62
     7
 10
-246.0526213375033
 20
77.50000000000001
 40
11.67777777777778
 50
265.249142010989
 51
269.9999999999999
  0
ARC
  8
1
  6
CONTINUOUS
 62
     7
 10
-246.0526213375033
 20
125.5
 40
11.63397459621554
 50
85.03104559818308
 51
94.96895440181703
  0
LINE
  8
1
  6
CONTINUOUS
 62
     7
 10
-246.8026213375033
 20
138.9791505667086
 11
-247.060309029254
 21
137.0902515253675
  0
LINE
  8
1
  6
CONTINUOUS
 62
     7
 10
-245.0449336457527
 20
137.0902515253675
 11
-245.3026213375033
 21
138.9791505667086
  0
LINE
  8
1
  6
CONTINUOUS
 62
     7
 10
-245.3026213375033
 20
112.0208494332914
 11
-245.0449336457527
 21
113.9097484746325
  0
LINE
  8
1
  6
CONTINUOUS
 62
     7
 10
-247.060309029254
 20
113.9097484746325
 11
-246.8026213375033
 21
112.0208494332914
  0
LINE
  8
1
  6
CONTINUOUS
 62
     7
 10
-246.0526213375033
 20
137.0
 11
-245.0326213375033
 21
137.0
  0
LINE
  8
1
  6
CONTINUOUS
 62
     7
 10
-247.0726213375033
 20
137.0
 11
-246.0526213375033
 21
137.0
  0
LINE
  8
1
  6
CONTINUOUS
 62
     7
 10
-247.060309029254
 20
137.0902515253675
 11
-247.0726213375033
 21
137.0
  0
LINE
  8
1
  6
CONTINUOUS
 62
     7
 10
-245.0326213375033
 20
137.0
 11
-245.0449336457527
 21
137.0902515253675
  0
ARC
  8
1
  6
CONTINUOUS
 62
     7
 10
-246.0526213375033
 20
125.5
 40
13.29999999999998
 50
93.3515317306505
 51
266.6484682693496
  0
LINE
  8
1
  6
CONTINUOUS
 62
     7
 10
-246.0526213375033
 20
137.0
 11
-247.0726213375033
 21
137.0
  0
LINE
  8
1
  6
CONTINUOUS
 62
     7
 10
-247.0726213375033
 20
114.0
 11
-246.0526213375033
 21
114.0
  0
LINE
  8
1
  6
CONTINUOUS
 62
     7
 10
-234.4546876401789
 20
78.97596135661544
 11
-232.6106162787332
 21
78.75
  0
LINE
  8
1
  6
CONTINUOUS
 62
     7
 10
-232.6106162787332
 20
76.25
 11
-234.4546876401789
 21
76.02403864338456
  0
LINE
  8
1
  6
CONTINUOUS
 62
     7
 10
-245.3026213375033
 20
90.97915056670857
 11
-245.0529007252848
 21
89.14865171044531
  0
LINE
  8
1
  6
CONTINUOUS
 62
     7
 10
-247.0523419497218
 20
89.14865171044531
 11
-246.8026213375033
 21
90.97915056670858
  0
LINE
  8
1
  6
CONTINUOUS
 62
     7
 10
-245.0529007252848
 20
65.8513482895547
 11
-245.3026213375033
 21
64.02084943329143
  0
LINE
  8
1
  6
CONTINUOUS
 62
     7
 10
-246.8026213375033
 20
64.02084943329143
 11
-247.0523419497218
 21
65.8513482895547
  0
LINE
  8
1
  6
CONTINUOUS
 62
     7
 10
-275.0875261503779
 20
158.2882980069762
 11
-271.5526213375033
 21
158.35
  0
LINE
  8
1
  6
CONTINUOUS
 62
     7
 10
-271.5526213375033
 20
158.35
 11
-271.5526213375033
 21
148.3515230484361
  0
LINE
  8
1
  6
CONTINUOUS
 62
     7
 10
-271.5526213375033
 20
54.64847695156391
 11
-271.5526213375033
 21
148.3515230484361
  0
LINE
  8
1
  6
CONTINUOUS
 62
     7
 10
-271.5526213375033
 20
44.65
 11
-275.0875261503779
 21
44.71170199302379
  0
LINE
  8
1
  6
CONTINUOUS
 62
     7
 10
-271.5526213375033
 20
54.64847695156391
 11
-271.5526213375033
 21
44.64999999999999
  0
LINE
  8
1
  6
CONTINUOUS
 62
     7
 10
-277.0526213375033
 20
148.2898210554123
 11
-277.0526213375033
 21
156.2886026166634
  0
ARC
  8
1
  6
CONTINUOUS
 62
     7
 10
-275.0526213375033
 20
156.2886026166634
 40
2.000000000000002
 50
91.00000000000006
 51
180.0
  0
LINE
  8
1
  6
CONTINUOUS
 62
     7
 10
-277.0526213375033
 20
54.71017894458772
 11
-277.0526213375033
 21
148.2898210554123
  0
ARC
  8
1
  6
CONTINUOUS
 62
     7
 10
-275.0526213375033
 20
46.71139738333658
 40
2.000000000000003
 50
180.0
 51
269.0
  0
LINE
  8
1
  6
CONTINUOUS
 62
     7
 10
-277.0526213375033
 20
46.71139738333657
 11
-277.0526213375033
 21
54.71017894458772
  0
LINE
  8
1
  6
CONTINUOUS
 62
     7
 10
-271.5526213375033
 20
44.65
 11
-271.5526213375033
 21
44.6459697631222
  0
LINE
  8
1
  6
CONTINUOUS
 62
     7
 10
-271.5526213375033
 20
44.6459697631222
 11
-271.5526213375034
 21
44.3165651146374
  0
LINE
  8
1
  6
CONTINUOUS
 62
     7
 10
-271.5526213375033
 20
44.3165651146374
 11
-271.5526213375033
 21
41.65000000000001
  0
LINE
  8
1
  6
CONTINUOUS
 62
     7
 10
-277.0526213375033
 20
42.65
 11
-277.0526213375033
 21
45.05715532729384
  0
LINE
  8
1
  6
CONTINUOUS
 62
     7
 10
-277.0526213375033
 20
150.0
 11
-278.7526213375033
 21
150.0
  0
LINE
  8
1
  6
CONTINUOUS
 62
     7
 10
-278.7526213375033
 20
142.0
 11
-277.0526213375033
 21
142.0
  0
LINE
  8
1
  6
CONTINUOUS
 62
     7
 10
-277.0526213375033
 20
61.00000000000001
 11
-278.7526213375033
 21
61.00000000000001
  0
LINE
  8
1
  6
CONTINUOUS
 62
     7
 10
-278.7526213375033
 20
53.00000000000001
 11
-277.0526213375033
 21
53.00000000000001
  0
LINE
  8
1
  6
CONTINUOUS
 62
     7
 10
-226.5526213375033
 20
55.10227272727273
 11
-226.5151213375033
 21
55.10227272727273
  0
LINE
  8
1
  6
CONTINUOUS
 62
     7
 10
-226.5151213375033
 20
58.83874152076325
 11
-226.5526213375033
 21
58.83874152076325
  0
LINE
  8
1
  6
CONTINUOUS
 62
     7
 10
-277.0526213375039
 20
46.71139738333678
 11
-277.0526213375033
 21
45.05715532729528
  0
LINE
  8
1
  6
CONTINUOUS
 62
     7
 10
-276.0526213375033
 20
41.65
 11
-271.5526213375034
 21
41.65
  0
ARC
  8
1
  6
CONTINUOUS
 62
     7
 10
-276.0526213375033
 20
42.65
 40
1.000000000000001
 50
180.0
 51
270.0
  0
ENDBLK
  8
0
  0
BLOCK
  8
0
  2
D_FRAME_VIEW_1712
 70
     0
 10
0.0
 20
0.0
  0
LINE
  8
1
  6
CONTINUOUS
 62
     7
 10
-423.5000000000001
 20
-12.89056994618354
 11
-427.0000000000001
 21
-12.89056994618354
  0
LINE
  8
1
  6
CONTINUOUS
 62
     7
 10
-428.0000000000001
 20
-12.89056994618354
 11
-431.5
 21
-12.89056994618354
  0
LINE
  8
1
  6
CONTINUOUS
 62
     7
 10
-428.0000000000001
 20
-12.89056994618354
 11
-428.0000000000001
 21
-12.91404532916333
  0
LINE
  8
1
  6
CONTINUOUS
 62
     7
 10
-428.0000000000001
 20
-12.91404532916333
 11
-427.0000000000001
 21
-12.91404532916333
  0
LINE
  8
1
  6
CONTINUOUS
 62
     7
 10
-427.0000000000001
 20
-12.89056994618354
 11
-427.0000000000001
 21
-12.91404532916333
  0
LINE
  8
1
  6
CONTINUOUS
 62
     7
 10
-425.3
 20
-11.89767385581412
 11
-425.3575714714372
 21
-11.89767385581412
  0
LINE
  8
1
  6
CONTINUOUS
 62
     7
 10
-427.0000000000001
 20
-11.55262133750329
 11
-427.0000000000001
 21
-12.89056994618354
  0
ARC
  8
1
  6
CONTINUOUS
 62
     7
 10
-427.5
 20
-18.01404532916334
 40
6.480740698407859
 50
70.69578039320837
 51
85.5751374705725
  0
LINE
  8
1
  6
CONTINUOUS
 62
     7
 10
-429.6424285285628
 20
-11.89767385581412
 11
-429.7
 21
-11.89767385581412
  0
ARC
  8
1
  6
CONTINUOUS
 62
     7
 10
-427.5
 20
-18.01404532916334
 40
6.480740698407875
 50
94.42486252942749
 51
109.3042196067916
  0
LINE
  8
1
  6
CONTINUOUS
 62
     7
 10
-428.0000000000001
 20
-12.89056994618355
 11
-428.0000000000001
 21
-11.5526213375033
  0
LINE
  8
1
  6
CONTINUOUS
 62
     7
 10
-363.5000000000001
 20
-12.89056994618355
 11
-367.0
 21
-12.89056994618355
  0
LINE
  8
1
  6
CONTINUOUS
 62
     7
 10
-368.0
 20
-12.89056994618355
 11
-371.5000000000001
 21
-12.89056994618355
  0
LINE
  8
1
  6
CONTINUOUS
 62
     7
 10
-368.0
 20
-12.89056994618355
 11
-368.0
 21
-12.91404532916335
  0
LINE
  8
1
  6
CONTINUOUS
 62
     7
 10
-368.0
 20
-12.91404532916335
 11
-367.0
 21
-12.91404532916335
  0
LINE
  8
1
  6
CONTINUOUS
 62
     7
 10
-367.0
 20
-12.89056994618355
 11
-367.0
 21
-12.91404532916335
  0
LINE
  8
1
  6
CONTINUOUS
 62
     7
 10
-369.6424285285629
 20
-11.89767385581414
 11
-369.7
 21
-11.89767385581414
  0
ARC
  8
1
  6
CONTINUOUS
 62
     7
 10
-367.5000000000001
 20
-18.01404532916336
 40
6.480740698407867
 50
94.42486252942749
 51
109.3042196067916
  0
LINE
  8
1
  6
CONTINUOUS
 62
     7
 10
-368.0
 20
-12.89056994618357
 11
-368.0
 21
-11.55262133750332
  0
LINE
  8
1
  6
CONTINUOUS
 62
     7
 10
-365.3
 20
-11.89767385581414
 11
-365.3575714714372
 21
-11.89767385581414
  0
ARC
  8
1
  6
CONTINUOUS
 62
     7
 10
-367.5000000000001
 20
-18.01404532916336
 40
6.480740698407877
 50
70.69578039320837
 51
85.5751374705725
  0
LINE
  8
1
  6
CONTINUOUS
 62
     7
 10
-367.0
 20
-11.5526213375033
 11
-367.0
 21
-12.89056994618355
  0
LINE
  8
1
  6
CONTINUOUS
 62
     7
 10
-343.5
 20
-20.11404532916335
 11
-343.5
 21
-61.61404532916335
  0
LINE
  8
1
  6
CONTINUOUS
 62
     7
 10
-451.5
 20
-61.61404532916335
 11
-451.5
 21
-20.11404532916335
  0
LINE
  8
1
  6
CONTINUOUS
 62
     7
 10
-347.0
 20
-65.11404532916336
 11
-351.5
 21
-65.11404532916336
  0
ARC
  8
1
  6
CONTINUOUS
 62
     7
 10
-347.0
 20
-61.61404532916335
 40
3.5
 50
270.0
 51
0.0
  0
LINE
  8
1
  6
CONTINUOUS
 62
     7
 10
-443.5
 20
-65.11404532916336
 11
-448.0
 21
-65.11404532916336
  0
ARC
  8
1
  6
CONTINUOUS
 62
     7
 10
-448.0
 20
-61.61404532916335
 40
3.500000000000003
 50
180.0
 51
270.0
  0
LINE
  8
1
  6
CONTINUOUS
 62
     7
 10
-351.5
 20
-65.11404532916336
 11
-443.5
 21
-65.11404532916336
  0
LINE
  8
1
  6
CONTINUOUS
 62
     7
 10
-371.7751791194311
 20
-14.61404532916336
 11
-363.2248208805689
 21
-14.61404532916336
  0
LINE
  8
1
  6
CONTINUOUS
 62
     7
 10
-362.5111913381001
 20
-20.11404532916335
 11
-372.4888086618999
 21
-20.11404532916336
  0
LINE
  8
1
  6
CONTINUOUS
 62
     7
 10
-372.4888086618999
 20
-20.11404532916335
 11
-372.533539649716
 21
-20.11404532916335
  0
LINE
  8
1
  6
CONTINUOUS
 62
     7
 10
-372.533539649716
 20
-20.11404532916335
 11
-372.5529599155007
 21
-20.11404532916335
  0
LINE
  8
1
  6
CONTINUOUS
 62
     7
 10
-372.5529599155007
 20
-20.11404532916335
 11
-373.1125624006952
 21
-20.11404532916335
  0
LINE
  8
1
  6
CONTINUOUS
 62
     7
 10
-361.8874375993049
 20
-20.11404532916335
 11
-362.4681952172392
 21
-20.11404532916335
  0
LINE
  8
1
  6
CONTINUOUS
 62
     7
 10
-362.4681952172392
 20
-20.11404532916335
 11
-362.5111913381001
 21
-20.11404532916335
  0
LINE
  8
1
  6
CONTINUOUS
 62
     7
 10
-340.7117019930238
 20
-16.57914051628878
 11
-340.65
 21
-20.11404532916335
  0
LINE
  8
1
  6
CONTINUOUS
 62
     7
 10
-340.65
 20
-20.11404532916335
 11
-350.6484769515639
 21
-20.11404532916335
  0
LINE
  8
1
  6
CONTINUOUS
 62
     7
 10
-444.3515230484361
 20
-20.11404532916335
 11
-373.1125624006952
 21
-20.11404532916335
  0
LINE
  8
1
  6
CONTINUOUS
 62
     7
 10
-454.35
 20
-20.11404532916335
 11
-454.2882980069762
 21
-16.57914051628878
  0
LINE
  8
1
  6
CONTINUOUS
 62
     7
 10
-444.3515230484361
 20
-20.11404532916335
 11
-454.35
 21
-20.11404532916335
  0
LINE
  8
1
  6
CONTINUOUS
 62
     7
 10
-361.8874375993049
 20
-20.11404532916335
 11
-350.6484769515639
 21
-20.11404532916335
  0
LINE
  8
1
  6
CONTINUOUS
 62
     7
 10
-360.8155759314665
 20
-14.61404532916336
 11
-350.7101789445877
 21
-14.61404532916336
  0
LINE
  8
1
  6
CONTINUOUS
 62
     7
 10
-444.2898210554123
 20
-14.61404532916336
 11
-374.1844240685337
 21
-14.61404532916336
  0
ARC
  8
1
  6
CONTINUOUS
 62
     7
 10
-342.7113973833366
 20
-16.61404532916334
 40
2.000000000000023
 50
1.000000000000046
 51
90.0
  0
LINE
  8
1
  6
CONTINUOUS
 62
     7
 10
-350.7101789445877
 20
-14.61404532916336
 11
-342.7113973833366
 21
-14.61404532916336
  0
ARC
  8
1
  6
CONTINUOUS
 62
     7
 10
-452.2886026166635
 20
-16.61404532916334
 40
2.000000000000002
 50
90.0
 51
178.9999999999999
  0
LINE
  8
1
  6
CONTINUOUS
 62
     7
 10
-452.2886026166634
 20
-14.61404532916336
 11
-444.2898210554123
 21
-14.61404532916336
  0
LINE
  8
1
  6
CONTINUOUS
 62
     7
 10
-423.5000000000001
 20
-14.61404532916334
 11
-423.5000000000001
 21
-12.89056994618354
  0
LINE
  8
1
  6
CONTINUOUS
 62
     7
 10
-431.5
 20
-12.89056994618354
 11
-431.5
 21
-14.61404532916334
  0
ARC
  8
1
  6
CONTINUOUS
 62
     7
 10
-427.5
 20
-18.01404532916334
 40
6.499999999999971
 50
52.02012755514805
 51
70.2168296273384
  0
ARC
  8
1
  6
CONTINUOUS
 62
     7
 10
-427.5
 20
-18.01404532916334
 40
6.500000000000017
 50
109.7831703726615
 51
127.979872444852
  0
LINE
  8
1
  6
CONTINUOUS
 62
     7
 10
-363.5000000000001
 20
-14.61404532916336
 11
-363.5000000000001
 21
-12.89056994618355
  0
LINE
  8
1
  6
CONTINUOUS
 62
     7
 10
-371.5
 20
-12.89056994618355
 11
-371.5
 21
-14.61404532916336
  0
ARC
  8
1
  6
CONTINUOUS
 62
     7
 10
-367.5000000000001
 20
-18.01404532916336
 40
6.499999999999998
 50
109.7831703726615
 51
127.9798724448519
  0
ARC
  8
1
  6
CONTINUOUS
 62
     7
 10
-367.5000000000001
 20
-18.01404532916336
 40
6.500000000000004
 50
52.020127555148
 51
70.21682962733843
  0
LINE
  8
1
  6
CONTINUOUS
 62
     7
 10
-391.7810583701617
 20
-65.11404532916336
 11
-391.7810583701617
 21
-65.15154532916335
  0
LINE
  8
1
  6
CONTINUOUS
 62
     7
 10
-360.8155759314661
 20
-14.61404532916276
 11
-363.2248208805681
 21
-14.61404532916336
  0
LINE
  8
1
  6
CONTINUOUS
 62
     7
 10
-371.775179119432
 20
-14.61404532916336
 11
-374.184424068534
 21
-14.61404532916336
  0
ENDBLK
  8
0
  0
ENDSEC
  0
SECTION
  2
ENTITIES
  0
INSERT
  8
1
  6
CONTINUOUS
 62
     7
  2
D_FRAME_VIEW_1491
 10
0.0
 20
0.0
 30
0.0
  0
TEXT
  8
1
  6
CONTINUOUS
 62
     7
 10
-260.8723114918094
 20
-17.50491330082114
 40
3.0
  1
PVK-AN1
  0
INSERT
  8
1
  6
CONTINUOUS
 62
     7
  2
D_FRAME_VIEW_1650
 10
0.0
 20
0.0
 30
0.0
  0
INSERT
  8
1
  6
CONTINUOUS
 62
     7
  2
D_FRAME_VIEW_1712
 10
0.0
 20
0.0
 30
0.0
  0
ENDSEC
  0
EOF
