  0
SECTION
  2
HEADER
  9
$ACADVER
  1
AC1004
  9
$INSBASE
 10
0.0
 20
0.0
  9
$EXTMIN
 10
38.98012980112615
 20
-7.773751900077293
  9
$EXTMAX
 10
281.0795116279845
 20
212.7328913537148
  9
$LIMMIN
 10
0.0
 20
0.0
  9
$LIMMAX
 10
12.0
 20
9.0
  9
$ORTHOMODE
 70
     0
  9
$REGENMODE
 70
     1
  9
$FILLMODE
 70
     1
  9
$QTEXTMODE
 70
     0
  9
$DRAGMODE
 70
     2
  9
$LTSCALE
 40
1.0
  9
$OSMODE
 70
    37
  9
$ATTMODE
 70
     1
  9
$TEXTSIZE
 40
0.2
  9
$TRACEWID
 40
0.05
  9
$TEXTSTYLE
  7
STANDARD
  9
$CLAYER
  8
0
  9
$CELTYPE
  6
BYLAYER
  9
$CECOLOR
 62
   256
  9
$DIMSCALE
 40
1.0
  9
$DIMASZ
 40
3.0
  9
$DIMEXO
 40
0.0625
  9
$DIMDLI
 40
0.38
  9
$DIMRND
 40
0.0
  9
$DIMDLE
 40
0.0
  9
$DIMEXE
 40
1.5
  9
$DIMTP
 40
0.0
  9
$DIMTM
 40
0.0
  9
$DIMTXT
 40
3.0
  9
$DIMCEN
 40
0.09
  9
$DIMTSZ
 40
0.0
  9
$DIMTOL
 70
     0
  9
$DIMLIM
 70
     0
  9
$DIMTIH
 70
     1
  9
$DIMTOH
 70
     1
  9
$DIMSE1
 70
     0
  9
$DIMSE2
 70
     0
  9
$DIMTAD
 70
     1
  9
$DIMZIN
 70
     0
  9
$DIMBLK
  1

  9
$DIMASO
 70
     1
  9
$DIMSHO
 70
     1
  9
$DIMPOST
  1

  9
$DIMAPOST
  1

  9
$DIMALT
 70
     0
  9
$DIMALTD
 70
     2
  9
$DIMALTF
 40
25.4
  9
$DIMLFAC
 40
1.0
  9
$DIMTOFL
 70
     0
  9
$DIMTVP
 40
0.0
  9
$DIMTIX
 70
     0
  9
$DIMSOXD
 70
     0
  9
$DIMSAH
 70
     0
  9
$DIMBLK1
  1

  9
$DIMBLK2
  1

  9
$LUNITS
 70
     2
  9
$LUPREC
 70
     4
  9
$SKETCHINC
 40
0.1
  9
$FILLETRAD
 40
0.5
  9
$AUNITS
 70
     0
  9
$AUPREC
 70
     0
  9
$MENU
  1
.
  9
$ELEVATION
 40
0.0
  9
$THICKNESS
 40
0.0
  9
$LIMCHECK
 70
     0
  9
$CHAMFERA
 40
0.0
  9
$CHAMFERB
 40
0.0
  9
$SKPOLY
 70
     0
  9
$TDCREATE
 40
2460738.727319329
  9
$TDUPDATE
 40
2460738.727319537
  9
$TDINDWG
 40
0.0000000116
  9
$TDUSRTIMER
 40
0.0000000116
  9
$USRTIMER
 70
     1
  9
$ANGBASE
 50
0.0
  9
$ANGDIR
 70
     0
  9
$PDMODE
 70
     0
  9
$PDSIZE
 40
0.0
  9
$PLINEWID
 40
0.0
  9
$COORDS
 70
     1
  9
$SPLFRAME
 70
     0
  9
$SPLINETYPE
 70
     6
  9
$SPLINESEGS
 70
     8
  9
$ATTDIA
 70
     0
  9
$ATTREQ
 70
     1
  9
$SURFTAB1
 70
     6
  9
$SURFTAB2
 70
     6
  9
$SURFTYPE
 70
     6
  9
$SURFU
 70
     6
  9
$SURFV
 70
     6
  9
$UCSNAME
  2

  9
$UCSORG
 10
0.0
 20
0.0
 30
0.0
  9
$UCSXDIR
 10
1.0
 20
0.0
 30
0.0
  9
$UCSYDIR
 10
0.0
 20
1.0
 30
0.0
  9
$USERI1
 70
     0
  9
$USERI2
 70
     0
  9
$USERI3
 70
     0
  9
$USERI4
 70
     0
  9
$USERI5
 70
     0
  9
$USERR1
 40
0.0
  9
$USERR2
 40
0.0
  9
$USERR3
 40
0.0
  9
$USERR4
 40
0.0
  9
$USERR5
 40
0.0
  9
$WORLDVIEW
 70
     1
  0
ENDSEC
  0
SECTION
  2
TABLES
  0
TABLE
  2
LTYPE
 70
     1
  0
LTYPE
  2
CONTINUOUS
 70
     0
  3
Solid line
 72
    65
 73
     0
 40
0.0
  0
ENDTAB
  0
TABLE
  2
LAYER
 70
     2
  0
LAYER
  2
0
 70
     0
 62
     7
  6
CONTINUOUS
  0
LAYER
  2
1
 70
     0
 62
     7
  6
CONTINUOUS
  0
ENDTAB
  0
TABLE
  2
STYLE
 70
     2
  0
STYLE
  2
STANDARD
 70
     0
 40
0.0
 41
1.0
 50
0.0
 71
     0
 42
0.2
  3
txt
  4

  0
STYLE
  2
ＭＳ_ゴシック
 70
     0
 40
0.0
 41
1.0
 50
0.0
 71
     0
 42
0.2
  3
ＭＳ ゴシック.shx
  4

  0
ENDTAB
  0
TABLE
  2
VIEW
 70
     0
  0
ENDTAB
  0
ENDSEC
  0
SECTION
  2
BLOCKS
  0
ENDSEC
  0
SECTION
  2
ENTITIES
  0
LINE
  8
1
  6
CONTINUOUS
 62
     7
 10
103.4330900160646
 20
51.23148402122173
 11
103.4330900160646
 21
51.82624809992271
  0
LINE
  8
1
  6
CONTINUOUS
 62
     7
 10
73.25661942782932
 20
51.23148402122173
 11
73.25661942782932
 21
51.82624809992271
  0
LINE
  8
1
  6
CONTINUOUS
 62
     7
 10
41.0456193872176
 20
51.22624809992271
 11
43.08014883959402
 21
51.22624809992271
  0
LINE
  8
1
  6
CONTINUOUS
 62
     7
 10
130.2566194278293
 20
51.23148402122173
 11
130.2566194278293
 21
51.82624809992271
  0
LINE
  8
1
  6
CONTINUOUS
 62
     7
 10
126.9036782513587
 20
51.23148402122173
 11
126.9036782513587
 21
51.82624809992271
  0
LINE
  8
1
  6
CONTINUOUS
 62
     7
 10
84.11544295724107
 20
51.82624809992271
 11
84.11544295724107
 21
51.23148402122173
  0
LINE
  8
1
  6
CONTINUOUS
 62
     7
 10
103.4330900160646
 20
51.82624809992271
 11
104.2330900160646
 21
51.82624809992271
  0
LINE
  8
1
  6
CONTINUOUS
 62
     7
 10
74.05661942782932
 20
51.82624809992271
 11
74.05661942782932
 21
51.23148402122173
  0
LINE
  8
1
  6
CONTINUOUS
 62
     7
 10
120.1977958984176
 20
51.23148402122173
 11
120.1977958984176
 21
51.82624809992271
  0
LINE
  8
1
  6
CONTINUOUS
 62
     7
 10
154.5272076631234
 20
51.82624809992271
 11
154.5272076631234
 21
51.23148402122173
  0
LINE
  8
1
  6
CONTINUOUS
 62
     7
 10
150.3742664866529
 20
51.82624809992271
 11
151.1742664866529
 21
51.82624809992271
  0
LINE
  8
1
  6
CONTINUOUS
 62
     7
 10
110.1389723690058
 20
51.82624809992271
 11
110.9389723690058
 21
51.82624809992271
  0
LINE
  8
1
  6
CONTINUOUS
 62
     7
 10
79.9625017807705
 20
51.23148402122173
 11
79.9625017807705
 21
51.82624809992271
  0
LINE
  8
1
  6
CONTINUOUS
 62
     7
 10
123.5507370748881
 20
51.82624809992271
 11
124.3507370748881
 21
51.82624809992271
  0
LINE
  8
1
  6
CONTINUOUS
 62
     7
 10
150.3742664866529
 20
51.23148402122173
 11
150.3742664866529
 21
51.82624809992271
  0
LINE
  8
1
  6
CONTINUOUS
 62
     7
 10
120.1977958984176
 20
51.82624809992271
 11
120.9977958984176
 21
51.82624809992271
  0
LINE
  8
1
  6
CONTINUOUS
 62
     7
 10
143.6683841337117
 20
51.23148402122173
 11
143.6683841337117
 21
51.82624809992271
  0
LINE
  8
1
  6
CONTINUOUS
 62
     7
 10
86.66838413371167
 20
51.82624809992271
 11
87.46838413371167
 21
51.82624809992271
  0
LINE
  8
1
  6
CONTINUOUS
 62
     7
 10
80.76250178077049
 20
51.82624809992271
 11
80.76250178077049
 21
51.23148402122173
  0
LINE
  8
1
  6
CONTINUOUS
 62
     7
 10
86.66838413371167
 20
51.23148402122173
 11
86.66838413371167
 21
51.82624809992271
  0
LINE
  8
1
  6
CONTINUOUS
 62
     7
 10
134.4095606042999
 20
51.82624809992271
 11
134.4095606042999
 21
51.23148402122173
  0
LINE
  8
1
  6
CONTINUOUS
 62
     7
 10
143.6683841337117
 20
51.82624809992271
 11
144.4683841337117
 21
51.82624809992271
  0
LINE
  8
1
  6
CONTINUOUS
 62
     7
 10
136.9625017807705
 20
51.23148402122173
 11
136.9625017807705
 21
51.82624809992271
  0
LINE
  8
1
  6
CONTINUOUS
 62
     7
 10
144.4683841337117
 20
51.82624809992271
 11
144.4683841337117
 21
51.23148402122173
  0
LINE
  8
1
  6
CONTINUOUS
 62
     7
 10
147.0213253101822
 20
51.23148402122173
 11
147.0213253101822
 21
51.82624809992271
  0
LINE
  8
1
  6
CONTINUOUS
 62
     7
 10
136.9625017807705
 20
51.82624809992271
 11
137.7625017807705
 21
51.82624809992271
  0
LINE
  8
1
  6
CONTINUOUS
 62
     7
 10
79.9625017807705
 20
51.82624809992271
 11
80.76250178077049
 21
51.82624809992271
  0
LINE
  8
1
  6
CONTINUOUS
 62
     7
 10
116.844854721947
 20
51.82624809992271
 11
117.644854721947
 21
51.82624809992271
  0
LINE
  8
1
  6
CONTINUOUS
 62
     7
 10
157.080148839594
 20
51.82624809992271
 11
157.880148839594
 21
51.82624809992271
  0
LINE
  8
1
  6
CONTINUOUS
 62
     7
 10
96.72720766312342
 20
51.23148402122173
 11
96.72720766312342
 21
51.82624809992271
  0
LINE
  8
1
  6
CONTINUOUS
 62
     7
 10
123.5507370748881
 20
51.23148402122173
 11
123.5507370748881
 21
51.82624809992271
  0
LINE
  8
1
  6
CONTINUOUS
 62
     7
 10
153.7272076631234
 20
51.23148402122173
 11
153.7272076631234
 21
51.82624809992271
  0
LINE
  8
1
  6
CONTINUOUS
 62
     7
 10
83.31544295724107
 20
51.23148402122173
 11
83.31544295724107
 21
51.82624809992271
  0
LINE
  8
1
  6
CONTINUOUS
 62
     7
 10
153.7272076631234
 20
51.82624809992271
 11
154.5272076631234
 21
51.82624809992271
  0
LINE
  8
1
  6
CONTINUOUS
 62
     7
 10
73.2566194278293
 20
51.82624809992271
 11
74.05661942782932
 21
51.82624809992271
  0
LINE
  8
1
  6
CONTINUOUS
 62
     7
 10
120.9977958984176
 20
51.82624809992271
 11
120.9977958984176
 21
51.23148402122173
  0
LINE
  8
1
  6
CONTINUOUS
 62
     7
 10
110.9389723690058
 20
51.82624809992271
 11
110.9389723690058
 21
51.23148402122173
  0
LINE
  8
1
  6
CONTINUOUS
 62
     7
 10
147.0213253101822
 20
51.82624809992271
 11
147.8213253101823
 21
51.82624809992271
  0
LINE
  8
1
  6
CONTINUOUS
 62
     7
 10
131.0566194278293
 20
51.82624809992271
 11
131.0566194278293
 21
51.23148402122173
  0
LINE
  8
1
  6
CONTINUOUS
 62
     7
 10
151.1742664866529
 20
51.82624809992271
 11
151.1742664866529
 21
51.23148402122173
  0
LINE
  8
1
  6
CONTINUOUS
 62
     7
 10
127.7036782513587
 20
51.82624809992271
 11
127.7036782513587
 21
51.23148402122173
  0
LINE
  8
1
  6
CONTINUOUS
 62
     7
 10
104.2330900160646
 20
51.82624809992271
 11
104.2330900160646
 21
51.23148402122173
  0
LINE
  8
1
  6
CONTINUOUS
 62
     7
 10
97.52720766312343
 20
51.82624809992271
 11
97.52720766312343
 21
51.23148402122173
  0
LINE
  8
1
  6
CONTINUOUS
 62
     7
 10
110.1389723690058
 20
51.23148402122173
 11
110.1389723690058
 21
51.82624809992271
  0
LINE
  8
1
  6
CONTINUOUS
 62
     7
 10
87.46838413371167
 20
51.82624809992271
 11
87.46838413371167
 21
51.23148402122173
  0
LINE
  8
1
  6
CONTINUOUS
 62
     7
 10
76.6095606042999
 20
51.82624809992271
 11
77.4095606042999
 21
51.82624809992271
  0
LINE
  8
1
  6
CONTINUOUS
 62
     7
 10
157.080148839594
 20
51.23148402122173
 11
157.080148839594
 21
51.82624809992271
  0
LINE
  8
1
  6
CONTINUOUS
 62
     7
 10
157.880148839594
 20
51.82624809992271
 11
157.880148839594
 21
51.23148402122173
  0
LINE
  8
1
  6
CONTINUOUS
 62
     7
 10
147.8213253101823
 20
51.82624809992271
 11
147.8213253101823
 21
51.23148402122173
  0
LINE
  8
1
  6
CONTINUOUS
 62
     7
 10
140.3154429572411
 20
51.82624809992271
 11
141.1154429572411
 21
51.82624809992271
  0
LINE
  8
1
  6
CONTINUOUS
 62
     7
 10
133.6095606042999
 20
51.82624809992271
 11
134.4095606042999
 21
51.82624809992271
  0
LINE
  8
1
  6
CONTINUOUS
 62
     7
 10
133.6095606042999
 20
51.23148402122173
 11
133.6095606042999
 21
51.82624809992271
  0
LINE
  8
1
  6
CONTINUOUS
 62
     7
 10
76.6095606042999
 20
51.23148402122173
 11
76.6095606042999
 21
51.82624809992271
  0
LINE
  8
1
  6
CONTINUOUS
 62
     7
 10
117.644854721947
 20
51.82624809992271
 11
117.644854721947
 21
51.23148402122173
  0
LINE
  8
1
  6
CONTINUOUS
 62
     7
 10
126.9036782513587
 20
51.82624809992271
 11
127.7036782513587
 21
51.82624809992271
  0
LINE
  8
1
  6
CONTINUOUS
 62
     7
 10
124.3507370748881
 20
51.82624809992271
 11
124.3507370748881
 21
51.23148402122173
  0
LINE
  8
1
  6
CONTINUOUS
 62
     7
 10
140.3154429572411
 20
51.23148402122173
 11
140.3154429572411
 21
51.82624809992271
  0
LINE
  8
1
  6
CONTINUOUS
 62
     7
 10
141.1154429572411
 20
51.82624809992271
 11
141.1154429572411
 21
51.23148402122173
  0
LINE
  8
1
  6
CONTINUOUS
 62
     7
 10
130.2566194278293
 20
51.82624809992271
 11
131.0566194278293
 21
51.82624809992271
  0
LINE
  8
1
  6
CONTINUOUS
 62
     7
 10
137.7625017807705
 20
51.82624809992271
 11
137.7625017807705
 21
51.23148402122173
  0
LINE
  8
1
  6
CONTINUOUS
 62
     7
 10
96.72720766312342
 20
51.82624809992271
 11
97.52720766312343
 21
51.82624809992271
  0
LINE
  8
1
  6
CONTINUOUS
 62
     7
 10
116.844854721947
 20
51.23148402122173
 11
116.844854721947
 21
51.82624809992271
  0
LINE
  8
1
  6
CONTINUOUS
 62
     7
 10
70.70367825135871
 20
51.22624809992271
 11
73.2566194278293
 21
51.22624809992271
  0
LINE
  8
1
  6
CONTINUOUS
 62
     7
 10
83.31544295724107
 20
51.82624809992271
 11
84.11544295724107
 21
51.82624809992271
  0
LINE
  8
1
  6
CONTINUOUS
 62
     7
 10
151.1742664866528
 20
51.82624809992272
 11
152.530148839594
 21
51.82624809992272
  0
LINE
  8
1
  6
CONTINUOUS
 62
     7
 10
142.430148839594
 20
51.82624809992272
 11
143.6683841337117
 21
51.82624809992272
  0
LINE
  8
1
  6
CONTINUOUS
 62
     7
 10
58.53014883959402
 20
51.82624809992271
 11
57.29191354547637
 21
51.82624809992271
  0
LINE
  8
1
  6
CONTINUOUS
 62
     7
 10
59.84485472194695
 20
51.23148402122173
 11
59.84485472194695
 21
51.82624809992271
  0
LINE
  8
1
  6
CONTINUOUS
 62
     7
 10
60.64485472194696
 20
51.82624809992271
 11
60.64485472194696
 21
51.23148402122173
  0
LINE
  8
1
  6
CONTINUOUS
 62
     7
 10
159.9801298004012
 20
43.22624809992271
 11
40.98016787878692
 21
43.22624809992271
  0
LINE
  8
1
  6
CONTINUOUS
 62
     7
 10
160.480148839594
 20
43.22624809992271
 11
160.0743114096629
 21
-3.27811516782648
  0
LINE
  8
1
  6
CONTINUOUS
 62
     7
 10
43.08014883959402
 20
51.82624809992271
 11
43.88014883959402
 21
51.82624809992271
  0
LINE
  8
1
  6
CONTINUOUS
 62
     7
 10
152.530148839594
 20
51.22624809992271
 11
152.530148839594
 21
51.82624809992271
  0
LINE
  8
1
  6
CONTINUOUS
 62
     7
 10
90.82132531018225
 20
51.82624809992271
 11
90.82132531018225
 21
51.23148402122173
  0
LINE
  8
1
  6
CONTINUOUS
 62
     7
 10
93.37426648665284
 20
51.82624809992271
 11
94.17426648665285
 21
51.82624809992271
  0
LINE
  8
1
  6
CONTINUOUS
 62
     7
 10
58.53014883959402
 20
51.22624809992271
 11
58.53014883959402
 21
51.82624809992271
  0
LINE
  8
1
  6
CONTINUOUS
 62
     7
 10
59.48014883959403
 20
18.22624809992271
 11
97.48014883959404
 21
18.22624809992271
  0
LINE
  8
1
  6
CONTINUOUS
 62
     7
 10
78.48014883959404
 20
-0.773751900077297
 11
78.48014883959404
 21
37.22624809992271
  0
LINE
  8
1
  6
CONTINUOUS
 62
     7
 10
103.480148839594
 20
18.22624809992271
 11
141.480148839594
 21
18.22624809992271
  0
LINE
  8
1
  6
CONTINUOUS
 62
     7
 10
69.90367825135871
 20
51.23148402122173
 11
69.90367825135871
 21
51.82624809992271
  0
LINE
  8
1
  6
CONTINUOUS
 62
     7
 10
159.9801298004012
 20
43.2262480999227
 11
160.480148839594
 21
43.2262480999227
  0
LINE
  8
1
  6
CONTINUOUS
 62
     7
 10
100.080148839594
 20
51.23148402122173
 11
100.080148839594
 21
51.82624809992271
  0
LINE
  8
1
  6
CONTINUOUS
 62
     7
 10
66.55073707488815
 20
51.23148402122173
 11
66.55073707488815
 21
51.82624809992271
  0
LINE
  8
1
  6
CONTINUOUS
 62
     7
 10
100.080148839594
 20
51.82624809992271
 11
100.880148839594
 21
51.82624809992271
  0
LINE
  8
1
  6
CONTINUOUS
 62
     7
 10
106.7860311925352
 20
51.82624809992271
 11
107.5860311925352
 21
51.82624809992271
  0
LINE
  8
1
  6
CONTINUOUS
 62
     7
 10
46.43309001606461
 20
51.82624809992271
 11
47.23309001606461
 21
51.82624809992271
  0
LINE
  8
1
  6
CONTINUOUS
 62
     7
 10
53.93897236900578
 20
51.82624809992271
 11
53.93897236900579
 21
51.23148402122173
  0
LINE
  8
1
  6
CONTINUOUS
 62
     7
 10
53.13897236900578
 20
51.23148402122173
 11
53.13897236900578
 21
51.82624809992271
  0
LINE
  8
1
  6
CONTINUOUS
 62
     7
 10
69.90367825135873
 20
51.82624809992271
 11
70.70367825135871
 21
51.82624809992271
  0
LINE
  8
1
  6
CONTINUOUS
 62
     7
 10
114.2919135454764
 20
51.82624809992271
 11
114.2919135454764
 21
51.23148402122173
  0
LINE
  8
1
  6
CONTINUOUS
 62
     7
 10
67.35073707488814
 20
51.82624809992271
 11
67.35073707488814
 21
51.23148402122173
  0
LINE
  8
1
  6
CONTINUOUS
 62
     7
 10
49.7860311925352
 20
51.23148402122173
 11
49.7860311925352
 21
51.82624809992271
  0
LINE
  8
1
  6
CONTINUOUS
 62
     7
 10
144.4683841337117
 20
51.82624809992272
 11
147.0213253101822
 21
51.82624809992272
  0
LINE
  8
1
  6
CONTINUOUS
 62
     7
 10
49.78603119253519
 20
51.82624809992271
 11
48.43014883959403
 21
51.82624809992271
  0
LINE
  8
1
  6
CONTINUOUS
 62
     7
 10
48.43014883959403
 20
51.82624809992271
 11
48.43014883959403
 21
51.22624809992271
  0
LINE
  8
1
  6
CONTINUOUS
 62
     7
 10
113.4919135454764
 20
51.82624809992271
 11
114.2919135454764
 21
51.82624809992271
  0
LINE
  8
1
  6
CONTINUOUS
 62
     7
 10
63.99779589841756
 20
51.82624809992271
 11
63.99779589841756
 21
51.23148402122173
  0
LINE
  8
1
  6
CONTINUOUS
 62
     7
 10
56.49191354547638
 20
51.82624809992271
 11
53.93897236900578
 21
51.82624809992271
  0
LINE
  8
1
  6
CONTINUOUS
 62
     7
 10
147.8213253101823
 20
51.82624809992272
 11
150.3742664866529
 21
51.82624809992272
  0
LINE
  8
1
  6
CONTINUOUS
 62
     7
 10
40.88598626952509
 20
-3.27811516782648
 11
40.48014883959402
 21
43.2262480999227
  0
LINE
  8
1
  6
CONTINUOUS
 62
     7
 10
113.4919135454764
 20
51.23148402122173
 11
113.4919135454764
 21
51.82624809992271
  0
LINE
  8
1
  6
CONTINUOUS
 62
     7
 10
43.08014883959402
 20
51.23148402122173
 11
43.08014883959402
 21
51.82624809992271
  0
LINE
  8
1
  6
CONTINUOUS
 62
     7
 10
159.5743304481308
 20
-3.773751900077296
 11
41.38596723105717
 21
-3.773751900077296
  0
LINE
  8
1
  6
CONTINUOUS
 62
     7
 10
40.48014883959402
 20
43.22624809992271
 11
40.98016787878689
 21
43.22624809992271
  0
LINE
  8
1
  6
CONTINUOUS
 62
     7
 10
142.430148839594
 20
51.82624809992271
 11
142.430148839594
 21
51.22624809992271
  0
LINE
  8
1
  6
CONTINUOUS
 62
     7
 10
94.17426648665285
 20
51.82624809992271
 11
94.17426648665287
 21
51.23148402122173
  0
LINE
  8
1
  6
CONTINUOUS
 62
     7
 10
90.02132531018225
 20
51.23148402122173
 11
90.02132531018225
 21
51.82624809992271
  0
LINE
  8
1
  6
CONTINUOUS
 62
     7
 10
47.23309001606461
 20
51.82624809992271
 11
47.23309001606462
 21
51.23148402122173
  0
LINE
  8
1
  6
CONTINUOUS
 62
     7
 10
90.02132531018225
 20
51.82624809992271
 11
90.82132531018225
 21
51.82624809992271
  0
LINE
  8
1
  6
CONTINUOUS
 62
     7
 10
77.4095606042999
 20
51.82624809992271
 11
77.4095606042999
 21
51.23148402122173
  0
LINE
  8
1
  6
CONTINUOUS
 62
     7
 10
106.7860311925352
 20
51.23148402122173
 11
106.7860311925352
 21
51.82624809992271
  0
LINE
  8
1
  6
CONTINUOUS
 62
     7
 10
100.880148839594
 20
51.82624809992271
 11
100.880148839594
 21
51.23148402122173
  0
LINE
  8
1
  6
CONTINUOUS
 62
     7
 10
107.5860311925352
 20
51.82624809992271
 11
107.5860311925352
 21
51.23148402122173
  0
LINE
  8
1
  6
CONTINUOUS
 62
     7
 10
56.49191354547638
 20
51.82624809992271
 11
57.29191354547637
 21
51.82624809992271
  0
LINE
  8
1
  6
CONTINUOUS
 62
     7
 10
57.29191354547637
 20
51.82624809992271
 11
57.29191354547638
 21
51.23148402122173
  0
LINE
  8
1
  6
CONTINUOUS
 62
     7
 10
56.49191354547637
 20
51.23148402122173
 11
56.49191354547637
 21
51.82624809992271
  0
LINE
  8
1
  6
CONTINUOUS
 62
     7
 10
46.43309001606461
 20
51.23148402122173
 11
46.43309001606461
 21
51.82624809992271
  0
LINE
  8
1
  6
CONTINUOUS
 62
     7
 10
66.55073707488815
 20
51.82624809992271
 11
67.35073707488814
 21
51.82624809992271
  0
LINE
  8
1
  6
CONTINUOUS
 62
     7
 10
70.70367825135871
 20
51.82624809992271
 11
70.70367825135872
 21
51.23148402122173
  0
LINE
  8
1
  6
CONTINUOUS
 62
     7
 10
93.37426648665284
 20
51.23148402122173
 11
93.37426648665284
 21
51.82624809992271
  0
LINE
  8
1
  6
CONTINUOUS
 62
     7
 10
43.88014883959402
 20
51.82624809992271
 11
43.88014883959404
 21
51.23148402122173
  0
LINE
  8
1
  6
CONTINUOUS
 62
     7
 10
59.84485472194696
 20
51.82624809992271
 11
60.64485472194696
 21
51.82624809992271
  0
LINE
  8
1
  6
CONTINUOUS
 62
     7
 10
63.19779589841756
 20
51.82624809992271
 11
63.99779589841756
 21
51.82624809992271
  0
LINE
  8
1
  6
CONTINUOUS
 62
     7
 10
63.19779589841756
 20
51.23148402122173
 11
63.19779589841756
 21
51.82624809992271
  0
LINE
  8
1
  6
CONTINUOUS
 62
     7
 10
50.5860311925352
 20
51.82624809992271
 11
50.5860311925352
 21
51.23148402122173
  0
LINE
  8
1
  6
CONTINUOUS
 62
     7
 10
49.7860311925352
 20
51.82624809992271
 11
50.5860311925352
 21
51.82624809992271
  0
LINE
  8
1
  6
CONTINUOUS
 62
     7
 10
53.13897236900579
 20
51.82624809992271
 11
50.5860311925352
 21
51.82624809992271
  0
LINE
  8
1
  6
CONTINUOUS
 62
     7
 10
53.13897236900579
 20
51.82624809992271
 11
53.93897236900578
 21
51.82624809992271
  0
LINE
  8
1
  6
CONTINUOUS
 62
     7
 10
230.0795497051015
 20
210.7328913537148
 11
230.0795497051015
 21
211.2328723152469
  0
LINE
  8
1
  6
CONTINUOUS
 62
     7
 10
222.5751864373523
 20
91.29836190133837
 11
222.0743137838025
 21
91.30273295076589
  0
LINE
  8
1
  6
CONTINUOUS
 62
     7
 10
230.0795497051015
 20
211.2328723152469
 11
276.5839129728507
 21
210.8270348853158
  0
LINE
  8
1
  6
CONTINUOUS
 62
     7
 10
138.135268820154
 20
88.59537778192953
 11
138.1350760931468
 21
88.5954500741693
  0
LINE
  8
1
  6
CONTINUOUS
 62
     7
 10
230.0795497051015
 20
91.23287231524691
 11
230.0795497051015
 21
91.73287231524691
  0
LINE
  8
1
  6
CONTINUOUS
 62
     7
 10
63.15414883959402
 20
88.5328723152469
 11
93.80614883959403
 21
88.5328723152469
  0
LINE
  8
1
  6
CONTINUOUS
 62
     7
 10
106.2041267246285
 20
89.22068970670449
 11
106.154148839594
 21
89.5328723152469
  0
LINE
  8
1
  6
CONTINUOUS
 62
     7
 10
138.806148839594
 20
89.5328723152469
 11
138.756170954552
 21
89.22068970668136
  0
LINE
  8
1
  6
CONTINUOUS
 62
     7
 10
62.20412672462844
 20
89.22068970670456
 11
62.15414883959402
 21
89.5328723152469
  0
LINE
  8
1
  6
CONTINUOUS
 62
     7
 10
230.0795497051015
 20
91.73287231524691
 11
230.0795497051015
 21
210.7328913537148
  0
LINE
  8
1
  6
CONTINUOUS
 62
     7
 10
222.5751864373523
 20
211.1673827291554
 11
222.0743137838025
 21
211.1630116797279
  0
LINE
  8
1
  6
CONTINUOUS
 62
     7
 10
94.80614883959404
 20
89.5328723152469
 11
94.75617095455198
 21
89.22068970668127
  0
LINE
  8
1
  6
CONTINUOUS
 62
     7
 10
164.2596936367039
 20
95.03287231524692
 11
164.1940475560317
 21
95.0328723152469
  0
LINE
  8
1
  6
CONTINUOUS
 62
     7
 10
239.7535497051015
 20
88.5328723152469
 11
270.4055497051016
 21
88.5328723152469
  0
LINE
  8
1
  6
CONTINUOUS
 62
     7
 10
230.0795497051015
 20
91.23287231524691
 11
222.5751864373523
 21
91.29836190133837
  0
LINE
  8
1
  6
CONTINUOUS
 62
     7
 10
277.0795497051015
 20
210.3270539237838
 11
277.0795497051015
 21
91.73287231524692
  0
LINE
  8
1
  6
CONTINUOUS
 62
     7
 10
217.4795877822186
 20
151.2867080396209
 11
281.0795116279845
 21
151.0091992597119
  0
LINE
  8
1
  6
CONTINUOUS
 62
     7
 10
100.480148839594
 20
-7.773751900077293
 11
100.480148839594
 21
55.82624809992269
  0
LINE
  8
1
  6
CONTINUOUS
 62
     7
 10
271.4055497051016
 20
89.5328723152469
 11
271.3555718200594
 21
89.22068970668109
  0
LINE
  8
1
  6
CONTINUOUS
 62
     7
 10
122.480148839594
 20
85.14453418128089
 11
122.480148839594
 21
95.23287231524691
  0
LINE
  8
1
  6
CONTINUOUS
 62
     7
 10
230.0795497051015
 20
211.2328723152469
 11
230.0795497051015
 21
210.7328913537148
  0
LINE
  8
1
  6
CONTINUOUS
 62
     7
 10
238.0795497051015
 20
91.23287231524691
 11
238.0795497051015
 21
89.5328723152469
  0
LINE
  8
1
  6
CONTINUOUS
 62
     7
 10
94.13526882015394
 20
88.59537778192953
 11
94.13507609314678
 21
88.5954500741693
  0
LINE
  8
1
  6
CONTINUOUS
 62
     7
 10
222.0795497051015
 20
91.79834286287047
 11
222.0795497051015
 21
210.6674017676233
  0
LINE
  8
1
  6
CONTINUOUS
 62
     7
 10
270.7346696856615
 20
88.59537778192953
 11
270.7344769586543
 21
88.5954500741693
  0
LINE
  8
1
  6
CONTINUOUS
 62
     7
 10
106.8251901990124
 20
88.59540350110316
 11
106.8250288590377
 21
88.59537778192818
  0
LINE
  8
1
  6
CONTINUOUS
 62
     7
 10
230.0795497051015
 20
91.732853276779
 11
230.0795497051015
 21
91.23287231524691
  0
LINE
  8
1
  6
CONTINUOUS
 62
     7
 10
62.82519019901245
 20
88.59540350110316
 11
62.82502885903767
 21
88.59537778192818
  0
LINE
  8
1
  6
CONTINUOUS
 62
     7
 10
272.0795497051015
 20
89.5328723152469
 11
255.0795497051015
 21
89.5328723152469
  0
LINE
  8
1
  6
CONTINUOUS
 62
     7
 10
107.154148839594
 20
88.5328723152469
 11
137.806148839594
 21
88.5328723152469
  0
LINE
  8
1
  6
CONTINUOUS
 62
     7
 10
230.0795497051015
 20
210.7328913537148
 11
230.0795497051015
 21
91.73287231524691
  0
LINE
  8
1
  6
CONTINUOUS
 62
     7
 10
122.480148839594
 20
-0.7737519000772901
 11
122.480148839594
 21
37.22624809992271
  0
LINE
  8
1
  6
CONTINUOUS
 62
     7
 10
239.4245910645199
 20
88.59540350110316
 11
239.4244297245451
 21
88.59537778192818
  0
LINE
  8
1
  6
CONTINUOUS
 62
     7
 10
255.0795497051015
 20
89.5328723152469
 11
238.0795497051015
 21
89.5328723152469
  0
LINE
  8
1
  6
CONTINUOUS
 62
     7
 10
238.8035275901359
 20
89.22068970670465
 11
238.7535497051015
 21
89.5328723152469
  0
LINE
  8
1
  6
CONTINUOUS
 62
     7
 10
95.48014883959402
 20
11.2262480999227
 11
105.480148839594
 21
11.2262480999227
  0
LINE
  8
1
  6
CONTINUOUS
 62
     7
 10
221.4795497051015
 20
210.5630345258894
 11
221.4795497051015
 21
91.90271010460441
  0
LINE
  8
1
  6
CONTINUOUS
 62
     7
 10
222.5751864373523
 20
211.1673827291554
 11
230.0795497051015
 21
211.2328723152469
  0
LINE
  8
1
  6
CONTINUOUS
 62
     7
 10
276.5795497051015
 20
91.23287231524691
 11
230.0795497051015
 21
91.23287231524691
  0
LINE
  8
1
  6
CONTINUOUS
 62
     7
 10
272.0795497051015
 20
89.5328723152469
 11
272.0795497051015
 21
91.23287231524691
  0
ARC
  8
1
  6
CONTINUOUS
 62
     7
 10
147.480148839594
 20
198.2328723152469
 40
4.000000000000025
 50
277.3973655746441
 51
82.60263442535586
  0
ARC
  8
1
  6
CONTINUOUS
 62
     7
 10
147.480148839594
 20
198.2328723152469
 40
1.030668528585378
 50
58.86156432434698
 51
121.138435675653
  0
ARC
  8
1
  6
CONTINUOUS
 62
     7
 10
147.480148839594
 20
198.2328723152469
 40
4.000000000000025
 50
82.60263442535587
 51
97.39736557464411
  0
ARC
  8
1
  6
CONTINUOUS
 62
     7
 10
53.480148839594
 20
104.2328723152469
 40
2.250000000000003
 50
346.7683351757008
 51
13.23166482429929
  0
ARC
  8
1
  6
CONTINUOUS
 62
     7
 10
53.480148839594
 20
104.2328723152469
 40
3.999999999999996
 50
277.3973655746439
 51
82.60263442535603
  0
ARC
  8
1
  6
CONTINUOUS
 62
     7
 10
147.480148839594
 20
198.2328723152469
 40
2.249999999999993
 50
256.7683351757011
 51
283.2316648242989
  0
ARC
  8
1
  6
CONTINUOUS
 62
     7
 10
147.480148839594
 20
198.2328723152469
 40
2.250000000000027
 50
76.76833517570054
 51
103.2316648242995
  0
ARC
  8
1
  6
CONTINUOUS
 62
     7
 10
147.480148839594
 20
198.2328723152469
 40
3.999999999999994
 50
262.6026344253562
 51
277.3973655746437
  0
ARC
  8
1
  6
CONTINUOUS
 62
     7
 10
147.480148839594
 20
198.2328723152469
 40
1.030668528585341
 50
148.8615643243475
 51
211.1384356756525
  0
ARC
  8
1
  6
CONTINUOUS
 62
     7
 10
147.480148839594
 20
198.2328723152469
 40
1.030668528585341
 50
238.8615643243475
 51
301.1384356756525
  0
ARC
  8
1
  6
CONTINUOUS
 62
     7
 10
147.480148839594
 20
198.2328723152469
 40
1.030668528585378
 50
328.861564324347
 51
31.13843567565305
  0
ARC
  8
1
  6
CONTINUOUS
 62
     7
 10
53.480148839594
 20
104.2328723152469
 40
2.25
 50
166.7683351757011
 51
193.2316648242993
  0
ARC
  8
1
  6
CONTINUOUS
 62
     7
 10
147.480148839594
 20
198.2328723152469
 40
2.25000000000002
 50
346.7683351757013
 51
13.23166482429951
  0
ARC
  8
1
  6
CONTINUOUS
 62
     7
 10
53.480148839594
 20
104.2328723152469
 40
4.00000000000001
 50
97.39736557464396
 51
262.602634425356
  0
ARC
  8
1
  6
CONTINUOUS
 62
     7
 10
53.480148839594
 20
104.2328723152469
 40
2.25000000000001
 50
256.7683351757008
 51
283.2316648242992
  0
ARC
  8
1
  6
CONTINUOUS
 62
     7
 10
147.480148839594
 20
198.2328723152469
 40
2.249999999999993
 50
166.7683351757011
 51
193.231664824299
  0
ARC
  8
1
  6
CONTINUOUS
 62
     7
 10
147.480148839594
 20
198.2328723152469
 40
3.999999999999994
 50
97.39736557464376
 51
262.6026344253562
  0
ARC
  8
1
  6
CONTINUOUS
 62
     7
 10
53.48014883959403
 20
198.2328723152469
 40
4.000000000000001
 50
352.6026344253562
 51
7.397365574644141
  0
ARC
  8
1
  6
CONTINUOUS
 62
     7
 10
53.48014883959403
 20
198.2328723152469
 40
1.030668528585347
 50
148.8615643243477
 51
211.1384356756523
  0
ARC
  8
1
  6
CONTINUOUS
 62
     7
 10
53.480148839594
 20
104.2328723152469
 40
4.00000000000001
 50
262.602634425356
 51
277.3973655746439
  0
ARC
  8
1
  6
CONTINUOUS
 62
     7
 10
53.480148839594
 20
104.2328723152469
 40
1.030668528585347
 50
328.8615643243477
 51
31.13843567565226
  0
ARC
  8
1
  6
CONTINUOUS
 62
     7
 10
53.48014883959403
 20
198.2328723152469
 40
1.030668528585344
 50
238.8615643243472
 51
301.1384356756529
  0
ARC
  8
1
  6
CONTINUOUS
 62
     7
 10
53.48014883959403
 20
198.2328723152469
 40
1.030668528585344
 50
58.86156432434718
 51
121.1384356756528
  0
ARC
  8
1
  6
CONTINUOUS
 62
     7
 10
53.480148839594
 20
104.2328723152469
 40
3.999999999999996
 50
82.60263442535602
 51
97.39736557464396
  0
ARC
  8
1
  6
CONTINUOUS
 62
     7
 10
53.48014883959403
 20
198.2328723152469
 40
1.030668528585352
 50
328.8615643243479
 51
31.13843567565209
  0
ARC
  8
1
  6
CONTINUOUS
 62
     7
 10
147.480148839594
 20
104.2328723152469
 40
2.250000000000007
 50
256.7683351757011
 51
283.2316648242996
  0
ARC
  8
1
  6
CONTINUOUS
 62
     7
 10
147.480148839594
 20
104.2328723152469
 40
3.999999999999996
 50
187.3973655746439
 51
352.602634425356
  0
ARC
  8
1
  6
CONTINUOUS
 62
     7
 10
53.480148839594
 20
104.2328723152469
 40
1.030668528585356
 50
238.8615643243476
 51
301.1384356756524
  0
ARC
  8
1
  6
CONTINUOUS
 62
     7
 10
53.480148839594
 20
104.2328723152469
 40
1.030668528585354
 50
148.861564324347
 51
211.1384356756529
  0
ARC
  8
1
  6
CONTINUOUS
 62
     7
 10
53.48014883959403
 20
198.2328723152469
 40
4.000000000000001
 50
7.397365574643772
 51
172.6026344253559
  0
ARC
  8
1
  6
CONTINUOUS
 62
     7
 10
53.480148839594
 20
104.2328723152469
 40
1.030668528585344
 50
58.86156432434718
 51
121.1384356756528
  0
ARC
  8
1
  6
CONTINUOUS
 62
     7
 10
53.48014883959403
 20
198.2328723152469
 40
2.249999999999995
 50
76.76833517570087
 51
103.2316648242993
  0
ARC
  8
1
  6
CONTINUOUS
 62
     7
 10
53.480148839594
 20
104.2328723152469
 40
2.249999999999997
 50
76.7683351757007
 51
103.2316648242993
  0
ARC
  8
1
  6
CONTINUOUS
 62
     7
 10
53.48014883959403
 20
198.2328723152469
 40
4.000000000000001
 50
187.3973655746438
 51
352.6026344253562
  0
ARC
  8
1
  6
CONTINUOUS
 62
     7
 10
53.48014883959403
 20
198.2328723152469
 40
2.249999999999997
 50
256.7683351757007
 51
283.2316648242992
  0
ARC
  8
1
  6
CONTINUOUS
 62
     7
 10
53.48014883959403
 20
198.2328723152469
 40
2.250000000000007
 50
346.7683351757004
 51
13.23166482429963
  0
ARC
  8
1
  6
CONTINUOUS
 62
     7
 10
53.48014883959403
 20
198.2328723152469
 40
4.000000000000001
 50
172.6026344253562
 51
187.3973655746437
  0
ARC
  8
1
  6
CONTINUOUS
 62
     7
 10
53.48014883959403
 20
198.2328723152469
 40
2.25
 50
166.7683351757011
 51
193.2316648242996
  0
LINE
  8
1
  6
CONTINUOUS
 62
     7
 10
150.3742664866529
 20
91.29836190133837
 11
150.3742664866529
 21
91.3027329507659
  0
LINE
  8
1
  6
CONTINUOUS
 62
     7
 10
69.90367825135871
 20
91.29836190133838
 11
69.90367825135871
 21
91.30273295076591
  0
LINE
  8
1
  6
CONTINUOUS
 62
     7
 10
77.4095606042999
 20
211.1673827291554
 11
77.4095606042999
 21
211.1630116797279
  0
LINE
  8
1
  6
CONTINUOUS
 62
     7
 10
157.880148839594
 20
211.1673827291554
 11
157.880148839594
 21
211.1630116797279
  0
LINE
  8
1
  6
CONTINUOUS
 62
     7
 10
147.0213253101822
 20
91.29836190133837
 11
147.0213253101822
 21
91.3027329507659
  0
LINE
  8
1
  6
CONTINUOUS
 62
     7
 10
80.76250178077049
 20
211.1673827291554
 11
80.76250178077049
 21
211.1630116797279
  0
LINE
  8
1
  6
CONTINUOUS
 62
     7
 10
53.93897236900578
 20
91.29836190133837
 11
53.93897236900578
 21
91.3027329507659
  0
LINE
  8
1
  6
CONTINUOUS
 62
     7
 10
140.3154429572411
 20
211.1673827291554
 11
140.3154429572411
 21
211.1630116797279
  0
LINE
  8
1
  6
CONTINUOUS
 62
     7
 10
49.7860311925352
 20
91.29836190133838
 11
49.7860311925352
 21
91.30273295076591
  0
LINE
  8
1
  6
CONTINUOUS
 62
     7
 10
87.46838413371167
 20
211.1673827291554
 11
87.46838413371167
 21
211.1630116797279
  0
LINE
  8
1
  6
CONTINUOUS
 62
     7
 10
83.31544295724107
 20
211.1673827291554
 11
83.31544295724107
 21
211.1630116797279
  0
LINE
  8
1
  6
CONTINUOUS
 62
     7
 10
143.6683841337117
 20
91.29836190133837
 11
143.6683841337117
 21
91.3027329507659
  0
LINE
  8
1
  6
CONTINUOUS
 62
     7
 10
134.4095606042999
 20
211.1673827291554
 11
134.4095606042999
 21
211.1630116797279
  0
LINE
  8
1
  6
CONTINUOUS
 62
     7
 10
127.7036782513587
 20
211.1673827291554
 11
127.7036782513587
 21
211.1630116797279
  0
LINE
  8
1
  6
CONTINUOUS
 62
     7
 10
50.5860311925352
 20
91.29836190133837
 11
50.5860311925352
 21
91.3027329507659
  0
LINE
  8
1
  6
CONTINUOUS
 62
     7
 10
144.4683841337117
 20
91.29836190133835
 11
144.4683841337117
 21
91.30273295076589
  0
LINE
  8
1
  6
CONTINUOUS
 62
     7
 10
63.19779589841756
 20
91.29836190133838
 11
63.19779589841756
 21
91.30273295076591
  0
LINE
  8
1
  6
CONTINUOUS
 62
     7
 10
126.9036782513587
 20
211.1673827291554
 11
126.9036782513587
 21
211.1630116797279
  0
LINE
  8
1
  6
CONTINUOUS
 62
     7
 10
124.3507370748881
 20
211.1673827291554
 11
124.3507370748881
 21
211.1630116797279
  0
LINE
  8
1
  6
CONTINUOUS
 62
     7
 10
56.49191354547637
 20
91.29836190133838
 11
56.49191354547637
 21
91.30273295076591
  0
LINE
  8
1
  6
CONTINUOUS
 62
     7
 10
137.7625017807705
 20
211.1673827291554
 11
137.7625017807705
 21
211.1630116797279
  0
LINE
  8
1
  6
CONTINUOUS
 62
     7
 10
120.9977958984176
 20
211.1673827291554
 11
120.9977958984176
 21
211.1630116797279
  0
LINE
  8
1
  6
CONTINUOUS
 62
     7
 10
117.644854721947
 20
211.1673827291554
 11
117.644854721947
 21
211.1630116797279
  0
LINE
  8
1
  6
CONTINUOUS
 62
     7
 10
100.080148839594
 20
91.29836190133838
 11
100.080148839594
 21
91.3027329507659
  0
LINE
  8
1
  6
CONTINUOUS
 62
     7
 10
79.9625017807705
 20
211.1673827291554
 11
79.9625017807705
 21
211.1630116797279
  0
LINE
  8
1
  6
CONTINUOUS
 62
     7
 10
74.05661942782932
 20
211.1673827291554
 11
74.05661942782932
 21
211.1630116797279
  0
LINE
  8
1
  6
CONTINUOUS
 62
     7
 10
154.5272076631234
 20
211.1673827291554
 11
154.5272076631234
 21
211.1630116797279
  0
LINE
  8
1
  6
CONTINUOUS
 62
     7
 10
131.0566194278293
 20
211.1673827291554
 11
131.0566194278293
 21
211.1630116797279
  0
LINE
  8
1
  6
CONTINUOUS
 62
     7
 10
116.844854721947
 20
211.1673827291554
 11
116.844854721947
 21
211.1630116797279
  0
LINE
  8
1
  6
CONTINUOUS
 62
     7
 10
66.55073707488815
 20
91.29836190133838
 11
66.55073707488815
 21
91.30273295076591
  0
LINE
  8
1
  6
CONTINUOUS
 62
     7
 10
153.7272076631234
 20
211.1673827291554
 11
153.7272076631234
 21
211.1630116797279
  0
LINE
  8
1
  6
CONTINUOUS
 62
     7
 10
141.1154429572411
 20
211.1673827291554
 11
141.1154429572411
 21
211.1630116797279
  0
LINE
  8
1
  6
CONTINUOUS
 62
     7
 10
114.2919135454764
 20
211.1673827291554
 11
114.2919135454764
 21
211.1630116797279
  0
LINE
  8
1
  6
CONTINUOUS
 62
     7
 10
100.880148839594
 20
91.29836190133835
 11
100.880148839594
 21
91.3027329507659
  0
LINE
  8
1
  6
CONTINUOUS
 62
     7
 10
57.29191354547637
 20
91.29836190133837
 11
57.29191354547637
 21
91.3027329507659
  0
LINE
  8
1
  6
CONTINUOUS
 62
     7
 10
133.6095606042999
 20
211.1673827291554
 11
133.6095606042999
 21
211.1630116797279
  0
LINE
  8
1
  6
CONTINUOUS
 62
     7
 10
113.4919135454764
 20
211.1673827291554
 11
113.4919135454764
 21
211.1630116797279
  0
LINE
  8
1
  6
CONTINUOUS
 62
     7
 10
110.9389723690058
 20
211.1673827291554
 11
110.9389723690058
 21
211.1630116797279
  0
LINE
  8
1
  6
CONTINUOUS
 62
     7
 10
110.1389723690058
 20
211.1673827291554
 11
110.1389723690058
 21
211.1630116797279
  0
LINE
  8
1
  6
CONTINUOUS
 62
     7
 10
130.2566194278293
 20
211.1673827291554
 11
130.2566194278293
 21
211.1630116797279
  0
LINE
  8
1
  6
CONTINUOUS
 62
     7
 10
84.11544295724107
 20
211.1673827291554
 11
84.11544295724107
 21
211.1630116797279
  0
LINE
  8
1
  6
CONTINUOUS
 62
     7
 10
157.080148839594
 20
211.1673827291554
 11
157.080148839594
 21
211.1630116797279
  0
LINE
  8
1
  6
CONTINUOUS
 62
     7
 10
120.1977958984176
 20
211.1673827291554
 11
120.1977958984176
 21
211.1630116797279
  0
LINE
  8
1
  6
CONTINUOUS
 62
     7
 10
107.5860311925352
 20
211.1673827291554
 11
107.5860311925352
 21
211.1630116797279
  0
LINE
  8
1
  6
CONTINUOUS
 62
     7
 10
106.7860311925352
 20
211.1673827291554
 11
106.7860311925352
 21
211.1630116797279
  0
LINE
  8
1
  6
CONTINUOUS
 62
     7
 10
104.2330900160646
 20
211.1673827291554
 11
104.2330900160646
 21
211.1630116797279
  0
LINE
  8
1
  6
CONTINUOUS
 62
     7
 10
123.5507370748881
 20
211.1673827291554
 11
123.5507370748881
 21
211.1630116797279
  0
LINE
  8
1
  6
CONTINUOUS
 62
     7
 10
53.13897236900578
 20
91.29836190133838
 11
53.13897236900578
 21
91.30273295076591
  0
LINE
  8
1
  6
CONTINUOUS
 62
     7
 10
136.9625017807705
 20
211.1673827291554
 11
136.9625017807705
 21
211.1630116797279
  0
LINE
  8
1
  6
CONTINUOUS
 62
     7
 10
147.8213253101823
 20
91.29836190133835
 11
147.8213253101823
 21
91.30273295076589
  0
LINE
  8
1
  6
CONTINUOUS
 62
     7
 10
159.9801678780619
 20
211.2328723152469
 11
40.98012980112615
 21
211.2328723152469
  0
LINE
  8
1
  6
CONTINUOUS
 62
     7
 10
147.8213253101823
 20
211.1673827291554
 11
147.8213253101823
 21
211.1630116797279
  0
LINE
  8
1
  6
CONTINUOUS
 62
     7
 10
144.4683841337117
 20
211.1673827291554
 11
144.4683841337117
 21
211.1630116797279
  0
LINE
  8
1
  6
CONTINUOUS
 62
     7
 10
40.48014883959402
 20
91.73287231524691
 11
40.48014883959402
 21
210.7328913537148
  0
LINE
  8
1
  6
CONTINUOUS
 62
     7
 10
46.43014883959403
 20
104.2328723152469
 11
60.53014883959403
 21
104.2328723152469
  0
LINE
  8
1
  6
CONTINUOUS
 62
     7
 10
61.48014883959403
 20
91.23287231524691
 11
61.48014883959403
 21
89.53287231524689
  0
LINE
  8
1
  6
CONTINUOUS
 62
     7
 10
159.9801298004012
 20
91.23287231524691
 11
40.98016787878692
 21
91.23287231524691
  0
LINE
  8
1
  6
CONTINUOUS
 62
     7
 10
47.23309001606462
 20
211.1673827291554
 11
47.23309001606462
 21
211.1630116797279
  0
LINE
  8
1
  6
CONTINUOUS
 62
     7
 10
147.480148839594
 20
191.1828723152469
 11
147.480148839594
 21
205.2828723152469
  0
LINE
  8
1
  6
CONTINUOUS
 62
     7
 10
86.66838413371167
 20
211.1673827291554
 11
86.66838413371167
 21
211.1630116797279
  0
LINE
  8
1
  6
CONTINUOUS
 62
     7
 10
69.90367825135874
 20
211.1673827291554
 11
69.90367825135874
 21
211.1630116797279
  0
LINE
  8
1
  6
CONTINUOUS
 62
     7
 10
63.99779589841756
 20
211.1673827291554
 11
63.99779589841756
 21
211.1630116797279
  0
LINE
  8
1
  6
CONTINUOUS
 62
     7
 10
40.48014883959403
 20
210.7328913537148
 11
40.48014883959402
 21
91.73287231524691
  0
LINE
  8
1
  6
CONTINUOUS
 62
     7
 10
160.480148839594
 20
91.73287231524691
 11
160.480148839594
 21
210.7328913537148
  0
LINE
  8
1
  6
CONTINUOUS
 62
     7
 10
105.480148839594
 20
91.23287231524691
 11
105.480148839594
 21
89.5328723152469
  0
LINE
  8
1
  6
CONTINUOUS
 62
     7
 10
66.55073707488815
 20
211.1673827291554
 11
66.55073707488815
 21
211.1630116797279
  0
LINE
  8
1
  6
CONTINUOUS
 62
     7
 10
63.19779589841756
 20
211.1673827291554
 11
63.19779589841756
 21
211.1630116797279
  0
LINE
  8
1
  6
CONTINUOUS
 62
     7
 10
100.080148839594
 20
211.1673827291554
 11
100.080148839594
 21
211.1630116797279
  0
LINE
  8
1
  6
CONTINUOUS
 62
     7
 10
100.880148839594
 20
211.1673827291554
 11
100.880148839594
 21
211.1630116797279
  0
LINE
  8
1
  6
CONTINUOUS
 62
     7
 10
59.84485472194697
 20
211.1673827291554
 11
59.84485472194697
 21
211.1630116797279
  0
LINE
  8
1
  6
CONTINUOUS
 62
     7
 10
150.3742664866529
 20
211.1673827291554
 11
150.3742664866529
 21
211.1630116797279
  0
LINE
  8
1
  6
CONTINUOUS
 62
     7
 10
147.0213253101823
 20
211.1673827291554
 11
147.0213253101823
 21
211.1630116797279
  0
LINE
  8
1
  6
CONTINUOUS
 62
     7
 10
53.93897236900579
 20
211.1673827291554
 11
53.93897236900579
 21
211.1630116797279
  0
LINE
  8
1
  6
CONTINUOUS
 62
     7
 10
46.43309001606462
 20
211.1673827291554
 11
46.43309001606462
 21
211.1630116797279
  0
LINE
  8
1
  6
CONTINUOUS
 62
     7
 10
103.4330900160646
 20
211.1673827291554
 11
103.4330900160646
 21
211.1630116797279
  0
LINE
  8
1
  6
CONTINUOUS
 62
     7
 10
151.1742664866529
 20
211.1673827291554
 11
151.1742664866529
 21
211.1630116797279
  0
LINE
  8
1
  6
CONTINUOUS
 62
     7
 10
76.6095606042999
 20
211.1673827291554
 11
76.6095606042999
 21
211.1630116797279
  0
LINE
  8
1
  6
CONTINUOUS
 62
     7
 10
56.49191354547639
 20
211.1673827291554
 11
56.49191354547639
 21
211.1630116797279
  0
LINE
  8
1
  6
CONTINUOUS
 62
     7
 10
53.1389723690058
 20
211.1673827291554
 11
53.1389723690058
 21
211.1630116797279
  0
LINE
  8
1
  6
CONTINUOUS
 62
     7
 10
49.78603119253521
 20
211.1673827291554
 11
49.78603119253521
 21
211.1630116797279
  0
LINE
  8
1
  6
CONTINUOUS
 62
     7
 10
43.08014883959403
 20
211.1673827291554
 11
43.08014883959403
 21
211.1630116797279
  0
LINE
  8
1
  6
CONTINUOUS
 62
     7
 10
73.25661942782932
 20
211.1673827291554
 11
73.25661942782932
 21
211.1630116797279
  0
LINE
  8
1
  6
CONTINUOUS
 62
     7
 10
100.480148839594
 20
212.7328913537148
 11
100.480148839594
 21
89.73287231524691
  0
LINE
  8
1
  6
CONTINUOUS
 62
     7
 10
57.29191354547638
 20
211.1673827291554
 11
57.29191354547638
 21
211.1630116797279
  0
LINE
  8
1
  6
CONTINUOUS
 62
     7
 10
43.88014883959404
 20
211.1673827291554
 11
43.88014883959404
 21
211.1630116797279
  0
LINE
  8
1
  6
CONTINUOUS
 62
     7
 10
90.82132531018225
 20
211.1673827291554
 11
90.82132531018225
 21
211.1630116797279
  0
LINE
  8
1
  6
CONTINUOUS
 62
     7
 10
97.52720766312345
 20
211.1673827291554
 11
97.52720766312345
 21
211.1630116797279
  0
LINE
  8
1
  6
CONTINUOUS
 62
     7
 10
67.35073707488814
 20
211.1673827291554
 11
67.35073707488814
 21
211.1630116797279
  0
LINE
  8
1
  6
CONTINUOUS
 62
     7
 10
160.480148839594
 20
210.7328913537148
 11
160.480148839594
 21
91.73287231524691
  0
LINE
  8
1
  6
CONTINUOUS
 62
     7
 10
78.48014883959404
 20
85.14453418128089
 11
78.48014883959404
 21
95.23287231524691
  0
LINE
  8
1
  6
CONTINUOUS
 62
     7
 10
140.430148839594
 20
198.2328723152469
 11
154.530148839594
 21
198.2328723152469
  0
LINE
  8
1
  6
CONTINUOUS
 62
     7
 10
46.43014883959403
 20
198.2328723152469
 11
60.53014883959403
 21
198.2328723152469
  0
LINE
  8
1
  6
CONTINUOUS
 62
     7
 10
53.48014883959402
 20
97.18287231524688
 11
53.48014883959402
 21
111.2828723152469
  0
LINE
  8
1
  6
CONTINUOUS
 62
     7
 10
147.480148839594
 20
97.18287231524688
 11
147.480148839594
 21
111.2828723152469
  0
LINE
  8
1
  6
CONTINUOUS
 62
     7
 10
40.98012980112611
 20
211.2328723152469
 11
159.9801678780619
 21
211.2328723152469
  0
LINE
  8
1
  6
CONTINUOUS
 62
     7
 10
50.5860311925352
 20
211.1673827291554
 11
50.5860311925352
 21
211.1630116797279
  0
LINE
  8
1
  6
CONTINUOUS
 62
     7
 10
140.430148839594
 20
104.2328723152469
 11
154.530148839594
 21
104.2328723152469
  0
LINE
  8
1
  6
CONTINUOUS
 62
     7
 10
90.02132531018226
 20
211.1673827291554
 11
90.02132531018226
 21
211.1630116797279
  0
LINE
  8
1
  6
CONTINUOUS
 62
     7
 10
38.98012980112615
 20
151.2328723152469
 11
161.9801678780619
 21
151.2328723152469
  0
LINE
  8
1
  6
CONTINUOUS
 62
     7
 10
143.6683841337117
 20
211.1673827291554
 11
143.6683841337117
 21
211.1630116797279
  0
LINE
  8
1
  6
CONTINUOUS
 62
     7
 10
94.17426648665287
 20
211.1673827291554
 11
94.17426648665287
 21
211.1630116797279
  0
LINE
  8
1
  6
CONTINUOUS
 62
     7
 10
139.480148839594
 20
89.5328723152469
 11
139.480148839594
 21
91.23287231524691
  0
LINE
  8
1
  6
CONTINUOUS
 62
     7
 10
95.48014883959404
 20
89.53287231524689
 11
95.48014883959404
 21
91.23287231524691
  0
LINE
  8
1
  6
CONTINUOUS
 62
     7
 10
53.48014883959403
 20
191.1828723152469
 11
53.48014883959403
 21
205.2828723152469
  0
LINE
  8
1
  6
CONTINUOUS
 62
     7
 10
60.64485472194696
 20
211.1673827291554
 11
60.64485472194696
 21
211.1630116797279
  0
LINE
  8
1
  6
CONTINUOUS
 62
     7
 10
70.70367825135872
 20
211.1673827291554
 11
70.70367825135872
 21
211.1630116797279
  0
LINE
  8
1
  6
CONTINUOUS
 62
     7
 10
93.37426648665286
 20
211.1673827291554
 11
93.37426648665286
 21
211.1630116797279
  0
LINE
  8
1
  6
CONTINUOUS
 62
     7
 10
96.72720766312344
 20
211.1673827291554
 11
96.72720766312344
 21
211.1630116797279
  0
LINE
  8
1
  6
CONTINUOUS
 62
     7
 10
60.64485472194696
 20
211.1630116797279
 11
60.64485472194696
 21
210.5630345258894
  0
LINE
  8
1
  6
CONTINUOUS
 62
     7
 10
50.5860311925352
 20
211.1630116797279
 11
50.5860311925352
 21
210.5630345258894
  0
LINE
  8
1
  6
CONTINUOUS
 62
     7
 10
79.9625017807705
 20
210.5630345258894
 11
79.9625017807705
 21
211.1630116797279
  0
LINE
  8
1
  6
CONTINUOUS
 62
     7
 10
49.7860311925352
 20
210.5630345258894
 11
49.7860311925352
 21
211.1630116797279
  0
LINE
  8
1
  6
CONTINUOUS
 62
     7
 10
126.9036782513587
 20
91.3027329507659
 11
126.9036782513587
 21
91.90271010460442
  0
LINE
  8
1
  6
CONTINUOUS
 62
     7
 10
84.11544295724107
 20
211.1630116797279
 11
84.11544295724107
 21
210.5630345258894
  0
LINE
  8
1
  6
CONTINUOUS
 62
     7
 10
100.080148839594
 20
91.3027329507659
 11
100.080148839594
 21
91.90271010460442
  0
LINE
  8
1
  6
CONTINUOUS
 62
     7
 10
67.35073707488814
 20
91.90271010460444
 11
67.35073707488814
 21
91.30273295076591
  0
LINE
  8
1
  6
CONTINUOUS
 62
     7
 10
66.55073707488815
 20
91.30273295076591
 11
66.55073707488815
 21
91.90271010460444
  0
LINE
  8
1
  6
CONTINUOUS
 62
     7
 10
76.6095606042999
 20
91.90271010460442
 11
76.6095606042999
 21
210.5630345258894
  0
LINE
  8
1
  6
CONTINUOUS
 62
     7
 10
151.1742664866529
 20
100.7896187942745
 11
151.1742664866529
 21
91.90271010460441
  0
LINE
  8
1
  6
CONTINUOUS
 62
     7
 10
157.880148839594
 20
210.5630345258894
 11
157.880148839594
 21
91.90271010460441
  0
LINE
  8
1
  6
CONTINUOUS
 62
     7
 10
96.72720766312344
 20
210.5630345258894
 11
96.72720766312344
 21
211.1630116797279
  0
LINE
  8
1
  6
CONTINUOUS
 62
     7
 10
90.82132531018225
 20
211.1630116797279
 11
90.82132531018225
 21
210.5630345258894
  0
LINE
  8
1
  6
CONTINUOUS
 62
     7
 10
47.23309001606462
 20
211.1630116797279
 11
47.23309001606462
 21
210.5630345258894
  0
LINE
  8
1
  6
CONTINUOUS
 62
     7
 10
46.43309001606461
 20
210.5630345258894
 11
46.43309001606461
 21
211.1630116797279
  0
LINE
  8
1
  6
CONTINUOUS
 62
     7
 10
43.88014883959404
 20
211.1630116797279
 11
43.88014883959404
 21
210.5630345258894
  0
LINE
  8
1
  6
CONTINUOUS
 62
     7
 10
77.4095606042999
 20
210.5630345258894
 11
77.4095606042999
 21
91.90271010460444
  0
LINE
  8
1
  6
CONTINUOUS
 62
     7
 10
77.4095606042999
 20
91.90271010460442
 11
77.4095606042999
 21
91.3027329507659
  0
LINE
  8
1
  6
CONTINUOUS
 62
     7
 10
157.080148839594
 20
91.90271010460441
 11
157.080148839594
 21
210.5630345258894
  0
LINE
  8
1
  6
CONTINUOUS
 62
     7
 10
147.8213253101823
 20
210.5630345258894
 11
147.8213253101823
 21
203.2713342448358
  0
LINE
  8
1
  6
CONTINUOUS
 62
     7
 10
57.29191354547638
 20
211.1630116797279
 11
57.29191354547638
 21
210.5630345258894
  0
LINE
  8
1
  6
CONTINUOUS
 62
     7
 10
53.13897236900578
 20
210.5630345258894
 11
53.13897236900578
 21
211.1630116797279
  0
LINE
  8
1
  6
CONTINUOUS
 62
     7
 10
151.1742664866529
 20
194.7896187942746
 11
151.1742664866529
 21
107.6761258362192
  0
LINE
  8
1
  6
CONTINUOUS
 62
     7
 10
56.49191354547637
 20
210.5630345258894
 11
56.49191354547637
 21
211.1630116797279
  0
LINE
  8
1
  6
CONTINUOUS
 62
     7
 10
127.7036782513587
 20
91.90271010460442
 11
127.7036782513587
 21
91.3027329507659
  0
LINE
  8
1
  6
CONTINUOUS
 62
     7
 10
147.8213253101823
 20
193.194410385658
 11
147.8213253101823
 21
109.2713342448358
  0
LINE
  8
1
  6
CONTINUOUS
 62
     7
 10
147.0213253101822
 20
91.90271010460441
 11
147.0213253101822
 21
99.20375897700742
  0
LINE
  8
1
  6
CONTINUOUS
 62
     7
 10
143.6683841337117
 20
201.5454166284584
 11
143.6683841337117
 21
210.5630345258894
  0
LINE
  8
1
  6
CONTINUOUS
 62
     7
 10
77.4095606042999
 20
211.1630116797279
 11
77.4095606042999
 21
210.5630345258894
  0
LINE
  8
1
  6
CONTINUOUS
 62
     7
 10
43.08014883959402
 20
210.5630345258894
 11
43.08014883959402
 21
211.1630116797279
  0
LINE
  8
1
  6
CONTINUOUS
 62
     7
 10
100.880148839594
 20
91.90271010460442
 11
100.880148839594
 21
91.3027329507659
  0
LINE
  8
1
  6
CONTINUOUS
 62
     7
 10
150.3742664866529
 20
202.3712999206283
 11
150.3742664866529
 21
210.5630345258894
  0
LINE
  8
1
  6
CONTINUOUS
 62
     7
 10
143.6683841337117
 20
107.5454166284584
 11
143.6683841337117
 21
194.9203280020354
  0
LINE
  8
1
  6
CONTINUOUS
 62
     7
 10
150.3742664866529
 20
108.3712999206282
 11
150.3742664866529
 21
194.0944447098655
  0
LINE
  8
1
  6
CONTINUOUS
 62
     7
 10
144.4683841337117
 20
194.179259931656
 11
144.4683841337117
 21
108.2864846988378
  0
LINE
  8
1
  6
CONTINUOUS
 62
     7
 10
76.6095606042999
 20
210.5630345258894
 11
76.6095606042999
 21
211.1630116797279
  0
LINE
  8
1
  6
CONTINUOUS
 62
     7
 10
97.52720766312345
 20
211.1630116797279
 11
97.52720766312345
 21
210.5630345258894
  0
LINE
  8
1
  6
CONTINUOUS
 62
     7
 10
141.1154429572411
 20
210.5630345258894
 11
141.1154429572411
 21
91.90271010460441
  0
LINE
  8
1
  6
CONTINUOUS
 62
     7
 10
94.17426648665287
 20
211.1630116797279
 11
94.17426648665287
 21
210.5630345258894
  0
LINE
  8
1
  6
CONTINUOUS
 62
     7
 10
70.70367825135872
 20
211.1630116797279
 11
70.70367825135872
 21
210.5630345258894
  0
LINE
  8
1
  6
CONTINUOUS
 62
     7
 10
153.7272076631234
 20
91.90271010460441
 11
153.7272076631234
 21
210.5630345258894
  0
LINE
  8
1
  6
CONTINUOUS
 62
     7
 10
59.84485472194695
 20
210.5630345258894
 11
59.84485472194695
 21
211.1630116797279
  0
LINE
  8
1
  6
CONTINUOUS
 62
     7
 10
151.1742664866529
 20
210.5630345258894
 11
151.1742664866529
 21
201.6761258362193
  0
LINE
  8
1
  6
CONTINUOUS
 62
     7
 10
140.3154429572411
 20
91.90271010460441
 11
140.3154429572411
 21
210.5630345258894
  0
LINE
  8
1
  6
CONTINUOUS
 62
     7
 10
147.8213253101823
 20
99.19441038565796
 11
147.8213253101823
 21
91.90271010460441
  0
LINE
  8
1
  6
CONTINUOUS
 62
     7
 10
83.31544295724107
 20
210.5630345258894
 11
83.31544295724107
 21
211.1630116797279
  0
LINE
  8
1
  6
CONTINUOUS
 62
     7
 10
53.93897236900579
 20
211.1630116797279
 11
53.93897236900579
 21
210.5630345258894
  0
LINE
  8
1
  6
CONTINUOUS
 62
     7
 10
90.02132531018225
 20
210.5630345258894
 11
90.02132531018225
 21
211.1630116797279
  0
LINE
  8
1
  6
CONTINUOUS
 62
     7
 10
144.4683841337117
 20
100.179259931656
 11
144.4683841337117
 21
91.90271010460441
  0
LINE
  8
1
  6
CONTINUOUS
 62
     7
 10
87.46838413371167
 20
211.1630116797279
 11
87.46838413371167
 21
210.5630345258894
  0
LINE
  8
1
  6
CONTINUOUS
 62
     7
 10
86.66838413371167
 20
210.5630345258894
 11
86.66838413371167
 21
211.1630116797279
  0
LINE
  8
1
  6
CONTINUOUS
 62
     7
 10
150.3742664866529
 20
91.90271010460441
 11
150.3742664866529
 21
100.0944447098655
  0
LINE
  8
1
  6
CONTINUOUS
 62
     7
 10
147.0213253101823
 20
203.2619856534864
 11
147.0213253101823
 21
210.5630345258894
  0
LINE
  8
1
  6
CONTINUOUS
 62
     7
 10
143.6683841337117
 20
91.90271010460441
 11
143.6683841337117
 21
100.9203280020354
  0
LINE
  8
1
  6
CONTINUOUS
 62
     7
 10
93.37426648665284
 20
210.5630345258894
 11
93.37426648665284
 21
211.1630116797279
  0
LINE
  8
1
  6
CONTINUOUS
 62
     7
 10
63.19779589841756
 20
210.5630345258894
 11
63.19779589841756
 21
211.1630116797279
  0
LINE
  8
1
  6
CONTINUOUS
 62
     7
 10
147.0213253101822
 20
109.2619856534863
 11
147.0213253101823
 21
193.2037589770075
  0
LINE
  8
1
  6
CONTINUOUS
 62
     7
 10
154.5272076631234
 20
210.5630345258894
 11
154.5272076631234
 21
91.90271010460441
  0
LINE
  8
1
  6
CONTINUOUS
 62
     7
 10
80.76250178077049
 20
211.1630116797279
 11
80.76250178077049
 21
210.5630345258894
  0
LINE
  8
1
  6
CONTINUOUS
 62
     7
 10
69.90367825135871
 20
210.5630345258894
 11
69.90367825135871
 21
211.1630116797279
  0
LINE
  8
1
  6
CONTINUOUS
 62
     7
 10
67.35073707488814
 20
211.1630116797279
 11
67.35073707488814
 21
210.5630345258894
  0
LINE
  8
1
  6
CONTINUOUS
 62
     7
 10
144.4683841337117
 20
210.5630345258894
 11
144.4683841337117
 21
202.2864846988378
  0
LINE
  8
1
  6
CONTINUOUS
 62
     7
 10
66.55073707488815
 20
210.5630345258894
 11
66.55073707488815
 21
211.1630116797279
  0
LINE
  8
1
  6
CONTINUOUS
 62
     7
 10
124.3507370748881
 20
91.29836190133835
 11
124.3507370748881
 21
91.3027329507659
  0
LINE
  8
1
  6
CONTINUOUS
 62
     7
 10
123.5507370748881
 20
91.29836190133838
 11
123.5507370748881
 21
91.3027329507659
  0
LINE
  8
1
  6
CONTINUOUS
 62
     7
 10
106.7860311925352
 20
91.3027329507659
 11
106.7860311925352
 21
91.90271010460442
  0
LINE
  8
1
  6
CONTINUOUS
 62
     7
 10
110.1389723690058
 20
91.3027329507659
 11
110.1389723690058
 21
91.90271010460442
  0
LINE
  8
1
  6
CONTINUOUS
 62
     7
 10
133.6095606042999
 20
91.3027329507659
 11
133.6095606042999
 21
91.90271010460441
  0
LINE
  8
1
  6
CONTINUOUS
 62
     7
 10
76.6095606042999
 20
91.3027329507659
 11
76.6095606042999
 21
91.90271010460442
  0
LINE
  8
1
  6
CONTINUOUS
 62
     7
 10
50.5860311925352
 20
91.90271010460444
 11
50.5860311925352
 21
91.30273295076591
  0
LINE
  8
1
  6
CONTINUOUS
 62
     7
 10
40.98016787878689
 20
91.23287231524691
 11
159.9801298004011
 21
91.23287231524691
  0
LINE
  8
1
  6
CONTINUOUS
 62
     7
 10
96.72720766312342
 20
91.3027329507659
 11
96.72720766312342
 21
91.90271010460442
  0
LINE
  8
1
  6
CONTINUOUS
 62
     7
 10
157.080148839594
 20
91.29836190133837
 11
157.080148839594
 21
91.3027329507659
  0
LINE
  8
1
  6
CONTINUOUS
 62
     7
 10
79.9625017807705
 20
91.29836190133838
 11
79.9625017807705
 21
91.3027329507659
  0
LINE
  8
1
  6
CONTINUOUS
 62
     7
 10
154.5272076631234
 20
91.29836190133835
 11
154.5272076631234
 21
91.30273295076589
  0
LINE
  8
1
  6
CONTINUOUS
 62
     7
 10
130.2566194278293
 20
91.29836190133837
 11
130.2566194278293
 21
91.3027329507659
  0
LINE
  8
1
  6
CONTINUOUS
 62
     7
 10
134.4095606042999
 20
91.90271010460441
 11
134.4095606042999
 21
91.3027329507659
  0
LINE
  8
1
  6
CONTINUOUS
 62
     7
 10
120.9977958984176
 20
91.29836190133835
 11
120.9977958984176
 21
91.3027329507659
  0
LINE
  8
1
  6
CONTINUOUS
 62
     7
 10
120.1977958984176
 20
91.29836190133838
 11
120.1977958984176
 21
91.3027329507659
  0
LINE
  8
1
  6
CONTINUOUS
 62
     7
 10
83.31544295724107
 20
91.29836190133838
 11
83.31544295724107
 21
91.3027329507659
  0
LINE
  8
1
  6
CONTINUOUS
 62
     7
 10
74.05661942782932
 20
91.29836190133835
 11
74.05661942782932
 21
91.3027329507659
  0
LINE
  8
1
  6
CONTINUOUS
 62
     7
 10
117.644854721947
 20
91.29836190133835
 11
117.644854721947
 21
91.3027329507659
  0
LINE
  8
1
  6
CONTINUOUS
 62
     7
 10
116.844854721947
 20
91.29836190133838
 11
116.844854721947
 21
91.3027329507659
  0
LINE
  8
1
  6
CONTINUOUS
 62
     7
 10
114.2919135454764
 20
91.29836190133835
 11
114.2919135454764
 21
91.3027329507659
  0
LINE
  8
1
  6
CONTINUOUS
 62
     7
 10
60.64485472194696
 20
91.90271010460444
 11
60.64485472194696
 21
91.30273295076591
  0
LINE
  8
1
  6
CONTINUOUS
 62
     7
 10
84.11544295724107
 20
91.29836190133835
 11
84.11544295724107
 21
91.3027329507659
  0
LINE
  8
1
  6
CONTINUOUS
 62
     7
 10
107.5860311925352
 20
91.90271010460442
 11
107.5860311925352
 21
91.3027329507659
  0
LINE
  8
1
  6
CONTINUOUS
 62
     7
 10
56.49191354547637
 20
91.30273295076591
 11
56.49191354547637
 21
91.90271010460444
  0
LINE
  8
1
  6
CONTINUOUS
 62
     7
 10
80.76250178077049
 20
91.90271010460442
 11
80.76250178077049
 21
91.3027329507659
  0
LINE
  8
1
  6
CONTINUOUS
 62
     7
 10
79.9625017807705
 20
91.3027329507659
 11
79.9625017807705
 21
91.90271010460442
  0
LINE
  8
1
  6
CONTINUOUS
 62
     7
 10
59.84485472194695
 20
91.30273295076591
 11
59.84485472194695
 21
91.90271010460444
  0
LINE
  8
1
  6
CONTINUOUS
 62
     7
 10
130.2566194278293
 20
91.3027329507659
 11
130.2566194278293
 21
91.90271010460441
  0
LINE
  8
1
  6
CONTINUOUS
 62
     7
 10
120.9977958984176
 20
91.90271010460442
 11
120.9977958984176
 21
91.3027329507659
  0
LINE
  8
1
  6
CONTINUOUS
 62
     7
 10
87.46838413371167
 20
91.90271010460442
 11
87.46838413371167
 21
91.3027329507659
  0
LINE
  8
1
  6
CONTINUOUS
 62
     7
 10
70.70367825135872
 20
91.90271010460444
 11
70.70367825135872
 21
91.30273295076591
  0
LINE
  8
1
  6
CONTINUOUS
 62
     7
 10
97.52720766312343
 20
91.90271010460442
 11
97.52720766312343
 21
91.3027329507659
  0
LINE
  8
1
  6
CONTINUOUS
 62
     7
 10
86.66838413371167
 20
91.90271010460442
 11
86.66838413371167
 21
210.5630345258894
  0
LINE
  8
1
  6
CONTINUOUS
 62
     7
 10
116.844854721947
 20
91.3027329507659
 11
116.844854721947
 21
91.90271010460442
  0
LINE
  8
1
  6
CONTINUOUS
 62
     7
 10
123.5507370748881
 20
91.3027329507659
 11
123.5507370748881
 21
91.90271010460442
  0
LINE
  8
1
  6
CONTINUOUS
 62
     7
 10
80.76250178077049
 20
91.29836190133835
 11
80.76250178077049
 21
91.3027329507659
  0
LINE
  8
1
  6
CONTINUOUS
 62
     7
 10
46.43309001606461
 20
91.30273295076591
 11
46.43309001606461
 21
91.90271010460444
  0
LINE
  8
1
  6
CONTINUOUS
 62
     7
 10
131.0566194278293
 20
91.90271010460441
 11
131.0566194278293
 21
91.3027329507659
  0
LINE
  8
1
  6
CONTINUOUS
 62
     7
 10
153.7272076631234
 20
91.29836190133837
 11
153.7272076631234
 21
91.3027329507659
  0
LINE
  8
1
  6
CONTINUOUS
 62
     7
 10
90.82132531018225
 20
91.90271010460442
 11
90.82132531018225
 21
91.3027329507659
  0
LINE
  8
1
  6
CONTINUOUS
 62
     7
 10
69.90367825135871
 20
91.30273295076591
 11
69.90367825135871
 21
91.90271010460444
  0
LINE
  8
1
  6
CONTINUOUS
 62
     7
 10
110.9389723690058
 20
91.90271010460442
 11
110.9389723690058
 21
91.3027329507659
  0
LINE
  8
1
  6
CONTINUOUS
 62
     7
 10
136.9625017807705
 20
91.29836190133837
 11
136.9625017807705
 21
91.3027329507659
  0
LINE
  8
1
  6
CONTINUOUS
 62
     7
 10
86.66838413371167
 20
91.3027329507659
 11
86.66838413371167
 21
91.90271010460442
  0
LINE
  8
1
  6
CONTINUOUS
 62
     7
 10
90.02132531018225
 20
91.3027329507659
 11
90.02132531018225
 21
91.90271010460442
  0
LINE
  8
1
  6
CONTINUOUS
 62
     7
 10
47.23309001606462
 20
91.90271010460444
 11
47.23309001606462
 21
91.30273295076591
  0
LINE
  8
1
  6
CONTINUOUS
 62
     7
 10
140.3154429572411
 20
91.29836190133837
 11
140.3154429572411
 21
91.3027329507659
  0
LINE
  8
1
  6
CONTINUOUS
 62
     7
 10
57.29191354547638
 20
91.90271010460444
 11
57.29191354547638
 21
91.30273295076591
  0
LINE
  8
1
  6
CONTINUOUS
 62
     7
 10
124.3507370748881
 20
91.90271010460442
 11
124.3507370748881
 21
91.3027329507659
  0
LINE
  8
1
  6
CONTINUOUS
 62
     7
 10
77.4095606042999
 20
91.29836190133835
 11
77.4095606042999
 21
91.3027329507659
  0
LINE
  8
1
  6
CONTINUOUS
 62
     7
 10
134.4095606042999
 20
91.29836190133835
 11
134.4095606042999
 21
91.30273295076589
  0
LINE
  8
1
  6
CONTINUOUS
 62
     7
 10
131.0566194278293
 20
91.29836190133835
 11
131.0566194278293
 21
91.30273295076589
  0
LINE
  8
1
  6
CONTINUOUS
 62
     7
 10
137.7625017807705
 20
91.29836190133835
 11
137.7625017807705
 21
91.30273295076589
  0
LINE
  8
1
  6
CONTINUOUS
 62
     7
 10
133.6095606042999
 20
91.29836190133837
 11
133.6095606042999
 21
91.3027329507659
  0
LINE
  8
1
  6
CONTINUOUS
 62
     7
 10
117.644854721947
 20
91.90271010460442
 11
117.644854721947
 21
91.3027329507659
  0
LINE
  8
1
  6
CONTINUOUS
 62
     7
 10
120.1977958984176
 20
91.3027329507659
 11
120.1977958984176
 21
91.90271010460442
  0
LINE
  8
1
  6
CONTINUOUS
 62
     7
 10
87.46838413371167
 20
91.29836190133835
 11
87.46838413371167
 21
91.3027329507659
  0
LINE
  8
1
  6
CONTINUOUS
 62
     7
 10
127.7036782513587
 20
91.29836190133835
 11
127.7036782513587
 21
91.3027329507659
  0
LINE
  8
1
  6
CONTINUOUS
 62
     7
 10
49.7860311925352
 20
91.30273295076591
 11
49.7860311925352
 21
91.90271010460444
  0
LINE
  8
1
  6
CONTINUOUS
 62
     7
 10
87.46838413371168
 20
210.5630345258894
 11
87.46838413371167
 21
91.90271010460444
  0
LINE
  8
1
  6
CONTINUOUS
 62
     7
 10
157.880148839594
 20
91.29836190133837
 11
157.880148839594
 21
91.30273295076589
  0
LINE
  8
1
  6
CONTINUOUS
 62
     7
 10
141.1154429572411
 20
91.29836190133835
 11
141.1154429572411
 21
91.30273295076589
  0
LINE
  8
1
  6
CONTINUOUS
 62
     7
 10
126.9036782513587
 20
91.29836190133838
 11
126.9036782513587
 21
91.3027329507659
  0
LINE
  8
1
  6
CONTINUOUS
 62
     7
 10
76.6095606042999
 20
91.29836190133838
 11
76.6095606042999
 21
91.3027329507659
  0
LINE
  8
1
  6
CONTINUOUS
 62
     7
 10
96.72720766312342
 20
91.29836190133838
 11
96.72720766312342
 21
91.3027329507659
  0
LINE
  8
1
  6
CONTINUOUS
 62
     7
 10
73.25661942782932
 20
91.29836190133838
 11
73.25661942782932
 21
91.3027329507659
  0
LINE
  8
1
  6
CONTINUOUS
 62
     7
 10
110.1389723690058
 20
91.29836190133838
 11
110.1389723690058
 21
91.3027329507659
  0
LINE
  8
1
  6
CONTINUOUS
 62
     7
 10
107.5860311925352
 20
91.29836190133835
 11
107.5860311925352
 21
91.3027329507659
  0
LINE
  8
1
  6
CONTINUOUS
 62
     7
 10
43.08014883959402
 20
91.29836190133838
 11
43.08014883959402
 21
91.30273295076591
  0
LINE
  8
1
  6
CONTINUOUS
 62
     7
 10
110.9389723690058
 20
91.29836190133835
 11
110.9389723690058
 21
91.3027329507659
  0
LINE
  8
1
  6
CONTINUOUS
 62
     7
 10
43.88014883959402
 20
91.29836190133837
 11
43.88014883959402
 21
91.3027329507659
  0
LINE
  8
1
  6
CONTINUOUS
 62
     7
 10
46.43309001606461
 20
91.29836190133838
 11
46.43309001606461
 21
91.30273295076591
  0
LINE
  8
1
  6
CONTINUOUS
 62
     7
 10
113.4919135454764
 20
91.29836190133838
 11
113.4919135454764
 21
91.3027329507659
  0
LINE
  8
1
  6
CONTINUOUS
 62
     7
 10
106.7860311925352
 20
91.29836190133838
 11
106.7860311925352
 21
91.3027329507659
  0
LINE
  8
1
  6
CONTINUOUS
 62
     7
 10
47.23309001606461
 20
91.29836190133837
 11
47.23309001606461
 21
91.3027329507659
  0
LINE
  8
1
  6
CONTINUOUS
 62
     7
 10
60.64485472194696
 20
91.29836190133837
 11
60.64485472194696
 21
91.3027329507659
  0
LINE
  8
1
  6
CONTINUOUS
 62
     7
 10
67.35073707488814
 20
91.29836190133837
 11
67.35073707488814
 21
91.3027329507659
  0
LINE
  8
1
  6
CONTINUOUS
 62
     7
 10
59.84485472194695
 20
91.29836190133838
 11
59.84485472194695
 21
91.30273295076591
  0
LINE
  8
1
  6
CONTINUOUS
 62
     7
 10
86.66838413371167
 20
91.29836190133838
 11
86.66838413371167
 21
91.3027329507659
  0
LINE
  8
1
  6
CONTINUOUS
 62
     7
 10
94.17426648665285
 20
91.29836190133835
 11
94.17426648665285
 21
91.3027329507659
  0
LINE
  8
1
  6
CONTINUOUS
 62
     7
 10
63.99779589841756
 20
91.29836190133837
 11
63.99779589841756
 21
91.3027329507659
  0
LINE
  8
1
  6
CONTINUOUS
 62
     7
 10
70.70367825135871
 20
91.29836190133837
 11
70.70367825135871
 21
91.3027329507659
  0
LINE
  8
1
  6
CONTINUOUS
 62
     7
 10
151.1742664866529
 20
91.29836190133835
 11
151.1742664866529
 21
91.30273295076589
  0
LINE
  8
1
  6
CONTINUOUS
 62
     7
 10
103.4330900160646
 20
91.29836190133838
 11
103.4330900160646
 21
91.3027329507659
  0
LINE
  8
1
  6
CONTINUOUS
 62
     7
 10
90.82132531018225
 20
91.29836190133835
 11
90.82132531018225
 21
91.3027329507659
  0
LINE
  8
1
  6
CONTINUOUS
 62
     7
 10
90.02132531018225
 20
91.29836190133838
 11
90.02132531018225
 21
91.3027329507659
  0
LINE
  8
1
  6
CONTINUOUS
 62
     7
 10
93.37426648665284
 20
91.29836190133838
 11
93.37426648665284
 21
91.3027329507659
  0
LINE
  8
1
  6
CONTINUOUS
 62
     7
 10
97.52720766312343
 20
91.29836190133835
 11
97.52720766312343
 21
91.3027329507659
  0
LINE
  8
1
  6
CONTINUOUS
 62
     7
 10
104.2330900160646
 20
91.29836190133835
 11
104.2330900160646
 21
91.3027329507659
  0
ARC
  8
1
  6
CONTINUOUS
 62
     7
 10
122.480148839594
 20
172.1445341812809
 40
85.0
 50
259.6302401945226
 51
280.3697598054774
  0
ARC
  8
1
  6
CONTINUOUS
 62
     7
 10
93.80614883959403
 20
89.5328723152469
 40
1.000000000000001
 50
270.0
 51
289.4942971454807
  0
ARC
  8
1
  6
CONTINUOUS
 62
     7
 10
41.38596723105717
 20
-3.273751900077296
 40
0.5000000000000014
 50
180.4999999999997
 51
270.0
  0
ARC
  8
1
  6
CONTINUOUS
 62
     7
 10
93.80614883959403
 20
89.5328723152469
 40
1.000000000000008
 50
291.6807185269155
 51
341.8091860462028
  0
ARC
  8
1
  6
CONTINUOUS
 62
     7
 10
276.5795497051015
 20
91.73287231524691
 40
0.5000000000000004
 50
270.0
 51
0.0
  0
ARC
  8
1
  6
CONTINUOUS
 62
     7
 10
239.7535497051015
 20
89.5328723152469
 40
0.9999999999999972
 50
198.1908139523879
 51
247.5
  0
ARC
  8
1
  6
CONTINUOUS
 62
     7
 10
270.4055497051016
 20
89.5328723152469
 40
0.999999999999998
 50
292.4999999999996
 51
341.8091860461909
  0
ARC
  8
1
  6
CONTINUOUS
 62
     7
 10
137.806148839594
 20
89.5328723152469
 40
1.00000000000001
 50
289.4942971454915
 51
292.4999999999993
  0
ARC
  8
1
  6
CONTINUOUS
 62
     7
 10
78.48014883959404
 20
172.1445341812809
 40
85.0
 50
259.6302401945226
 51
280.3697598054774
  0
ARC
  8
1
  6
CONTINUOUS
 62
     7
 10
270.4055497051016
 20
89.5328723152469
 40
1.000000000000001
 50
270.0
 51
280.5791955218621
  0
ARC
  8
1
  6
CONTINUOUS
 62
     7
 10
239.7535497051015
 20
89.5328723152469
 40
0.999999999999998
 50
247.5000000000004
 51
270.0
  0
ARC
  8
1
  6
CONTINUOUS
 62
     7
 10
276.5795497051015
 20
210.3270539237838
 40
0.5000000000000004
 50
0.0
 51
89.5000000000027
  0
ARC
  8
1
  6
CONTINUOUS
 62
     7
 10
270.4055497051016
 20
89.5328723152469
 40
0.9999999999999911
 50
280.5791955218589
 51
289.4942971454799
  0
ARC
  8
1
  6
CONTINUOUS
 62
     7
 10
137.806148839594
 20
89.5328723152469
 40
1.000000000000001
 50
270.0
 51
280.5791955218621
  0
ARC
  8
1
  6
CONTINUOUS
 62
     7
 10
222.0795497051015
 20
210.5630345258894
 40
0.600000000000024
 50
90.50000000000045
 51
180.0
  0
ARC
  8
1
  6
CONTINUOUS
 62
     7
 10
222.5795497051015
 20
210.6674017676233
 40
0.5000000000000016
 50
90.5000000000005
 51
180.0
  0
ARC
  8
1
  6
CONTINUOUS
 62
     7
 10
41.0456193872176
 20
50.72624809992271
 40
0.5000000000000004
 50
90.0
 51
179.5000000000004
  0
ARC
  8
1
  6
CONTINUOUS
 62
     7
 10
159.5743304481308
 20
-3.273751900077296
 40
0.5000000000000004
 50
270.0
 51
359.5000000000003
  0
ARC
  8
1
  6
CONTINUOUS
 62
     7
 10
63.15414883959402
 20
89.5328723152469
 40
0.999999999999997
 50
198.1908139523929
 51
248.9999999999999
  0
ARC
  8
1
  6
CONTINUOUS
 62
     7
 10
137.806148839594
 20
89.5328723152469
 40
1.000000000000001
 50
280.5791955218621
 51
289.49429714549
  0
ARC
  8
1
  6
CONTINUOUS
 62
     7
 10
222.0795497051015
 20
91.90271010460441
 40
0.5999999999999894
 50
180.0
 51
269.4999999999995
  0
ARC
  8
1
  6
CONTINUOUS
 62
     7
 10
270.4055497051016
 20
89.5328723152469
 40
0.9999999999999972
 50
289.49429714548
 51
292.4999999999997
  0
ARC
  8
1
  6
CONTINUOUS
 62
     7
 10
255.0795497051016
 20
172.1445341812809
 40
85.00000000000001
 50
259.6302401945226
 51
280.3697598054774
  0
ARC
  8
1
  6
CONTINUOUS
 62
     7
 10
93.80614883959403
 20
89.5328723152469
 40
0.9999999999999972
 50
289.49429714548
 51
291.6807185269151
  0
ARC
  8
1
  6
CONTINUOUS
 62
     7
 10
63.15414883959402
 20
89.5328723152469
 40
1.000000000000001
 50
248.9999999999999
 51
270.0
  0
ARC
  8
1
  6
CONTINUOUS
 62
     7
 10
137.806148839594
 20
89.5328723152469
 40
1.000000000000011
 50
292.4999999999993
 51
341.809186046208
  0
ARC
  8
1
  6
CONTINUOUS
 62
     7
 10
222.5795497051015
 20
91.79834286287047
 40
0.5000000000000004
 50
180.0
 51
269.4999999999995
  0
ARC
  8
1
  6
CONTINUOUS
 62
     7
 10
159.9146782919705
 20
50.72624809992271
 40
0.5000000000000014
 50
0.4999999999996836
 51
90.00000000000001
  0
ARC
  8
1
  6
CONTINUOUS
 62
     7
 10
147.480148839594
 20
104.2328723152469
 40
5.050000000000012
 50
317.0130018193009
 51
42.98699818069907
  0
ARC
  8
1
  6
CONTINUOUS
 62
     7
 10
53.48014883959402
 20
104.2328723152469
 40
5.050000000000011
 50
275.2128623546951
 51
306.6117178433726
  0
ARC
  8
1
  6
CONTINUOUS
 62
     7
 10
147.480148839594
 20
104.2328723152469
 40
5.049999999999989
 50
55.03383481613162
 51
86.12616376840808
  0
ARC
  8
1
  6
CONTINUOUS
 62
     7
 10
147.480148839594
 20
198.2328723152469
 40
5.049999999999997
 50
95.21286235469512
 51
126.6117178433726
  0
ARC
  8
1
  6
CONTINUOUS
 62
     7
 10
147.480148839594
 20
104.2328723152469
 40
5.049999999999997
 50
95.21286235469512
 51
126.6117178433726
  0
ARC
  8
1
  6
CONTINUOUS
 62
     7
 10
147.480148839594
 20
104.2328723152469
 40
5.049999999999979
 50
139.0083246069477
 51
220.9916753930524
  0
ARC
  8
1
  6
CONTINUOUS
 62
     7
 10
107.154148839594
 20
89.5328723152469
 40
0.9999999999999922
 50
198.1908139523972
 51
247.5000000000004
  0
ARC
  8
1
  6
CONTINUOUS
 62
     7
 10
147.480148839594
 20
104.2328723152469
 40
5.050000000000006
 50
233.3882821566275
 51
264.7871376453049
  0
ARC
  8
1
  6
CONTINUOUS
 62
     7
 10
147.480148839594
 20
198.2328723152469
 40
5.049999999999992
 50
317.0130018193007
 51
42.98699818069929
  0
ARC
  8
1
  6
CONTINUOUS
 62
     7
 10
147.480148839594
 20
198.2328723152469
 40
5.050000000000006
 50
233.3882821566275
 51
264.7871376453049
  0
ARC
  8
1
  6
CONTINUOUS
 62
     7
 10
147.480148839594
 20
198.2328723152469
 40
5.05000000000001
 50
139.0083246069477
 51
220.9916753930523
  0
ARC
  8
1
  6
CONTINUOUS
 62
     7
 10
147.480148839594
 20
104.2328723152469
 40
5.050000000000002
 50
273.873836231592
 51
304.9661651838686
  0
ARC
  8
1
  6
CONTINUOUS
 62
     7
 10
147.480148839594
 20
198.2328723152469
 40
5.050000000000002
 50
273.873836231592
 51
304.9661651838683
  0
ARC
  8
1
  6
CONTINUOUS
 62
     7
 10
147.480148839594
 20
198.2328723152469
 40
5.050000000000001
 50
55.0338348161317
 51
86.12616376840809
  0
ARC
  8
1
  6
CONTINUOUS
 62
     7
 10
107.154148839594
 20
89.5328723152469
 40
0.999999999999998
 50
247.5000000000004
 51
270.0
  0
ARC
  8
1
  6
CONTINUOUS
 62
     7
 10
53.48014883959403
 20
198.2328723152469
 40
5.050000000000006
 50
53.38828215662742
 51
84.78713764530485
  0
ARC
  8
1
  6
CONTINUOUS
 62
     7
 10
53.48014883959402
 20
104.2328723152469
 40
5.050000000000002
 50
93.87383623159191
 51
124.9661651838684
  0
ARC
  8
1
  6
CONTINUOUS
 62
     7
 10
53.48014883959402
 20
104.2328723152469
 40
5.050000000000004
 50
235.0338348161316
 51
266.126163768408
  0
ARC
  8
1
  6
CONTINUOUS
 62
     7
 10
53.48014883959402
 20
104.2328723152469
 40
5.049999999999994
 50
319.0083246069478
 51
40.99167539305199
  0
ARC
  8
1
  6
CONTINUOUS
 62
     7
 10
53.48014883959402
 20
104.2328723152469
 40
5.049999999999994
 50
53.38828215662731
 51
84.78713764530488
  0
ARC
  8
1
  6
CONTINUOUS
 62
     7
 10
53.48014883959402
 20
104.2328723152469
 40
5.050000000000002
 50
137.0130018193008
 51
222.9869981806992
  0
LINE
  8
1
  6
CONTINUOUS
 62
     7
 10
79.9625017807705
 20
91.90271010460442
 11
79.9625017807705
 21
210.5630345258894
  0
LINE
  8
1
  6
CONTINUOUS
 62
     7
 10
60.64485472194696
 20
210.5630345258894
 11
60.64485472194696
 21
91.90271010460444
  0
LINE
  8
1
  6
CONTINUOUS
 62
     7
 10
80.76250178077049
 20
210.5630345258894
 11
80.76250178077049
 21
91.90271010460444
  0
LINE
  8
1
  6
CONTINUOUS
 62
     7
 10
59.84485472194696
 20
91.90271010460444
 11
59.84485472194697
 21
210.5630345258894
  0
LINE
  8
1
  6
CONTINUOUS
 62
     7
 10
47.23309001606462
 20
210.5630345258894
 11
47.23309001606461
 21
91.90271010460444
  0
LINE
  8
1
  6
CONTINUOUS
 62
     7
 10
49.78603119253521
 20
201.6761258362193
 11
49.78603119253521
 21
210.5630345258894
  0
LINE
  8
1
  6
CONTINUOUS
 62
     7
 10
43.88014883959403
 20
210.5630345258894
 11
43.88014883959402
 21
91.90271010460444
  0
LINE
  8
1
  6
CONTINUOUS
 62
     7
 10
103.4330900160646
 20
91.90271010460442
 11
103.4330900160646
 21
210.5630345258894
  0
LINE
  8
1
  6
CONTINUOUS
 62
     7
 10
57.29191354547638
 20
194.9203280020355
 11
57.29191354547637
 21
107.5454166284584
  0
LINE
  8
1
  6
CONTINUOUS
 62
     7
 10
106.7860311925352
 20
91.90271010460442
 11
106.7860311925352
 21
210.5630345258894
  0
LINE
  8
1
  6
CONTINUOUS
 62
     7
 10
110.1389723690058
 20
91.90271010460442
 11
110.1389723690058
 21
210.5630345258894
  0
LINE
  8
1
  6
CONTINUOUS
 62
     7
 10
56.49191354547638
 20
108.2864846988378
 11
56.49191354547639
 21
194.179259931656
  0
LINE
  8
1
  6
CONTINUOUS
 62
     7
 10
70.70367825135872
 20
210.5630345258894
 11
70.70367825135871
 21
91.90271010460444
  0
LINE
  8
1
  6
CONTINUOUS
 62
     7
 10
116.844854721947
 20
91.90271010460442
 11
116.844854721947
 21
210.5630345258894
  0
LINE
  8
1
  6
CONTINUOUS
 62
     7
 10
120.1977958984176
 20
91.90271010460442
 11
120.1977958984176
 21
210.5630345258894
  0
LINE
  8
1
  6
CONTINUOUS
 62
     7
 10
127.7036782513587
 20
210.5630345258894
 11
127.7036782513587
 21
91.90271010460444
  0
LINE
  8
1
  6
CONTINUOUS
 62
     7
 10
53.93897236900578
 20
99.20375897700742
 11
53.93897236900578
 21
91.90271010460444
  0
LINE
  8
1
  6
CONTINUOUS
 62
     7
 10
56.49191354547639
 20
202.2864846988378
 11
56.49191354547639
 21
210.5630345258894
  0
LINE
  8
1
  6
CONTINUOUS
 62
     7
 10
126.9036782513587
 20
91.90271010460442
 11
126.9036782513587
 21
210.5630345258894
  0
LINE
  8
1
  6
CONTINUOUS
 62
     7
 10
74.05661942782932
 20
210.5630345258894
 11
74.05661942782932
 21
91.90271010460444
  0
LINE
  8
1
  6
CONTINUOUS
 62
     7
 10
131.0566194278293
 20
210.5630345258894
 11
131.0566194278293
 21
91.90271010460441
  0
LINE
  8
1
  6
CONTINUOUS
 62
     7
 10
110.9389723690058
 20
210.5630345258894
 11
110.9389723690058
 21
91.90271010460444
  0
LINE
  8
1
  6
CONTINUOUS
 62
     7
 10
90.02132531018225
 20
91.90271010460442
 11
90.02132531018226
 21
210.5630345258894
  0
LINE
  8
1
  6
CONTINUOUS
 62
     7
 10
50.5860311925352
 20
194.0944447098655
 11
50.5860311925352
 21
108.3712999206283
  0
LINE
  8
1
  6
CONTINUOUS
 62
     7
 10
53.13897236900579
 20
91.90271010460444
 11
53.13897236900579
 21
99.19441038565796
  0
LINE
  8
1
  6
CONTINUOUS
 62
     7
 10
66.55073707488815
 20
91.90271010460444
 11
66.55073707488815
 21
210.5630345258894
  0
LINE
  8
1
  6
CONTINUOUS
 62
     7
 10
43.08014883959402
 20
91.90271010460444
 11
43.08014883959403
 21
210.5630345258894
  0
LINE
  8
1
  6
CONTINUOUS
 62
     7
 10
133.6095606042999
 20
91.90271010460441
 11
133.6095606042999
 21
210.5630345258894
  0
LINE
  8
1
  6
CONTINUOUS
 62
     7
 10
53.93897236900579
 20
210.5630345258894
 11
53.93897236900579
 21
203.2619856534864
  0
LINE
  8
1
  6
CONTINUOUS
 62
     7
 10
67.35073707488814
 20
210.5630345258894
 11
67.35073707488814
 21
91.90271010460444
  0
LINE
  8
1
  6
CONTINUOUS
 62
     7
 10
117.644854721947
 20
210.5630345258894
 11
117.644854721947
 21
91.90271010460444
  0
LINE
  8
1
  6
CONTINUOUS
 62
     7
 10
56.49191354547638
 20
91.90271010460444
 11
56.49191354547638
 21
100.179259931656
  0
LINE
  8
1
  6
CONTINUOUS
 62
     7
 10
124.3507370748881
 20
210.5630345258894
 11
124.3507370748881
 21
91.90271010460444
  0
LINE
  8
1
  6
CONTINUOUS
 62
     7
 10
83.31544295724107
 20
91.90271010460442
 11
83.31544295724107
 21
210.5630345258894
  0
LINE
  8
1
  6
CONTINUOUS
 62
     7
 10
57.29191354547638
 20
210.5630345258894
 11
57.29191354547638
 21
201.5454166284584
  0
LINE
  8
1
  6
CONTINUOUS
 62
     7
 10
74.05661942782932
 20
211.1630116797279
 11
74.05661942782932
 21
210.5630345258894
  0
LINE
  8
1
  6
CONTINUOUS
 62
     7
 10
50.5860311925352
 20
210.5630345258894
 11
50.5860311925352
 21
202.3712999206283
  0
LINE
  8
1
  6
CONTINUOUS
 62
     7
 10
84.11544295724107
 20
210.5630345258894
 11
84.11544295724107
 21
91.90271010460444
  0
LINE
  8
1
  6
CONTINUOUS
 62
     7
 10
134.4095606042999
 20
210.5630345258894
 11
134.4095606042999
 21
91.90271010460441
  0
LINE
  8
1
  6
CONTINUOUS
 62
     7
 10
104.2330900160646
 20
210.5630345258894
 11
104.2330900160646
 21
91.90271010460444
  0
LINE
  8
1
  6
CONTINUOUS
 62
     7
 10
120.9977958984176
 20
210.5630345258894
 11
120.9977958984176
 21
91.90271010460444
  0
LINE
  8
1
  6
CONTINUOUS
 62
     7
 10
49.7860311925352
 20
107.6761258362192
 11
49.78603119253521
 21
194.7896187942746
  0
LINE
  8
1
  6
CONTINUOUS
 62
     7
 10
123.5507370748881
 20
91.90271010460442
 11
123.5507370748881
 21
210.5630345258894
  0
LINE
  8
1
  6
CONTINUOUS
 62
     7
 10
73.2566194278293
 20
91.90271010460442
 11
73.25661942782932
 21
210.5630345258894
  0
LINE
  8
1
  6
CONTINUOUS
 62
     7
 10
53.93897236900579
 20
193.2037589770075
 11
53.93897236900578
 21
109.2619856534863
  0
LINE
  8
1
  6
CONTINUOUS
 62
     7
 10
49.7860311925352
 20
91.90271010460444
 11
49.7860311925352
 21
100.7896187942745
  0
LINE
  8
1
  6
CONTINUOUS
 62
     7
 10
136.9625017807705
 20
91.90271010460441
 11
136.9625017807705
 21
210.5630345258894
  0
LINE
  8
1
  6
CONTINUOUS
 62
     7
 10
107.5860311925352
 20
210.5630345258894
 11
107.5860311925352
 21
91.90271010460444
  0
LINE
  8
1
  6
CONTINUOUS
 62
     7
 10
114.2919135454764
 20
210.5630345258894
 11
114.2919135454764
 21
91.90271010460444
  0
LINE
  8
1
  6
CONTINUOUS
 62
     7
 10
50.5860311925352
 20
100.0944447098655
 11
50.5860311925352
 21
91.90271010460444
  0
LINE
  8
1
  6
CONTINUOUS
 62
     7
 10
93.37426648665284
 20
91.90271010460442
 11
93.37426648665286
 21
210.5630345258894
  0
LINE
  8
1
  6
CONTINUOUS
 62
     7
 10
53.1389723690058
 20
203.2713342448358
 11
53.1389723690058
 21
210.5630345258894
  0
LINE
  8
1
  6
CONTINUOUS
 62
     7
 10
113.4919135454764
 20
91.90271010460442
 11
113.4919135454764
 21
210.5630345258894
  0
LINE
  8
1
  6
CONTINUOUS
 62
     7
 10
73.25661942782932
 20
210.5630345258894
 11
73.25661942782932
 21
211.1630116797279
  0
LINE
  8
1
  6
CONTINUOUS
 62
     7
 10
63.19779589841756
 20
91.90271010460444
 11
63.19779589841756
 21
210.5630345258894
  0
LINE
  8
1
  6
CONTINUOUS
 62
     7
 10
46.43309001606461
 20
91.90271010460444
 11
46.43309001606462
 21
210.5630345258894
  0
LINE
  8
1
  6
CONTINUOUS
 62
     7
 10
137.7625017807705
 20
210.5630345258894
 11
137.7625017807705
 21
91.90271010460441
  0
LINE
  8
1
  6
CONTINUOUS
 62
     7
 10
63.99779589841756
 20
211.1630116797279
 11
63.99779589841756
 21
210.5630345258894
  0
LINE
  8
1
  6
CONTINUOUS
 62
     7
 10
90.82132531018226
 20
210.5630345258894
 11
90.82132531018225
 21
91.90271010460444
  0
LINE
  8
1
  6
CONTINUOUS
 62
     7
 10
57.29191354547637
 20
100.9203280020354
 11
57.29191354547637
 21
91.90271010460444
  0
LINE
  8
1
  6
CONTINUOUS
 62
     7
 10
130.2566194278293
 20
91.90271010460441
 11
130.2566194278293
 21
210.5630345258894
  0
LINE
  8
1
  6
CONTINUOUS
 62
     7
 10
69.90367825135873
 20
91.90271010460444
 11
69.90367825135874
 21
210.5630345258894
  0
LINE
  8
1
  6
CONTINUOUS
 62
     7
 10
63.99779589841756
 20
210.5630345258894
 11
63.99779589841756
 21
91.90271010460444
  0
LINE
  8
1
  6
CONTINUOUS
 62
     7
 10
53.13897236900579
 20
109.2713342448358
 11
53.1389723690058
 21
193.194410385658
  0
LINE
  8
1
  6
CONTINUOUS
 62
     7
 10
93.37426648665284
 20
91.3027329507659
 11
93.37426648665284
 21
91.90271010460442
  0
LINE
  8
1
  6
CONTINUOUS
 62
     7
 10
150.3742664866529
 20
91.3027329507659
 11
150.3742664866529
 21
91.90271010460441
  0
LINE
  8
1
  6
CONTINUOUS
 62
     7
 10
147.0213253101822
 20
91.3027329507659
 11
147.0213253101822
 21
91.90271010460441
  0
LINE
  8
1
  6
CONTINUOUS
 62
     7
 10
153.7272076631234
 20
91.3027329507659
 11
153.7272076631234
 21
91.90271010460441
  0
LINE
  8
1
  6
CONTINUOUS
 62
     7
 10
143.5134405064795
 20
103.7178723152469
 11
146.465148839594
 21
103.7178723152469
  0
LINE
  8
1
  6
CONTINUOUS
 62
     7
 10
147.995148839594
 20
105.2478723152469
 11
147.995148839594
 21
106.4231405636585
  0
LINE
  8
1
  6
CONTINUOUS
 62
     7
 10
146.465148839594
 20
104.7478723152469
 11
143.5134405064795
 21
104.7478723152469
  0
LINE
  8
1
  6
CONTINUOUS
 62
     7
 10
154.5272076631234
 20
91.90271010460441
 11
154.5272076631234
 21
91.3027329507659
  0
LINE
  8
1
  6
CONTINUOUS
 62
     7
 10
144.4683841337117
 20
91.90271010460441
 11
144.4683841337117
 21
91.3027329507659
  0
LINE
  8
1
  6
CONTINUOUS
 62
     7
 10
157.080148839594
 20
91.3027329507659
 11
157.080148839594
 21
91.90271010460441
  0
LINE
  8
1
  6
CONTINUOUS
 62
     7
 10
157.880148839594
 20
91.90271010460441
 11
157.880148839594
 21
91.3027329507659
  0
LINE
  8
1
  6
CONTINUOUS
 62
     7
 10
157.880148839594
 20
211.1630116797279
 11
157.880148839594
 21
210.5630345258894
  0
LINE
  8
1
  6
CONTINUOUS
 62
     7
 10
157.080148839594
 20
210.5630345258894
 11
157.080148839594
 21
211.1630116797279
  0
LINE
  8
1
  6
CONTINUOUS
 62
     7
 10
146.965148839594
 20
103.2178723152469
 11
146.965148839594
 21
102.0426040668353
  0
LINE
  8
1
  6
CONTINUOUS
 62
     7
 10
151.4468571727085
 20
104.7478723152469
 11
148.495148839594
 21
104.7478723152469
  0
LINE
  8
1
  6
CONTINUOUS
 62
     7
 10
63.19779589841756
 20
91.30273295076591
 11
63.19779589841756
 21
91.90271010460444
  0
LINE
  8
1
  6
CONTINUOUS
 62
     7
 10
136.9625017807705
 20
91.3027329507659
 11
136.9625017807705
 21
91.90271010460441
  0
LINE
  8
1
  6
CONTINUOUS
 62
     7
 10
151.1742664866529
 20
91.90271010460441
 11
151.1742664866529
 21
91.3027329507659
  0
LINE
  8
1
  6
CONTINUOUS
 62
     7
 10
148.495148839594
 20
103.7178723152469
 11
151.4468571727085
 21
103.7178723152469
  0
LINE
  8
1
  6
CONTINUOUS
 62
     7
 10
53.93897236900579
 20
91.90271010460444
 11
53.93897236900579
 21
91.30273295076591
  0
LINE
  8
1
  6
CONTINUOUS
 62
     7
 10
103.4330900160646
 20
91.3027329507659
 11
103.4330900160646
 21
91.90271010460442
  0
LINE
  8
1
  6
CONTINUOUS
 62
     7
 10
146.965148839594
 20
106.4231405636585
 11
146.965148839594
 21
105.2478723152469
  0
LINE
  8
1
  6
CONTINUOUS
 62
     7
 10
43.08014883959402
 20
91.30273295076591
 11
43.08014883959402
 21
91.90271010460444
  0
LINE
  8
1
  6
CONTINUOUS
 62
     7
 10
43.88014883959404
 20
91.90271010460444
 11
43.88014883959404
 21
91.30273295076591
  0
LINE
  8
1
  6
CONTINUOUS
 62
     7
 10
74.05661942782932
 20
91.90271010460442
 11
74.05661942782932
 21
91.3027329507659
  0
LINE
  8
1
  6
CONTINUOUS
 62
     7
 10
53.13897236900578
 20
91.30273295076591
 11
53.13897236900578
 21
91.90271010460444
  0
LINE
  8
1
  6
CONTINUOUS
 62
     7
 10
83.31544295724107
 20
91.3027329507659
 11
83.31544295724107
 21
91.90271010460442
  0
LINE
  8
1
  6
CONTINUOUS
 62
     7
 10
147.995148839594
 20
102.0426040668353
 11
147.995148839594
 21
103.2178723152469
  0
LINE
  8
1
  6
CONTINUOUS
 62
     7
 10
73.25661942782932
 20
91.3027329507659
 11
73.25661942782932
 21
91.90271010460442
  0
LINE
  8
1
  6
CONTINUOUS
 62
     7
 10
113.4919135454764
 20
91.3027329507659
 11
113.4919135454764
 21
91.90271010460442
  0
LINE
  8
1
  6
CONTINUOUS
 62
     7
 10
104.2330900160646
 20
91.90271010460442
 11
104.2330900160646
 21
91.3027329507659
  0
LINE
  8
1
  6
CONTINUOUS
 62
     7
 10
141.1154429572411
 20
91.90271010460441
 11
141.1154429572411
 21
91.3027329507659
  0
LINE
  8
1
  6
CONTINUOUS
 62
     7
 10
84.11544295724107
 20
91.90271010460442
 11
84.11544295724107
 21
91.3027329507659
  0
LINE
  8
1
  6
CONTINUOUS
 62
     7
 10
143.6683841337117
 20
91.3027329507659
 11
143.6683841337117
 21
91.90271010460441
  0
LINE
  8
1
  6
CONTINUOUS
 62
     7
 10
63.99779589841756
 20
91.90271010460444
 11
63.99779589841756
 21
91.30273295076591
  0
LINE
  8
1
  6
CONTINUOUS
 62
     7
 10
94.17426648665287
 20
91.90271010460442
 11
94.17426648665287
 21
91.3027329507659
  0
LINE
  8
1
  6
CONTINUOUS
 62
     7
 10
114.2919135454764
 20
91.90271010460442
 11
114.2919135454764
 21
91.3027329507659
  0
LINE
  8
1
  6
CONTINUOUS
 62
     7
 10
137.7625017807705
 20
91.90271010460441
 11
137.7625017807705
 21
91.3027329507659
  0
LINE
  8
1
  6
CONTINUOUS
 62
     7
 10
140.3154429572411
 20
91.3027329507659
 11
140.3154429572411
 21
91.90271010460441
  0
LINE
  8
1
  6
CONTINUOUS
 62
     7
 10
147.8213253101823
 20
91.90271010460441
 11
147.8213253101823
 21
91.3027329507659
  0
LINE
  8
1
  6
CONTINUOUS
 62
     7
 10
154.5272076631234
 20
211.1630116797279
 11
154.5272076631234
 21
210.5630345258894
  0
LINE
  8
1
  6
CONTINUOUS
 62
     7
 10
153.7272076631234
 20
210.5630345258894
 11
153.7272076631234
 21
211.1630116797279
  0
LINE
  8
1
  6
CONTINUOUS
 62
     7
 10
143.6683841337117
 20
210.5630345258894
 11
143.6683841337117
 21
211.1630116797279
  0
LINE
  8
1
  6
CONTINUOUS
 62
     7
 10
140.3154429572411
 20
210.5630345258894
 11
140.3154429572411
 21
211.1630116797279
  0
LINE
  8
1
  6
CONTINUOUS
 62
     7
 10
147.0213253101823
 20
210.5630345258894
 11
147.0213253101823
 21
211.1630116797279
  0
LINE
  8
1
  6
CONTINUOUS
 62
     7
 10
137.7625017807705
 20
211.1630116797279
 11
137.7625017807705
 21
210.5630345258894
  0
LINE
  8
1
  6
CONTINUOUS
 62
     7
 10
141.1154429572411
 20
211.1630116797279
 11
141.1154429572411
 21
210.5630345258894
  0
LINE
  8
1
  6
CONTINUOUS
 62
     7
 10
136.9625017807705
 20
210.5630345258894
 11
136.9625017807705
 21
211.1630116797279
  0
LINE
  8
1
  6
CONTINUOUS
 62
     7
 10
134.4095606042999
 20
211.1630116797279
 11
134.4095606042999
 21
210.5630345258894
  0
LINE
  8
1
  6
CONTINUOUS
 62
     7
 10
151.1742664866529
 20
211.1630116797279
 11
151.1742664866529
 21
210.5630345258894
  0
LINE
  8
1
  6
CONTINUOUS
 62
     7
 10
144.4683841337117
 20
211.1630116797279
 11
144.4683841337117
 21
210.5630345258894
  0
LINE
  8
1
  6
CONTINUOUS
 62
     7
 10
150.3742664866529
 20
210.5630345258894
 11
150.3742664866529
 21
211.1630116797279
  0
LINE
  8
1
  6
CONTINUOUS
 62
     7
 10
147.8213253101823
 20
211.1630116797279
 11
147.8213253101823
 21
210.5630345258894
  0
LINE
  8
1
  6
CONTINUOUS
 62
     7
 10
131.0566194278293
 20
211.1630116797279
 11
131.0566194278293
 21
210.5630345258894
  0
LINE
  8
1
  6
CONTINUOUS
 62
     7
 10
107.5860311925352
 20
211.1630116797279
 11
107.5860311925352
 21
210.5630345258894
  0
LINE
  8
1
  6
CONTINUOUS
 62
     7
 10
97.52720766312343
 20
210.5630345258894
 11
97.52720766312343
 21
91.90271010460444
  0
LINE
  8
1
  6
CONTINUOUS
 62
     7
 10
130.2566194278293
 20
210.5630345258894
 11
130.2566194278293
 21
211.1630116797279
  0
LINE
  8
1
  6
CONTINUOUS
 62
     7
 10
113.4919135454764
 20
210.5630345258894
 11
113.4919135454764
 21
211.1630116797279
  0
LINE
  8
1
  6
CONTINUOUS
 62
     7
 10
123.5507370748881
 20
210.5630345258894
 11
123.5507370748881
 21
211.1630116797279
  0
LINE
  8
1
  6
CONTINUOUS
 62
     7
 10
120.9977958984176
 20
211.1630116797279
 11
120.9977958984176
 21
210.5630345258894
  0
LINE
  8
1
  6
CONTINUOUS
 62
     7
 10
133.6095606042999
 20
210.5630345258894
 11
133.6095606042999
 21
211.1630116797279
  0
LINE
  8
1
  6
CONTINUOUS
 62
     7
 10
127.7036782513587
 20
211.1630116797279
 11
127.7036782513587
 21
210.5630345258894
  0
LINE
  8
1
  6
CONTINUOUS
 62
     7
 10
110.9389723690058
 20
211.1630116797279
 11
110.9389723690058
 21
210.5630345258894
  0
LINE
  8
1
  6
CONTINUOUS
 62
     7
 10
120.1977958984176
 20
210.5630345258894
 11
120.1977958984176
 21
211.1630116797279
  0
LINE
  8
1
  6
CONTINUOUS
 62
     7
 10
106.7860311925352
 20
210.5630345258894
 11
106.7860311925352
 21
211.1630116797279
  0
LINE
  8
1
  6
CONTINUOUS
 62
     7
 10
117.644854721947
 20
211.1630116797279
 11
117.644854721947
 21
210.5630345258894
  0
LINE
  8
1
  6
CONTINUOUS
 62
     7
 10
103.4330900160646
 20
210.5630345258894
 11
103.4330900160646
 21
211.1630116797279
  0
LINE
  8
1
  6
CONTINUOUS
 62
     7
 10
126.9036782513587
 20
210.5630345258894
 11
126.9036782513587
 21
211.1630116797279
  0
LINE
  8
1
  6
CONTINUOUS
 62
     7
 10
104.2330900160646
 20
211.1630116797279
 11
104.2330900160646
 21
210.5630345258894
  0
LINE
  8
1
  6
CONTINUOUS
 62
     7
 10
100.880148839594
 20
211.1630116797279
 11
100.880148839594
 21
210.5630345258894
  0
LINE
  8
1
  6
CONTINUOUS
 62
     7
 10
100.080148839594
 20
91.90271010460442
 11
100.080148839594
 21
210.5630345258894
  0
LINE
  8
1
  6
CONTINUOUS
 62
     7
 10
96.72720766312342
 20
91.90271010460442
 11
96.72720766312344
 21
210.5630345258894
  0
LINE
  8
1
  6
CONTINUOUS
 62
     7
 10
124.3507370748881
 20
211.1630116797279
 11
124.3507370748881
 21
210.5630345258894
  0
LINE
  8
1
  6
CONTINUOUS
 62
     7
 10
94.17426648665285
 20
210.5630345258894
 11
94.17426648665285
 21
91.90271010460444
  0
LINE
  8
1
  6
CONTINUOUS
 62
     7
 10
100.080148839594
 20
210.5630345258894
 11
100.080148839594
 21
211.1630116797279
  0
LINE
  8
1
  6
CONTINUOUS
 62
     7
 10
114.2919135454764
 20
211.1630116797279
 11
114.2919135454764
 21
210.5630345258894
  0
LINE
  8
1
  6
CONTINUOUS
 62
     7
 10
110.1389723690058
 20
210.5630345258894
 11
110.1389723690058
 21
211.1630116797279
  0
LINE
  8
1
  6
CONTINUOUS
 62
     7
 10
100.880148839594
 20
210.5630345258894
 11
100.880148839594
 21
91.90271010460444
  0
LINE
  8
1
  6
CONTINUOUS
 62
     7
 10
116.844854721947
 20
210.5630345258894
 11
116.844854721947
 21
211.1630116797279
  0
CIRCLE
  8
1
  6
CONTINUOUS
 62
     7
 10
100.480148839594
 20
11.2262480999227
 40
1.272094380863856
  0
CIRCLE
  8
1
  6
CONTINUOUS
 62
     7
 10
53.48014883959402
 20
104.2328723152469
 40
4.250000000000004
  0
CIRCLE
  8
1
  6
CONTINUOUS
 62
     7
 10
78.48014883959404
 20
18.22624809992271
 40
16.325
  0
CIRCLE
  8
1
  6
CONTINUOUS
 62
     7
 10
53.48014883959404
 20
198.2328723152469
 40
4.250000000000004
  0
CIRCLE
  8
1
  6
CONTINUOUS
 62
     7
 10
122.480148839594
 20
18.22624809992271
 40
16.325
  0
CIRCLE
  8
1
  6
CONTINUOUS
 62
     7
 10
147.480148839594
 20
198.2328723152469
 40
4.249999999999976
  0
CIRCLE
  8
1
  6
CONTINUOUS
 62
     7
 10
100.480148839594
 20
11.2262480999227
 40
0.7500000000000007
  0
CIRCLE
  8
1
  6
CONTINUOUS
 62
     7
 10
100.480148839594
 20
11.2262480999227
 40
2.599999999999991
  0
CIRCLE
  8
1
  6
CONTINUOUS
 62
     7
 10
122.480148839594
 20
18.22624809992271
 40
17.0
  0
CIRCLE
  8
1
  6
CONTINUOUS
 62
     7
 10
147.480148839594
 20
104.2328723152469
 40
4.250000000000004
  0
CIRCLE
  8
1
  6
CONTINUOUS
 62
     7
 10
78.48014883959404
 20
18.22624809992271
 40
17.0
  0
CIRCLE
  8
1
  6
CONTINUOUS
 62
     7
 10
100.480148839594
 20
11.2262480999227
 40
3.000000000000003
  0
POINT
  8
1
 62
     7
 10
122.480148839594
 20
18.22624809992271
 30
0.0
  0
POINT
  8
1
 62
     7
 10
78.48014883959404
 20
18.22624809992271
 30
0.0
  0
POLYLINE
  8
1
  6
CONTINUOUS
 62
     7
 66
     1
  0
VERTEX
  8
1
  6
CONTINUOUS
 62
     7
 10
160.480148839594
 20
210.7328913537148
  0
VERTEX
  8
1
  6
CONTINUOUS
 62
     7
 10
160.4705420425136
 20
210.8304348289658
  0
VERTEX
  8
1
  6
CONTINUOUS
 62
     7
 10
160.4420907994162
 20
210.9242286622867
  0
VERTEX
  8
1
  6
CONTINUOUS
 62
     7
 10
160.3958883699488
 20
211.0106687576191
  0
VERTEX
  8
1
  6
CONTINUOUS
 62
     7
 10
160.3337101159666
 20
211.0864335916195
  0
VERTEX
  8
1
  6
CONTINUOUS
 62
     7
 10
160.2579452819663
 20
211.1486118456016
  0
VERTEX
  8
1
  6
CONTINUOUS
 62
     7
 10
160.1715051866339
 20
211.194814275069
  0
VERTEX
  8
1
  6
CONTINUOUS
 62
     7
 10
160.077711353313
 20
211.2232655181664
  0
VERTEX
  8
1
  6
CONTINUOUS
 62
     7
 10
159.980167878062
 20
211.2328723152469
  0
SEQEND
  8
1
  6
CONTINUOUS
 62
     7
  0
POLYLINE
  8
1
  6
CONTINUOUS
 62
     7
 66
     1
  0
VERTEX
  8
1
  6
CONTINUOUS
 62
     7
 10
40.48014883959402
 20
91.73287231524691
  0
VERTEX
  8
1
  6
CONTINUOUS
 62
     7
 10
40.48975656522516
 20
91.63532715423884
  0
VERTEX
  8
1
  6
CONTINUOUS
 62
     7
 10
40.51821052261064
 20
91.54153059906436
  0
VERTEX
  8
1
  6
CONTINUOUS
 62
     7
 10
40.5644172421253
 20
91.4550871987371
  0
VERTEX
  8
1
  6
CONTINUOUS
 62
     7
 10
40.62660102545123
 20
91.37931892465363
  0
VERTEX
  8
1
  6
CONTINUOUS
 62
     7
 10
40.70237218466827
 20
91.31713750909563
  0
VERTEX
  8
1
  6
CONTINUOUS
 62
     7
 10
40.78881887662067
 20
91.27093254899127
  0
VERTEX
  8
1
  6
CONTINUOUS
 62
     7
 10
40.88261900341656
 20
91.24247967504529
  0
VERTEX
  8
1
  6
CONTINUOUS
 62
     7
 10
40.98016787878689
 20
91.23287231524691
  0
SEQEND
  8
1
  6
CONTINUOUS
 62
     7
  0
POLYLINE
  8
1
  6
CONTINUOUS
 62
     7
 66
     1
  0
VERTEX
  8
1
  6
CONTINUOUS
 62
     7
 10
160.480148839594
 20
210.7328913537148
  0
VERTEX
  8
1
  6
CONTINUOUS
 62
     7
 10
160.4705420425136
 20
210.8304348289659
  0
VERTEX
  8
1
  6
CONTINUOUS
 62
     7
 10
160.4420907994161
 20
210.9242286622867
  0
VERTEX
  8
1
  6
CONTINUOUS
 62
     7
 10
160.3958883699488
 20
211.0106687576192
  0
VERTEX
  8
1
  6
CONTINUOUS
 62
     7
 10
160.3337101159666
 20
211.0864335916195
  0
VERTEX
  8
1
  6
CONTINUOUS
 62
     7
 10
160.2579452819663
 20
211.1486118456017
  0
VERTEX
  8
1
  6
CONTINUOUS
 62
     7
 10
160.1715051866339
 20
211.194814275069
  0
VERTEX
  8
1
  6
CONTINUOUS
 62
     7
 10
160.077711353313
 20
211.2232655181664
  0
VERTEX
  8
1
  6
CONTINUOUS
 62
     7
 10
159.9801678780619
 20
211.2328723152469
  0
SEQEND
  8
1
  6
CONTINUOUS
 62
     7
  0
POLYLINE
  8
1
  6
CONTINUOUS
 62
     7
 66
     1
  0
VERTEX
  8
1
  6
CONTINUOUS
 62
     7
 10
40.98012980112611
 20
211.2328723152469
  0
VERTEX
  8
1
  6
CONTINUOUS
 62
     7
 10
40.88258632587505
 20
211.2232655181664
  0
VERTEX
  8
1
  6
CONTINUOUS
 62
     7
 10
40.78879249255417
 20
211.194814275069
  0
VERTEX
  8
1
  6
CONTINUOUS
 62
     7
 10
40.70235239722175
 20
211.1486118456017
  0
VERTEX
  8
1
  6
CONTINUOUS
 62
     7
 10
40.62658756322145
 20
211.0864335916195
  0
VERTEX
  8
1
  6
CONTINUOUS
 62
     7
 10
40.56440930923925
 20
211.0106687576192
  0
VERTEX
  8
1
  6
CONTINUOUS
 62
     7
 10
40.51820687977188
 20
210.9242286622867
  0
VERTEX
  8
1
  6
CONTINUOUS
 62
     7
 10
40.48975563667449
 20
210.8304348289658
  0
VERTEX
  8
1
  6
CONTINUOUS
 62
     7
 10
40.48014883959403
 20
210.7328913537148
  0
SEQEND
  8
1
  6
CONTINUOUS
 62
     7
  0
POLYLINE
  8
1
  6
CONTINUOUS
 62
     7
 66
     1
  0
VERTEX
  8
1
  6
CONTINUOUS
 62
     7
 10
159.9801298004011
 20
91.23287231524691
  0
VERTEX
  8
1
  6
CONTINUOUS
 62
     7
 10
160.0969346196163
 20
91.24670601326427
  0
VERTEX
  8
1
  6
CONTINUOUS
 62
     7
 10
160.2072760684474
 20
91.28744162251303
  0
SEQEND
  8
1
  6
CONTINUOUS
 62
     7
  0
POLYLINE
  8
1
  6
CONTINUOUS
 62
     7
 66
     1
  0
VERTEX
  8
1
  6
CONTINUOUS
 62
     7
 10
160.2072760684474
 20
91.28744162251303
  0
VERTEX
  8
1
  6
CONTINUOUS
 62
     7
 10
160.3040725718787
 20
91.35199297456239
  0
VERTEX
  8
1
  6
CONTINUOUS
 62
     7
 10
160.3833298721381
 20
91.43716624112396
  0
SEQEND
  8
1
  6
CONTINUOUS
 62
     7
  0
POLYLINE
  8
1
  6
CONTINUOUS
 62
     7
 66
     1
  0
VERTEX
  8
1
  6
CONTINUOUS
 62
     7
 10
160.3833424572802
 20
91.43716047570345
  0
VERTEX
  8
1
  6
CONTINUOUS
 62
     7
 10
160.4363148547648
 20
91.52812695043774
  0
VERTEX
  8
1
  6
CONTINUOUS
 62
     7
 10
160.4690675531532
 20
91.62816929163222
  0
VERTEX
  8
1
  6
CONTINUOUS
 62
     7
 10
160.4801488395941
 20
91.73285327677897
  0
SEQEND
  8
1
  6
CONTINUOUS
 62
     7
  0
POLYLINE
  8
1
  6
CONTINUOUS
 62
     7
 66
     1
  0
VERTEX
  8
1
  6
CONTINUOUS
 62
     7
 10
40.48014883959404
 20
91.73285327677898
  0
VERTEX
  8
1
  6
CONTINUOUS
 62
     7
 10
40.4897556366745
 20
91.63530980152794
  0
VERTEX
  8
1
  6
CONTINUOUS
 62
     7
 10
40.51820687977189
 20
91.54151596820705
  0
VERTEX
  8
1
  6
CONTINUOUS
 62
     7
 10
40.56440930923926
 20
91.45507587287463
  0
VERTEX
  8
1
  6
CONTINUOUS
 62
     7
 10
40.62658756322146
 20
91.37931103887433
  0
VERTEX
  8
1
  6
CONTINUOUS
 62
     7
 10
40.70235239722176
 20
91.31713278489212
  0
VERTEX
  8
1
  6
CONTINUOUS
 62
     7
 10
40.78879249255418
 20
91.27093035542475
  0
VERTEX
  8
1
  6
CONTINUOUS
 62
     7
 10
40.88258632587507
 20
91.24247911232737
  0
VERTEX
  8
1
  6
CONTINUOUS
 62
     7
 10
40.98012980112612
 20
91.23287231524691
  0
SEQEND
  8
1
  6
CONTINUOUS
 62
     7
  0
POLYLINE
  8
1
  6
CONTINUOUS
 62
     7
 66
     1
  0
VERTEX
  8
1
  6
CONTINUOUS
 62
     7
 10
40.98012980112613
 20
211.2328723152469
  0
VERTEX
  8
1
  6
CONTINUOUS
 62
     7
 10
40.88258632587507
 20
211.2232655181665
  0
VERTEX
  8
1
  6
CONTINUOUS
 62
     7
 10
40.78879249255419
 20
211.1948142750691
  0
VERTEX
  8
1
  6
CONTINUOUS
 62
     7
 10
40.70235239722177
 20
211.1486118456017
  0
VERTEX
  8
1
  6
CONTINUOUS
 62
     7
 10
40.62658756322146
 20
211.0864335916195
  0
VERTEX
  8
1
  6
CONTINUOUS
 62
     7
 10
40.56440930923926
 20
211.0106687576192
  0
VERTEX
  8
1
  6
CONTINUOUS
 62
     7
 10
40.51820687977188
 20
210.9242286622868
  0
VERTEX
  8
1
  6
CONTINUOUS
 62
     7
 10
40.4897556366745
 20
210.8304348289659
  0
VERTEX
  8
1
  6
CONTINUOUS
 62
     7
 10
40.48014883959403
 20
210.7328913537148
  0
SEQEND
  8
1
  6
CONTINUOUS
 62
     7
  0
POLYLINE
  8
1
  6
CONTINUOUS
 62
     7
 66
     1
  0
VERTEX
  8
1
  6
CONTINUOUS
 62
     7
 10
160.2072755405889
 20
91.28742613484805
  0
VERTEX
  8
1
  6
CONTINUOUS
 62
     7
 10
160.3040804514063
 20
91.35197954348726
  0
VERTEX
  8
1
  6
CONTINUOUS
 62
     7
 10
160.3833424572802
 20
91.43716047570345
  0
SEQEND
  8
1
  6
CONTINUOUS
 62
     7
  0
POLYLINE
  8
1
  6
CONTINUOUS
 62
     7
 66
     1
  0
VERTEX
  8
1
  6
CONTINUOUS
 62
     7
 10
159.9801678780619
 20
91.23287231524687
  0
VERTEX
  8
1
  6
CONTINUOUS
 62
     7
 10
160.0969528435437
 20
91.24670202370045
  0
VERTEX
  8
1
  6
CONTINUOUS
 62
     7
 10
160.2072755405889
 20
91.28742613484805
  0
SEQEND
  8
1
  6
CONTINUOUS
 62
     7
  0
POLYLINE
  8
1
  6
CONTINUOUS
 62
     7
 66
     1
  0
VERTEX
  8
1
  6
CONTINUOUS
 62
     7
 10
160.3833298721381
 20
91.43716624112396
  0
VERTEX
  8
1
  6
CONTINUOUS
 62
     7
 10
160.4363090458208
 20
91.5281375030397
  0
VERTEX
  8
1
  6
CONTINUOUS
 62
     7
 10
160.4690660680014
 20
91.62818453600768
  0
VERTEX
  8
1
  6
CONTINUOUS
 62
     7
 10
160.480148839594
 20
91.73287231524691
  0
SEQEND
  8
1
  6
CONTINUOUS
 62
     7
  0
TEXT
  8
1
  6
CONTINUOUS
 62
     7
 10
181.6529496941507
 20
-1.852180232769968
 40
3.0
  1
PVK-DAU
  0
LINE
  8
1
  6
CONTINUOUS
 62
     7
 10
52.46514883959403
 20
197.7178723152469
 11
52.48571577458338
 21
197.717447502837
  0
LINE
  8
1
  6
CONTINUOUS
 62
     7
 10
52.48571577458338
 20
197.717447502837
 11
52.50627746621809
 21
197.7161749674252
  0
LINE
  8
1
  6
CONTINUOUS
 62
     7
 10
52.50627746621809
 20
197.7161749674252
 11
52.5267813789768
 21
197.7140575617383
  0
LINE
  8
1
  6
CONTINUOUS
 62
     7
 10
52.5267813789768
 20
197.7140575617383
 11
52.54717497733817
 21
197.7110981385035
  0
LINE
  8
1
  6
CONTINUOUS
 62
     7
 10
52.54717497733817
 20
197.7110981385035
 11
52.56802146874993
 21
197.7071731868456
  0
LINE
  8
1
  6
CONTINUOUS
 62
     7
 10
52.56802146874993
 20
197.7071731868456
 11
52.58871313907218
 21
197.7023602131978
  0
LINE
  8
1
  6
CONTINUOUS
 62
     7
 10
52.58871313907218
 20
197.7023602131978
 11
52.60919326252511
 21
197.6966721971666
  0
LINE
  8
1
  6
CONTINUOUS
 62
     7
 10
52.60919326252511
 20
197.6966721971666
 11
52.62940511332895
 21
197.6901221183583
  0
LINE
  8
1
  6
CONTINUOUS
 62
     7
 10
52.62940511332895
 20
197.6901221183583
 11
52.64877745103421
 21
197.6829301795295
  0
LINE
  8
1
  6
CONTINUOUS
 62
     7
 10
52.64877745103421
 20
197.6829301795295
 11
52.66786097215787
 21
197.6749332965247
  0
LINE
  8
1
  6
CONTINUOUS
 62
     7
 10
52.66786097215787
 20
197.6749332965247
 11
52.68660576297346
 21
197.6661524915213
  0
LINE
  8
1
  6
CONTINUOUS
 62
     7
 10
52.68660576297346
 20
197.6661524915213
 11
52.70496190975456
 21
197.6566087866969
  0
LINE
  8
1
  6
CONTINUOUS
 62
     7
 10
52.70496190975456
 20
197.6566087866969
 11
52.72343449368387
 21
197.6459921160992
  0
LINE
  8
1
  6
CONTINUOUS
 62
     7
 10
52.72343449368387
 20
197.6459921160992
 11
52.74145992981067
 21
197.6345840879152
  0
LINE
  8
1
  6
CONTINUOUS
 62
     7
 10
52.74145992981067
 20
197.6345840879152
 11
52.75898817169999
 21
197.6224171097492
  0
LINE
  8
1
  6
CONTINUOUS
 62
     7
 10
52.75898817169999
 20
197.6224171097492
 11
52.7759691729168
 21
197.6095235892052
  0
LINE
  8
1
  6
CONTINUOUS
 62
     7
 10
52.7759691729168
 20
197.6095235892052
 11
52.79180169132916
 21
197.5964171800357
  0
LINE
  8
1
  6
CONTINUOUS
 62
     7
 10
52.79180169132916
 20
197.5964171800357
 11
52.80709679881693
 21
197.5826579648468
  0
LINE
  8
1
  6
CONTINUOUS
 62
     7
 10
52.80709679881693
 20
197.5826579648468
 11
52.82181532872418
 21
197.5682825260787
  0
LINE
  8
1
  6
CONTINUOUS
 62
     7
 10
52.82181532872418
 20
197.5682825260787
 11
52.83591811439503
 21
197.5533274461715
  0
LINE
  8
1
  6
CONTINUOUS
 62
     7
 10
52.83591811439503
 20
197.5533274461715
 11
52.84977525367268
 21
197.5373415936947
  0
LINE
  8
1
  6
CONTINUOUS
 62
     7
 10
52.84977525367268
 20
197.5373415936947
 11
52.8629544597157
 21
197.5207704924397
  0
LINE
  8
1
  6
CONTINUOUS
 62
     7
 10
52.8629544597157
 20
197.5207704924397
 11
52.87542073777461
 21
197.503660816199
  0
LINE
  8
1
  6
CONTINUOUS
 62
     7
 10
52.87542073777461
 20
197.503660816199
 11
52.8871390930999
 21
197.4860592387649
  0
LINE
  8
1
  6
CONTINUOUS
 62
     7
 10
52.8871390930999
 20
197.4860592387649
 11
52.89776257961206
 21
197.4685587716836
  0
LINE
  8
1
  6
CONTINUOUS
 62
     7
 10
52.89776257961206
 20
197.4685587716836
 11
52.90766646340035
 21
197.4506280083864
  0
LINE
  8
1
  6
CONTINUOUS
 62
     7
 10
52.90766646340035
 20
197.4506280083864
 11
52.91682699211945
 21
197.4323138993645
  0
LINE
  8
1
  6
CONTINUOUS
 62
     7
 10
52.91682699211945
 20
197.4323138993645
 11
52.92522041342401
 21
197.4136633951091
  0
LINE
  8
1
  6
CONTINUOUS
 62
     7
 10
52.92522041342401
 20
197.4136633951091
 11
52.93304525636236
 21
197.3941423596564
  0
LINE
  8
1
  6
CONTINUOUS
 62
     7
 10
52.93304525636236
 20
197.3941423596564
 11
52.94004557506948
 21
197.3743007708811
  0
LINE
  8
1
  6
CONTINUOUS
 62
     7
 10
52.94004557506948
 20
197.3743007708811
 11
52.94620487315802
 21
197.3541928062932
  0
LINE
  8
1
  6
CONTINUOUS
 62
     7
 10
52.94620487315802
 20
197.3541928062932
 11
52.95150665424056
 21
197.3338726434027
  0
LINE
  8
1
  6
CONTINUOUS
 62
     7
 10
52.95150665424056
 20
197.3338726434027
 11
52.95639942438889
 21
197.3109744965654
  0
LINE
  8
1
  6
CONTINUOUS
 62
     7
 10
52.95639942438889
 20
197.3109744965654
 11
52.96021693421551
 21
197.2878484366041
  0
LINE
  8
1
  6
CONTINUOUS
 62
     7
 10
52.96021693421551
 20
197.2878484366041
 11
52.96295227750329
 21
197.2645714172458
  0
LINE
  8
1
  6
CONTINUOUS
 62
     7
 10
52.96295227750329
 20
197.2645714172458
 11
52.96459854803516
 21
197.2412203922177
  0
LINE
  8
1
  6
CONTINUOUS
 62
     7
 10
52.96459854803516
 20
197.2412203922177
 11
52.96514883959403
 21
197.2178723152469
  0
LINE
  8
1
  6
CONTINUOUS
 62
     7
 10
146.465148839594
 20
197.7178723152469
 11
146.4857157745834
 21
197.717447502837
  0
LINE
  8
1
  6
CONTINUOUS
 62
     7
 10
146.4857157745834
 20
197.717447502837
 11
146.5062774662181
 21
197.7161749674251
  0
LINE
  8
1
  6
CONTINUOUS
 62
     7
 10
146.5062774662181
 20
197.7161749674251
 11
146.5267813789768
 21
197.7140575617383
  0
LINE
  8
1
  6
CONTINUOUS
 62
     7
 10
146.5267813789768
 20
197.7140575617383
 11
146.5471749773382
 21
197.7110981385034
  0
LINE
  8
1
  6
CONTINUOUS
 62
     7
 10
146.5471749773382
 20
197.7110981385034
 11
146.5680214687499
 21
197.7071731868456
  0
LINE
  8
1
  6
CONTINUOUS
 62
     7
 10
146.5680214687499
 20
197.7071731868456
 11
146.5887131390722
 21
197.7023602131978
  0
LINE
  8
1
  6
CONTINUOUS
 62
     7
 10
146.5887131390722
 20
197.7023602131978
 11
146.6091932625251
 21
197.6966721971665
  0
LINE
  8
1
  6
CONTINUOUS
 62
     7
 10
146.6091932625251
 20
197.6966721971665
 11
146.6294051133289
 21
197.6901221183583
  0
LINE
  8
1
  6
CONTINUOUS
 62
     7
 10
146.6294051133289
 20
197.6901221183583
 11
146.6487774510342
 21
197.6829301795294
  0
LINE
  8
1
  6
CONTINUOUS
 62
     7
 10
146.6487774510342
 20
197.6829301795294
 11
146.6678609721579
 21
197.6749332965246
  0
LINE
  8
1
  6
CONTINUOUS
 62
     7
 10
146.6678609721579
 20
197.6749332965246
 11
146.6866057629735
 21
197.6661524915213
  0
LINE
  8
1
  6
CONTINUOUS
 62
     7
 10
146.6866057629735
 20
197.6661524915213
 11
146.7049619097546
 21
197.6566087866969
  0
LINE
  8
1
  6
CONTINUOUS
 62
     7
 10
146.7049619097546
 20
197.6566087866969
 11
146.7234344936839
 21
197.6459921160991
  0
LINE
  8
1
  6
CONTINUOUS
 62
     7
 10
146.7234344936839
 20
197.6459921160991
 11
146.7414599298107
 21
197.6345840879152
  0
LINE
  8
1
  6
CONTINUOUS
 62
     7
 10
146.7414599298107
 20
197.6345840879152
 11
146.7589881717
 21
197.6224171097492
  0
LINE
  8
1
  6
CONTINUOUS
 62
     7
 10
146.7589881717
 20
197.6224171097492
 11
146.7759691729168
 21
197.6095235892051
  0
LINE
  8
1
  6
CONTINUOUS
 62
     7
 10
146.7759691729168
 20
197.6095235892051
 11
146.7918016913292
 21
197.5964171800356
  0
LINE
  8
1
  6
CONTINUOUS
 62
     7
 10
146.7918016913292
 20
197.5964171800356
 11
146.8070967988169
 21
197.5826579648468
  0
LINE
  8
1
  6
CONTINUOUS
 62
     7
 10
146.8070967988169
 20
197.5826579648468
 11
146.8218153287242
 21
197.5682825260787
  0
LINE
  8
1
  6
CONTINUOUS
 62
     7
 10
146.8218153287242
 20
197.5682825260787
 11
146.835918114395
 21
197.5533274461714
  0
LINE
  8
1
  6
CONTINUOUS
 62
     7
 10
146.835918114395
 20
197.5533274461714
 11
146.8497752536727
 21
197.5373415936947
  0
LINE
  8
1
  6
CONTINUOUS
 62
     7
 10
146.8497752536727
 20
197.5373415936947
 11
146.8629544597157
 21
197.5207704924397
  0
LINE
  8
1
  6
CONTINUOUS
 62
     7
 10
146.8629544597157
 20
197.5207704924397
 11
146.8754207377746
 21
197.5036608161989
  0
LINE
  8
1
  6
CONTINUOUS
 62
     7
 10
146.8754207377746
 20
197.5036608161989
 11
146.8871390930999
 21
197.4860592387649
  0
LINE
  8
1
  6
CONTINUOUS
 62
     7
 10
146.8871390930999
 20
197.4860592387649
 11
146.8977625796121
 21
197.4685587716836
  0
LINE
  8
1
  6
CONTINUOUS
 62
     7
 10
146.8977625796121
 20
197.4685587716836
 11
146.9076664634004
 21
197.4506280083864
  0
LINE
  8
1
  6
CONTINUOUS
 62
     7
 10
146.9076664634004
 20
197.4506280083864
 11
146.9168269921194
 21
197.4323138993645
  0
LINE
  8
1
  6
CONTINUOUS
 62
     7
 10
146.9168269921194
 20
197.4323138993645
 11
146.925220413424
 21
197.4136633951091
  0
LINE
  8
1
  6
CONTINUOUS
 62
     7
 10
146.925220413424
 20
197.4136633951091
 11
146.9330452563624
 21
197.3941423596563
  0
LINE
  8
1
  6
CONTINUOUS
 62
     7
 10
146.9330452563624
 20
197.3941423596563
 11
146.9400455750695
 21
197.3743007708811
  0
LINE
  8
1
  6
CONTINUOUS
 62
     7
 10
146.9400455750695
 20
197.3743007708811
 11
146.946204873158
 21
197.3541928062932
  0
LINE
  8
1
  6
CONTINUOUS
 62
     7
 10
146.946204873158
 20
197.3541928062932
 11
146.9515066542405
 21
197.3338726434027
  0
LINE
  8
1
  6
CONTINUOUS
 62
     7
 10
146.9515066542405
 20
197.3338726434027
 11
146.9563994243889
 21
197.3109744965654
  0
LINE
  8
1
  6
CONTINUOUS
 62
     7
 10
146.9563994243889
 20
197.3109744965654
 11
146.9602169342155
 21
197.2878484366041
  0
LINE
  8
1
  6
CONTINUOUS
 62
     7
 10
146.9602169342155
 20
197.2878484366041
 11
146.9629522775033
 21
197.2645714172458
  0
LINE
  8
1
  6
CONTINUOUS
 62
     7
 10
146.9629522775033
 20
197.2645714172458
 11
146.9645985480352
 21
197.2412203922177
  0
LINE
  8
1
  6
CONTINUOUS
 62
     7
 10
146.9645985480352
 20
197.2412203922177
 11
146.965148839594
 21
197.2178723152469
  0
LINE
  8
1
  6
CONTINUOUS
 62
     7
 10
54.49514883959403
 20
198.7478723152469
 11
54.47628744804236
 21
198.748228705177
  0
LINE
  8
1
  6
CONTINUOUS
 62
     7
 10
54.47628744804236
 20
198.748228705177
 11
54.45743598561776
 21
198.7492971152091
  0
LINE
  8
1
  6
CONTINUOUS
 62
     7
 10
54.45743598561776
 20
198.7492971152091
 11
54.43863490977918
 21
198.7510764057057
  0
LINE
  8
1
  6
CONTINUOUS
 62
     7
 10
54.43863490977918
 20
198.7510764057057
 11
54.41536219906689
 21
198.754279586649
  0
LINE
  8
1
  6
CONTINUOUS
 62
     7
 10
54.41536219906689
 20
198.754279586649
 11
54.39225078147739
 21
198.7585748702957
  0
LINE
  8
1
  6
CONTINUOUS
 62
     7
 10
54.39225078147739
 20
198.7585748702957
 11
54.37161397917337
 21
198.7633736763399
  0
LINE
  8
1
  6
CONTINUOUS
 62
     7
 10
54.37161397917337
 20
198.7633736763399
 11
54.35118803847322
 21
198.7690453237973
  0
LINE
  8
1
  6
CONTINUOUS
 62
     7
 10
54.35118803847322
 20
198.7690453237973
 11
54.33089256585912
 21
198.7756225121356
  0
LINE
  8
1
  6
CONTINUOUS
 62
     7
 10
54.33089256585912
 20
198.7756225121356
 11
54.3131153941881
 21
198.7821864906818
  0
LINE
  8
1
  6
CONTINUOUS
 62
     7
 10
54.3131153941881
 20
198.7821864906818
 11
54.29558617709728
 21
198.7894247104107
  0
LINE
  8
1
  6
CONTINUOUS
 62
     7
 10
54.29558617709728
 20
198.7894247104107
 11
54.2783437673201
 21
198.797322028779
  0
LINE
  8
1
  6
CONTINUOUS
 62
     7
 10
54.2783437673201
 20
198.797322028779
 11
54.25733074777362
 21
198.8080516356229
  0
LINE
  8
1
  6
CONTINUOUS
 62
     7
 10
54.25733074777362
 20
198.8080516356229
 11
54.23683945571224
 21
198.8197645458727
  0
LINE
  8
1
  6
CONTINUOUS
 62
     7
 10
54.23683945571224
 20
198.8197645458727
 11
54.21886239757997
 21
198.8311402836277
  0
LINE
  8
1
  6
CONTINUOUS
 62
     7
 10
54.21886239757997
 20
198.8311402836277
 11
54.20138116439097
 21
198.843273065364
  0
LINE
  8
1
  6
CONTINUOUS
 62
     7
 10
54.20138116439097
 20
198.843273065364
 11
54.18432850627126
 21
198.8562210412886
  0
LINE
  8
1
  6
CONTINUOUS
 62
     7
 10
54.18432850627126
 20
198.8562210412886
 11
54.16978794724759
 21
198.8682148963609
  0
LINE
  8
1
  6
CONTINUOUS
 62
     7
 10
54.16978794724759
 20
198.8682148963609
 11
54.15570321016096
 21
198.8807536277993
  0
LINE
  8
1
  6
CONTINUOUS
 62
     7
 10
54.15570321016096
 20
198.8807536277993
 11
54.14210525153661
 21
198.8938098561644
  0
LINE
  8
1
  6
CONTINUOUS
 62
     7
 10
54.14210525153661
 20
198.8938098561644
 11
54.12589859273717
 21
198.9107463210755
  0
LINE
  8
1
  6
CONTINUOUS
 62
     7
 10
54.12589859273717
 20
198.9107463210755
 11
54.11050399217975
 21
198.9284222544273
  0
LINE
  8
1
  6
CONTINUOUS
 62
     7
 10
54.11050399217975
 20
198.9284222544273
 11
54.097359274433
 21
198.9449478162863
  0
LINE
  8
1
  6
CONTINUOUS
 62
     7
 10
54.097359274433
 20
198.9449478162863
 11
54.08492563723085
 21
198.9620105930054
  0
LINE
  8
1
  6
CONTINUOUS
 62
     7
 10
54.08492563723085
 20
198.9620105930054
 11
54.07315858608816
 21
198.9796853917289
  0
LINE
  8
1
  6
CONTINUOUS
 62
     7
 10
54.07315858608816
 20
198.9796853917289
 11
54.06247953764428
 21
198.997281839334
  0
LINE
  8
1
  6
CONTINUOUS
 62
     7
 10
54.06247953764428
 20
198.997281839334
 11
54.05252796092597
 21
199.0153131749755
  0
LINE
  8
1
  6
CONTINUOUS
 62
     7
 10
54.05252796092597
 20
199.0153131749755
 11
54.04332797353922
 21
199.033731671252
  0
LINE
  8
1
  6
CONTINUOUS
 62
     7
 10
54.04332797353922
 20
199.033731671252
 11
54.03490369308998
 21
199.0524896007621
  0
LINE
  8
1
  6
CONTINUOUS
 62
     7
 10
54.03490369308998
 20
199.0524896007621
 11
54.02713516617283
 21
199.0719137266584
  0
LINE
  8
1
  6
CONTINUOUS
 62
     7
 10
54.02713516617283
 20
199.0719137266584
 11
54.02018273776116
 21
199.0916543876843
  0
LINE
  8
1
  6
CONTINUOUS
 62
     7
 10
54.02018273776116
 20
199.0916543876843
 11
54.01406261997828
 21
199.1116582518313
  0
LINE
  8
1
  6
CONTINUOUS
 62
     7
 10
54.01406261997828
 20
199.1116582518313
 11
54.0087910249475
 21
199.1318719870911
  0
LINE
  8
1
  6
CONTINUOUS
 62
     7
 10
54.0087910249475
 20
199.1318719870911
 11
54.00562126682453
 21
199.146074919951
  0
LINE
  8
1
  6
CONTINUOUS
 62
     7
 10
54.00562126682453
 20
199.146074919951
 11
54.00286706754154
 21
199.1603585625856
  0
LINE
  8
1
  6
CONTINUOUS
 62
     7
 10
54.00286706754154
 20
199.1603585625856
 11
53.99982718768639
 21
199.1796383450738
  0
LINE
  8
1
  6
CONTINUOUS
 62
     7
 10
53.99982718768639
 20
199.1796383450738
 11
53.99754180075887
 21
199.1990189824841
  0
LINE
  8
1
  6
CONTINUOUS
 62
     7
 10
53.99754180075887
 20
199.1990189824841
 11
53.99601491961649
 21
199.2184558245001
  0
LINE
  8
1
  6
CONTINUOUS
 62
     7
 10
53.99601491961649
 20
199.2184558245001
 11
53.99536536192603
 21
199.2331608088182
  0
LINE
  8
1
  6
CONTINUOUS
 62
     7
 10
53.99536536192603
 20
199.2331608088182
 11
53.99514883959403
 21
199.2478723152469
  0
LINE
  8
1
  6
CONTINUOUS
 62
     7
 10
146.965148839594
 20
199.2478723152469
 11
146.9647240271841
 21
199.2273053802575
  0
LINE
  8
1
  6
CONTINUOUS
 62
     7
 10
146.9647240271841
 20
199.2273053802575
 11
146.9634514917722
 21
199.2067436886229
  0
LINE
  8
1
  6
CONTINUOUS
 62
     7
 10
146.9634514917722
 20
199.2067436886229
 11
146.9613340860855
 21
199.1862397758641
  0
LINE
  8
1
  6
CONTINUOUS
 62
     7
 10
146.9613340860855
 20
199.1862397758641
 11
146.9583746628506
 21
199.1658461775028
  0
LINE
  8
1
  6
CONTINUOUS
 62
     7
 10
146.9583746628506
 20
199.1658461775028
 11
146.9544497111927
 21
199.144999686091
  0
LINE
  8
1
  6
CONTINUOUS
 62
     7
 10
146.9544497111927
 20
199.144999686091
 11
146.9496367375449
 21
199.1243080157687
  0
LINE
  8
1
  6
CONTINUOUS
 62
     7
 10
146.9496367375449
 20
199.1243080157687
 11
146.9439487215137
 21
199.1038278923158
  0
LINE
  8
1
  6
CONTINUOUS
 62
     7
 10
146.9439487215137
 20
199.1038278923158
 11
146.9373986427054
 21
199.083616041512
  0
LINE
  8
1
  6
CONTINUOUS
 62
     7
 10
146.9373986427054
 20
199.083616041512
 11
146.9302067038766
 21
199.0642437038067
  0
LINE
  8
1
  6
CONTINUOUS
 62
     7
 10
146.9302067038766
 20
199.0642437038067
 11
146.9222098208718
 21
199.045160182683
  0
LINE
  8
1
  6
CONTINUOUS
 62
     7
 10
146.9222098208718
 20
199.045160182683
 11
146.9134290158684
 21
199.0264153918675
  0
LINE
  8
1
  6
CONTINUOUS
 62
     7
 10
146.9134290158684
 20
199.0264153918675
 11
146.903885311044
 21
199.0080592450863
  0
LINE
  8
1
  6
CONTINUOUS
 62
     7
 10
146.903885311044
 20
199.0080592450863
 11
146.8932686404463
 21
198.9895866611571
  0
LINE
  8
1
  6
CONTINUOUS
 62
     7
 10
146.8932686404463
 20
198.9895866611571
 11
146.8818606122624
 21
198.9715612250302
  0
LINE
  8
1
  6
CONTINUOUS
 62
     7
 10
146.8818606122624
 20
198.9715612250302
 11
146.8696936340964
 21
198.9540329831409
  0
LINE
  8
1
  6
CONTINUOUS
 62
     7
 10
146.8696936340964
 20
198.9540329831409
 11
146.8568001135523
 21
198.9370519819241
  0
LINE
  8
1
  6
CONTINUOUS
 62
     7
 10
146.8568001135523
 20
198.9370519819241
 11
146.8436937043828
 21
198.9212194635118
  0
LINE
  8
1
  6
CONTINUOUS
 62
     7
 10
146.8436937043828
 20
198.9212194635118
 11
146.829934489194
 21
198.905924356024
  0
LINE
  8
1
  6
CONTINUOUS
 62
     7
 10
146.829934489194
 20
198.905924356024
 11
146.8155590504259
 21
198.8912058261167
  0
LINE
  8
1
  6
CONTINUOUS
 62
     7
 10
146.8155590504259
 20
198.8912058261167
 11
146.8006039705186
 21
198.8771030404459
  0
LINE
  8
1
  6
CONTINUOUS
 62
     7
 10
146.8006039705186
 20
198.8771030404459
 11
146.7846181180419
 21
198.8632459011682
  0
LINE
  8
1
  6
CONTINUOUS
 62
     7
 10
146.7846181180419
 20
198.8632459011682
 11
146.7680470167868
 21
198.8500666951252
  0
LINE
  8
1
  6
CONTINUOUS
 62
     7
 10
146.7680470167868
 20
198.8500666951252
 11
146.750937340546
 21
198.8376004170663
  0
LINE
  8
1
  6
CONTINUOUS
 62
     7
 10
146.750937340546
 20
198.8376004170663
 11
146.733335763112
 21
198.825882061741
  0
LINE
  8
1
  6
CONTINUOUS
 62
     7
 10
146.733335763112
 20
198.825882061741
 11
146.7158352960307
 21
198.8152585752289
  0
LINE
  8
1
  6
CONTINUOUS
 62
     7
 10
146.7158352960307
 20
198.8152585752289
 11
146.6979045327335
 21
198.8053546914406
  0
LINE
  8
1
  6
CONTINUOUS
 62
     7
 10
146.6979045327335
 20
198.8053546914406
 11
146.6795904237116
 21
198.7961941627215
  0
LINE
  8
1
  6
CONTINUOUS
 62
     7
 10
146.6795904237116
 20
198.7961941627215
 11
146.6609399194562
 21
198.7878007414169
  0
LINE
  8
1
  6
CONTINUOUS
 62
     7
 10
146.6609399194562
 20
198.7878007414169
 11
146.6414188840035
 21
198.7799758984786
  0
LINE
  8
1
  6
CONTINUOUS
 62
     7
 10
146.6414188840035
 20
198.7799758984786
 11
146.6215772952282
 21
198.7729755797714
  0
LINE
  8
1
  6
CONTINUOUS
 62
     7
 10
146.6215772952282
 20
198.7729755797714
 11
146.6014693306404
 21
198.7668162816829
  0
LINE
  8
1
  6
CONTINUOUS
 62
     7
 10
146.6014693306404
 20
198.7668162816829
 11
146.5811491677498
 21
198.7615145006004
  0
LINE
  8
1
  6
CONTINUOUS
 62
     7
 10
146.5811491677498
 20
198.7615145006004
 11
146.5582510209126
 21
198.756621730452
  0
LINE
  8
1
  6
CONTINUOUS
 62
     7
 10
146.5582510209126
 20
198.756621730452
 11
146.5351249609512
 21
198.7528042206254
  0
LINE
  8
1
  6
CONTINUOUS
 62
     7
 10
146.5351249609512
 20
198.7528042206254
 11
146.5118479415929
 21
198.7500688773376
  0
LINE
  8
1
  6
CONTINUOUS
 62
     7
 10
146.5118479415929
 20
198.7500688773376
 11
146.4884969165648
 21
198.7484226068057
  0
LINE
  8
1
  6
CONTINUOUS
 62
     7
 10
146.4884969165648
 20
198.7484226068057
 11
146.465148839594
 21
198.7478723152469
  0
LINE
  8
1
  6
CONTINUOUS
 62
     7
 10
53.995148839594
 20
103.2178723152469
 11
53.99557365200393
 21
103.2384392502363
  0
LINE
  8
1
  6
CONTINUOUS
 62
     7
 10
53.99557365200393
 20
103.2384392502363
 11
53.99684618741578
 21
103.259000941871
  0
LINE
  8
1
  6
CONTINUOUS
 62
     7
 10
53.99684618741578
 20
103.259000941871
 11
53.99896359310259
 21
103.2795048546297
  0
LINE
  8
1
  6
CONTINUOUS
 62
     7
 10
53.99896359310259
 20
103.2795048546297
 11
54.00192301633744
 21
103.299898452991
  0
LINE
  8
1
  6
CONTINUOUS
 62
     7
 10
54.00192301633744
 20
103.299898452991
 11
54.00584796799532
 21
103.3207449444028
  0
LINE
  8
1
  6
CONTINUOUS
 62
     7
 10
54.00584796799532
 20
103.3207449444028
 11
54.0106609416431
 21
103.3414366147251
  0
LINE
  8
1
  6
CONTINUOUS
 62
     7
 10
54.0106609416431
 20
103.3414366147251
 11
54.01634895767436
 21
103.361916738178
  0
LINE
  8
1
  6
CONTINUOUS
 62
     7
 10
54.01634895767436
 20
103.361916738178
 11
54.02289903648264
 21
103.3821285889818
  0
LINE
  8
1
  6
CONTINUOUS
 62
     7
 10
54.02289903648264
 20
103.3821285889818
 11
54.03009097531144
 21
103.4015009266871
  0
LINE
  8
1
  6
CONTINUOUS
 62
     7
 10
54.03009097531144
 20
103.4015009266871
 11
54.03808785831625
 21
103.4205844478107
  0
LINE
  8
1
  6
CONTINUOUS
 62
     7
 10
54.03808785831625
 20
103.4205844478107
 11
54.04686866331961
 21
103.4393292386263
  0
LINE
  8
1
  6
CONTINUOUS
 62
     7
 10
54.04686866331961
 20
103.4393292386263
 11
54.05641236814401
 21
103.4576853854074
  0
LINE
  8
1
  6
CONTINUOUS
 62
     7
 10
54.05641236814401
 20
103.4576853854074
 11
54.06702903874176
 21
103.4761579693368
  0
LINE
  8
1
  6
CONTINUOUS
 62
     7
 10
54.06702903874176
 20
103.4761579693368
 11
54.07843706692568
 21
103.4941834054636
  0
LINE
  8
1
  6
CONTINUOUS
 62
     7
 10
54.07843706692568
 20
103.4941834054636
 11
54.09060404509171
 21
103.5117116473529
  0
LINE
  8
1
  6
CONTINUOUS
 62
     7
 10
54.09060404509171
 20
103.5117116473529
 11
54.10349756563576
 21
103.5286926485697
  0
LINE
  8
1
  6
CONTINUOUS
 62
     7
 10
54.10349756563576
 20
103.5286926485697
 11
54.11660397480526
 21
103.544525166982
  0
LINE
  8
1
  6
CONTINUOUS
 62
     7
 10
54.11660397480526
 20
103.544525166982
 11
54.1303631899941
 21
103.5598202744698
  0
LINE
  8
1
  6
CONTINUOUS
 62
     7
 10
54.1303631899941
 20
103.5598202744698
 11
54.14473862876218
 21
103.5745388043771
  0
LINE
  8
1
  6
CONTINUOUS
 62
     7
 10
54.14473862876218
 20
103.5745388043771
 11
54.15969370866945
 21
103.5886415900479
  0
LINE
  8
1
  6
CONTINUOUS
 62
     7
 10
54.15969370866945
 20
103.5886415900479
 11
54.1756795611462
 21
103.6024987293256
  0
LINE
  8
1
  6
CONTINUOUS
 62
     7
 10
54.1756795611462
 20
103.6024987293256
 11
54.19225066240121
 21
103.6156779353686
  0
LINE
  8
1
  6
CONTINUOUS
 62
     7
 10
54.19225066240121
 20
103.6156779353686
 11
54.20936033864197
 21
103.6281442134275
  0
LINE
  8
1
  6
CONTINUOUS
 62
     7
 10
54.20936033864197
 20
103.6281442134275
 11
54.226961916076
 21
103.6398625687528
  0
LINE
  8
1
  6
CONTINUOUS
 62
     7
 10
54.226961916076
 20
103.6398625687528
 11
54.24446238315735
 21
103.6504860552649
  0
LINE
  8
1
  6
CONTINUOUS
 62
     7
 10
54.24446238315735
 20
103.6504860552649
 11
54.26239314645455
 21
103.6603899390532
  0
LINE
  8
1
  6
CONTINUOUS
 62
     7
 10
54.26239314645455
 20
103.6603899390532
 11
54.28070725547642
 21
103.6695504677723
  0
LINE
  8
1
  6
CONTINUOUS
 62
     7
 10
54.28070725547642
 20
103.6695504677723
 11
54.29935775973179
 21
103.6779438890769
  0
LINE
  8
1
  6
CONTINUOUS
 62
     7
 10
54.29935775973179
 20
103.6779438890769
 11
54.31887879518452
 21
103.6857687320152
  0
LINE
  8
1
  6
CONTINUOUS
 62
     7
 10
54.31887879518452
 20
103.6857687320152
 11
54.33872038395981
 21
103.6927690507224
  0
LINE
  8
1
  6
CONTINUOUS
 62
     7
 10
54.33872038395981
 20
103.6927690507224
 11
54.35882834854768
 21
103.6989283488109
  0
LINE
  8
1
  6
CONTINUOUS
 62
     7
 10
54.35882834854768
 20
103.6989283488109
 11
54.3791485114382
 21
103.7042301298934
  0
LINE
  8
1
  6
CONTINUOUS
 62
     7
 10
54.3791485114382
 20
103.7042301298934
 11
54.40204665827547
 21
103.7091229000418
  0
LINE
  8
1
  6
CONTINUOUS
 62
     7
 10
54.40204665827547
 20
103.7091229000418
 11
54.42517271823683
 21
103.7129404098684
  0
LINE
  8
1
  6
CONTINUOUS
 62
     7
 10
54.42517271823683
 20
103.7129404098684
 11
54.44844973759512
 21
103.7156757531562
  0
LINE
  8
1
  6
CONTINUOUS
 62
     7
 10
54.44844973759512
 20
103.7156757531562
 11
54.47180076262323
 21
103.717322023688
  0
LINE
  8
1
  6
CONTINUOUS
 62
     7
 10
54.47180076262323
 20
103.717322023688
 11
54.495148839594
 21
103.7178723152469
  0
LINE
  8
1
  6
CONTINUOUS
 62
     7
 10
54.495148839594
 20
104.7478723152469
 11
54.47464333389254
 21
104.7482931459817
  0
LINE
  8
1
  6
CONTINUOUS
 62
     7
 10
54.47464333389254
 20
104.7482931459817
 11
54.45416029213236
 21
104.7495552083993
  0
LINE
  8
1
  6
CONTINUOUS
 62
     7
 10
54.45416029213236
 20
104.7495552083993
 11
54.43359478043894
 21
104.7516758698251
  0
LINE
  8
1
  6
CONTINUOUS
 62
     7
 10
54.43359478043894
 20
104.7516758698251
 11
54.41312270184987
 21
104.7546464919903
  0
LINE
  8
1
  6
CONTINUOUS
 62
     7
 10
54.41312270184987
 20
104.7546464919903
 11
54.39234249806201
 21
104.7585558005799
  0
LINE
  8
1
  6
CONTINUOUS
 62
     7
 10
54.39234249806201
 20
104.7585558005799
 11
54.37173465831572
 21
104.7633427084535
  0
LINE
  8
1
  6
CONTINUOUS
 62
     7
 10
54.37173465831572
 20
104.7633427084535
 11
54.35118791179723
 21
104.7690455847181
  0
LINE
  8
1
  6
CONTINUOUS
 62
     7
 10
54.35118791179723
 20
104.7690455847181
 11
54.33089256585909
 21
104.7756225121355
  0
LINE
  8
1
  6
CONTINUOUS
 62
     7
 10
54.33089256585909
 20
104.7756225121355
 11
54.31157860958429
 21
104.7827897598004
  0
LINE
  8
1
  6
CONTINUOUS
 62
     7
 10
54.31157860958429
 20
104.7827897598004
 11
54.29256798596997
 21
104.7907497958443
  0
LINE
  8
1
  6
CONTINUOUS
 62
     7
 10
54.29256798596997
 20
104.7907497958443
 11
54.27376439627431
 21
104.7995546445838
  0
LINE
  8
1
  6
CONTINUOUS
 62
     7
 10
54.27376439627431
 20
104.7995546445838
 11
54.25533576943348
 21
104.8091358437969
  0
LINE
  8
1
  6
CONTINUOUS
 62
     7
 10
54.25533576943348
 20
104.8091358437969
 11
54.23692204046991
 21
104.8197149769024
  0
LINE
  8
1
  6
CONTINUOUS
 62
     7
 10
54.23692204046991
 20
104.8197149769024
 11
54.21896886442737
 21
104.8310694585905
  0
LINE
  8
1
  6
CONTINUOUS
 62
     7
 10
54.21896886442737
 20
104.8310694585905
 11
54.2013811707536
 21
104.8432733345757
  0
LINE
  8
1
  6
CONTINUOUS
 62
     7
 10
54.2013811707536
 20
104.8432733345757
 11
54.18432850627123
 21
104.8562210412887
  0
LINE
  8
1
  6
CONTINUOUS
 62
     7
 10
54.18432850627123
 20
104.8562210412887
 11
54.16854248738362
 21
104.8692853314325
  0
LINE
  8
1
  6
CONTINUOUS
 62
     7
 10
54.16854248738362
 20
104.8692853314325
 11
54.15330346533347
 21
104.8829863877344
  0
LINE
  8
1
  6
CONTINUOUS
 62
     7
 10
54.15330346533347
 20
104.8829863877344
 11
54.13853783562852
 21
104.8974034863578
  0
LINE
  8
1
  6
CONTINUOUS
 62
     7
 10
54.13853783562852
 20
104.8974034863578
 11
54.124379564793
 21
104.9124171843224
  0
LINE
  8
1
  6
CONTINUOUS
 62
     7
 10
54.124379564793
 20
104.9124171843224
 11
54.11056475924943
 21
104.9283494268006
  0
LINE
  8
1
  6
CONTINUOUS
 62
     7
 10
54.11056475924943
 20
104.9283494268006
 11
54.09743513038372
 21
104.9448478847034
  0
LINE
  8
1
  6
CONTINUOUS
 62
     7
 10
54.09743513038372
 20
104.9448478847034
 11
54.08492576636276
 21
104.9620107825916
  0
LINE
  8
1
  6
CONTINUOUS
 62
     7
 10
54.08492576636276
 20
104.9620107825916
 11
54.07315858608813
 21
104.9796853917289
  0
LINE
  8
1
  6
CONTINUOUS
 62
     7
 10
54.07315858608813
 20
104.9796853917289
 11
54.06256470636797
 21
104.9971318406849
  0
LINE
  8
1
  6
CONTINUOUS
 62
     7
 10
54.06256470636797
 20
104.9971318406849
 11
54.05269416150915
 21
105.0149906761234
  0
LINE
  8
1
  6
CONTINUOUS
 62
     7
 10
54.05269416150915
 20
105.0149906761234
 11
54.04341386117859
 21
105.0335506496831
  0
LINE
  8
1
  6
CONTINUOUS
 62
     7
 10
54.04341386117859
 20
105.0335506496831
 11
54.0349072403971
 21
105.052489135182
  0
LINE
  8
1
  6
CONTINUOUS
 62
     7
 10
54.0349072403971
 20
105.052489135182
 11
54.02719465563619
 21
105.0717554579545
  0
LINE
  8
1
  6
CONTINUOUS
 62
     7
 10
54.02719465563619
 20
105.0717554579545
 11
54.02029646336733
 21
105.0912989433349
  0
LINE
  8
1
  6
CONTINUOUS
 62
     7
 10
54.02029646336733
 20
105.0912989433349
 11
54.01411449458728
 21
105.111469400349
  0
LINE
  8
1
  6
CONTINUOUS
 62
     7
 10
54.01411449458728
 20
105.111469400349
 11
54.00879102494748
 21
105.1318719870911
  0
LINE
  8
1
  6
CONTINUOUS
 62
     7
 10
54.00879102494748
 20
105.1318719870911
 11
54.00465804719361
 21
105.1508248698829
  0
LINE
  8
1
  6
CONTINUOUS
 62
     7
 10
54.00465804719361
 20
105.1508248698829
 11
54.00126319021673
 21
105.1699211181576
  0
LINE
  8
1
  6
CONTINUOUS
 62
     7
 10
54.00126319021673
 20
105.1699211181576
 11
53.99861301904049
 21
105.189117069462
  0
LINE
  8
1
  6
CONTINUOUS
 62
     7
 10
53.99861301904049
 20
105.189117069462
 11
53.9966893983495
 21
105.2086602200217
  0
LINE
  8
1
  6
CONTINUOUS
 62
     7
 10
53.9966893983495
 20
105.2086602200217
 11
53.99553421014437
 21
105.2282604645897
  0
LINE
  8
1
  6
CONTINUOUS
 62
     7
 10
53.99553421014437
 20
105.2282604645897
 11
53.995148839594
 21
105.2478723152469
  0
LINE
  8
1
  6
CONTINUOUS
 62
     7
 10
148.495148839594
 20
104.7478723152469
 11
148.4745819046047
 21
104.7482971276568
  0
LINE
  8
1
  6
CONTINUOUS
 62
     7
 10
148.4745819046047
 20
104.7482971276568
 11
148.45402021297
 21
104.7495696630687
  0
LINE
  8
1
  6
CONTINUOUS
 62
     7
 10
148.45402021297
 20
104.7495696630687
 11
148.4335163002112
 21
104.7516870687555
  0
LINE
  8
1
  6
CONTINUOUS
 62
     7
 10
148.4335163002112
 20
104.7516870687555
 11
148.4131227018499
 21
104.7546464919903
  0
LINE
  8
1
  6
CONTINUOUS
 62
     7
 10
148.4131227018499
 20
104.7546464919903
 11
148.3922762104381
 21
104.7585714436482
  0
LINE
  8
1
  6
CONTINUOUS
 62
     7
 10
148.3922762104381
 20
104.7585714436482
 11
148.3715845401159
 21
104.763384417296
  0
LINE
  8
1
  6
CONTINUOUS
 62
     7
 10
148.3715845401159
 20
104.763384417296
 11
148.3511044166629
 21
104.7690724333272
  0
LINE
  8
1
  6
CONTINUOUS
 62
     7
 10
148.3511044166629
 20
104.7690724333272
 11
148.3308925658591
 21
104.7756225121355
  0
LINE
  8
1
  6
CONTINUOUS
 62
     7
 10
148.3308925658591
 20
104.7756225121355
 11
148.3115202281538
 21
104.7828144509643
  0
LINE
  8
1
  6
CONTINUOUS
 62
     7
 10
148.3115202281538
 20
104.7828144509643
 11
148.2924367070302
 21
104.7908113339691
  0
LINE
  8
1
  6
CONTINUOUS
 62
     7
 10
148.2924367070302
 20
104.7908113339691
 11
148.2736919162146
 21
104.7995921389725
  0
LINE
  8
1
  6
CONTINUOUS
 62
     7
 10
148.2736919162146
 20
104.7995921389725
 11
148.2553357694335
 21
104.8091358437969
  0
LINE
  8
1
  6
CONTINUOUS
 62
     7
 10
148.2553357694335
 20
104.8091358437969
 11
148.2368631855041
 21
104.8197525143946
  0
LINE
  8
1
  6
CONTINUOUS
 62
     7
 10
148.2368631855041
 20
104.8197525143946
 11
148.2188377493774
 21
104.8311605425786
  0
LINE
  8
1
  6
CONTINUOUS
 62
     7
 10
148.2188377493774
 20
104.8311605425786
 11
148.201309507488
 21
104.8433275207446
  0
LINE
  8
1
  6
CONTINUOUS
 62
     7
 10
148.201309507488
 20
104.8433275207446
 11
148.1843285062712
 21
104.8562210412886
  0
LINE
  8
1
  6
CONTINUOUS
 62
     7
 10
148.1843285062712
 20
104.8562210412886
 11
148.1684959878589
 21
104.8693274504581
  0
LINE
  8
1
  6
CONTINUOUS
 62
     7
 10
148.1684959878589
 20
104.8693274504581
 11
148.1532008803711
 21
104.883086665647
  0
LINE
  8
1
  6
CONTINUOUS
 62
     7
 10
148.1532008803711
 20
104.883086665647
 11
148.1384823504639
 21
104.8974621044151
  0
LINE
  8
1
  6
CONTINUOUS
 62
     7
 10
148.1384823504639
 20
104.8974621044151
 11
148.124379564793
 21
104.9124171843223
  0
LINE
  8
1
  6
CONTINUOUS
 62
     7
 10
148.124379564793
 20
104.9124171843223
 11
148.1105224255154
 21
104.9284030367991
  0
LINE
  8
1
  6
CONTINUOUS
 62
     7
 10
148.1105224255154
 20
104.9284030367991
 11
148.0973432194724
 21
104.9449741380541
  0
LINE
  8
1
  6
CONTINUOUS
 62
     7
 10
148.0973432194724
 20
104.9449741380541
 11
148.0848769414134
 21
104.9620838142948
  0
LINE
  8
1
  6
CONTINUOUS
 62
     7
 10
148.0848769414134
 20
104.9620838142948
 11
148.0731585860882
 21
104.9796853917289
  0
LINE
  8
1
  6
CONTINUOUS
 62
     7
 10
148.0731585860882
 20
104.9796853917289
 11
148.062535099576
 21
104.9971858588102
  0
LINE
  8
1
  6
CONTINUOUS
 62
     7
 10
148.062535099576
 20
104.9971858588102
 11
148.0526312157877
 21
105.0151166221074
  0
LINE
  8
1
  6
CONTINUOUS
 62
     7
 10
148.0526312157877
 20
105.0151166221074
 11
148.0434706870686
 21
105.0334307311293
  0
LINE
  8
1
  6
CONTINUOUS
 62
     7
 10
148.0434706870686
 20
105.0334307311293
 11
148.035077265764
 21
105.0520812353847
  0
LINE
  8
1
  6
CONTINUOUS
 62
     7
 10
148.035077265764
 20
105.0520812353847
 11
148.0272524228257
 21
105.0716022708374
  0
LINE
  8
1
  6
CONTINUOUS
 62
     7
 10
148.0272524228257
 20
105.0716022708374
 11
148.0202521041186
 21
105.0914438596127
  0
LINE
  8
1
  6
CONTINUOUS
 62
     7
 10
148.0202521041186
 20
105.0914438596127
 11
148.01409280603
 21
105.1115518242005
  0
LINE
  8
1
  6
CONTINUOUS
 62
     7
 10
148.01409280603
 20
105.1115518242005
 11
148.0087910249475
 21
105.1318719870911
  0
LINE
  8
1
  6
CONTINUOUS
 62
     7
 10
148.0087910249475
 20
105.1318719870911
 11
148.0038982547991
 21
105.1547701339284
  0
LINE
  8
1
  6
CONTINUOUS
 62
     7
 10
148.0038982547991
 20
105.1547701339284
 11
148.0000807449725
 21
105.1778961938897
  0
LINE
  8
1
  6
CONTINUOUS
 62
     7
 10
148.0000807449725
 20
105.1778961938897
 11
147.9973454016848
 21
105.201173213248
  0
LINE
  8
1
  6
CONTINUOUS
 62
     7
 10
147.9973454016848
 20
105.201173213248
 11
147.9956991311529
 21
105.2245242382761
  0
LINE
  8
1
  6
CONTINUOUS
 62
     7
 10
147.9956991311529
 20
105.2245242382761
 11
147.995148839594
 21
105.2478723152469
  0
LINE
  8
1
  6
CONTINUOUS
 62
     7
 10
148.495148839594
 20
198.7478723152469
 11
148.4746433338926
 21
198.7482931459817
  0
LINE
  8
1
  6
CONTINUOUS
 62
     7
 10
148.4746433338926
 20
198.7482931459817
 11
148.4541602921324
 21
198.7495552083993
  0
LINE
  8
1
  6
CONTINUOUS
 62
     7
 10
148.4541602921324
 20
198.7495552083993
 11
148.433594780439
 21
198.751675869825
  0
LINE
  8
1
  6
CONTINUOUS
 62
     7
 10
148.433594780439
 20
198.751675869825
 11
148.4131227018499
 21
198.7546464919903
  0
LINE
  8
1
  6
CONTINUOUS
 62
     7
 10
148.4131227018499
 20
198.7546464919903
 11
148.392342498062
 21
198.7585558005799
  0
LINE
  8
1
  6
CONTINUOUS
 62
     7
 10
148.392342498062
 20
198.7585558005799
 11
148.3717346583158
 21
198.7633427084535
  0
LINE
  8
1
  6
CONTINUOUS
 62
     7
 10
148.3717346583158
 20
198.7633427084535
 11
148.3511879117973
 21
198.7690455847181
  0
LINE
  8
1
  6
CONTINUOUS
 62
     7
 10
148.3511879117973
 20
198.7690455847181
 11
148.3308925658591
 21
198.7756225121355
  0
LINE
  8
1
  6
CONTINUOUS
 62
     7
 10
148.3308925658591
 20
198.7756225121355
 11
148.3115786095843
 21
198.7827897598003
  0
LINE
  8
1
  6
CONTINUOUS
 62
     7
 10
148.3115786095843
 20
198.7827897598003
 11
148.29256798597
 21
198.7907497958443
  0
LINE
  8
1
  6
CONTINUOUS
 62
     7
 10
148.29256798597
 20
198.7907497958443
 11
148.2737643962743
 21
198.7995546445838
  0
LINE
  8
1
  6
CONTINUOUS
 62
     7
 10
148.2737643962743
 20
198.7995546445838
 11
148.2553357694335
 21
198.8091358437969
  0
LINE
  8
1
  6
CONTINUOUS
 62
     7
 10
148.2553357694335
 20
198.8091358437969
 11
148.2369220404699
 21
198.8197149769024
  0
LINE
  8
1
  6
CONTINUOUS
 62
     7
 10
148.2369220404699
 20
198.8197149769024
 11
148.2189688644274
 21
198.8310694585905
  0
LINE
  8
1
  6
CONTINUOUS
 62
     7
 10
148.2189688644274
 20
198.8310694585905
 11
148.2013811707536
 21
198.8432733345756
  0
LINE
  8
1
  6
CONTINUOUS
 62
     7
 10
148.2013811707536
 20
198.8432733345756
 11
148.1843285062713
 21
198.8562210412886
  0
LINE
  8
1
  6
CONTINUOUS
 62
     7
 10
148.1843285062713
 20
198.8562210412886
 11
148.1685424873837
 21
198.8692853314325
  0
LINE
  8
1
  6
CONTINUOUS
 62
     7
 10
148.1685424873837
 20
198.8692853314325
 11
148.1533034653335
 21
198.8829863877344
  0
LINE
  8
1
  6
CONTINUOUS
 62
     7
 10
148.1533034653335
 20
198.8829863877344
 11
148.1385378356285
 21
198.8974034863577
  0
LINE
  8
1
  6
CONTINUOUS
 62
     7
 10
148.1385378356285
 20
198.8974034863577
 11
148.124379564793
 21
198.9124171843224
  0
LINE
  8
1
  6
CONTINUOUS
 62
     7
 10
148.124379564793
 20
198.9124171843224
 11
148.1105647592495
 21
198.9283494268006
  0
LINE
  8
1
  6
CONTINUOUS
 62
     7
 10
148.1105647592495
 20
198.9283494268006
 11
148.0974351303838
 21
198.9448478847034
  0
LINE
  8
1
  6
CONTINUOUS
 62
     7
 10
148.0974351303838
 20
198.9448478847034
 11
148.0849257663628
 21
198.9620107825916
  0
LINE
  8
1
  6
CONTINUOUS
 62
     7
 10
148.0849257663628
 20
198.9620107825916
 11
148.0731585860882
 21
198.9796853917289
  0
LINE
  8
1
  6
CONTINUOUS
 62
     7
 10
148.0731585860882
 20
198.9796853917289
 11
148.062564706368
 21
198.9971318406849
  0
LINE
  8
1
  6
CONTINUOUS
 62
     7
 10
148.062564706368
 20
198.9971318406849
 11
148.0526941615092
 21
199.0149906761234
  0
LINE
  8
1
  6
CONTINUOUS
 62
     7
 10
148.0526941615092
 20
199.0149906761234
 11
148.0434138611786
 21
199.0335506496831
  0
LINE
  8
1
  6
CONTINUOUS
 62
     7
 10
148.0434138611786
 20
199.0335506496831
 11
148.0349072403971
 21
199.052489135182
  0
LINE
  8
1
  6
CONTINUOUS
 62
     7
 10
148.0349072403971
 20
199.052489135182
 11
148.0271946556362
 21
199.0717554579545
  0
LINE
  8
1
  6
CONTINUOUS
 62
     7
 10
148.0271946556362
 20
199.0717554579545
 11
148.0202964633674
 21
199.0912989433349
  0
LINE
  8
1
  6
CONTINUOUS
 62
     7
 10
148.0202964633674
 20
199.0912989433349
 11
148.0141144945873
 21
199.111469400349
  0
LINE
  8
1
  6
CONTINUOUS
 62
     7
 10
148.0141144945873
 20
199.111469400349
 11
148.0087910249475
 21
199.1318719870911
  0
LINE
  8
1
  6
CONTINUOUS
 62
     7
 10
148.0087910249475
 20
199.1318719870911
 11
148.0046580471937
 21
199.1508248698829
  0
LINE
  8
1
  6
CONTINUOUS
 62
     7
 10
148.0046580471937
 20
199.1508248698829
 11
148.0012631902167
 21
199.1699211181576
  0
LINE
  8
1
  6
CONTINUOUS
 62
     7
 10
148.0012631902167
 20
199.1699211181576
 11
147.9986130190405
 21
199.189117069462
  0
LINE
  8
1
  6
CONTINUOUS
 62
     7
 10
147.9986130190405
 20
199.189117069462
 11
147.9966893983496
 21
199.2086602200217
  0
LINE
  8
1
  6
CONTINUOUS
 62
     7
 10
147.9966893983496
 20
199.2086602200217
 11
147.9955342101444
 21
199.2282604645897
  0
LINE
  8
1
  6
CONTINUOUS
 62
     7
 10
147.9955342101444
 20
199.2282604645897
 11
147.995148839594
 21
199.2478723152469
  0
LINE
  8
1
  6
CONTINUOUS
 62
     7
 10
147.995148839594
 20
103.2178723152469
 11
147.9955696703288
 21
103.2383778209483
  0
LINE
  8
1
  6
CONTINUOUS
 62
     7
 10
147.9955696703288
 20
103.2383778209483
 11
147.9968317327464
 21
103.2588608627085
  0
LINE
  8
1
  6
CONTINUOUS
 62
     7
 10
147.9968317327464
 20
103.2588608627085
 11
147.9989523941722
 21
103.2794263744019
  0
LINE
  8
1
  6
CONTINUOUS
 62
     7
 10
147.9989523941722
 20
103.2794263744019
 11
148.0019230163375
 21
103.299898452991
  0
LINE
  8
1
  6
CONTINUOUS
 62
     7
 10
148.0019230163375
 20
103.299898452991
 11
148.005832324927
 21
103.3206786567789
  0
LINE
  8
1
  6
CONTINUOUS
 62
     7
 10
148.005832324927
 20
103.3206786567789
 11
148.0106192328006
 21
103.3412864965252
  0
LINE
  8
1
  6
CONTINUOUS
 62
     7
 10
148.0106192328006
 20
103.3412864965252
 11
148.0163221090652
 21
103.3618332430436
  0
LINE
  8
1
  6
CONTINUOUS
 62
     7
 10
148.0163221090652
 20
103.3618332430436
 11
148.0228990364827
 21
103.3821285889818
  0
LINE
  8
1
  6
CONTINUOUS
 62
     7
 10
148.0228990364827
 20
103.3821285889818
 11
148.0300662841474
 21
103.4014425452566
  0
LINE
  8
1
  6
CONTINUOUS
 62
     7
 10
148.0300662841474
 20
103.4014425452566
 11
148.0380263201914
 21
103.4204531688709
  0
LINE
  8
1
  6
CONTINUOUS
 62
     7
 10
148.0380263201914
 20
103.4204531688709
 11
148.0468311689309
 21
103.4392567585666
  0
LINE
  8
1
  6
CONTINUOUS
 62
     7
 10
148.0468311689309
 20
103.4392567585666
 11
148.056412368144
 21
103.4576853854074
  0
LINE
  8
1
  6
CONTINUOUS
 62
     7
 10
148.056412368144
 20
103.4576853854074
 11
148.0669915012495
 21
103.476099114371
  0
LINE
  8
1
  6
CONTINUOUS
 62
     7
 10
148.0669915012495
 20
103.476099114371
 11
148.0783459829376
 21
103.4940522904135
  0
LINE
  8
1
  6
CONTINUOUS
 62
     7
 10
148.0783459829376
 20
103.4940522904135
 11
148.0905498589227
 21
103.5116399840873
  0
LINE
  8
1
  6
CONTINUOUS
 62
     7
 10
148.0905498589227
 20
103.5116399840873
 11
148.1034975656358
 21
103.5286926485696
  0
LINE
  8
1
  6
CONTINUOUS
 62
     7
 10
148.1034975656358
 20
103.5286926485696
 11
148.1165618557796
 21
103.5444786674573
  0
LINE
  8
1
  6
CONTINUOUS
 62
     7
 10
148.1165618557796
 20
103.5444786674573
 11
148.1302629120815
 21
103.5597176895074
  0
LINE
  8
1
  6
CONTINUOUS
 62
     7
 10
148.1302629120815
 20
103.5597176895074
 11
148.1446800107049
 21
103.5744833192124
  0
LINE
  8
1
  6
CONTINUOUS
 62
     7
 10
148.1446800107049
 20
103.5744833192124
 11
148.1596937086695
 21
103.5886415900479
  0
LINE
  8
1
  6
CONTINUOUS
 62
     7
 10
148.1596937086695
 20
103.5886415900479
 11
148.1756259511477
 21
103.6024563955915
  0
LINE
  8
1
  6
CONTINUOUS
 62
     7
 10
148.1756259511477
 20
103.6024563955915
 11
148.1921244090505
 21
103.6155860244572
  0
LINE
  8
1
  6
CONTINUOUS
 62
     7
 10
148.1921244090505
 20
103.6155860244572
 11
148.2092873069388
 21
103.6280953884781
  0
LINE
  8
1
  6
CONTINUOUS
 62
     7
 10
148.2092873069388
 20
103.6280953884781
 11
148.226961916076
 21
103.6398625687527
  0
LINE
  8
1
  6
CONTINUOUS
 62
     7
 10
148.226961916076
 20
103.6398625687527
 11
148.244408365032
 21
103.6504564484729
  0
LINE
  8
1
  6
CONTINUOUS
 62
     7
 10
148.244408365032
 20
103.6504564484729
 11
148.2622672004705
 21
103.6603269933317
  0
LINE
  8
1
  6
CONTINUOUS
 62
     7
 10
148.2622672004705
 20
103.6603269933317
 11
148.2808271740302
 21
103.6696072936623
  0
LINE
  8
1
  6
CONTINUOUS
 62
     7
 10
148.2808271740302
 20
103.6696072936623
 11
148.2997656595291
 21
103.6781139144438
  0
LINE
  8
1
  6
CONTINUOUS
 62
     7
 10
148.2997656595291
 20
103.6781139144438
 11
148.3190319823016
 21
103.6858264992047
  0
LINE
  8
1
  6
CONTINUOUS
 62
     7
 10
148.3190319823016
 20
103.6858264992047
 11
148.3385754676821
 21
103.6927246914736
  0
LINE
  8
1
  6
CONTINUOUS
 62
     7
 10
148.3385754676821
 20
103.6927246914736
 11
148.3587459246962
 21
103.6989066602536
  0
LINE
  8
1
  6
CONTINUOUS
 62
     7
 10
148.3587459246962
 20
103.6989066602536
 11
148.3791485114382
 21
103.7042301298934
  0
LINE
  8
1
  6
CONTINUOUS
 62
     7
 10
148.3791485114382
 20
103.7042301298934
 11
148.39810139423
 21
103.7083631076473
  0
LINE
  8
1
  6
CONTINUOUS
 62
     7
 10
148.39810139423
 20
103.7083631076473
 11
148.4171976425047
 21
103.7117579646242
  0
LINE
  8
1
  6
CONTINUOUS
 62
     7
 10
148.4171976425047
 20
103.7117579646242
 11
148.4363935938091
 21
103.7144081358004
  0
LINE
  8
1
  6
CONTINUOUS
 62
     7
 10
148.4363935938091
 20
103.7144081358004
 11
148.4559367443688
 21
103.7163317564914
  0
LINE
  8
1
  6
CONTINUOUS
 62
     7
 10
148.4559367443688
 20
103.7163317564914
 11
148.4755369889368
 21
103.7174869446965
  0
LINE
  8
1
  6
CONTINUOUS
 62
     7
 10
148.4755369889368
 20
103.7174869446965
 11
148.495148839594
 21
103.7178723152469
  0
LINE
  8
1
  6
CONTINUOUS
 62
     7
 10
146.965148839594
 20
105.2478723152469
 11
146.9647240271841
 21
105.2273053802575
  0
LINE
  8
1
  6
CONTINUOUS
 62
     7
 10
146.9647240271841
 20
105.2273053802575
 11
146.9634514917722
 21
105.2067436886228
  0
LINE
  8
1
  6
CONTINUOUS
 62
     7
 10
146.9634514917722
 20
105.2067436886228
 11
146.9613340860854
 21
105.1862397758641
  0
LINE
  8
1
  6
CONTINUOUS
 62
     7
 10
146.9613340860854
 20
105.1862397758641
 11
146.9583746628506
 21
105.1658461775027
  0
LINE
  8
1
  6
CONTINUOUS
 62
     7
 10
146.9583746628506
 20
105.1658461775027
 11
146.9544497111927
 21
105.144999686091
  0
LINE
  8
1
  6
CONTINUOUS
 62
     7
 10
146.9544497111927
 20
105.144999686091
 11
146.9496367375449
 21
105.1243080157687
  0
LINE
  8
1
  6
CONTINUOUS
 62
     7
 10
146.9496367375449
 20
105.1243080157687
 11
146.9439487215137
 21
105.1038278923158
  0
LINE
  8
1
  6
CONTINUOUS
 62
     7
 10
146.9439487215137
 20
105.1038278923158
 11
146.9373986427054
 21
105.083616041512
  0
LINE
  8
1
  6
CONTINUOUS
 62
     7
 10
146.9373986427054
 20
105.083616041512
 11
146.9302067038766
 21
105.0642437038067
  0
LINE
  8
1
  6
CONTINUOUS
 62
     7
 10
146.9302067038766
 20
105.0642437038067
 11
146.9222098208718
 21
105.045160182683
  0
LINE
  8
1
  6
CONTINUOUS
 62
     7
 10
146.9222098208718
 20
105.045160182683
 11
146.9134290158684
 21
105.0264153918674
  0
LINE
  8
1
  6
CONTINUOUS
 62
     7
 10
146.9134290158684
 20
105.0264153918674
 11
146.903885311044
 21
105.0080592450864
  0
LINE
  8
1
  6
CONTINUOUS
 62
     7
 10
146.903885311044
 20
105.0080592450864
 11
146.8932686404463
 21
104.989586661157
  0
LINE
  8
1
  6
CONTINUOUS
 62
     7
 10
146.8932686404463
 20
104.989586661157
 11
146.8818606122623
 21
104.9715612250302
  0
LINE
  8
1
  6
CONTINUOUS
 62
     7
 10
146.8818606122623
 20
104.9715612250302
 11
146.8696936340963
 21
104.9540329831409
  0
LINE
  8
1
  6
CONTINUOUS
 62
     7
 10
146.8696936340963
 20
104.9540329831409
 11
146.8568001135523
 21
104.9370519819241
  0
LINE
  8
1
  6
CONTINUOUS
 62
     7
 10
146.8568001135523
 20
104.9370519819241
 11
146.8436937043828
 21
104.9212194635117
  0
LINE
  8
1
  6
CONTINUOUS
 62
     7
 10
146.8436937043828
 20
104.9212194635117
 11
146.8299344891939
 21
104.905924356024
  0
LINE
  8
1
  6
CONTINUOUS
 62
     7
 10
146.8299344891939
 20
104.905924356024
 11
146.8155590504258
 21
104.8912058261167
  0
LINE
  8
1
  6
CONTINUOUS
 62
     7
 10
146.8155590504258
 20
104.8912058261167
 11
146.8006039705186
 21
104.8771030404459
  0
LINE
  8
1
  6
CONTINUOUS
 62
     7
 10
146.8006039705186
 20
104.8771030404459
 11
146.7846181180418
 21
104.8632459011682
  0
LINE
  8
1
  6
CONTINUOUS
 62
     7
 10
146.7846181180418
 20
104.8632459011682
 11
146.7680470167868
 21
104.8500666951252
  0
LINE
  8
1
  6
CONTINUOUS
 62
     7
 10
146.7680470167868
 20
104.8500666951252
 11
146.750937340546
 21
104.8376004170663
  0
LINE
  8
1
  6
CONTINUOUS
 62
     7
 10
146.750937340546
 20
104.8376004170663
 11
146.733335763112
 21
104.825882061741
  0
LINE
  8
1
  6
CONTINUOUS
 62
     7
 10
146.733335763112
 20
104.825882061741
 11
146.7158352960307
 21
104.8152585752289
  0
LINE
  8
1
  6
CONTINUOUS
 62
     7
 10
146.7158352960307
 20
104.8152585752289
 11
146.6979045327335
 21
104.8053546914406
  0
LINE
  8
1
  6
CONTINUOUS
 62
     7
 10
146.6979045327335
 20
104.8053546914406
 11
146.6795904237116
 21
104.7961941627215
  0
LINE
  8
1
  6
CONTINUOUS
 62
     7
 10
146.6795904237116
 20
104.7961941627215
 11
146.6609399194562
 21
104.7878007414169
  0
LINE
  8
1
  6
CONTINUOUS
 62
     7
 10
146.6609399194562
 20
104.7878007414169
 11
146.6414188840035
 21
104.7799758984786
  0
LINE
  8
1
  6
CONTINUOUS
 62
     7
 10
146.6414188840035
 20
104.7799758984786
 11
146.6215772952282
 21
104.7729755797714
  0
LINE
  8
1
  6
CONTINUOUS
 62
     7
 10
146.6215772952282
 20
104.7729755797714
 11
146.6014693306403
 21
104.7668162816829
  0
LINE
  8
1
  6
CONTINUOUS
 62
     7
 10
146.6014693306403
 20
104.7668162816829
 11
146.5811491677498
 21
104.7615145006004
  0
LINE
  8
1
  6
CONTINUOUS
 62
     7
 10
146.5811491677498
 20
104.7615145006004
 11
146.5582510209125
 21
104.756621730452
  0
LINE
  8
1
  6
CONTINUOUS
 62
     7
 10
146.5582510209125
 20
104.756621730452
 11
146.5351249609512
 21
104.7528042206254
  0
LINE
  8
1
  6
CONTINUOUS
 62
     7
 10
146.5351249609512
 20
104.7528042206254
 11
146.5118479415929
 21
104.7500688773376
  0
LINE
  8
1
  6
CONTINUOUS
 62
     7
 10
146.5118479415929
 20
104.7500688773376
 11
146.4884969165648
 21
104.7484226068057
  0
LINE
  8
1
  6
CONTINUOUS
 62
     7
 10
146.4884969165648
 20
104.7484226068057
 11
146.465148839594
 21
104.7478723152469
  0
LINE
  8
1
  6
CONTINUOUS
 62
     7
 10
52.965148839594
 20
105.2478723152469
 11
52.9647924496639
 21
105.2290109236952
  0
LINE
  8
1
  6
CONTINUOUS
 62
     7
 10
52.9647924496639
 20
105.2290109236952
 11
52.96372403963187
 21
105.2101594612706
  0
LINE
  8
1
  6
CONTINUOUS
 62
     7
 10
52.96372403963187
 20
105.2101594612706
 11
52.96194474913521
 21
105.1913583854321
  0
LINE
  8
1
  6
CONTINUOUS
 62
     7
 10
52.96194474913521
 20
105.1913583854321
 11
52.95874156819188
 21
105.1680856747198
  0
LINE
  8
1
  6
CONTINUOUS
 62
     7
 10
52.95874156819188
 20
105.1680856747198
 11
52.95444628454525
 21
105.1449742571303
  0
LINE
  8
1
  6
CONTINUOUS
 62
     7
 10
52.95444628454525
 20
105.1449742571303
 11
52.949647478501
 21
105.1243374548262
  0
LINE
  8
1
  6
CONTINUOUS
 62
     7
 10
52.949647478501
 20
105.1243374548262
 11
52.94397583104358
 21
105.1039115141261
  0
LINE
  8
1
  6
CONTINUOUS
 62
     7
 10
52.94397583104358
 20
105.1039115141261
 11
52.93739864270536
 21
105.083616041512
  0
LINE
  8
1
  6
CONTINUOUS
 62
     7
 10
52.93739864270536
 20
105.083616041512
 11
52.93083466415912
 21
105.065838869841
  0
LINE
  8
1
  6
CONTINUOUS
 62
     7
 10
52.93083466415912
 20
105.065838869841
 11
52.92359644443022
 21
105.0483096527502
  0
LINE
  8
1
  6
CONTINUOUS
 62
     7
 10
52.92359644443022
 20
105.0483096527502
 11
52.91569912606189
 21
105.031067242973
  0
LINE
  8
1
  6
CONTINUOUS
 62
     7
 10
52.91569912606189
 20
105.031067242973
 11
52.90496951921805
 21
105.0100542234265
  0
LINE
  8
1
  6
CONTINUOUS
 62
     7
 10
52.90496951921805
 20
105.0100542234265
 11
52.89325660896827
 21
104.9895629313651
  0
LINE
  8
1
  6
CONTINUOUS
 62
     7
 10
52.89325660896827
 20
104.9895629313651
 11
52.88188087121323
 21
104.9715858732329
  0
LINE
  8
1
  6
CONTINUOUS
 62
     7
 10
52.88188087121323
 20
104.9715858732329
 11
52.86974808947688
 21
104.9541046400438
  0
LINE
  8
1
  6
CONTINUOUS
 62
     7
 10
52.86974808947688
 20
104.9541046400438
 11
52.85680011355225
 21
104.9370519819241
  0
LINE
  8
1
  6
CONTINUOUS
 62
     7
 10
52.85680011355225
 20
104.9370519819241
 11
52.84480625847998
 21
104.9225114229005
  0
LINE
  8
1
  6
CONTINUOUS
 62
     7
 10
52.84480625847998
 20
104.9225114229005
 11
52.83226752704161
 21
104.9084266858139
  0
LINE
  8
1
  6
CONTINUOUS
 62
     7
 10
52.83226752704161
 20
104.9084266858139
 11
52.8192112986765
 21
104.8948287271895
  0
LINE
  8
1
  6
CONTINUOUS
 62
     7
 10
52.8192112986765
 20
104.8948287271895
 11
52.8022748337654
 21
104.87862206839
  0
LINE
  8
1
  6
CONTINUOUS
 62
     7
 10
52.8022748337654
 20
104.87862206839
 11
52.7845989004136
 21
104.8632274678326
  0
LINE
  8
1
  6
CONTINUOUS
 62
     7
 10
52.7845989004136
 20
104.8632274678326
 11
52.76807333855464
 21
104.8500827500859
  0
LINE
  8
1
  6
CONTINUOUS
 62
     7
 10
52.76807333855464
 20
104.8500827500859
 11
52.75101056183554
 21
104.8376491128837
  0
LINE
  8
1
  6
CONTINUOUS
 62
     7
 10
52.75101056183554
 20
104.8376491128837
 11
52.733335763112
 21
104.825882061741
  0
LINE
  8
1
  6
CONTINUOUS
 62
     7
 10
52.733335763112
 20
104.825882061741
 11
52.71573931550694
 21
104.8152030132972
  0
LINE
  8
1
  6
CONTINUOUS
 62
     7
 10
52.71573931550694
 20
104.8152030132972
 11
52.69770797986541
 21
104.8052514365788
  0
LINE
  8
1
  6
CONTINUOUS
 62
     7
 10
52.69770797986541
 20
104.8052514365788
 11
52.67928948358888
 21
104.7960514491921
  0
LINE
  8
1
  6
CONTINUOUS
 62
     7
 10
52.67928948358888
 20
104.7960514491921
 11
52.66053155407885
 21
104.7876271687429
  0
LINE
  8
1
  6
CONTINUOUS
 62
     7
 10
52.66053155407885
 20
104.7876271687429
 11
52.64110742818251
 21
104.7798586418257
  0
LINE
  8
1
  6
CONTINUOUS
 62
     7
 10
52.64110742818251
 20
104.7798586418257
 11
52.62136676715666
 21
104.772906213414
  0
LINE
  8
1
  6
CONTINUOUS
 62
     7
 10
52.62136676715666
 20
104.772906213414
 11
52.60136290300963
 21
104.7667860956311
  0
LINE
  8
1
  6
CONTINUOUS
 62
     7
 10
52.60136290300963
 20
104.7667860956311
 11
52.58114916774981
 21
104.7615145006004
  0
LINE
  8
1
  6
CONTINUOUS
 62
     7
 10
52.58114916774981
 20
104.7615145006004
 11
52.56694623488992
 21
104.7583447424774
  0
LINE
  8
1
  6
CONTINUOUS
 62
     7
 10
52.56694623488992
 20
104.7583447424774
 11
52.55266259225531
 21
104.7555905431944
  0
LINE
  8
1
  6
CONTINUOUS
 62
     7
 10
52.55266259225531
 20
104.7555905431944
 11
52.53338280976717
 21
104.7525506633393
  0
LINE
  8
1
  6
CONTINUOUS
 62
     7
 10
52.53338280976717
 20
104.7525506633393
 11
52.51400217235682
 21
104.7502652764118
  0
LINE
  8
1
  6
CONTINUOUS
 62
     7
 10
52.51400217235682
 20
104.7502652764118
 11
52.49456533034081
 21
104.7487383952694
  0
LINE
  8
1
  6
CONTINUOUS
 62
     7
 10
52.49456533034081
 20
104.7487383952694
 11
52.47986034602265
 21
104.7480888375789
  0
LINE
  8
1
  6
CONTINUOUS
 62
     7
 10
52.47986034602265
 20
104.7480888375789
 11
52.465148839594
 21
104.7478723152469
  0
LINE
  8
1
  6
CONTINUOUS
 62
     7
 10
52.96514883959403
 20
199.2478723152469
 11
52.96479244966394
 21
199.2290109236953
  0
LINE
  8
1
  6
CONTINUOUS
 62
     7
 10
52.96479244966394
 20
199.2290109236953
 11
52.9637240396319
 21
199.2101594612706
  0
LINE
  8
1
  6
CONTINUOUS
 62
     7
 10
52.9637240396319
 20
199.2101594612706
 11
52.96194474913524
 21
199.1913583854321
  0
LINE
  8
1
  6
CONTINUOUS
 62
     7
 10
52.96194474913524
 20
199.1913583854321
 11
52.95874156819191
 21
199.1680856747198
  0
LINE
  8
1
  6
CONTINUOUS
 62
     7
 10
52.95874156819191
 20
199.1680856747198
 11
52.95444628454528
 21
199.1449742571303
  0
LINE
  8
1
  6
CONTINUOUS
 62
     7
 10
52.95444628454528
 20
199.1449742571303
 11
52.94964747850103
 21
199.1243374548263
  0
LINE
  8
1
  6
CONTINUOUS
 62
     7
 10
52.94964747850103
 20
199.1243374548263
 11
52.9439758310436
 21
199.1039115141261
  0
LINE
  8
1
  6
CONTINUOUS
 62
     7
 10
52.9439758310436
 20
199.1039115141261
 11
52.93739864270539
 21
199.083616041512
  0
LINE
  8
1
  6
CONTINUOUS
 62
     7
 10
52.93739864270539
 20
199.083616041512
 11
52.93083466415914
 21
199.065838869841
  0
LINE
  8
1
  6
CONTINUOUS
 62
     7
 10
52.93083466415914
 20
199.065838869841
 11
52.92359644443025
 21
199.0483096527502
  0
LINE
  8
1
  6
CONTINUOUS
 62
     7
 10
52.92359644443025
 20
199.0483096527502
 11
52.91569912606192
 21
199.031067242973
  0
LINE
  8
1
  6
CONTINUOUS
 62
     7
 10
52.91569912606192
 20
199.031067242973
 11
52.90496951921808
 21
199.0100542234265
  0
LINE
  8
1
  6
CONTINUOUS
 62
     7
 10
52.90496951921808
 20
199.0100542234265
 11
52.8932566089683
 21
198.9895629313651
  0
LINE
  8
1
  6
CONTINUOUS
 62
     7
 10
52.8932566089683
 20
198.9895629313651
 11
52.88188087121326
 21
198.9715858732329
  0
LINE
  8
1
  6
CONTINUOUS
 62
     7
 10
52.88188087121326
 20
198.9715858732329
 11
52.86974808947691
 21
198.9541046400439
  0
LINE
  8
1
  6
CONTINUOUS
 62
     7
 10
52.86974808947691
 20
198.9541046400439
 11
52.85680011355228
 21
198.9370519819242
  0
LINE
  8
1
  6
CONTINUOUS
 62
     7
 10
52.85680011355228
 20
198.9370519819242
 11
52.84480625848001
 21
198.9225114229005
  0
LINE
  8
1
  6
CONTINUOUS
 62
     7
 10
52.84480625848001
 20
198.9225114229005
 11
52.83226752704163
 21
198.9084266858139
  0
LINE
  8
1
  6
CONTINUOUS
 62
     7
 10
52.83226752704163
 20
198.9084266858139
 11
52.81921129867653
 21
198.8948287271895
  0
LINE
  8
1
  6
CONTINUOUS
 62
     7
 10
52.81921129867653
 20
198.8948287271895
 11
52.80227483376542
 21
198.8786220683901
  0
LINE
  8
1
  6
CONTINUOUS
 62
     7
 10
52.80227483376542
 20
198.8786220683901
 11
52.78459890041363
 21
198.8632274678326
  0
LINE
  8
1
  6
CONTINUOUS
 62
     7
 10
52.78459890041363
 20
198.8632274678326
 11
52.76807333855467
 21
198.8500827500859
  0
LINE
  8
1
  6
CONTINUOUS
 62
     7
 10
52.76807333855467
 20
198.8500827500859
 11
52.75101056183557
 21
198.8376491128838
  0
LINE
  8
1
  6
CONTINUOUS
 62
     7
 10
52.75101056183557
 20
198.8376491128838
 11
52.73333576311203
 21
198.8258820617411
  0
LINE
  8
1
  6
CONTINUOUS
 62
     7
 10
52.73333576311203
 20
198.8258820617411
 11
52.71573931550697
 21
198.8152030132972
  0
LINE
  8
1
  6
CONTINUOUS
 62
     7
 10
52.71573931550697
 20
198.8152030132972
 11
52.69770797986543
 21
198.8052514365789
  0
LINE
  8
1
  6
CONTINUOUS
 62
     7
 10
52.69770797986543
 20
198.8052514365789
 11
52.67928948358891
 21
198.7960514491921
  0
LINE
  8
1
  6
CONTINUOUS
 62
     7
 10
52.67928948358891
 20
198.7960514491921
 11
52.66053155407887
 21
198.7876271687429
  0
LINE
  8
1
  6
CONTINUOUS
 62
     7
 10
52.66053155407887
 20
198.7876271687429
 11
52.64110742818254
 21
198.7798586418257
  0
LINE
  8
1
  6
CONTINUOUS
 62
     7
 10
52.64110742818254
 20
198.7798586418257
 11
52.62136676715669
 21
198.772906213414
  0
LINE
  8
1
  6
CONTINUOUS
 62
     7
 10
52.62136676715669
 20
198.772906213414
 11
52.60136290300967
 21
198.7667860956312
  0
LINE
  8
1
  6
CONTINUOUS
 62
     7
 10
52.60136290300967
 20
198.7667860956312
 11
52.58114916774984
 21
198.7615145006004
  0
LINE
  8
1
  6
CONTINUOUS
 62
     7
 10
52.58114916774984
 20
198.7615145006004
 11
52.56694623488995
 21
198.7583447424774
  0
LINE
  8
1
  6
CONTINUOUS
 62
     7
 10
52.56694623488995
 20
198.7583447424774
 11
52.55266259225533
 21
198.7555905431944
  0
LINE
  8
1
  6
CONTINUOUS
 62
     7
 10
52.55266259225533
 20
198.7555905431944
 11
52.53338280976719
 21
198.7525506633393
  0
LINE
  8
1
  6
CONTINUOUS
 62
     7
 10
52.53338280976719
 20
198.7525506633393
 11
52.51400217235684
 21
198.7502652764118
  0
LINE
  8
1
  6
CONTINUOUS
 62
     7
 10
52.51400217235684
 20
198.7502652764118
 11
52.49456533034083
 21
198.7487383952694
  0
LINE
  8
1
  6
CONTINUOUS
 62
     7
 10
52.49456533034083
 20
198.7487383952694
 11
52.47986034602269
 21
198.7480888375789
  0
LINE
  8
1
  6
CONTINUOUS
 62
     7
 10
52.47986034602269
 20
198.7480888375789
 11
52.46514883959403
 21
198.7478723152469
  0
LINE
  8
1
  6
CONTINUOUS
 62
     7
 10
53.99514883959403
 20
197.2178723152469
 11
53.99556967032883
 21
197.2383778209484
  0
LINE
  8
1
  6
CONTINUOUS
 62
     7
 10
53.99556967032883
 20
197.2383778209484
 11
53.99683173274641
 21
197.2588608627086
  0
LINE
  8
1
  6
CONTINUOUS
 62
     7
 10
53.99683173274641
 20
197.2588608627086
 11
53.9989523941722
 21
197.279426374402
  0
LINE
  8
1
  6
CONTINUOUS
 62
     7
 10
53.9989523941722
 20
197.279426374402
 11
54.00192301633746
 21
197.299898452991
  0
LINE
  8
1
  6
CONTINUOUS
 62
     7
 10
54.00192301633746
 20
197.299898452991
 11
54.00583232492706
 21
197.3206786567789
  0
LINE
  8
1
  6
CONTINUOUS
 62
     7
 10
54.00583232492706
 20
197.3206786567789
 11
54.01061923280059
 21
197.3412864965252
  0
LINE
  8
1
  6
CONTINUOUS
 62
     7
 10
54.01061923280059
 20
197.3412864965252
 11
54.01632210906524
 21
197.3618332430437
  0
LINE
  8
1
  6
CONTINUOUS
 62
     7
 10
54.01632210906524
 20
197.3618332430437
 11
54.02289903648267
 21
197.3821285889819
  0
LINE
  8
1
  6
CONTINUOUS
 62
     7
 10
54.02289903648267
 20
197.3821285889819
 11
54.03006628414747
 21
197.4014425452566
  0
LINE
  8
1
  6
CONTINUOUS
 62
     7
 10
54.03006628414747
 20
197.4014425452566
 11
54.03802632019146
 21
197.420453168871
  0
LINE
  8
1
  6
CONTINUOUS
 62
     7
 10
54.03802632019146
 20
197.420453168871
 11
54.04683116893089
 21
197.4392567585666
  0
LINE
  8
1
  6
CONTINUOUS
 62
     7
 10
54.04683116893089
 20
197.4392567585666
 11
54.05641236814404
 21
197.4576853854074
  0
LINE
  8
1
  6
CONTINUOUS
 62
     7
 10
54.05641236814404
 20
197.4576853854074
 11
54.06699150124953
 21
197.476099114371
  0
LINE
  8
1
  6
CONTINUOUS
 62
     7
 10
54.06699150124953
 20
197.476099114371
 11
54.0783459829376
 21
197.4940522904135
  0
LINE
  8
1
  6
CONTINUOUS
 62
     7
 10
54.0783459829376
 20
197.4940522904135
 11
54.09054985892277
 21
197.5116399840873
  0
LINE
  8
1
  6
CONTINUOUS
 62
     7
 10
54.09054985892277
 20
197.5116399840873
 11
54.10349756563578
 21
197.5286926485697
  0
LINE
  8
1
  6
CONTINUOUS
 62
     7
 10
54.10349756563578
 20
197.5286926485697
 11
54.1165618557796
 21
197.5444786674573
  0
LINE
  8
1
  6
CONTINUOUS
 62
     7
 10
54.1165618557796
 20
197.5444786674573
 11
54.13026291208151
 21
197.5597176895075
  0
LINE
  8
1
  6
CONTINUOUS
 62
     7
 10
54.13026291208151
 20
197.5597176895075
 11
54.1446800107049
 21
197.5744833192124
  0
LINE
  8
1
  6
CONTINUOUS
 62
     7
 10
54.1446800107049
 20
197.5744833192124
 11
54.15969370866948
 21
197.5886415900479
  0
LINE
  8
1
  6
CONTINUOUS
 62
     7
 10
54.15969370866948
 20
197.5886415900479
 11
54.17562595114774
 21
197.6024563955915
  0
LINE
  8
1
  6
CONTINUOUS
 62
     7
 10
54.17562595114774
 20
197.6024563955915
 11
54.19212440905056
 21
197.6155860244572
  0
LINE
  8
1
  6
CONTINUOUS
 62
     7
 10
54.19212440905056
 20
197.6155860244572
 11
54.20928730693877
 21
197.6280953884782
  0
LINE
  8
1
  6
CONTINUOUS
 62
     7
 10
54.20928730693877
 20
197.6280953884782
 11
54.22696191607603
 21
197.6398625687528
  0
LINE
  8
1
  6
CONTINUOUS
 62
     7
 10
54.22696191607603
 20
197.6398625687528
 11
54.24440836503199
 21
197.6504564484729
  0
LINE
  8
1
  6
CONTINUOUS
 62
     7
 10
54.24440836503199
 20
197.6504564484729
 11
54.26226720047057
 21
197.6603269933318
  0
LINE
  8
1
  6
CONTINUOUS
 62
     7
 10
54.26226720047057
 20
197.6603269933318
 11
54.28082717403024
 21
197.6696072936623
  0
LINE
  8
1
  6
CONTINUOUS
 62
     7
 10
54.28082717403024
 20
197.6696072936623
 11
54.29976565952914
 21
197.6781139144438
  0
LINE
  8
1
  6
CONTINUOUS
 62
     7
 10
54.29976565952914
 20
197.6781139144438
 11
54.31903198230162
 21
197.6858264992048
  0
LINE
  8
1
  6
CONTINUOUS
 62
     7
 10
54.31903198230162
 20
197.6858264992048
 11
54.33857546768207
 21
197.6927246914736
  0
LINE
  8
1
  6
CONTINUOUS
 62
     7
 10
54.33857546768207
 20
197.6927246914736
 11
54.35874592469617
 21
197.6989066602536
  0
LINE
  8
1
  6
CONTINUOUS
 62
     7
 10
54.35874592469617
 20
197.6989066602536
 11
54.37914851143822
 21
197.7042301298935
  0
LINE
  8
1
  6
CONTINUOUS
 62
     7
 10
54.37914851143822
 20
197.7042301298935
 11
54.39810139423001
 21
197.7083631076473
  0
LINE
  8
1
  6
CONTINUOUS
 62
     7
 10
54.39810139423001
 20
197.7083631076473
 11
54.41719764250473
 21
197.7117579646242
  0
LINE
  8
1
  6
CONTINUOUS
 62
     7
 10
54.41719764250473
 20
197.7117579646242
 11
54.43639359380909
 21
197.7144081358004
  0
LINE
  8
1
  6
CONTINUOUS
 62
     7
 10
54.43639359380909
 20
197.7144081358004
 11
54.45593674436882
 21
197.7163317564914
  0
LINE
  8
1
  6
CONTINUOUS
 62
     7
 10
54.45593674436882
 20
197.7163317564914
 11
54.47553698893684
 21
197.7174869446965
  0
LINE
  8
1
  6
CONTINUOUS
 62
     7
 10
54.47553698893684
 20
197.7174869446965
 11
54.49514883959403
 21
197.7178723152469
  0
LINE
  8
1
  6
CONTINUOUS
 62
     7
 10
52.465148839594
 20
103.7178723152469
 11
52.48401023114567
 21
103.7175159253168
  0
LINE
  8
1
  6
CONTINUOUS
 62
     7
 10
52.48401023114567
 20
103.7175159253168
 11
52.50286169357027
 21
103.7164475152848
  0
LINE
  8
1
  6
CONTINUOUS
 62
     7
 10
52.50286169357027
 20
103.7164475152848
 11
52.52166276940886
 21
103.7146682247881
  0
LINE
  8
1
  6
CONTINUOUS
 62
     7
 10
52.52166276940886
 20
103.7146682247881
 11
52.54493548012115
 21
103.7114650438448
  0
LINE
  8
1
  6
CONTINUOUS
 62
     7
 10
52.54493548012115
 20
103.7114650438448
 11
52.56804689771065
 21
103.7071697601982
  0
LINE
  8
1
  6
CONTINUOUS
 62
     7
 10
52.56804689771065
 20
103.7071697601982
 11
52.58868370001467
 21
103.7023709541539
  0
LINE
  8
1
  6
CONTINUOUS
 62
     7
 10
52.58868370001467
 20
103.7023709541539
 11
52.60910964071481
 21
103.6966993066965
  0
LINE
  8
1
  6
CONTINUOUS
 62
     7
 10
52.60910964071481
 20
103.6966993066965
 11
52.62940511332892
 21
103.6901221183583
  0
LINE
  8
1
  6
CONTINUOUS
 62
     7
 10
52.62940511332892
 20
103.6901221183583
 11
52.64718228499994
 21
103.683558139812
  0
LINE
  8
1
  6
CONTINUOUS
 62
     7
 10
52.64718228499994
 20
103.683558139812
 11
52.66471150209075
 21
103.6763199200831
  0
LINE
  8
1
  6
CONTINUOUS
 62
     7
 10
52.66471150209075
 20
103.6763199200831
 11
52.68195391186794
 21
103.6684226017148
  0
LINE
  8
1
  6
CONTINUOUS
 62
     7
 10
52.68195391186794
 20
103.6684226017148
 11
52.70296693141444
 21
103.657692994871
  0
LINE
  8
1
  6
CONTINUOUS
 62
     7
 10
52.70296693141444
 20
103.657692994871
 11
52.7234582234758
 21
103.6459800846212
  0
LINE
  8
1
  6
CONTINUOUS
 62
     7
 10
52.7234582234758
 20
103.6459800846212
 11
52.74143528160806
 21
103.6346043468661
  0
LINE
  8
1
  6
CONTINUOUS
 62
     7
 10
52.74143528160806
 20
103.6346043468661
 11
52.75891651479706
 21
103.6224715651298
  0
LINE
  8
1
  6
CONTINUOUS
 62
     7
 10
52.75891651479706
 20
103.6224715651298
 11
52.77596917291677
 21
103.6095235892052
  0
LINE
  8
1
  6
CONTINUOUS
 62
     7
 10
52.77596917291677
 20
103.6095235892052
 11
52.79050973194043
 21
103.5975297341329
  0
LINE
  8
1
  6
CONTINUOUS
 62
     7
 10
52.79050973194043
 20
103.5975297341329
 11
52.80459446902707
 21
103.5849910026945
  0
LINE
  8
1
  6
CONTINUOUS
 62
     7
 10
52.80459446902707
 20
103.5849910026945
 11
52.81819242765142
 21
103.5719347743294
  0
LINE
  8
1
  6
CONTINUOUS
 62
     7
 10
52.81819242765142
 20
103.5719347743294
 11
52.83439908645088
 21
103.5549983094183
  0
LINE
  8
1
  6
CONTINUOUS
 62
     7
 10
52.83439908645088
 20
103.5549983094183
 11
52.84979368700828
 21
103.5373223760665
  0
LINE
  8
1
  6
CONTINUOUS
 62
     7
 10
52.84979368700828
 20
103.5373223760665
 11
52.86293840475505
 21
103.5207968142076
  0
LINE
  8
1
  6
CONTINUOUS
 62
     7
 10
52.86293840475505
 20
103.5207968142076
 11
52.87537204195718
 21
103.5037340374884
  0
LINE
  8
1
  6
CONTINUOUS
 62
     7
 10
52.87537204195718
 20
103.5037340374884
 11
52.88713909309988
 21
103.4860592387649
  0
LINE
  8
1
  6
CONTINUOUS
 62
     7
 10
52.88713909309988
 20
103.4860592387649
 11
52.89781814154375
 21
103.4684627911598
  0
LINE
  8
1
  6
CONTINUOUS
 62
     7
 10
52.89781814154375
 20
103.4684627911598
 11
52.90776971826206
 21
103.4504314555183
  0
LINE
  8
1
  6
CONTINUOUS
 62
     7
 10
52.90776971826206
 20
103.4504314555183
 11
52.91696970564881
 21
103.4320129592418
  0
LINE
  8
1
  6
CONTINUOUS
 62
     7
 10
52.91696970564881
 20
103.4320129592418
 11
52.92539398609805
 21
103.4132550297318
  0
LINE
  8
1
  6
CONTINUOUS
 62
     7
 10
52.92539398609805
 20
103.4132550297318
 11
52.93316251301519
 21
103.3938309038354
  0
LINE
  8
1
  6
CONTINUOUS
 62
     7
 10
52.93316251301519
 20
103.3938309038354
 11
52.94011494142688
 21
103.3740902428096
  0
LINE
  8
1
  6
CONTINUOUS
 62
     7
 10
52.94011494142688
 20
103.3740902428096
 11
52.94623505920976
 21
103.3540863786625
  0
LINE
  8
1
  6
CONTINUOUS
 62
     7
 10
52.94623505920976
 20
103.3540863786625
 11
52.95150665424053
 21
103.3338726434027
  0
LINE
  8
1
  6
CONTINUOUS
 62
     7
 10
52.95150665424053
 20
103.3338726434027
 11
52.95467641236351
 21
103.3196697105428
  0
LINE
  8
1
  6
CONTINUOUS
 62
     7
 10
52.95467641236351
 20
103.3196697105428
 11
52.95743061164649
 21
103.3053860679082
  0
LINE
  8
1
  6
CONTINUOUS
 62
     7
 10
52.95743061164649
 20
103.3053860679082
 11
52.96047049150162
 21
103.2861062854201
  0
LINE
  8
1
  6
CONTINUOUS
 62
     7
 10
52.96047049150162
 20
103.2861062854201
 11
52.96275587842916
 21
103.2667256480097
  0
LINE
  8
1
  6
CONTINUOUS
 62
     7
 10
52.96275587842916
 20
103.2667256480097
 11
52.96428275957154
 21
103.2472888059937
  0
LINE
  8
1
  6
CONTINUOUS
 62
     7
 10
52.96428275957154
 20
103.2472888059937
 11
52.964932317262
 21
103.2325838216756
  0
LINE
  8
1
  6
CONTINUOUS
 62
     7
 10
52.964932317262
 20
103.2325838216756
 11
52.965148839594
 21
103.2178723152469
  0
LINE
  8
1
  6
CONTINUOUS
 62
     7
 10
146.465148839594
 20
103.7178723152469
 11
146.4857157745834
 21
103.717447502837
  0
LINE
  8
1
  6
CONTINUOUS
 62
     7
 10
146.4857157745834
 20
103.717447502837
 11
146.5062774662181
 21
103.7161749674251
  0
LINE
  8
1
  6
CONTINUOUS
 62
     7
 10
146.5062774662181
 20
103.7161749674251
 11
146.5267813789768
 21
103.7140575617383
  0
LINE
  8
1
  6
CONTINUOUS
 62
     7
 10
146.5267813789768
 20
103.7140575617383
 11
146.5471749773382
 21
103.7110981385034
  0
LINE
  8
1
  6
CONTINUOUS
 62
     7
 10
146.5471749773382
 20
103.7110981385034
 11
146.5680214687499
 21
103.7071731868456
  0
LINE
  8
1
  6
CONTINUOUS
 62
     7
 10
146.5680214687499
 20
103.7071731868456
 11
146.5887131390722
 21
103.7023602131978
  0
LINE
  8
1
  6
CONTINUOUS
 62
     7
 10
146.5887131390722
 20
103.7023602131978
 11
146.6091932625251
 21
103.6966721971665
  0
LINE
  8
1
  6
CONTINUOUS
 62
     7
 10
146.6091932625251
 20
103.6966721971665
 11
146.6294051133289
 21
103.6901221183582
  0
LINE
  8
1
  6
CONTINUOUS
 62
     7
 10
146.6294051133289
 20
103.6901221183582
 11
146.6487774510342
 21
103.6829301795294
  0
LINE
  8
1
  6
CONTINUOUS
 62
     7
 10
146.6487774510342
 20
103.6829301795294
 11
146.6678609721579
 21
103.6749332965246
  0
LINE
  8
1
  6
CONTINUOUS
 62
     7
 10
146.6678609721579
 20
103.6749332965246
 11
146.6866057629734
 21
103.6661524915213
  0
LINE
  8
1
  6
CONTINUOUS
 62
     7
 10
146.6866057629734
 20
103.6661524915213
 11
146.7049619097545
 21
103.6566087866969
  0
LINE
  8
1
  6
CONTINUOUS
 62
     7
 10
146.7049619097545
 20
103.6566087866969
 11
146.7234344936839
 21
103.6459921160991
  0
LINE
  8
1
  6
CONTINUOUS
 62
     7
 10
146.7234344936839
 20
103.6459921160991
 11
146.7414599298107
 21
103.6345840879152
  0
LINE
  8
1
  6
CONTINUOUS
 62
     7
 10
146.7414599298107
 20
103.6345840879152
 11
146.7589881717
 21
103.6224171097492
  0
LINE
  8
1
  6
CONTINUOUS
 62
     7
 10
146.7589881717
 20
103.6224171097492
 11
146.7759691729168
 21
103.6095235892051
  0
LINE
  8
1
  6
CONTINUOUS
 62
     7
 10
146.7759691729168
 20
103.6095235892051
 11
146.7918016913292
 21
103.5964171800356
  0
LINE
  8
1
  6
CONTINUOUS
 62
     7
 10
146.7918016913292
 20
103.5964171800356
 11
146.8070967988169
 21
103.5826579648468
  0
LINE
  8
1
  6
CONTINUOUS
 62
     7
 10
146.8070967988169
 20
103.5826579648468
 11
146.8218153287242
 21
103.5682825260787
  0
LINE
  8
1
  6
CONTINUOUS
 62
     7
 10
146.8218153287242
 20
103.5682825260787
 11
146.835918114395
 21
103.5533274461714
  0
LINE
  8
1
  6
CONTINUOUS
 62
     7
 10
146.835918114395
 20
103.5533274461714
 11
146.8497752536726
 21
103.5373415936947
  0
LINE
  8
1
  6
CONTINUOUS
 62
     7
 10
146.8497752536726
 20
103.5373415936947
 11
146.8629544597157
 21
103.5207704924397
  0
LINE
  8
1
  6
CONTINUOUS
 62
     7
 10
146.8629544597157
 20
103.5207704924397
 11
146.8754207377746
 21
103.5036608161989
  0
LINE
  8
1
  6
CONTINUOUS
 62
     7
 10
146.8754207377746
 20
103.5036608161989
 11
146.8871390930999
 21
103.4860592387649
  0
LINE
  8
1
  6
CONTINUOUS
 62
     7
 10
146.8871390930999
 20
103.4860592387649
 11
146.897762579612
 21
103.4685587716835
  0
LINE
  8
1
  6
CONTINUOUS
 62
     7
 10
146.897762579612
 20
103.4685587716835
 11
146.9076664634003
 21
103.4506280083863
  0
LINE
  8
1
  6
CONTINUOUS
 62
     7
 10
146.9076664634003
 20
103.4506280083863
 11
146.9168269921194
 21
103.4323138993645
  0
LINE
  8
1
  6
CONTINUOUS
 62
     7
 10
146.9168269921194
 20
103.4323138993645
 11
146.925220413424
 21
103.4136633951091
  0
LINE
  8
1
  6
CONTINUOUS
 62
     7
 10
146.925220413424
 20
103.4136633951091
 11
146.9330452563623
 21
103.3941423596564
  0
LINE
  8
1
  6
CONTINUOUS
 62
     7
 10
146.9330452563623
 20
103.3941423596564
 11
146.9400455750695
 21
103.3743007708811
  0
LINE
  8
1
  6
CONTINUOUS
 62
     7
 10
146.9400455750695
 20
103.3743007708811
 11
146.946204873158
 21
103.3541928062932
  0
LINE
  8
1
  6
CONTINUOUS
 62
     7
 10
146.946204873158
 20
103.3541928062932
 11
146.9515066542405
 21
103.3338726434027
  0
LINE
  8
1
  6
CONTINUOUS
 62
     7
 10
146.9515066542405
 20
103.3338726434027
 11
146.9563994243889
 21
103.3109744965654
  0
LINE
  8
1
  6
CONTINUOUS
 62
     7
 10
146.9563994243889
 20
103.3109744965654
 11
146.9602169342155
 21
103.2878484366041
  0
LINE
  8
1
  6
CONTINUOUS
 62
     7
 10
146.9602169342155
 20
103.2878484366041
 11
146.9629522775033
 21
103.2645714172457
  0
LINE
  8
1
  6
CONTINUOUS
 62
     7
 10
146.9629522775033
 20
103.2645714172457
 11
146.9645985480352
 21
103.2412203922177
  0
LINE
  8
1
  6
CONTINUOUS
 62
     7
 10
146.9645985480352
 20
103.2412203922177
 11
146.965148839594
 21
103.2178723152469
  0
LINE
  8
1
  6
CONTINUOUS
 62
     7
 10
147.995148839594
 20
197.2178723152469
 11
147.995573652004
 21
197.2384392502363
  0
LINE
  8
1
  6
CONTINUOUS
 62
     7
 10
147.995573652004
 20
197.2384392502363
 11
147.9968461874158
 21
197.259000941871
  0
LINE
  8
1
  6
CONTINUOUS
 62
     7
 10
147.9968461874158
 20
197.259000941871
 11
147.9989635931026
 21
197.2795048546297
  0
LINE
  8
1
  6
CONTINUOUS
 62
     7
 10
147.9989635931026
 20
197.2795048546297
 11
148.0019230163375
 21
197.299898452991
  0
LINE
  8
1
  6
CONTINUOUS
 62
     7
 10
148.0019230163375
 20
197.299898452991
 11
148.0058479679954
 21
197.3207449444028
  0
LINE
  8
1
  6
CONTINUOUS
 62
     7
 10
148.0058479679954
 20
197.3207449444028
 11
148.0106609416431
 21
197.341436614725
  0
LINE
  8
1
  6
CONTINUOUS
 62
     7
 10
148.0106609416431
 20
197.341436614725
 11
148.0163489576744
 21
197.361916738178
  0
LINE
  8
1
  6
CONTINUOUS
 62
     7
 10
148.0163489576744
 20
197.361916738178
 11
148.0228990364827
 21
197.3821285889818
  0
LINE
  8
1
  6
CONTINUOUS
 62
     7
 10
148.0228990364827
 20
197.3821285889818
 11
148.0300909753115
 21
197.4015009266871
  0
LINE
  8
1
  6
CONTINUOUS
 62
     7
 10
148.0300909753115
 20
197.4015009266871
 11
148.0380878583163
 21
197.4205844478107
  0
LINE
  8
1
  6
CONTINUOUS
 62
     7
 10
148.0380878583163
 20
197.4205844478107
 11
148.0468686633197
 21
197.4393292386263
  0
LINE
  8
1
  6
CONTINUOUS
 62
     7
 10
148.0468686633197
 20
197.4393292386263
 11
148.056412368144
 21
197.4576853854074
  0
LINE
  8
1
  6
CONTINUOUS
 62
     7
 10
148.056412368144
 20
197.4576853854074
 11
148.0670290387418
 21
197.4761579693367
  0
LINE
  8
1
  6
CONTINUOUS
 62
     7
 10
148.0670290387418
 20
197.4761579693367
 11
148.0784370669257
 21
197.4941834054635
  0
LINE
  8
1
  6
CONTINUOUS
 62
     7
 10
148.0784370669257
 20
197.4941834054635
 11
148.0906040450917
 21
197.5117116473529
  0
LINE
  8
1
  6
CONTINUOUS
 62
     7
 10
148.0906040450917
 20
197.5117116473529
 11
148.1034975656358
 21
197.5286926485697
  0
LINE
  8
1
  6
CONTINUOUS
 62
     7
 10
148.1034975656358
 20
197.5286926485697
 11
148.1166039748053
 21
197.544525166982
  0
LINE
  8
1
  6
CONTINUOUS
 62
     7
 10
148.1166039748053
 20
197.544525166982
 11
148.1303631899941
 21
197.5598202744698
  0
LINE
  8
1
  6
CONTINUOUS
 62
     7
 10
148.1303631899941
 20
197.5598202744698
 11
148.1447386287622
 21
197.5745388043771
  0
LINE
  8
1
  6
CONTINUOUS
 62
     7
 10
148.1447386287622
 20
197.5745388043771
 11
148.1596937086695
 21
197.5886415900479
  0
LINE
  8
1
  6
CONTINUOUS
 62
     7
 10
148.1596937086695
 20
197.5886415900479
 11
148.1756795611462
 21
197.6024987293255
  0
LINE
  8
1
  6
CONTINUOUS
 62
     7
 10
148.1756795611462
 20
197.6024987293255
 11
148.1922506624012
 21
197.6156779353686
  0
LINE
  8
1
  6
CONTINUOUS
 62
     7
 10
148.1922506624012
 20
197.6156779353686
 11
148.209360338642
 21
197.6281442134275
  0
LINE
  8
1
  6
CONTINUOUS
 62
     7
 10
148.209360338642
 20
197.6281442134275
 11
148.226961916076
 21
197.6398625687528
  0
LINE
  8
1
  6
CONTINUOUS
 62
     7
 10
148.226961916076
 20
197.6398625687528
 11
148.2444623831574
 21
197.6504860552649
  0
LINE
  8
1
  6
CONTINUOUS
 62
     7
 10
148.2444623831574
 20
197.6504860552649
 11
148.2623931464546
 21
197.6603899390532
  0
LINE
  8
1
  6
CONTINUOUS
 62
     7
 10
148.2623931464546
 20
197.6603899390532
 11
148.2807072554764
 21
197.6695504677723
  0
LINE
  8
1
  6
CONTINUOUS
 62
     7
 10
148.2807072554764
 20
197.6695504677723
 11
148.2993577597318
 21
197.6779438890769
  0
LINE
  8
1
  6
CONTINUOUS
 62
     7
 10
148.2993577597318
 20
197.6779438890769
 11
148.3188787951846
 21
197.6857687320152
  0
LINE
  8
1
  6
CONTINUOUS
 62
     7
 10
148.3188787951846
 20
197.6857687320152
 11
148.3387203839598
 21
197.6927690507223
  0
LINE
  8
1
  6
CONTINUOUS
 62
     7
 10
148.3387203839598
 20
197.6927690507223
 11
148.3588283485477
 21
197.6989283488109
  0
LINE
  8
1
  6
CONTINUOUS
 62
     7
 10
148.3588283485477
 20
197.6989283488109
 11
148.3791485114382
 21
197.7042301298934
  0
LINE
  8
1
  6
CONTINUOUS
 62
     7
 10
148.3791485114382
 20
197.7042301298934
 11
148.4020466582755
 21
197.7091229000418
  0
LINE
  8
1
  6
CONTINUOUS
 62
     7
 10
148.4020466582755
 20
197.7091229000418
 11
148.4251727182369
 21
197.7129404098684
  0
LINE
  8
1
  6
CONTINUOUS
 62
     7
 10
148.4251727182369
 20
197.7129404098684
 11
148.4484497375952
 21
197.7156757531561
  0
LINE
  8
1
  6
CONTINUOUS
 62
     7
 10
148.4484497375952
 20
197.7156757531561
 11
148.4718007626233
 21
197.717322023688
  0
LINE
  8
1
  6
CONTINUOUS
 62
     7
 10
148.4718007626233
 20
197.717322023688
 11
148.495148839594
 21
197.7178723152469
  0
LINE
  8
1
  6
CONTINUOUS
 62
     7
 10
54.49514883959403
 20
197.7178723152469
 11
57.44685717270853
 21
197.7178723152469
  0
LINE
  8
1
  6
CONTINUOUS
 62
     7
 10
53.995148839594
 20
105.2478723152469
 11
53.995148839594
 21
108.1995806483614
  0
LINE
  8
1
  6
CONTINUOUS
 62
     7
 10
95.48014883959404
 20
89.53287231524689
 11
61.48014883959403
 21
89.53287231524689
  0
LINE
  8
1
  6
CONTINUOUS
 62
     7
 10
146.965148839594
 20
197.2178723152469
 11
146.965148839594
 21
194.2661639821324
  0
LINE
  8
1
  6
CONTINUOUS
 62
     7
 10
52.96514883959403
 20
197.2178723152469
 11
52.96514883959403
 21
196.0426040668353
  0
LINE
  8
1
  6
CONTINUOUS
 62
     7
 10
53.99514883959403
 20
196.0426040668353
 11
53.99514883959403
 21
197.2178723152469
  0
LINE
  8
1
  6
CONTINUOUS
 62
     7
 10
149.6704170880056
 20
198.7478723152469
 11
148.495148839594
 21
198.7478723152469
  0
LINE
  8
1
  6
CONTINUOUS
 62
     7
 10
53.99514883959403
 20
199.2478723152469
 11
53.99514883959403
 21
200.4231405636585
  0
LINE
  8
1
  6
CONTINUOUS
 62
     7
 10
145.2898805911825
 20
197.7178723152469
 11
146.465148839594
 21
197.7178723152469
  0
LINE
  8
1
  6
CONTINUOUS
 62
     7
 10
52.965148839594
 20
103.2178723152469
 11
52.965148839594
 21
100.2661639821324
  0
LINE
  8
1
  6
CONTINUOUS
 62
     7
 10
49.51344050647953
 20
197.7178723152469
 11
52.46514883959403
 21
197.7178723152469
  0
LINE
  8
1
  6
CONTINUOUS
 62
     7
 10
139.480148839594
 20
89.5328723152469
 11
105.480148839594
 21
89.5328723152469
  0
LINE
  8
1
  6
CONTINUOUS
 62
     7
 10
52.965148839594
 20
108.1995806483614
 11
52.965148839594
 21
105.2478723152469
  0
LINE
  8
1
  6
CONTINUOUS
 62
     7
 10
52.465148839594
 20
104.7478723152469
 11
51.2898805911824
 21
104.7478723152469
  0
LINE
  8
1
  6
CONTINUOUS
 62
     7
 10
146.465148839594
 20
198.7478723152469
 11
145.2898805911825
 21
198.7478723152469
  0
LINE
  8
1
  6
CONTINUOUS
 62
     7
 10
55.67041708800559
 20
104.7478723152469
 11
54.49514883959399
 21
104.7478723152469
  0
LINE
  8
1
  6
CONTINUOUS
 62
     7
 10
53.995148839594
 20
100.2661639821324
 11
53.995148839594
 21
103.2178723152469
  0
LINE
  8
1
  6
CONTINUOUS
 62
     7
 10
147.995148839594
 20
194.2661639821324
 11
147.995148839594
 21
197.2178723152469
  0
LINE
  8
1
  6
CONTINUOUS
 62
     7
 10
147.995148839594
 20
199.2478723152469
 11
147.995148839594
 21
202.1995806483614
  0
LINE
  8
1
  6
CONTINUOUS
 62
     7
 10
148.495148839594
 20
197.7178723152469
 11
149.6704170880056
 21
197.7178723152469
  0
LINE
  8
1
  6
CONTINUOUS
 62
     7
 10
146.965148839594
 20
202.1995806483614
 11
146.965148839594
 21
199.2478723152469
  0
LINE
  8
1
  6
CONTINUOUS
 62
     7
 10
54.495148839594
 20
103.7178723152469
 11
55.6704170880056
 21
103.7178723152469
  0
LINE
  8
1
  6
CONTINUOUS
 62
     7
 10
52.96514883959403
 20
200.4231405636585
 11
52.96514883959403
 21
199.2478723152469
  0
LINE
  8
1
  6
CONTINUOUS
 62
     7
 10
51.2898805911824
 20
103.7178723152469
 11
52.465148839594
 21
103.7178723152469
  0
LINE
  8
1
  6
CONTINUOUS
 62
     7
 10
57.44685717270853
 20
198.7478723152469
 11
54.49514883959403
 21
198.7478723152469
  0
LINE
  8
1
  6
CONTINUOUS
 62
     7
 10
52.46514883959403
 20
198.7478723152469
 11
49.51344050647953
 21
198.7478723152469
  0
LINE
  8
1
  6
CONTINUOUS
 62
     7
 10
69.90367825135871
 20
50.73061136767189
 11
69.90367825135871
 21
51.23148402122173
  0
LINE
  8
1
  6
CONTINUOUS
 62
     7
 10
96.72720766312342
 20
50.73061136767189
 11
96.72720766312342
 21
51.23148402122173
  0
LINE
  8
1
  6
CONTINUOUS
 62
     7
 10
77.4095606042999
 20
50.73061136767189
 11
77.4095606042999
 21
51.23148402122173
  0
LINE
  8
1
  6
CONTINUOUS
 62
     7
 10
97.52720766312343
 20
50.73061136767189
 11
97.52720766312343
 21
51.23148402122173
  0
LINE
  8
1
  6
CONTINUOUS
 62
     7
 10
100.080148839594
 20
50.73061136767189
 11
100.080148839594
 21
51.23148402122173
  0
LINE
  8
1
  6
CONTINUOUS
 62
     7
 10
80.76250178077049
 20
50.73061136767189
 11
80.76250178077049
 21
51.23148402122173
  0
LINE
  8
1
  6
CONTINUOUS
 62
     7
 10
47.23309001606461
 20
50.73061136767189
 11
47.23309001606461
 21
51.23148402122173
  0
LINE
  8
1
  6
CONTINUOUS
 62
     7
 10
53.93897236900578
 20
50.73061136767189
 11
53.93897236900578
 21
51.23148402122173
  0
LINE
  8
1
  6
CONTINUOUS
 62
     7
 10
56.49191354547637
 20
50.73061136767189
 11
56.49191354547637
 21
51.23148402122173
  0
LINE
  8
1
  6
CONTINUOUS
 62
     7
 10
53.13897236900578
 20
50.73061136767189
 11
53.13897236900578
 21
51.23148402122173
  0
LINE
  8
1
  6
CONTINUOUS
 62
     7
 10
63.99779589841756
 20
50.73061136767189
 11
63.99779589841756
 21
51.23148402122173
  0
LINE
  8
1
  6
CONTINUOUS
 62
     7
 10
76.6095606042999
 20
50.73061136767189
 11
76.6095606042999
 21
51.23148402122173
  0
LINE
  8
1
  6
CONTINUOUS
 62
     7
 10
63.19779589841756
 20
50.73061136767189
 11
63.19779589841756
 21
51.23148402122173
  0
LINE
  8
1
  6
CONTINUOUS
 62
     7
 10
87.46838413371167
 20
50.73061136767189
 11
87.46838413371167
 21
51.23148402122173
  0
LINE
  8
1
  6
CONTINUOUS
 62
     7
 10
66.55073707488815
 20
50.73061136767189
 11
66.55073707488815
 21
51.23148402122173
  0
LINE
  8
1
  6
CONTINUOUS
 62
     7
 10
59.84485472194695
 20
50.73061136767189
 11
59.84485472194695
 21
51.23148402122173
  0
LINE
  8
1
  6
CONTINUOUS
 62
     7
 10
73.25661942782932
 20
50.73061136767189
 11
73.25661942782932
 21
51.23148402122173
  0
LINE
  8
1
  6
CONTINUOUS
 62
     7
 10
74.05661942782932
 20
50.73061136767189
 11
74.05661942782932
 21
51.23148402122173
  0
LINE
  8
1
  6
CONTINUOUS
 62
     7
 10
84.11544295724107
 20
50.73061136767189
 11
84.11544295724107
 21
51.23148402122173
  0
LINE
  8
1
  6
CONTINUOUS
 62
     7
 10
90.82132531018225
 20
50.73061136767189
 11
90.82132531018225
 21
51.23148402122173
  0
LINE
  8
1
  6
CONTINUOUS
 62
     7
 10
67.35073707488814
 20
50.73061136767189
 11
67.35073707488814
 21
51.23148402122173
  0
LINE
  8
1
  6
CONTINUOUS
 62
     7
 10
93.37426648665284
 20
50.73061136767189
 11
93.37426648665284
 21
51.23148402122173
  0
LINE
  8
1
  6
CONTINUOUS
 62
     7
 10
50.5860311925352
 20
50.73061136767189
 11
50.5860311925352
 21
51.23148402122173
  0
LINE
  8
1
  6
CONTINUOUS
 62
     7
 10
83.31544295724107
 20
50.73061136767189
 11
83.31544295724107
 21
51.23148402122173
  0
LINE
  8
1
  6
CONTINUOUS
 62
     7
 10
86.66838413371167
 20
50.73061136767189
 11
86.66838413371167
 21
51.23148402122173
  0
LINE
  8
1
  6
CONTINUOUS
 62
     7
 10
79.9625017807705
 20
50.73061136767189
 11
79.9625017807705
 21
51.23148402122173
  0
LINE
  8
1
  6
CONTINUOUS
 62
     7
 10
90.02132531018225
 20
50.73061136767189
 11
90.02132531018225
 21
51.23148402122173
  0
LINE
  8
1
  6
CONTINUOUS
 62
     7
 10
70.70367825135871
 20
50.73061136767189
 11
70.70367825135871
 21
51.23148402122173
  0
LINE
  8
1
  6
CONTINUOUS
 62
     7
 10
49.7860311925352
 20
50.73061136767189
 11
49.7860311925352
 21
51.23148402122173
  0
LINE
  8
1
  6
CONTINUOUS
 62
     7
 10
57.29191354547637
 20
50.73061136767189
 11
57.29191354547637
 21
51.23148402122173
  0
LINE
  8
1
  6
CONTINUOUS
 62
     7
 10
60.64485472194696
 20
50.73061136767189
 11
60.64485472194696
 21
51.23148402122173
  0
LINE
  8
1
  6
CONTINUOUS
 62
     7
 10
94.17426648665285
 20
50.73061136767189
 11
94.17426648665285
 21
51.23148402122173
  0
LINE
  8
1
  6
CONTINUOUS
 62
     7
 10
127.7036782513587
 20
51.22624809992271
 11
130.2566194278293
 21
51.22624809992271
  0
LINE
  8
1
  6
CONTINUOUS
 62
     7
 10
107.5860311925352
 20
51.22624809992271
 11
110.1389723690058
 21
51.22624809992271
  0
LINE
  8
1
  6
CONTINUOUS
 62
     7
 10
113.4919135454764
 20
50.73061136767189
 11
113.4919135454764
 21
51.23148402122173
  0
LINE
  8
1
  6
CONTINUOUS
 62
     7
 10
140.3154429572411
 20
50.73061136767189
 11
140.3154429572411
 21
51.23148402122173
  0
LINE
  8
1
  6
CONTINUOUS
 62
     7
 10
114.2919135454764
 20
51.22624809992271
 11
116.844854721947
 21
51.22624809992271
  0
LINE
  8
1
  6
CONTINUOUS
 62
     7
 10
131.0566194278293
 20
51.22624809992271
 11
133.6095606042999
 21
51.22624809992271
  0
LINE
  8
1
  6
CONTINUOUS
 62
     7
 10
136.9625017807705
 20
50.73061136767189
 11
136.9625017807705
 21
51.23148402122173
  0
LINE
  8
1
  6
CONTINUOUS
 62
     7
 10
151.1742664866529
 20
50.73061136767189
 11
151.1742664866529
 21
51.23148402122173
  0
LINE
  8
1
  6
CONTINUOUS
 62
     7
 10
100.880148839594
 20
51.22624809992271
 11
103.4330900160646
 21
51.22624809992271
  0
LINE
  8
1
  6
CONTINUOUS
 62
     7
 10
141.1154429572411
 20
51.22624809992271
 11
143.6683841337117
 21
51.22624809992271
  0
LINE
  8
1
  6
CONTINUOUS
 62
     7
 10
110.1389723690058
 20
50.73061136767189
 11
110.1389723690058
 21
51.23148402122173
  0
LINE
  8
1
  6
CONTINUOUS
 62
     7
 10
134.4095606042999
 20
51.22624809992271
 11
136.9625017807705
 21
51.22624809992271
  0
LINE
  8
1
  6
CONTINUOUS
 62
     7
 10
120.1977958984176
 20
50.73061136767189
 11
120.1977958984176
 21
51.23148402122173
  0
LINE
  8
1
  6
CONTINUOUS
 62
     7
 10
137.7625017807705
 20
50.73061136767189
 11
137.7625017807705
 21
51.23148402122173
  0
LINE
  8
1
  6
CONTINUOUS
 62
     7
 10
104.2330900160646
 20
50.73061136767189
 11
104.2330900160646
 21
51.23148402122173
  0
LINE
  8
1
  6
CONTINUOUS
 62
     7
 10
127.7036782513587
 20
50.73061136767189
 11
127.7036782513587
 21
51.23148402122173
  0
LINE
  8
1
  6
CONTINUOUS
 62
     7
 10
147.0213253101822
 20
50.73061136767189
 11
147.0213253101822
 21
51.23148402122173
  0
LINE
  8
1
  6
CONTINUOUS
 62
     7
 10
107.5860311925352
 20
50.73061136767189
 11
107.5860311925352
 21
51.23148402122173
  0
LINE
  8
1
  6
CONTINUOUS
 62
     7
 10
120.9977958984176
 20
50.73061136767189
 11
120.9977958984176
 21
51.23148402122173
  0
LINE
  8
1
  6
CONTINUOUS
 62
     7
 10
103.4330900160646
 20
50.73061136767189
 11
103.4330900160646
 21
51.23148402122173
  0
LINE
  8
1
  6
CONTINUOUS
 62
     7
 10
124.3507370748881
 20
50.73061136767189
 11
124.3507370748881
 21
51.23148402122173
  0
LINE
  8
1
  6
CONTINUOUS
 62
     7
 10
131.0566194278293
 20
50.73061136767189
 11
131.0566194278293
 21
51.23148402122173
  0
LINE
  8
1
  6
CONTINUOUS
 62
     7
 10
144.4683841337117
 20
50.73061136767189
 11
144.4683841337117
 21
51.23148402122173
  0
LINE
  8
1
  6
CONTINUOUS
 62
     7
 10
154.5272076631234
 20
50.73061136767189
 11
154.5272076631234
 21
51.23148402122173
  0
LINE
  8
1
  6
CONTINUOUS
 62
     7
 10
157.880148839594
 20
50.73061136767189
 11
157.880148839594
 21
51.23148402122173
  0
LINE
  8
1
  6
CONTINUOUS
 62
     7
 10
150.3742664866529
 20
50.73061136767189
 11
150.3742664866529
 21
51.23148402122173
  0
LINE
  8
1
  6
CONTINUOUS
 62
     7
 10
160.480148839594
 20
43.22624809992271
 11
159.9801678780619
 21
43.22624809992271
  0
LINE
  8
1
  6
CONTINUOUS
 62
     7
 10
120.9977958984176
 20
51.22624809992271
 11
123.5507370748881
 21
51.22624809992271
  0
LINE
  8
1
  6
CONTINUOUS
 62
     7
 10
147.8213253101823
 20
50.73061136767189
 11
147.8213253101823
 21
51.23148402122173
  0
LINE
  8
1
  6
CONTINUOUS
 62
     7
 10
117.644854721947
 20
51.22624809992271
 11
120.1977958984176
 21
51.22624809992271
  0
LINE
  8
1
  6
CONTINUOUS
 62
     7
 10
74.05661942782932
 20
51.22624809992271
 11
76.6095606042999
 21
51.22624809992271
  0
LINE
  8
1
  6
CONTINUOUS
 62
     7
 10
106.7860311925352
 20
50.73061136767189
 11
106.7860311925352
 21
51.23148402122173
  0
LINE
  8
1
  6
CONTINUOUS
 62
     7
 10
124.3507370748881
 20
51.22624809992271
 11
126.9036782513587
 21
51.22624809992271
  0
LINE
  8
1
  6
CONTINUOUS
 62
     7
 10
144.4683841337117
 20
51.22624809992271
 11
147.0213253101822
 21
51.22624809992271
  0
LINE
  8
1
  6
CONTINUOUS
 62
     7
 10
133.6095606042999
 20
50.73061136767189
 11
133.6095606042999
 21
51.23148402122173
  0
LINE
  8
1
  6
CONTINUOUS
 62
     7
 10
40.48014883959402
 20
43.22624809992271
 11
40.5456384256855
 21
50.7306113676719
  0
LINE
  8
1
  6
CONTINUOUS
 62
     7
 10
104.2330900160646
 20
51.22624809992271
 11
106.7860311925352
 21
51.22624809992271
  0
LINE
  8
1
  6
CONTINUOUS
 62
     7
 10
80.76250178077049
 20
51.22624809992271
 11
83.31544295724107
 21
51.22624809992271
  0
LINE
  8
1
  6
CONTINUOUS
 62
     7
 10
40.98016787878689
 20
43.22624809992271
 11
159.9801298004011
 21
43.22624809992271
  0
LINE
  8
1
  6
CONTINUOUS
 62
     7
 10
90.82132531018225
 20
51.22624809992271
 11
93.37426648665284
 21
51.22624809992271
  0
LINE
  8
1
  6
CONTINUOUS
 62
     7
 10
123.5507370748881
 20
50.73061136767189
 11
123.5507370748881
 21
51.23148402122173
  0
LINE
  8
1
  6
CONTINUOUS
 62
     7
 10
77.4095606042999
 20
51.22624809992271
 11
79.9625017807705
 21
51.22624809992271
  0
LINE
  8
1
  6
CONTINUOUS
 62
     7
 10
94.17426648665285
 20
51.22624809992271
 11
96.72720766312342
 21
51.22624809992271
  0
LINE
  8
1
  6
CONTINUOUS
 62
     7
 10
141.1154429572411
 20
50.73061136767189
 11
141.1154429572411
 21
51.23148402122173
  0
LINE
  8
1
  6
CONTINUOUS
 62
     7
 10
151.1742664866529
 20
51.22624809992271
 11
153.7272076631234
 21
51.22624809992271
  0
LINE
  8
1
  6
CONTINUOUS
 62
     7
 10
117.644854721947
 20
50.73061136767189
 11
117.644854721947
 21
51.23148402122173
  0
LINE
  8
1
  6
CONTINUOUS
 62
     7
 10
110.9389723690058
 20
50.73061136767189
 11
110.9389723690058
 21
51.23148402122173
  0
LINE
  8
1
  6
CONTINUOUS
 62
     7
 10
143.6683841337117
 20
50.73061136767189
 11
143.6683841337117
 21
51.23148402122173
  0
LINE
  8
1
  6
CONTINUOUS
 62
     7
 10
114.2919135454764
 20
50.73061136767189
 11
114.2919135454764
 21
51.23148402122173
  0
LINE
  8
1
  6
CONTINUOUS
 62
     7
 10
134.4095606042999
 20
50.73061136767189
 11
134.4095606042999
 21
51.23148402122173
  0
LINE
  8
1
  6
CONTINUOUS
 62
     7
 10
153.7272076631234
 20
50.73061136767189
 11
153.7272076631234
 21
51.23148402122173
  0
LINE
  8
1
  6
CONTINUOUS
 62
     7
 10
157.080148839594
 20
50.73061136767189
 11
157.080148839594
 21
51.23148402122173
  0
LINE
  8
1
  6
CONTINUOUS
 62
     7
 10
43.88014883959402
 20
50.73061136767189
 11
43.88014883959402
 21
51.23148402122173
  0
LINE
  8
1
  6
CONTINUOUS
 62
     7
 10
46.43309001606461
 20
50.73061136767189
 11
46.43309001606461
 21
51.23148402122173
  0
LINE
  8
1
  6
CONTINUOUS
 62
     7
 10
160.4146592535025
 20
50.73061136767189
 11
160.480148839594
 21
43.22624809992271
  0
LINE
  8
1
  6
CONTINUOUS
 62
     7
 10
130.2566194278293
 20
50.73061136767189
 11
130.2566194278293
 21
51.23148402122173
  0
LINE
  8
1
  6
CONTINUOUS
 62
     7
 10
126.9036782513587
 20
50.73061136767189
 11
126.9036782513587
 21
51.23148402122173
  0
LINE
  8
1
  6
CONTINUOUS
 62
     7
 10
43.08014883959402
 20
50.73061136767189
 11
43.08014883959402
 21
51.23148402122173
  0
LINE
  8
1
  6
CONTINUOUS
 62
     7
 10
40.98012980112612
 20
43.22624809992271
 11
40.48014883959403
 21
43.22624809992271
  0
LINE
  8
1
  6
CONTINUOUS
 62
     7
 10
154.5272076631234
 20
51.22624809992271
 11
157.080148839594
 21
51.22624809992271
  0
LINE
  8
1
  6
CONTINUOUS
 62
     7
 10
137.7625017807705
 20
51.22624809992271
 11
140.3154429572411
 21
51.22624809992271
  0
LINE
  8
1
  6
CONTINUOUS
 62
     7
 10
147.8213253101823
 20
51.22624809992271
 11
150.3742664866529
 21
51.22624809992271
  0
LINE
  8
1
  6
CONTINUOUS
 62
     7
 10
116.844854721947
 20
50.73061136767189
 11
116.844854721947
 21
51.23148402122173
  0
LINE
  8
1
  6
CONTINUOUS
 62
     7
 10
100.880148839594
 20
50.73061136767189
 11
100.880148839594
 21
51.23148402122173
  0
LINE
  8
1
  6
CONTINUOUS
 62
     7
 10
63.99779589841756
 20
51.22624809992271
 11
66.55073707488815
 21
51.22624809992271
  0
LINE
  8
1
  6
CONTINUOUS
 62
     7
 10
87.46838413371167
 20
51.22624809992271
 11
90.02132531018225
 21
51.22624809992271
  0
LINE
  8
1
  6
CONTINUOUS
 62
     7
 10
84.11544295724107
 20
51.22624809992271
 11
86.66838413371167
 21
51.22624809992271
  0
LINE
  8
1
  6
CONTINUOUS
 62
     7
 10
67.35073707488814
 20
51.22624809992271
 11
69.90367825135873
 21
51.22624809992271
  0
LINE
  8
1
  6
CONTINUOUS
 62
     7
 10
97.52720766312343
 20
51.22624809992271
 11
100.080148839594
 21
51.22624809992271
  0
LINE
  8
1
  6
CONTINUOUS
 62
     7
 10
110.9389723690058
 20
51.22624809992271
 11
113.4919135454764
 21
51.22624809992271
  0
LINE
  8
1
  6
CONTINUOUS
 62
     7
 10
53.93897236900578
 20
51.22624809992271
 11
56.49191354547638
 21
51.22624809992271
  0
LINE
  8
1
  6
CONTINUOUS
 62
     7
 10
157.880148839594
 20
51.22624809992271
 11
159.9146782919705
 21
51.22624809992271
  0
LINE
  8
1
  6
CONTINUOUS
 62
     7
 10
43.88014883959402
 20
51.22624809992271
 11
46.43309001606461
 21
51.22624809992271
  0
LINE
  8
1
  6
CONTINUOUS
 62
     7
 10
47.23309001606461
 20
51.22624809992271
 11
49.7860311925352
 21
51.22624809992271
  0
LINE
  8
1
  6
CONTINUOUS
 62
     7
 10
57.29191354547637
 20
51.22624809992271
 11
59.84485472194696
 21
51.22624809992271
  0
LINE
  8
1
  6
CONTINUOUS
 62
     7
 10
60.64485472194696
 20
51.22624809992271
 11
63.19779589841756
 21
51.22624809992271
  0
LINE
  8
1
  6
CONTINUOUS
 62
     7
 10
50.5860311925352
 20
51.22624809992271
 11
53.13897236900579
 21
51.22624809992271
  0
ARC
  8
1
  6
CONTINUOUS
 62
     7
 10
147.480148839594
 20
104.2328723152469
 40
1.030668528585341
 50
58.8615643243475
 51
121.1384356756525
  0
ARC
  8
1
  6
CONTINUOUS
 62
     7
 10
53.48014883959403
 20
198.2328723152469
 40
5.050000000000002
 50
93.87383623159191
 51
124.9661651838684
  0
ARC
  8
1
  6
CONTINUOUS
 62
     7
 10
147.480148839594
 20
104.2328723152469
 40
1.030668528585378
 50
238.8615643243469
 51
301.138435675653
  0
ARC
  8
1
  6
CONTINUOUS
 62
     7
 10
147.480148839594
 20
104.2328723152469
 40
2.249999999999997
 50
346.7683351757007
 51
13.23166482429929
  0
ARC
  8
1
  6
CONTINUOUS
 62
     7
 10
53.48014883959403
 20
198.2328723152469
 40
5.049999999999997
 50
275.2128623546951
 51
306.6117178433724
  0
ARC
  8
1
  6
CONTINUOUS
 62
     7
 10
147.480148839594
 20
104.2328723152469
 40
3.999999999999996
 50
352.602634425356
 51
7.397365574643971
  0
ARC
  8
1
  6
CONTINUOUS
 62
     7
 10
147.480148839594
 20
104.2328723152469
 40
2.249999999999997
 50
166.7683351757007
 51
193.2316648242993
  0
ARC
  8
1
  6
CONTINUOUS
 62
     7
 10
147.480148839594
 20
104.2328723152469
 40
1.030668528585341
 50
328.8615643243475
 51
31.13843567565254
  0
ARC
  8
1
  6
CONTINUOUS
 62
     7
 10
147.480148839594
 20
104.2328723152469
 40
1.030668528585341
 50
148.8615643243475
 51
211.1384356756525
  0
ARC
  8
1
  6
CONTINUOUS
 62
     7
 10
53.48014883959403
 20
198.2328723152469
 40
5.050000000000004
 50
235.0338348161316
 51
266.126163768408
  0
ARC
  8
1
  6
CONTINUOUS
 62
     7
 10
53.48014883959403
 20
198.2328723152469
 40
5.049999999999985
 50
319.008324606948
 51
40.99167539305211
  0
ARC
  8
1
  6
CONTINUOUS
 62
     7
 10
147.480148839594
 20
104.2328723152469
 40
3.999999999999996
 50
7.397365574643969
 51
172.6026344253561
  0
ARC
  8
1
  6
CONTINUOUS
 62
     7
 10
53.48014883959403
 20
198.2328723152469
 40
5.049999999999997
 50
137.0130018193008
 51
222.9869981806992
  0
ARC
  8
1
  6
CONTINUOUS
 62
     7
 10
147.480148839594
 20
104.2328723152469
 40
2.249999999999993
 50
76.76833517570103
 51
103.2316648242989
  0
ARC
  8
1
  6
CONTINUOUS
 62
     7
 10
147.480148839594
 20
104.2328723152469
 40
3.999999999999996
 50
172.6026344253561
 51
187.397365574644
  0
ENDSEC
  0
EOF
