  0
SECTION
  2
HEADER
  9
$ACADVER
  1
AC1004
  9
$INSBASE
 10
0.0
 20
0.0
  9
$EXTMIN
 10
-7.004363433895391
 20
404.5012083405497
  9
$EXTMAX
 10
225.248791659449
 20
632.138338133966
  9
$LIMMIN
 10
0.0
 20
0.0
  9
$LIMMAX
 10
12.0
 20
9.0
  9
$ORTHOMODE
 70
     0
  9
$REGENMODE
 70
     1
  9
$FILLMODE
 70
     1
  9
$QTEXTMODE
 70
     0
  9
$DRAGMODE
 70
     2
  9
$LTSCALE
 40
1.0
  9
$OSMODE
 70
    37
  9
$ATTMODE
 70
     1
  9
$TEXTSIZE
 40
0.2
  9
$TRACEWID
 40
0.05
  9
$TEXTSTYLE
  7
STANDARD
  9
$CLAYER
  8
0
  9
$CELTYPE
  6
BYLAYER
  9
$CECOLOR
 62
   256
  9
$DIMSCALE
 40
1.0
  9
$DIMASZ
 40
3.0
  9
$DIMEXO
 40
0.0625
  9
$DIMDLI
 40
0.38
  9
$DIMRND
 40
0.0
  9
$DIMDLE
 40
0.0
  9
$DIMEXE
 40
1.5
  9
$DIMTP
 40
0.0
  9
$DIMTM
 40
0.0
  9
$DIMTXT
 40
3.0
  9
$DIMCEN
 40
0.09
  9
$DIMTSZ
 40
0.0
  9
$DIMTOL
 70
     0
  9
$DIMLIM
 70
     0
  9
$DIMTIH
 70
     1
  9
$DIMTOH
 70
     1
  9
$DIMSE1
 70
     0
  9
$DIMSE2
 70
     0
  9
$DIMTAD
 70
     1
  9
$DIMZIN
 70
     0
  9
$DIMBLK
  1

  9
$DIMASO
 70
     1
  9
$DIMSHO
 70
     1
  9
$DIMPOST
  1

  9
$DIMAPOST
  1

  9
$DIMALT
 70
     0
  9
$DIMALTD
 70
     2
  9
$DIMALTF
 40
25.4
  9
$DIMLFAC
 40
1.0
  9
$DIMTOFL
 70
     0
  9
$DIMTVP
 40
0.0
  9
$DIMTIX
 70
     0
  9
$DIMSOXD
 70
     0
  9
$DIMSAH
 70
     0
  9
$DIMBLK1
  1

  9
$DIMBLK2
  1

  9
$LUNITS
 70
     2
  9
$LUPREC
 70
     4
  9
$SKETCHINC
 40
0.1
  9
$FILLETRAD
 40
0.5
  9
$AUNITS
 70
     0
  9
$AUPREC
 70
     0
  9
$MENU
  1
.
  9
$ELEVATION
 40
0.0
  9
$THICKNESS
 40
0.0
  9
$LIMCHECK
 70
     0
  9
$CHAMFERA
 40
0.0
  9
$CHAMFERB
 40
0.0
  9
$SKPOLY
 70
     0
  9
$TDCREATE
 40
2458961.685409294
  9
$TDUPDATE
 40
2458961.685409468
  9
$TDINDWG
 40
0.0000000116
  9
$TDUSRTIMER
 40
0.0000000116
  9
$USRTIMER
 70
     1
  9
$ANGBASE
 50
0.0
  9
$ANGDIR
 70
     0
  9
$PDMODE
 70
     0
  9
$PDSIZE
 40
0.0
  9
$PLINEWID
 40
0.0
  9
$COORDS
 70
     1
  9
$SPLFRAME
 70
     0
  9
$SPLINETYPE
 70
     6
  9
$SPLINESEGS
 70
     8
  9
$ATTDIA
 70
     0
  9
$ATTREQ
 70
     1
  9
$SURFTAB1
 70
     6
  9
$SURFTAB2
 70
     6
  9
$SURFTYPE
 70
     6
  9
$SURFU
 70
     6
  9
$SURFV
 70
     6
  9
$UCSNAME
  2

  9
$UCSORG
 10
0.0
 20
0.0
 30
0.0
  9
$UCSXDIR
 10
1.0
 20
0.0
 30
0.0
  9
$UCSYDIR
 10
0.0
 20
1.0
 30
0.0
  9
$USERI1
 70
     0
  9
$USERI2
 70
     0
  9
$USERI3
 70
     0
  9
$USERI4
 70
     0
  9
$USERI5
 70
     0
  9
$USERR1
 40
0.0
  9
$USERR2
 40
0.0
  9
$USERR3
 40
0.0
  9
$USERR4
 40
0.0
  9
$USERR5
 40
0.0
  9
$WORLDVIEW
 70
     1
  0
ENDSEC
  0
SECTION
  2
TABLES
  0
TABLE
  2
LTYPE
 70
     2
  0
LTYPE
  2
CONTINUOUS
 70
     0
  3
Solid line
 72
    65
 73
     0
 40
0.0
  0
LTYPE
  2
CENTER
 70
     0
  3

 72
    65
 73
     0
 40
0.0
  0
ENDTAB
  0
TABLE
  2
LAYER
 70
     1
  0
LAYER
  2
0
 70
     0
 62
     7
  6
CONTINUOUS
  0
ENDTAB
  0
TABLE
  2
STYLE
 70
     2
  0
STYLE
  2
STANDARD
 70
     0
 40
0.0
 41
1.0
 50
0.0
 71
     0
 42
0.2
  3
txt
  4

  0
STYLE
  2
ＭＳ_ゴシック
 70
     0
 40
0.0
 41
1.0
 50
0.0
 71
     0
 42
0.2
  3
ＭＳ ゴシック.shx
  4

  0
ENDTAB
  0
TABLE
  2
VIEW
 70
     0
  0
ENDTAB
  0
ENDSEC
  0
SECTION
  2
BLOCKS
  0
BLOCK
  8
0
  2
D_FRAME_VIEW_45101
 70
     0
 10
0.0
 20
0.0
  0
LINE
  8
0
  6
CONTINUOUS
 62
     7
 10
36.72358322295241
 20
509.440282614589
 11
36.67399999999999
 21
509.7499999999999
  0
LINE
  8
0
  6
CONTINUOUS
 62
     7
 10
69.326
 20
509.7499999999999
 11
69.27641677703997
 21
509.4402826145658
  0
LINE
  8
0
  6
CONTINUOUS
 62
     7
 10
65.1
 20
521.7499999999999
 11
40.90000000000001
 21
521.7499999999999
  0
LINE
  8
0
  6
CONTINUOUS
 62
     7
 10
69.27641677704759
 20
630.059717385411
 11
69.32600000000002
 21
629.75
  0
LINE
  8
0
  6
CONTINUOUS
 62
     7
 10
36.67400000000001
 20
629.75
 11
36.72358322296004
 21
630.059717385434
  0
LINE
  8
0
  6
CONTINUOUS
 62
     7
 10
40.90000000000002
 20
617.75
 11
65.1
 21
617.75
  0
LINE
  8
0
  6
CONTINUOUS
 62
     7
 10
68.6549586405816
 20
630.6874688141437
 11
68.65511998055993
 21
630.6874945333174
  0
ARC
  8
0
  6
CONTINUOUS
 62
     7
 10
100.0
 20
559.75
 40
2.249999999999981
 50
346.7683351757009
 51
13.23166482429923
  0
ARC
  8
0
  6
CONTINUOUS
 62
     7
 10
100.0
 20
559.75
 40
2.25000000000002
 50
76.76833517570073
 51
103.2316648242993
  0
LINE
  8
0
  6
CONTINUOUS
 62
     7
 10
99.48499999999999
 20
561.9402682484116
 11
99.48499999999999
 21
560.265
  0
LINE
  8
0
  6
CONTINUOUS
 62
     7
 10
99.48499999999999
 20
560.265
 11
97.8097317515884
 21
560.265
  0
ARC
  8
0
  6
CONTINUOUS
 62
     7
 10
100.0
 20
559.75
 40
2.25000000000002
 50
166.7683351757008
 51
193.2316648242992
  0
LINE
  8
0
  6
CONTINUOUS
 62
     7
 10
97.8097317515884
 20
559.235
 11
99.48499999999999
 21
559.235
  0
LINE
  8
0
  6
CONTINUOUS
 62
     7
 10
99.48499999999999
 20
559.235
 11
99.48499999999999
 21
557.5597317515883
  0
ARC
  8
0
  6
CONTINUOUS
 62
     7
 10
100.0
 20
559.75
 40
2.250000000000027
 50
256.7683351757007
 51
283.2316648242993
  0
LINE
  8
0
  6
CONTINUOUS
 62
     7
 10
100.515
 20
557.5597317515883
 11
100.515
 21
559.235
  0
LINE
  8
0
  6
CONTINUOUS
 62
     7
 10
100.515
 20
559.235
 11
102.1902682484116
 21
559.235
  0
LINE
  8
0
  6
CONTINUOUS
 62
     7
 10
100.515
 20
560.265
 11
100.515
 21
561.9402682484116
  0
CIRCLE
  8
0
  6
CONTINUOUS
 62
     7
 10
100.0
 20
559.75
 40
4.199999999999996
  0
LINE
  8
0
  6
CONTINUOUS
 62
     7
 10
102.1902682484116
 20
560.265
 11
100.515
 21
560.265
  0
ARC
  8
0
  6
CONTINUOUS
 62
     7
 10
100.0
 20
579.75
 40
2.250000000000006
 50
346.7683351757009
 51
13.23166482429923
  0
ARC
  8
0
  6
CONTINUOUS
 62
     7
 10
100.0
 20
579.75
 40
2.25000000000002
 50
166.7683351757008
 51
193.2316648242992
  0
ARC
  8
0
  6
CONTINUOUS
 62
     7
 10
100.0
 20
579.75
 40
2.25000000000002
 50
76.76833517570073
 51
103.2316648242993
  0
LINE
  8
0
  6
CONTINUOUS
 62
     7
 10
97.8097317515884
 20
579.2349999999999
 11
99.48499999999999
 21
579.2349999999999
  0
LINE
  8
0
  6
CONTINUOUS
 62
     7
 10
99.48499999999999
 20
579.2349999999999
 11
99.48499999999999
 21
577.5597317515884
  0
ARC
  8
0
  6
CONTINUOUS
 62
     7
 10
100.0
 20
579.75
 40
2.250000000000027
 50
256.7683351757007
 51
283.2316648242993
  0
LINE
  8
0
  6
CONTINUOUS
 62
     7
 10
102.1902682484116
 20
580.265
 11
100.515
 21
580.265
  0
LINE
  8
0
  6
CONTINUOUS
 62
     7
 10
100.515
 20
580.265
 11
100.515
 21
581.9402682484116
  0
CIRCLE
  8
0
  6
CONTINUOUS
 62
     7
 10
100.0
 20
579.75
 40
4.199999999999996
  0
LINE
  8
0
  6
CONTINUOUS
 62
     7
 10
100.515
 20
577.5597317515884
 11
100.515
 21
579.2349999999999
  0
LINE
  8
0
  6
CONTINUOUS
 62
     7
 10
99.48499999999999
 20
580.265
 11
97.8097317515884
 21
580.265
  0
LINE
  8
0
  6
CONTINUOUS
 62
     7
 10
100.515
 20
579.2349999999999
 11
102.1902682484116
 21
579.2349999999999
  0
LINE
  8
0
  6
CONTINUOUS
 62
     7
 10
99.48499999999999
 20
581.9402682484116
 11
99.48499999999999
 21
580.265
  0
ARC
  8
0
  6
CONTINUOUS
 62
     7
 10
5.999999999999998
 20
559.75
 40
2.250000000000024
 50
76.76833517570073
 51
103.2316648242993
  0
ARC
  8
0
  6
CONTINUOUS
 62
     7
 10
5.999999999999998
 20
559.75
 40
2.249999999999988
 50
346.7683351757009
 51
13.23166482429923
  0
CIRCLE
  8
0
  6
CONTINUOUS
 62
     7
 10
5.999999999999998
 20
559.75
 40
4.200000000000002
  0
LINE
  8
0
  6
CONTINUOUS
 62
     7
 10
5.484999999999997
 20
560.265
 11
3.809731751588399
 21
560.265
  0
ARC
  8
0
  6
CONTINUOUS
 62
     7
 10
5.999999999999998
 20
559.75
 40
2.250000000000013
 50
166.7683351757008
 51
193.2316648242992
  0
LINE
  8
0
  6
CONTINUOUS
 62
     7
 10
5.484999999999997
 20
559.235
 11
5.484999999999997
 21
557.5597317515883
  0
ARC
  8
0
  6
CONTINUOUS
 62
     7
 10
5.999999999999998
 20
559.75
 40
2.250000000000024
 50
256.7683351757007
 51
283.2316648242993
  0
LINE
  8
0
  6
CONTINUOUS
 62
     7
 10
8.190268248411597
 20
560.265
 11
6.515
 21
560.265
  0
LINE
  8
0
  6
CONTINUOUS
 62
     7
 10
6.515
 20
557.5597317515883
 11
6.515
 21
559.235
  0
LINE
  8
0
  6
CONTINUOUS
 62
     7
 10
6.515
 20
560.265
 11
6.515
 21
561.9402682484116
  0
LINE
  8
0
  6
CONTINUOUS
 62
     7
 10
5.484999999999997
 20
561.9402682484116
 11
5.484999999999997
 21
560.265
  0
LINE
  8
0
  6
CONTINUOUS
 62
     7
 10
3.809731751588399
 20
559.235
 11
5.484999999999997
 21
559.235
  0
LINE
  8
0
  6
CONTINUOUS
 62
     7
 10
6.515
 20
559.235
 11
8.190268248411597
 21
559.235
  0
ARC
  8
0
  6
CONTINUOUS
 62
     7
 10
5.999999999999998
 20
579.75
 40
2.250000000000013
 50
346.7683351757009
 51
13.23166482429923
  0
ARC
  8
0
  6
CONTINUOUS
 62
     7
 10
5.999999999999998
 20
579.75
 40
2.250000000000024
 50
76.76833517570073
 51
103.2316648242993
  0
CIRCLE
  8
0
  6
CONTINUOUS
 62
     7
 10
5.999999999999998
 20
579.75
 40
4.200000000000002
  0
LINE
  8
0
  6
CONTINUOUS
 62
     7
 10
5.484999999999997
 20
581.9402682484116
 11
5.484999999999997
 21
580.265
  0
ARC
  8
0
  6
CONTINUOUS
 62
     7
 10
5.999999999999998
 20
579.75
 40
2.250000000000013
 50
166.7683351757008
 51
193.2316648242992
  0
LINE
  8
0
  6
CONTINUOUS
 62
     7
 10
3.809731751588399
 20
579.2349999999999
 11
5.484999999999997
 21
579.2349999999999
  0
LINE
  8
0
  6
CONTINUOUS
 62
     7
 10
5.484999999999997
 20
579.2349999999999
 11
5.484999999999997
 21
577.5597317515884
  0
ARC
  8
0
  6
CONTINUOUS
 62
     7
 10
5.999999999999998
 20
579.75
 40
2.250000000000024
 50
256.7683351757007
 51
283.2316648242993
  0
LINE
  8
0
  6
CONTINUOUS
 62
     7
 10
6.515
 20
577.5597317515884
 11
6.515
 21
579.2349999999999
  0
LINE
  8
0
  6
CONTINUOUS
 62
     7
 10
6.515
 20
579.2349999999999
 11
8.190268248411597
 21
579.2349999999999
  0
LINE
  8
0
  6
CONTINUOUS
 62
     7
 10
5.484999999999997
 20
580.265
 11
3.809731751588399
 21
580.265
  0
LINE
  8
0
  6
CONTINUOUS
 62
     7
 10
6.515
 20
580.265
 11
6.515
 21
581.9402682484116
  0
LINE
  8
0
  6
CONTINUOUS
 62
     7
 10
8.190268248411597
 20
580.265
 11
6.515
 21
580.265
  0
CIRCLE
  8
0
  6
CONTINUOUS
 62
     7
 10
75.99999999999999
 20
528.0
 40
2.250000000000002
  0
CIRCLE
  8
0
  6
CONTINUOUS
 62
     7
 10
75.99999999999999
 20
528.0
 40
1.650000000000013
  0
CIRCLE
  8
0
  6
CONTINUOUS
 62
     7
 10
29.99999999999999
 20
528.0
 40
1.649999999999999
  0
CIRCLE
  8
0
  6
CONTINUOUS
 62
     7
 10
29.99999999999999
 20
528.0
 40
2.249999999999995
  0
CIRCLE
  8
0
  6
CONTINUOUS
 62
     7
 10
76.0
 20
611.4999999999999
 40
2.250000000000002
  0
CIRCLE
  8
0
  6
CONTINUOUS
 62
     7
 10
76.0
 20
611.4999999999999
 40
1.649999999999999
  0
CIRCLE
  8
0
  6
CONTINUOUS
 62
     7
 10
30.0
 20
611.4999999999999
 40
1.649999999999995
  0
CIRCLE
  8
0
  6
CONTINUOUS
 62
     7
 10
30.0
 20
611.4999999999999
 40
2.249999999999999
  0
LINE
  8
0
  6
CONTINUOUS
 62
     7
 10
-5.500000000000004
 20
514.7495430096931
 11
-7.004363433895384
 21
514.7495430096931
  0
LINE
  8
0
  6
CONTINUOUS
 62
     7
 10
-5.500000000000004
 20
514.7495430096931
 11
-5.500000000000004
 21
510.1513054284761
  0
ARC
  8
0
  6
CONTINUOUS
 62
     7
 10
-4.010288312679193
 20
512.750515388373
 40
2.992226753978903
 50
180.0621440795371
 51
181.3593412821605
  0
ARC
  8
0
  6
CONTINUOUS
 62
     7
 10
-4.001391623612238
 20
512.7507265017639
 40
3.001125947493959
 50
181.3593412821608
 51
203.8324930584689
  0
ARC
  8
0
  6
CONTINUOUS
 62
     7
 10
-4.005624723385493
 20
512.7488566139625
 40
2.996498246760327
 50
203.8324930584688
 51
226.3593013187302
  0
ARC
  8
0
  6
CONTINUOUS
 62
     7
 10
-3.999477658967552
 20
512.7553024930063
 40
3.005405308992325
 50
226.3593013187392
 51
240.0478146332632
  0
LINE
  8
0
  6
CONTINUOUS
 62
     7
 10
-7.002615916863186
 20
512.7472698523293
 11
-7.004363433895384
 21
514.7495430096931
  0
LINE
  8
0
  6
CONTINUOUS
 62
     7
 10
-7.004363433895384
 20
514.7495430096931
 11
-7.004363433895377
 21
624.7504569145308
  0
LINE
  8
0
  6
CONTINUOUS
 62
     7
 10
-7.004363433895377
 20
624.7504569145308
 11
-5.499999999999998
 21
624.7504569145308
  0
LINE
  8
0
  6
CONTINUOUS
 62
     7
 10
-5.499999999999998
 20
624.7504569145308
 11
-5.500000000000004
 21
514.7495430096931
  0
ARC
  8
0
  6
CONTINUOUS
 62
     7
 10
-3.999477658978519
 20
626.7446975070764
 40
3.00540530890772
 50
119.9521853674232
 51
133.6406986614229
  0
ARC
  8
0
  6
CONTINUOUS
 62
     7
 10
-4.005624723297412
 20
626.7511433860205
 40
2.99649824681616
 50
133.6406986614293
 51
156.1675069212693
  0
ARC
  8
0
  6
CONTINUOUS
 62
     7
 10
-4.001391623591872
 20
626.7492734982472
 40
3.001125947476502
 50
156.1675069212687
 51
178.6406586980077
  0
ARC
  8
0
  6
CONTINUOUS
 62
     7
 10
-4.010288312516598
 20
626.7494846116382
 40
2.992226754103673
 50
178.6406586980115
 51
179.9378559214368
  0
LINE
  8
0
  6
CONTINUOUS
 62
     7
 10
-7.004363433895377
 20
624.7504569145308
 11
-7.002615916823565
 21
626.752730147631
  0
LINE
  8
0
  6
CONTINUOUS
 62
     7
 10
-5.499999999999998
 20
629.3486945715156
 11
-5.499999999999998
 21
624.7504569145308
  0
LINE
  8
0
  6
CONTINUOUS
 62
     7
 10
113.0043634338954
 20
624.7504569903068
 11
113.0043634338954
 21
514.7495430854691
  0
LINE
  8
0
  6
CONTINUOUS
 62
     7
 10
113.0043634338954
 20
514.7495430854691
 11
111.5
 21
514.7495430854691
  0
LINE
  8
0
  6
CONTINUOUS
 62
     7
 10
111.5
 20
514.7495430854691
 11
111.5
 21
624.7504569903068
  0
LINE
  8
0
  6
CONTINUOUS
 62
     7
 10
111.5
 20
624.7504569903068
 11
113.0043634338954
 21
624.7504569903068
  0
LINE
  8
0
  6
CONTINUOUS
 62
     7
 10
113.0043634338954
 20
514.7495430854691
 11
113.0026159168236
 21
512.747269852369
  0
ARC
  8
0
  6
CONTINUOUS
 62
     7
 10
109.9994776589789
 20
512.7553024929229
 40
3.005405308906985
 50
299.9521853674233
 51
313.6406986614292
  0
ARC
  8
0
  6
CONTINUOUS
 62
     7
 10
110.0056247232981
 20
512.748856613979
 40
2.996498246815409
 50
313.6406986614271
 51
336.1675069212723
  0
ARC
  8
0
  6
CONTINUOUS
 62
     7
 10
110.0013916235913
 20
512.7507265017529
 40
3.001125947477094
 50
336.1675069212714
 51
358.6406586980037
  0
ARC
  8
0
  6
CONTINUOUS
 62
     7
 10
110.0102883125172
 20
512.7505153883619
 40
2.992226754103088
 50
358.6406586980091
 51
359.9378559214347
  0
LINE
  8
0
  6
CONTINUOUS
 62
     7
 10
111.5
 20
510.1513054284844
 11
111.5
 21
514.7495430854691
  0
ARC
  8
0
  6
CONTINUOUS
 62
     7
 10
110.0102883126787
 20
626.7494846116269
 40
2.992226753979355
 50
0.06214407953928
 51
1.359341282162461
  0
ARC
  8
0
  6
CONTINUOUS
 62
     7
 10
110.0013916236122
 20
626.7492734982359
 40
3.001125947493942
 50
1.359341282162888
 51
23.83249305846899
  0
ARC
  8
0
  6
CONTINUOUS
 62
     7
 10
110.0056247233858
 20
626.7511433860374
 40
2.996498246759925
 50
23.83249305846994
 51
46.3593013187343
  0
ARC
  8
0
  6
CONTINUOUS
 62
     7
 10
109.9994776589676
 20
626.7446975069938
 40
3.005405308992057
 50
46.35930131873814
 51
60.04781463326215
  0
LINE
  8
0
  6
CONTINUOUS
 62
     7
 10
113.0026159168632
 20
626.7527301476706
 11
113.0043634338954
 21
624.7504569903068
  0
LINE
  8
0
  6
CONTINUOUS
 62
     7
 10
111.5
 20
624.7504569903068
 11
111.5
 21
629.3486945715239
  0
ARC
  8
0
  6
CONTINUOUS
 62
     7
 10
52.99999999999983
 20
3121.418746135186
 40
2608.588786209054
 50
269.8964259542635
 51
270.0
  0
ARC
  8
0
  6
CONTINUOUS
 62
     7
 10
49.22782071213123
 20
1034.701791145463
 40
521.868421718842
 50
269.3787035449657
 51
269.8964259542681
  0
ARC
  8
0
  6
CONTINUOUS
 62
     7
 10
38.15057933663038
 20
13.20183272207814
 40
499.6915962612417
 50
89.37870354496566
 51
89.54447502555666
  0
ARC
  8
0
  6
CONTINUOUS
 62
     7
 10
42.77842455333119
 20
595.2783976936626
 40
82.40336544214642
 50
268.5392290765276
 51
269.5444750255642
  0
ARC
  8
0
  6
CONTINUOUS
 62
     7
 10
39.3090311159832
 20
459.227955788527
 40
53.69130540651597
 50
88.5392290765275
 51
88.94437347082994
  0
ARC
  8
0
  6
CONTINUOUS
 62
     7
 10
40.50227048035222
 20
523.9855586715902
 40
11.07729000315148
 50
266.9805582330999
 51
268.9443734707975
  0
ARC
  8
0
  6
CONTINUOUS
 62
     7
 10
39.7723636035667
 20
510.1479473695089
 40
2.779558505664274
 50
86.98055823309997
 51
88.9640374855671
  0
ARC
  8
0
  6
CONTINUOUS
 62
     7
 10
39.8362059949888
 20
513.6784814458553
 40
0.7515527521674066
 50
261.6236434542192
 51
268.9640374854747
  0
ARC
  8
0
  6
CONTINUOUS
 62
     7
 10
39.71882198020379
 20
512.8812822397896
 40
0.0542422472454809
 50
81.62364345422834
 51
119.0423454788575
  0
ARC
  8
0
  6
CONTINUOUS
 62
     7
 10
39.68268892779042
 20
512.946354525292
 40
0.0201889277904044
 50
180.0
 51
299.0423454788154
  0
LINE
  8
0
  6
CONTINUOUS
 62
     7
 10
73.5
 20
512.7543634338954
 11
69.99999999999999
 21
512.7543634338954
  0
LINE
  8
0
  6
CONTINUOUS
 62
     7
 10
81.99999999999999
 20
512.7543634338954
 11
78.49999999999997
 21
512.7543634338954
  0
LINE
  8
0
  6
CONTINUOUS
 62
     7
 10
27.49999999999999
 20
512.7543634338954
 11
23.99999999999999
 21
512.7543634338954
  0
LINE
  8
0
  6
CONTINUOUS
 62
     7
 10
35.99999999999999
 20
512.7543634338954
 11
32.5
 21
512.7543634338954
  0
LINE
  8
0
  6
CONTINUOUS
 62
     7
 10
1.999771538385015
 20
512.7499999999999
 11
104.000228461615
 21
512.7499999999999
  0
ARC
  8
0
  6
CONTINUOUS
 62
     7
 10
2.00052702204265
 20
620.7500946340606
 40
6.000527018439377
 50
157.5026335146912
 51
179.9987221532344
  0
ARC
  8
0
  6
CONTINUOUS
 62
     7
 10
1.999465886238334
 20
620.7505341137617
 40
5.999378475186874
 50
135.0000000000001
 51
157.5026335146916
  0
ARC
  8
0
  6
CONTINUOUS
 62
     7
 10
1.999465886238679
 20
620.7505341137613
 40
5.999378475187354
 50
112.4973664853106
 51
135.0000000000002
  0
ARC
  8
0
  6
CONTINUOUS
 62
     7
 10
1.99990536593937
 20
620.7494729779565
 40
6.000527018440128
 50
90.00127784676572
 51
112.497366485306
  0
ARC
  8
0
  6
CONTINUOUS
 62
     7
 10
104.0000946340606
 20
620.7494729779565
 40
6.000527018440128
 50
67.50263351469401
 51
89.99872215323444
  0
ARC
  8
0
  6
CONTINUOUS
 62
     7
 10
104.0005341137613
 20
620.7505341137613
 40
5.999378475187353
 50
44.99999999999977
 51
67.50263351468942
  0
ARC
  8
0
  6
CONTINUOUS
 62
     7
 10
104.0005341137616
 20
620.7505341137615
 40
5.999378475186989
 50
22.4973664853091
 51
45.00000000000028
  0
ARC
  8
0
  6
CONTINUOUS
 62
     7
 10
103.9994729779573
 20
620.7500946340606
 40
6.000527018439421
 50
0.0012778467655608
 51
22.49736648530865
  0
ARC
  8
0
  6
CONTINUOUS
 62
     7
 10
40.50227048035222
 20
637.5928496210062
 40
11.07729000315148
 50
266.9805582330999
 51
267.0127787656357
  0
ARC
  8
0
  6
CONTINUOUS
 62
     7
 10
39.7723636035667
 20
623.7552383189247
 40
2.779558505664274
 50
86.98055823309997
 51
88.9640374855671
  0
ARC
  8
0
  6
CONTINUOUS
 62
     7
 10
39.8362059949888
 20
627.2857723952711
 40
0.7515527521674066
 50
261.6236434542192
 51
268.9640374854747
  0
ARC
  8
0
  6
CONTINUOUS
 62
     7
 10
39.71882198020379
 20
626.4885731892055
 40
0.0542422472454809
 50
81.62364345422834
 51
119.0423454788575
  0
ARC
  8
0
  6
CONTINUOUS
 62
     7
 10
39.68268892779042
 20
626.5536454747079
 40
0.0201889277904044
 50
180.0
 51
299.0423454788154
  0
LINE
  8
0
  6
CONTINUOUS
 62
     7
 10
78.49999999999999
 20
626.7456365661046
 11
82.0
 21
626.7456365661046
  0
LINE
  8
0
  6
CONTINUOUS
 62
     7
 10
70.0
 20
626.7456365661046
 11
73.50000000000001
 21
626.7456365661046
  0
LINE
  8
0
  6
CONTINUOUS
 62
     7
 10
32.50000000000001
 20
626.7456365661046
 11
36.0
 21
626.7456365661046
  0
LINE
  8
0
  6
CONTINUOUS
 62
     7
 10
23.99999999999999
 20
626.7456365661046
 11
27.49999999999999
 21
626.7456365661046
  0
LINE
  8
0
  6
CONTINUOUS
 62
     7
 10
104.000228461615
 20
626.7499999999999
 11
1.999771538385015
 21
626.7499999999999
  0
LINE
  8
0
  6
CONTINUOUS
 62
     7
 10
-4.000000000000011
 20
620.7502284616149
 11
-4.000000000000018
 21
518.749771538385
  0
LINE
  8
0
  6
CONTINUOUS
 62
     7
 10
110.0001142308075
 20
629.75
 11
-4.000114230807456
 21
629.75
  0
ARC
  8
0
  6
CONTINUOUS
 62
     7
 10
1.999905365939359
 20
518.7505270220433
 40
6.000527018440128
 50
247.5026335146939
 51
269.9987221532344
  0
ARC
  8
0
  6
CONTINUOUS
 62
     7
 10
1.999465886238682
 20
518.7494658862387
 40
5.999378475187443
 50
225.0000000000004
 51
247.5026335146896
  0
ARC
  8
0
  6
CONTINUOUS
 62
     7
 10
1.999465886238337
 20
518.7494658862382
 40
5.999378475186885
 50
202.4973664853083
 51
224.9999999999998
  0
ARC
  8
0
  6
CONTINUOUS
 62
     7
 10
2.00052702204267
 20
518.7499053659393
 40
6.000527018439411
 50
180.0012778467656
 51
202.4973664853087
  0
ARC
  8
0
  6
CONTINUOUS
 62
     7
 10
103.9994729779574
 20
518.7499053659393
 40
6.00052701843931
 50
337.5026335146909
 51
359.9987221532344
  0
ARC
  8
0
  6
CONTINUOUS
 62
     7
 10
104.0005341137615
 20
518.7494658862383
 40
5.999378475187077
 50
315.0000000000005
 51
337.5026335146913
  0
ARC
  8
0
  6
CONTINUOUS
 62
     7
 10
104.0005341137603
 20
518.7494658862395
 40
5.999378475188667
 50
292.4973664853158
 51
315.0000000000007
  0
ARC
  8
0
  6
CONTINUOUS
 62
     7
 10
104.0000946340606
 20
518.7505270220433
 40
6.00052701844024
 50
270.0012778467656
 51
292.4973664853059
  0
LINE
  8
0
  6
CONTINUOUS
 62
     7
 10
110.0
 20
518.749771538385
 11
110.0
 21
620.7502284616149
  0
LINE
  8
0
  6
CONTINUOUS
 62
     7
 10
-4.000114230807483
 20
509.7499999999999
 11
110.0001142308075
 21
509.7499999999999
  0
ARC
  8
0
  6
CONTINUOUS
 62
     7
 10
110.0000473170303
 20
512.7502635110217
 40
3.00026350922012
 50
270.0012778467658
 51
292.497366485306
  0
ARC
  8
0
  6
CONTINUOUS
 62
     7
 10
110.0002670568805
 20
512.7497329431194
 40
2.999689237593902
 50
292.4973664853123
 51
299.9975031117533
  0
ARC
  8
0
  6
CONTINUOUS
 62
     7
 10
-4.000047317030281
 20
626.7497364889783
 40
3.000263509220009
 50
90.00127784676566
 51
112.4973664853064
  0
ARC
  8
0
  6
CONTINUOUS
 62
     7
 10
-4.000267056880516
 20
626.7502670568805
 40
2.999689237593875
 50
112.4973664853114
 51
119.9975031117542
  0
ARC
  8
0
  6
CONTINUOUS
 62
     7
 10
110.0002670568808
 20
626.7502670568807
 40
2.99968923759345
 50
60.00249688824748
 51
67.5026335146911
  0
ARC
  8
0
  6
CONTINUOUS
 62
     7
 10
110.0000473170302
 20
626.7497364889795
 40
3.000263509218899
 50
67.50263351468355
 51
89.99872215323364
  0
ARC
  8
0
  6
CONTINUOUS
 62
     7
 10
-4.000267056880561
 20
512.7497329431194
 40
2.999689237593868
 50
240.0024968882462
 51
247.5026335146887
  0
ARC
  8
0
  6
CONTINUOUS
 62
     7
 10
-4.000047317030321
 20
512.7502635110216
 40
3.000263509220009
 50
247.5026335146936
 51
269.9987221532346
  0
CIRCLE
  8
0
  6
CONTINUOUS
 62
     7
 10
29.99999999999999
 20
528.0
 40
3.999999999999996
  0
LINE
  8
0
  6
CONTINUOUS
 62
     7
 10
32.5
 20
512.7543634338954
 11
32.49999999999999
 21
521.1190578782088
  0
ARC
  8
0
  6
CONTINUOUS
 62
     7
 10
31.50003541994762
 20
521.1190438579706
 40
0.9999792410585947
 50
103.0016088866643
 51
115.9995110160225
  0
ARC
  8
0
  6
CONTINUOUS
 62
     7
 10
31.50007527736501
 20
521.1188712386436
 40
1.000156402131614
 50
80.50468890259287
 51
103.0016088866639
  0
ARC
  8
0
  6
CONTINUOUS
 62
     7
 10
31.50013150126026
 20
521.119207388381
 40
0.9998155828651292
 50
58.00000000000023
 51
80.50468890262283
  0
ARC
  8
0
  6
CONTINUOUS
 62
     7
 10
31.5001315012601
 20
521.1192073883808
 40
0.9998155828654021
 50
35.49531109738189
 51
57.99999999999925
  0
ARC
  8
0
  6
CONTINUOUS
 62
     7
 10
31.49985401881047
 20
521.1190094963328
 40
1.000156402132126
 50
12.99839111333739
 51
35.49531109739308
  0
ARC
  8
0
  6
CONTINUOUS
 62
     7
 10
31.50002664037543
 20
521.1190493440555
 40
0.9999792410593625
 50
0.0004889839909197
 51
12.9983911133408
  0
LINE
  8
0
  6
CONTINUOUS
 62
     7
 10
31.06168362197677
 20
522.0178177011848
 11
30.43835445495903
 21
521.7137997530266
  0
ARC
  8
0
  6
CONTINUOUS
 62
     7
 10
30.00004534466972
 20
522.6126425144297
 40
1.000054364530888
 50
243.9997480442181
 51
247.4983699806366
  0
ARC
  8
0
  6
CONTINUOUS
 62
     7
 10
29.99999999999998
 20
522.6125330515234
 40
0.9999358813382875
 50
247.4983699806845
 51
270.0
  0
ARC
  8
0
  6
CONTINUOUS
 62
     7
 10
29.99999999999998
 20
522.6125330515234
 40
0.9999358813382875
 50
270.0
 51
292.5016300193153
  0
ARC
  8
0
  6
CONTINUOUS
 62
     7
 10
29.99995465533024
 20
522.6126425144296
 40
1.000054364530799
 50
292.5016300193648
 51
296.0002519557841
  0
LINE
  8
0
  6
CONTINUOUS
 62
     7
 10
29.56164554504092
 20
521.7137997530266
 11
28.93831637802321
 21
522.0178177011848
  0
ARC
  8
0
  6
CONTINUOUS
 62
     7
 10
28.49997335962425
 20
521.1190493440556
 40
0.9999792410590433
 50
167.0016088866615
 51
179.9995110160154
  0
ARC
  8
0
  6
CONTINUOUS
 62
     7
 10
28.50014598118945
 20
521.1190094963328
 40
1.000156402132072
 50
144.5046889026049
 51
167.0016088866619
  0
ARC
  8
0
  6
CONTINUOUS
 62
     7
 10
28.49986849873984
 20
521.1192073883808
 40
0.9998155828653799
 50
121.9999999999987
 51
144.5046889026166
  0
ARC
  8
0
  6
CONTINUOUS
 62
     7
 10
28.4998684987397
 20
521.119207388381
 40
0.9998155828651198
 50
99.49531109737603
 51
121.9999999999989
  0
ARC
  8
0
  6
CONTINUOUS
 62
     7
 10
28.49992472263497
 20
521.1188712386436
 40
1.000156402131616
 50
76.99839111333561
 51
99.49531109740654
  0
ARC
  8
0
  6
CONTINUOUS
 62
     7
 10
28.49996458005235
 20
521.1190438579705
 40
0.999979241058706
 50
64.00048898397974
 51
76.99839111333631
  0
LINE
  8
0
  6
CONTINUOUS
 62
     7
 10
27.49999999999999
 20
521.1190578782088
 11
27.49999999999999
 21
512.7543634338954
  0
ARC
  8
0
  6
CONTINUOUS
 62
     7
 10
23.99995505844433
 20
513.2543824730882
 40
0.5000449415557203
 50
337.5013167452107
 51
0.0
  0
ARC
  8
0
  6
CONTINUOUS
 62
     7
 10
23.99999927474742
 20
513.2543641592866
 40
0.4999970826298027
 50
315.0004518426338
 51
337.5013167451746
  0
ARC
  8
0
  6
CONTINUOUS
 62
     7
 10
23.99998168468754
 20
513.254381749069
 40
0.5000219585348499
 50
292.5013167867407
 51
315.0004518426372
  0
ARC
  8
0
  6
CONTINUOUS
 62
     7
 10
24.0
 20
513.2543375348687
 40
0.499974100973466
 50
269.9999999999987
 51
292.5013167866821
  0
LINE
  8
0
  6
CONTINUOUS
 62
     7
 10
24.49999999999999
 20
513.2543824730882
 11
24.49999999999999
 21
530.0
  0
ARC
  8
0
  6
CONTINUOUS
 62
     7
 10
27.49999999999999
 20
530.0
 40
3.000000000000003
 50
90.0
 51
180.0
  0
LINE
  8
0
  6
CONTINUOUS
 62
     7
 10
27.49999999999999
 20
533.0
 11
32.49999999999999
 21
533.0
  0
ARC
  8
0
  6
CONTINUOUS
 62
     7
 10
32.49999999999999
 20
530.0
 40
2.999999999999996
 50
359.9999999999998
 51
90.0
  0
LINE
  8
0
  6
CONTINUOUS
 62
     7
 10
35.49999999999999
 20
530.0
 11
35.49999999999999
 21
513.2543824730882
  0
ARC
  8
0
  6
CONTINUOUS
 62
     7
 10
35.99999999999999
 20
513.2543375348674
 40
0.4999741009721337
 50
247.4986832132576
 51
270.0
  0
ARC
  8
0
  6
CONTINUOUS
 62
     7
 10
36.00001831531144
 20
513.254381749068
 40
0.5000219585333042
 50
224.9995481573601
 51
247.4986832133156
  0
ARC
  8
0
  6
CONTINUOUS
 62
     7
 10
36.00000072525246
 20
513.2543641592865
 40
0.4999970826295256
 50
202.4986832548114
 51
224.9995481573621
  0
ARC
  8
0
  6
CONTINUOUS
 62
     7
 10
36.00004494155477
 20
513.2543824730882
 40
0.5000449415547211
 50
180.0
 51
202.498683254822
  0
CIRCLE
  8
0
  6
CONTINUOUS
 62
     7
 10
29.99999999999999
 20
528.0
 40
2.249999999999995
  0
CIRCLE
  8
0
  6
CONTINUOUS
 62
     7
 10
30.0
 20
611.4999999999999
 40
4.0
  0
CIRCLE
  8
0
  6
CONTINUOUS
 62
     7
 10
30.0
 20
611.4999999999999
 40
2.249999999999999
  0
CIRCLE
  8
0
  6
CONTINUOUS
 62
     7
 10
76.0
 20
611.4999999999999
 40
4.000000000000004
  0
CIRCLE
  8
0
  6
CONTINUOUS
 62
     7
 10
76.0
 20
611.4999999999999
 40
2.250000000000002
  0
ARC
  8
0
  6
CONTINUOUS
 62
     7
 10
82.00004494155564
 20
626.2456175269117
 40
0.5000449415556996
 50
157.5013167452098
 51
180.0
  0
ARC
  8
0
  6
CONTINUOUS
 62
     7
 10
82.00000072525256
 20
626.2456358407134
 40
0.4999970826298003
 50
135.0004518426333
 51
157.5013167451744
  0
ARC
  8
0
  6
CONTINUOUS
 62
     7
 10
82.00001831531243
 20
626.245618250931
 40
0.5000219585348351
 50
112.5013167867381
 51
135.0004518426355
  0
ARC
  8
0
  6
CONTINUOUS
 62
     7
 10
81.99999999999999
 20
626.2456624651312
 40
0.499974100973466
 50
89.99999999999841
 51
112.5013167866813
  0
LINE
  8
0
  6
CONTINUOUS
 62
     7
 10
73.50000000000001
 20
626.7456365661046
 11
73.50000000000001
 21
618.3809421217911
  0
ARC
  8
0
  6
CONTINUOUS
 62
     7
 10
74.49996458005238
 20
618.3809561420293
 40
0.9999792410584802
 50
283.0016088866641
 51
295.9995110160239
  0
ARC
  8
0
  6
CONTINUOUS
 62
     7
 10
74.49992472263497
 20
618.3811287613564
 40
1.000156402131613
 50
260.5046889025937
 51
283.0016088866635
  0
ARC
  8
0
  6
CONTINUOUS
 62
     7
 10
74.4998684987397
 20
618.380792611619
 40
0.9998155828651145
 50
238.0000000000016
 51
260.5046889026248
  0
ARC
  8
0
  6
CONTINUOUS
 62
     7
 10
74.49986849873981
 20
618.3807926116192
 40
0.9998155828653617
 50
215.4953110973847
 51
238.000000000003
  0
ARC
  8
0
  6
CONTINUOUS
 62
     7
 10
74.50014598118945
 20
618.3809905036672
 40
1.000156402132058
 50
192.9983911133384
 51
215.4953110973956
  0
ARC
  8
0
  6
CONTINUOUS
 62
     7
 10
74.49997335962448
 20
618.3809506559444
 40
0.9999792410592881
 50
180.000488983991
 51
192.9983911133418
  0
LINE
  8
0
  6
CONTINUOUS
 62
     7
 10
74.93831637802323
 20
617.4821822988152
 11
75.56164554504096
 21
617.7862002469734
  0
ARC
  8
0
  6
CONTINUOUS
 62
     7
 10
75.9999546553303
 20
616.8873574855703
 40
1.000054364530785
 50
63.99974804421662
 51
67.49836998063624
  0
ARC
  8
0
  6
CONTINUOUS
 62
     7
 10
76.00000000000001
 20
616.8874669484766
 40
0.9999358813381765
 50
67.49836998068245
 51
90.0
  0
ARC
  8
0
  6
CONTINUOUS
 62
     7
 10
76.00000000000001
 20
616.8874669484766
 40
0.9999358813381765
 50
90.0
 51
112.5016300193175
  0
ARC
  8
0
  6
CONTINUOUS
 62
     7
 10
76.00004534466973
 20
616.8873574855703
 40
1.000054364530785
 50
112.5016300193638
 51
116.0002519557834
  0
LINE
  8
0
  6
CONTINUOUS
 62
     7
 10
76.43835445495907
 20
617.7862002469734
 11
77.06168362197678
 21
617.4821822988152
  0
ARC
  8
0
  6
CONTINUOUS
 62
     7
 10
77.50002664037578
 20
618.3809506559443
 40
0.9999792410589523
 50
347.0016088866603
 51
359.9995110160154
  0
ARC
  8
0
  6
CONTINUOUS
 62
     7
 10
77.49985401881028
 20
618.3809905036674
 40
1.000156402132286
 50
324.5046889026071
 51
347.0016088866582
  0
ARC
  8
0
  6
CONTINUOUS
 62
     7
 10
77.50013150126026
 20
618.380792611619
 40
0.9998155828651366
 50
302.0000000000005
 51
324.5046889026226
  0
ARC
  8
0
  6
CONTINUOUS
 62
     7
 10
77.50013150126027
 20
618.380792611619
 40
0.9998155828651292
 50
279.4953110973784
 51
301.9999999999998
  0
ARC
  8
0
  6
CONTINUOUS
 62
     7
 10
77.50007527736506
 20
618.3811287613564
 40
1.00015640213161
 50
256.9983911133372
 51
279.4953110974056
  0
ARC
  8
0
  6
CONTINUOUS
 62
     7
 10
77.5000354199477
 20
618.3809561420295
 40
0.999979241058703
 50
244.0004889839808
 51
256.998391113337
  0
LINE
  8
0
  6
CONTINUOUS
 62
     7
 10
78.5
 20
618.3809421217911
 11
78.49999999999999
 21
626.7456365661046
  0
LINE
  8
0
  6
CONTINUOUS
 62
     7
 10
81.5
 20
626.2456175269117
 11
81.5
 21
609.4999999999999
  0
LINE
  8
0
  6
CONTINUOUS
 62
     7
 10
78.5
 20
606.4999999999999
 11
73.5
 21
606.4999999999999
  0
LINE
  8
0
  6
CONTINUOUS
 62
     7
 10
70.5
 20
609.4999999999999
 11
70.5
 21
626.2456175269117
  0
ARC
  8
0
  6
CONTINUOUS
 62
     7
 10
70.0
 20
626.2456624651325
 40
0.4999741009721337
 50
67.49868321325836
 51
90.0
  0
ARC
  8
0
  6
CONTINUOUS
 62
     7
 10
69.99998168468859
 20
626.245618250932
 40
0.5000219585331865
 50
44.99954815735555
 51
67.49868321331655
  0
ARC
  8
0
  6
CONTINUOUS
 62
     7
 10
69.99999927474741
 20
626.2456358407134
 40
0.4999970826296826
 50
22.49868325481805
 51
44.99954815736209
  0
ARC
  8
0
  6
CONTINUOUS
 62
     7
 10
69.99995505844522
 20
626.2456175269117
 40
0.5000449415547281
 50
0.0
 51
22.49868325482169
  0
ARC
  8
0
  6
CONTINUOUS
 62
     7
 10
78.5
 20
609.4999999999999
 40
3.000000000000003
 50
270.0
 51
0.0
  0
ARC
  8
0
  6
CONTINUOUS
 62
     7
 10
73.5
 20
609.4999999999999
 40
2.999999999999989
 50
180.0
 51
270.0
  0
ARC
  8
0
  6
CONTINUOUS
 62
     7
 10
23.99999999999999
 20
626.2456624651325
 40
0.4999741009721337
 50
67.49868321325755
 51
90.0
  0
ARC
  8
0
  6
CONTINUOUS
 62
     7
 10
23.99998168468854
 20
626.2456182509319
 40
0.5000219585333018
 50
44.99954815736032
 51
67.49868321331554
  0
ARC
  8
0
  6
CONTINUOUS
 62
     7
 10
23.99999927474744
 20
626.2456358407135
 40
0.4999970826295771
 50
22.49868325480799
 51
44.99954815735624
  0
ARC
  8
0
  6
CONTINUOUS
 62
     7
 10
23.99995505844517
 20
626.2456175269117
 40
0.5000449415547698
 50
0.0
 51
22.4986832548197
  0
ARC
  8
0
  6
CONTINUOUS
 62
     7
 10
36.00004494155566
 20
626.2456175269117
 40
0.5000449415557203
 50
157.5013167452107
 51
180.0
  0
ARC
  8
0
  6
CONTINUOUS
 62
     7
 10
36.00000072525257
 20
626.2456358407134
 40
0.4999970826298003
 50
135.0004518426333
 51
157.5013167451744
  0
ARC
  8
0
  6
CONTINUOUS
 62
     7
 10
36.00001831531247
 20
626.245618250931
 40
0.5000219585348595
 50
112.5013167867426
 51
135.0004518426383
  0
ARC
  8
0
  6
CONTINUOUS
 62
     7
 10
35.99999999999999
 20
626.2456624651312
 40
0.499974100973466
 50
89.99999999999841
 51
112.5013167866821
  0
LINE
  8
0
  6
CONTINUOUS
 62
     7
 10
27.49999999999999
 20
626.7456365661046
 11
27.5
 21
618.3809421217911
  0
ARC
  8
0
  6
CONTINUOUS
 62
     7
 10
28.49996458005237
 20
618.3809561420294
 40
0.9999792410585954
 50
283.0016088866646
 51
295.9995110160221
  0
ARC
  8
0
  6
CONTINUOUS
 62
     7
 10
28.49992472263498
 20
618.3811287613564
 40
1.000156402131615
 50
260.5046889025932
 51
283.0016088866641
  0
ARC
  8
0
  6
CONTINUOUS
 62
     7
 10
28.49986849873972
 20
618.380792611619
 40
0.9998155828651255
 50
238.0000000000007
 51
260.5046889026235
  0
ARC
  8
0
  6
CONTINUOUS
 62
     7
 10
28.49986849873984
 20
618.3807926116192
 40
0.9998155828653799
 50
215.4953110973834
 51
238.0000000000013
  0
ARC
  8
0
  6
CONTINUOUS
 62
     7
 10
28.50014598118951
 20
618.3809905036672
 40
1.000156402132109
 50
192.9983911133376
 51
215.4953110973936
  0
ARC
  8
0
  6
CONTINUOUS
 62
     7
 10
28.49997335962457
 20
618.3809506559444
 40
0.9999792410593727
 50
180.000488983991
 51
192.9983911133407
  0
LINE
  8
0
  6
CONTINUOUS
 62
     7
 10
28.93831637802322
 20
617.4821822988152
 11
29.56164554504096
 21
617.7862002469734
  0
ARC
  8
0
  6
CONTINUOUS
 62
     7
 10
29.99995465533027
 20
616.8873574855702
 40
1.000054364530888
 50
63.99974804421815
 51
67.49836998063662
  0
ARC
  8
0
  6
CONTINUOUS
 62
     7
 10
30.00000000000001
 20
616.8874669484765
 40
0.9999358813382875
 50
67.49836998068453
 51
90.0
  0
ARC
  8
0
  6
CONTINUOUS
 62
     7
 10
30.00000000000001
 20
616.8874669484765
 40
0.9999358813382875
 50
90.0
 51
112.5016300193153
  0
ARC
  8
0
  6
CONTINUOUS
 62
     7
 10
30.00004534466975
 20
616.8873574855703
 40
1.000054364530799
 50
112.5016300193649
 51
116.0002519557841
  0
LINE
  8
0
  6
CONTINUOUS
 62
     7
 10
30.43835445495907
 20
617.7862002469734
 11
31.06168362197678
 21
617.4821822988152
  0
ARC
  8
0
  6
CONTINUOUS
 62
     7
 10
31.50002664037589
 20
618.3809506559443
 40
0.9999792410588508
 50
347.001608886659
 51
359.9995110160154
  0
ARC
  8
0
  6
CONTINUOUS
 62
     7
 10
31.49985401881024
 20
618.3809905036674
 40
1.000156402132333
 50
324.5046889026087
 51
347.0016088866588
  0
ARC
  8
0
  6
CONTINUOUS
 62
     7
 10
31.50013150126022
 20
618.380792611619
 40
0.9998155828651587
 50
302.0000000000024
 51
324.5046889026239
  0
ARC
  8
0
  6
CONTINUOUS
 62
     7
 10
31.50013150126031
 20
618.3807926116189
 40
0.9998155828650204
 50
279.4953110973781
 51
302.0000000000018
  0
ARC
  8
0
  6
CONTINUOUS
 62
     7
 10
31.50007527736506
 20
618.3811287613564
 40
1.000156402131612
 50
256.9983911133368
 51
279.4953110974063
  0
ARC
  8
0
  6
CONTINUOUS
 62
     7
 10
31.50003541994769
 20
618.3809561420294
 40
0.9999792410585947
 50
244.000488983978
 51
256.9983911133356
  0
LINE
  8
0
  6
CONTINUOUS
 62
     7
 10
32.5
 20
618.3809421217911
 11
32.50000000000001
 21
626.7456365661046
  0
LINE
  8
0
  6
CONTINUOUS
 62
     7
 10
35.5
 20
626.2456175269117
 11
35.5
 21
609.4999999999999
  0
LINE
  8
0
  6
CONTINUOUS
 62
     7
 10
32.5
 20
606.4999999999999
 11
27.5
 21
606.4999999999999
  0
ARC
  8
0
  6
CONTINUOUS
 62
     7
 10
27.5
 20
609.4999999999999
 40
2.999999999999999
 50
180.0
 51
270.0
  0
LINE
  8
0
  6
CONTINUOUS
 62
     7
 10
24.5
 20
609.4999999999999
 11
24.5
 21
626.2456175269117
  0
ARC
  8
0
  6
CONTINUOUS
 62
     7
 10
32.5
 20
609.4999999999999
 40
3.000000000000003
 50
270.0
 51
0.0
  0
ARC
  8
0
  6
CONTINUOUS
 62
     7
 10
70.00523997173569
 20
513.324185644831
 40
0.4947608191104536
 50
269.3931736981683
 51
0.1024438850855631
  0
ARC
  8
0
  6
CONTINUOUS
 62
     7
 10
69.99995505844434
 20
513.2543824730882
 40
0.5000449415556996
 50
337.5013167452097
 51
0.0
  0
ARC
  8
0
  6
CONTINUOUS
 62
     7
 10
69.99999927474742
 20
513.2543641592866
 40
0.4999970826298003
 50
315.0004518426333
 51
337.5013167451745
  0
ARC
  8
0
  6
CONTINUOUS
 62
     7
 10
69.99998168468755
 20
513.254381749069
 40
0.5000219585348351
 50
292.5013167867382
 51
315.0004518426355
  0
ARC
  8
0
  6
CONTINUOUS
 62
     7
 10
70.0
 20
513.2543375348687
 40
0.499974100973466
 50
269.9999999999984
 51
292.5013167866813
  0
CIRCLE
  8
0
  6
CONTINUOUS
 62
     7
 10
75.99999999999999
 20
528.0
 40
4.000000000000004
  0
LINE
  8
0
  6
CONTINUOUS
 62
     7
 10
78.49999999999997
 20
512.7543634338954
 11
78.49999999999999
 21
521.1190578782088
  0
ARC
  8
0
  6
CONTINUOUS
 62
     7
 10
77.50003541994761
 20
521.1190438579706
 40
0.9999792410585915
 50
103.0016088866636
 51
115.9995110160219
  0
ARC
  8
0
  6
CONTINUOUS
 62
     7
 10
77.50007527736501
 20
521.1188712386435
 40
1.000156402131724
 50
80.5046889025947
 51
103.0016088866629
  0
ARC
  8
0
  6
CONTINUOUS
 62
     7
 10
77.50013150126026
 20
521.119207388381
 40
0.9998155828651292
 50
58.00000000000023
 51
80.50468890262243
  0
ARC
  8
0
  6
CONTINUOUS
 62
     7
 10
77.50013150126007
 20
521.1192073883807
 40
0.9998155828655072
 50
35.49531109738615
 51
58.00000000000159
  0
ARC
  8
0
  6
CONTINUOUS
 62
     7
 10
77.4998540188104
 20
521.1190094963326
 40
1.000156402132205
 50
12.99839111334291
 51
35.49531109739622
  0
ARC
  8
0
  6
CONTINUOUS
 62
     7
 10
77.50002664037551
 20
521.1190493440555
 40
0.9999792410592747
 50
0.0004889839909197
 51
12.99839111334194
  0
LINE
  8
0
  6
CONTINUOUS
 62
     7
 10
77.06168362197677
 20
522.0178177011848
 11
76.43835445495903
 21
521.7137997530266
  0
ARC
  8
0
  6
CONTINUOUS
 62
     7
 10
76.00004534466973
 20
522.6126425144297
 40
1.000054364530893
 50
243.9997480442172
 51
247.4983699806364
  0
ARC
  8
0
  6
CONTINUOUS
 62
     7
 10
75.99999999999997
 20
522.6125330515234
 40
0.9999358813382875
 50
247.4983699806849
 51
270.0
  0
ARC
  8
0
  6
CONTINUOUS
 62
     7
 10
75.99999999999997
 20
522.6125330515234
 40
0.9999358813382875
 50
270.0
 51
292.5016300193151
  0
ARC
  8
0
  6
CONTINUOUS
 62
     7
 10
75.99995465533021
 20
522.6126425144297
 40
1.000054364530893
 50
292.5016300193635
 51
296.0002519557827
  0
LINE
  8
0
  6
CONTINUOUS
 62
     7
 10
75.56164554504092
 20
521.7137997530266
 11
74.93831637802322
 21
522.0178177011848
  0
ARC
  8
0
  6
CONTINUOUS
 62
     7
 10
74.49997335962422
 20
521.1190493440556
 40
0.9999792410589523
 50
167.0016088866603
 51
179.9995110160154
  0
ARC
  8
0
  6
CONTINUOUS
 62
     7
 10
74.50014598118972
 20
521.1190094963326
 40
1.000156402132286
 50
144.504688902607
 51
167.0016088866582
  0
ARC
  8
0
  6
CONTINUOUS
 62
     7
 10
74.49986849873974
 20
521.119207388381
 40
0.9998155828651366
 50
122.0000000000004
 51
144.5046889026224
  0
ARC
  8
0
  6
CONTINUOUS
 62
     7
 10
74.49986849873973
 20
521.119207388381
 40
0.9998155828651292
 50
99.49531109737835
 51
121.9999999999998
  0
ARC
  8
0
  6
CONTINUOUS
 62
     7
 10
74.49992472263493
 20
521.1188712386436
 40
1.00015640213161
 50
76.9983911133372
 51
99.49531109740553
  0
ARC
  8
0
  6
CONTINUOUS
 62
     7
 10
74.49996458005229
 20
521.1190438579705
 40
0.999979241058703
 50
64.00048898398086
 51
76.9983911133371
  0
LINE
  8
0
  6
CONTINUOUS
 62
     7
 10
73.49999999999999
 20
521.1190578782088
 11
73.5
 21
512.7543634338954
  0
LINE
  8
0
  6
CONTINUOUS
 62
     7
 10
70.49999999999999
 20
513.2543824730882
 11
70.49999999999999
 21
530.0
  0
ARC
  8
0
  6
CONTINUOUS
 62
     7
 10
73.5
 20
530.0
 40
3.000000000000003
 50
90.0
 51
180.0
  0
LINE
  8
0
  6
CONTINUOUS
 62
     7
 10
73.5
 20
533.0
 11
78.49999999999999
 21
533.0
  0
ARC
  8
0
  6
CONTINUOUS
 62
     7
 10
78.49999999999999
 20
530.0
 40
3.000000000000003
 50
359.9999999999998
 51
90.0
  0
LINE
  8
0
  6
CONTINUOUS
 62
     7
 10
81.49999999999999
 20
530.0
 11
81.49999999999999
 21
513.2543824730882
  0
ARC
  8
0
  6
CONTINUOUS
 62
     7
 10
81.99999999999999
 20
513.2543375348674
 40
0.4999741009721337
 50
247.4986832132583
 51
270.0
  0
ARC
  8
0
  6
CONTINUOUS
 62
     7
 10
82.0000183153114
 20
513.2543817490679
 40
0.5000219585331865
 50
224.9995481573556
 51
247.4986832133166
  0
ARC
  8
0
  6
CONTINUOUS
 62
     7
 10
82.00000072525258
 20
513.2543641592866
 40
0.4999970826296826
 50
202.498683254818
 51
224.9995481573621
  0
ARC
  8
0
  6
CONTINUOUS
 62
     7
 10
82.00004494155478
 20
513.2543824730882
 40
0.5000449415547281
 50
180.0
 51
202.4986832548217
  0
CIRCLE
  8
0
  6
CONTINUOUS
 62
     7
 10
75.99999999999999
 20
528.0
 40
2.250000000000002
  0
ARC
  8
0
  6
CONTINUOUS
 62
     7
 10
81.9947600282643
 20
513.324185644831
 40
0.4947608191104996
 50
179.8975561149016
 51
270.6068263018317
  0
ARC
  8
0
  6
CONTINUOUS
 62
     7
 10
66.3173110722096
 20
512.946354525292
 40
0.0201889277903905
 50
240.9576545211675
 51
0.0
  0
ARC
  8
0
  6
CONTINUOUS
 62
     7
 10
66.28117801979622
 20
512.8812822397896
 40
0.0542422472454809
 50
60.95765452114257
 51
98.37635654577164
  0
ARC
  8
0
  6
CONTINUOUS
 62
     7
 10
66.16379400501118
 20
513.6784814458553
 40
0.7515527521674097
 50
271.0359625145268
 51
278.3763565457823
  0
ARC
  8
0
  6
CONTINUOUS
 62
     7
 10
66.22763639643335
 20
510.1479473695084
 40
2.77955850566472
 50
91.03596251443362
 51
93.01944176690026
  0
ARC
  8
0
  6
CONTINUOUS
 62
     7
 10
65.49772951964782
 20
523.9855586715896
 40
11.07729000315081
 50
271.0556265292025
 51
273.0194417669001
  0
ARC
  8
0
  6
CONTINUOUS
 62
     7
 10
66.69096888401701
 20
459.2279557885184
 40
53.69130540652463
 50
91.0556265291701
 51
91.46077092347247
  0
ARC
  8
0
  6
CONTINUOUS
 62
     7
 10
63.22157544666884
 20
595.2783976936626
 40
82.40336544214642
 50
270.4555249744358
 51
271.4607709234724
  0
ARC
  8
0
  6
CONTINUOUS
 62
     7
 10
67.84942066336963
 20
13.20183272208286
 40
499.691596261237
 50
90.45552497444336
 51
90.62129645503437
  0
ARC
  8
0
  6
CONTINUOUS
 62
     7
 10
56.77217928786879
 20
1034.701791145463
 40
521.868421718842
 50
270.1035740457319
 51
270.6212964550343
  0
ARC
  8
0
  6
CONTINUOUS
 62
     7
 10
53.00000000000018
 20
3121.418746135186
 40
2608.588786209054
 50
270.0
 51
270.1035740457365
  0
ARC
  8
0
  6
CONTINUOUS
 62
     7
 10
39.68268892779042
 20
512.946354525292
 40
0.0201889277904044
 50
60.95765452118468
 51
180.0
  0
ARC
  8
0
  6
CONTINUOUS
 62
     7
 10
39.71882198020379
 20
513.0114268107944
 40
0.0542422472454809
 50
240.9576545211426
 51
278.3763565457716
  0
ARC
  8
0
  6
CONTINUOUS
 62
     7
 10
39.8362059949888
 20
512.2142276047288
 40
0.7515527521674066
 50
91.0359625145253
 51
98.37635654578082
  0
ARC
  8
0
  6
CONTINUOUS
 62
     7
 10
39.7723636035667
 20
515.7447616810751
 40
2.779558505664274
 50
271.0359625144329
 51
273.0194417669
  0
ARC
  8
0
  6
CONTINUOUS
 62
     7
 10
40.50227048035222
 20
501.9071503789938
 40
11.07729000315148
 50
92.9872212343645
 51
93.01944176690006
  0
ARC
  8
0
  6
CONTINUOUS
 62
     7
 10
65.49772951964786
 20
501.9071503789954
 40
11.07729000314992
 50
86.9805582330999
 51
87.01277876563563
  0
ARC
  8
0
  6
CONTINUOUS
 62
     7
 10
66.22763639643335
 20
515.7447616810756
 40
2.77955850566472
 50
266.9805582330998
 51
268.9640374855665
  0
ARC
  8
0
  6
CONTINUOUS
 62
     7
 10
66.1637940050112
 20
512.2142276047289
 40
0.7515527521672978
 50
81.62364345421753
 51
88.96403748547402
  0
ARC
  8
0
  6
CONTINUOUS
 62
     7
 10
66.28117801979622
 20
513.0114268107944
 40
0.0542422472454809
 50
261.6236434542284
 51
299.0423454788574
  0
ARC
  8
0
  6
CONTINUOUS
 62
     7
 10
66.3173110722096
 20
512.946354525292
 40
0.0201889277903905
 50
0.0
 51
119.0423454788325
  0
ARC
  8
0
  6
CONTINUOUS
 62
     7
 10
66.3173110722096
 20
626.5536454747079
 40
0.0201889277903905
 50
240.9576545211675
 51
0.0
  0
ARC
  8
0
  6
CONTINUOUS
 62
     7
 10
66.28117801979622
 20
626.4885731892055
 40
0.0542422472454809
 50
60.95765452114257
 51
98.37635654577164
  0
ARC
  8
0
  6
CONTINUOUS
 62
     7
 10
66.16379400501118
 20
627.2857723952711
 40
0.7515527521674097
 50
271.0359625145268
 51
278.3763565457823
  0
ARC
  8
0
  6
CONTINUOUS
 62
     7
 10
66.22763639643335
 20
623.7552383189243
 40
2.77955850566472
 50
91.03596251443362
 51
93.01944176690026
  0
ARC
  8
0
  6
CONTINUOUS
 62
     7
 10
65.49772951964782
 20
637.5928496210055
 40
11.07729000315081
 50
272.9872212343645
 51
273.0194417669001
  0
ARC
  8
0
  6
CONTINUOUS
 62
     7
 10
39.68268892779042
 20
626.5536454747079
 40
0.0201889277904044
 50
60.95765452118468
 51
180.0
  0
ARC
  8
0
  6
CONTINUOUS
 62
     7
 10
39.71882198020379
 20
626.6187177602104
 40
0.0542422472454809
 50
240.9576545211426
 51
278.3763565457716
  0
ARC
  8
0
  6
CONTINUOUS
 62
     7
 10
39.8362059949888
 20
625.8215185541446
 40
0.7515527521674066
 50
91.0359625145253
 51
98.37635654578082
  0
ARC
  8
0
  6
CONTINUOUS
 62
     7
 10
39.7723636035667
 20
629.3520526304911
 40
2.779558505664274
 50
271.0359625144329
 51
273.0194417669
  0
ARC
  8
0
  6
CONTINUOUS
 62
     7
 10
40.50227048035222
 20
615.5144413284097
 40
11.07729000315148
 50
91.05562652920251
 51
93.01944176690006
  0
ARC
  8
0
  6
CONTINUOUS
 62
     7
 10
39.30903111598305
 20
680.2720442114796
 40
53.69130540652274
 50
271.0556265291701
 51
271.4607709234725
  0
ARC
  8
0
  6
CONTINUOUS
 62
     7
 10
42.77842455333123
 20
544.2216023063353
 40
82.40336544214853
 50
90.45552497443579
 51
91.46077092347247
  0
ARC
  8
0
  6
CONTINUOUS
 62
     7
 10
38.15057933663038
 20
1126.298167277922
 40
499.6915962612416
 50
270.4555249744434
 51
270.6212964550343
  0
ARC
  8
0
  6
CONTINUOUS
 62
     7
 10
49.22782071213123
 20
104.7982088545365
 40
521.868421718842
 50
90.10357404573192
 51
90.6212964550344
  0
ARC
  8
0
  6
CONTINUOUS
 62
     7
 10
52.99999999999983
 20
-1981.918746135186
 40
2608.588786209053
 50
90.0
 51
90.10357404573654
  0
ARC
  8
0
  6
CONTINUOUS
 62
     7
 10
53.00000000000018
 20
-1981.918746135186
 40
2608.588786209053
 50
89.89642595426346
 51
90.0
  0
ARC
  8
0
  6
CONTINUOUS
 62
     7
 10
56.77217928786878
 20
104.7982088545365
 40
521.868421718842
 50
89.37870354496562
 51
89.89642595426805
  0
ARC
  8
0
  6
CONTINUOUS
 62
     7
 10
67.84942066336966
 20
1126.298167277922
 40
499.6915962612418
 50
269.3787035449657
 51
269.5444750255567
  0
ARC
  8
0
  6
CONTINUOUS
 62
     7
 10
63.2215754466687
 20
544.2216023063311
 40
82.40336544215276
 50
88.53922907652753
 51
89.54447502556418
  0
ARC
  8
0
  6
CONTINUOUS
 62
     7
 10
66.69096888401697
 20
680.272044211481
 40
53.69130540652408
 50
268.5392290765275
 51
268.9443734708299
  0
ARC
  8
0
  6
CONTINUOUS
 62
     7
 10
65.49772951964786
 20
615.5144413284113
 40
11.07729000314992
 50
86.9805582330999
 51
88.9443734707977
  0
ARC
  8
0
  6
CONTINUOUS
 62
     7
 10
66.22763639643335
 20
629.3520526304916
 40
2.77955850566472
 50
266.9805582330998
 51
268.9640374855665
  0
ARC
  8
0
  6
CONTINUOUS
 62
     7
 10
66.1637940050112
 20
625.8215185541447
 40
0.7515527521672978
 50
81.62364345421753
 51
88.96403748547402
  0
ARC
  8
0
  6
CONTINUOUS
 62
     7
 10
66.28117801979622
 20
626.6187177602104
 40
0.0542422472454809
 50
261.6236434542284
 51
299.0423454788574
  0
ARC
  8
0
  6
CONTINUOUS
 62
     7
 10
66.3173110722096
 20
626.5536454747079
 40
0.0201889277903905
 50
0.0
 51
119.0423454788325
  0
CIRCLE
  8
0
  6
CONTINUOUS
 62
     7
 10
98.0
 20
539.7499999999999
 40
2.000000000000002
  0
CIRCLE
  8
0
  6
CONTINUOUS
 62
     7
 10
8.000000000000021
 20
539.7499999999999
 40
2.000000000000002
  0
CIRCLE
  8
0
  6
CONTINUOUS
 62
     7
 10
8.000000000000021
 20
599.75
 40
2.000000000000002
  0
CIRCLE
  8
0
  6
CONTINUOUS
 62
     7
 10
98.0
 20
599.75
 40
2.000000000000002
  0
CIRCLE
  8
0
  6
CONTINUOUS
 62
     7
 10
30.0
 20
569.75
 40
13.55
  0
CIRCLE
  8
0
  6
CONTINUOUS
 62
     7
 10
76.0
 20
569.75
 40
13.54999999999999
  0
CIRCLE
  8
0
  6
CONTINUOUS
 62
     7
 10
76.0
 20
569.75
 40
12.39999999999998
  0
CIRCLE
  8
0
  6
CONTINUOUS
 62
     7
 10
30.0
 20
569.75
 40
12.39999999999998
  0
ARC
  8
0
  6
CONTINUOUS
 62
     7
 10
37.67399999999999
 20
509.7499999999999
 40
0.9999999999999852
 50
247.5000000000001
 51
270.0000000000002
  0
ARC
  8
0
  6
CONTINUOUS
 62
     7
 10
68.326
 20
509.7499999999999
 40
1.000000000000001
 50
269.9999999999998
 51
280.579195521861
  0
ARC
  8
0
  6
CONTINUOUS
 62
     7
 10
68.326
 20
509.7499999999999
 40
0.999999999999985
 50
280.579195521861
 51
289.4942971454955
  0
ARC
  8
0
  6
CONTINUOUS
 62
     7
 10
68.326
 20
509.7499999999999
 40
0.9999999999999367
 50
289.4942971454955
 51
292.5000000000003
  0
ARC
  8
0
  6
CONTINUOUS
 62
     7
 10
52.99999999999999
 20
592.361661866034
 40
85.0000000000001
 50
259.6302401945226
 51
280.3697598054774
  0
LINE
  8
0
  6
CONTINUOUS
 62
     7
 10
39.925
 20
520.275
 11
39.925
 21
512.9233757009373
  0
LINE
  8
0
  6
CONTINUOUS
 62
     7
 10
66.07499999999999
 20
512.9233757009373
 11
66.07499999999999
 21
520.275
  0
LINE
  8
0
  6
CONTINUOUS
 62
     7
 10
66.07499999999999
 20
520.275
 11
65.1
 21
521.25
  0
LINE
  8
0
  6
CONTINUOUS
 62
     7
 10
40.9
 20
521.25
 11
39.92499999999999
 21
520.275
  0
LINE
  8
0
  6
CONTINUOUS
 62
     7
 10
65.1
 20
521.25
 11
65.1
 21
521.7499999999999
  0
LINE
  8
0
  6
CONTINUOUS
 62
     7
 10
40.90000000000001
 20
521.7499999999999
 11
40.90000000000001
 21
521.25
  0
ARC
  8
0
  6
CONTINUOUS
 62
     7
 10
68.32600000000002
 20
629.75
 40
0.9999999999999852
 50
67.49999999999991
 51
90.00000000000021
  0
ARC
  8
0
  6
CONTINUOUS
 62
     7
 10
37.67400000000001
 20
629.75
 40
1.000000000000001
 50
89.99999999999982
 51
100.5791955218609
  0
ARC
  8
0
  6
CONTINUOUS
 62
     7
 10
37.67400000000001
 20
629.75
 40
0.9999999999999838
 50
100.5791955218609
 51
109.4942971454891
  0
ARC
  8
0
  6
CONTINUOUS
 62
     7
 10
37.67400000000001
 20
629.75
 40
1.000000000000007
 50
109.494297145489
 51
112.0430041080544
  0
ARC
  8
0
  6
CONTINUOUS
 62
     7
 10
53.00000000000001
 20
547.1383381339659
 40
85.00000000000011
 50
79.63024019452256
 51
100.3697598054774
  0
LINE
  8
0
  6
CONTINUOUS
 62
     7
 10
66.075
 20
619.225
 11
66.075
 21
626.5766242990627
  0
LINE
  8
0
  6
CONTINUOUS
 62
     7
 10
39.92500000000002
 20
626.5766242990627
 11
39.92500000000002
 21
619.225
  0
LINE
  8
0
  6
CONTINUOUS
 62
     7
 10
39.925
 20
619.225
 11
40.90000000000001
 21
618.25
  0
LINE
  8
0
  6
CONTINUOUS
 62
     7
 10
65.10000000000001
 20
618.25
 11
66.075
 21
619.225
  0
LINE
  8
0
  6
CONTINUOUS
 62
     7
 10
40.90000000000001
 20
618.25
 11
40.90000000000001
 21
617.75
  0
LINE
  8
0
  6
CONTINUOUS
 62
     7
 10
65.10000000000001
 20
617.75
 11
65.10000000000001
 21
618.25
  0
ENDBLK
  8
0
  0
BLOCK
  8
0
  2
D_FRAME_VIEW_47201
 70
     0
 10
0.0
 20
0.0
  0
CIRCLE
  8
0
  6
CONTINUOUS
 62
     7
 10
52.99999999999999
 20
432.7499999999999
 40
15.3
  0
LINE
  8
0
  6
CONTINUOUS
 62
     7
 10
-4.00011423080749
 20
455.25
 11
110.0001142308074
 21
455.25
  0
LINE
  8
0
  6
CONTINUOUS
 62
     7
 10
-5.500000000000012
 20
455.2901342110366
 11
-5.500000000000012
 21
455.2499999999979
  0
LINE
  8
0
  6
CONTINUOUS
 62
     7
 10
-6.572307322931264
 20
406.2412734645016
 11
-7.002615916863193
 21
455.5497543822024
  0
LINE
  8
0
  6
CONTINUOUS
 62
     7
 10
-5.500000000000026
 20
455.25
 11
-4.00011423080749
 21
455.25
  0
LINE
  8
0
  6
CONTINUOUS
 62
     7
 10
111.5
 20
455.2499999999997
 11
111.5
 21
455.2901342104291
  0
LINE
  8
0
  6
CONTINUOUS
 62
     7
 10
113.0026159168235
 20
455.549754377663
 11
112.5723073229312
 21
406.2412734645016
  0
LINE
  8
0
  6
CONTINUOUS
 62
     7
 10
110.0001142308075
 20
455.25
 11
111.5
 21
455.25
  0
LINE
  8
0
  6
CONTINUOUS
 62
     7
 10
-5.500000000000012
 20
455.75
 11
-7.004363433895391
 21
455.75
  0
LINE
  8
0
  6
CONTINUOUS
 62
     7
 10
-7.002615916863193
 20
455.5497543822024
 11
-7.004363433895391
 21
455.75
  0
LINE
  8
0
  6
CONTINUOUS
 62
     7
 10
-5.500000000000012
 20
455.75
 11
-5.500000000000012
 21
455.2901342110367
  0
LINE
  8
0
  6
CONTINUOUS
 62
     7
 10
113.0043634338954
 20
455.75
 11
111.5
 21
455.75
  0
LINE
  8
0
  6
CONTINUOUS
 62
     7
 10
113.0043634338954
 20
455.75
 11
113.0026159168235
 21
455.549754377663
  0
LINE
  8
0
  6
CONTINUOUS
 62
     7
 10
111.5
 20
455.2901342104292
 11
111.5
 21
455.75
  0
LINE
  8
0
  6
CONTINUOUS
 62
     7
 10
109.5724215537387
 20
405.25
 11
-3.572421553738728
 21
405.25
  0
LINE
  8
0
  6
CONTINUOUS
 62
     7
 10
-3.572421553738735
 20
405.25
 11
-5.572345399867097
 21
405.25
  0
ARC
  8
0
  6
CONTINUOUS
 62
     7
 10
-5.57234539986709
 20
406.25
 40
1.000000000000003
 50
180.5000000000005
 51
270.0
  0
LINE
  8
0
  6
CONTINUOUS
 62
     7
 10
111.5723453998671
 20
405.25
 11
109.5724215537387
 21
405.25
  0
ARC
  8
0
  6
CONTINUOUS
 62
     7
 10
111.5723453998671
 20
406.25
 40
1.000000000000001
 50
270.0000000000004
 51
359.4999999999995
  0
ENDBLK
  8
0
  0
BLOCK
  8
0
  2
D_FRAME_VIEW_46794
 70
     0
 10
0.0
 20
0.0
  0
LINE
  8
0
  6
CONTINUOUS
 62
     7
 10
181.674
 20
508.7499999999999
 11
212.326
 21
508.7499999999999
  0
LINE
  8
0
  6
CONTINUOUS
 62
     7
 10
212.6551199805599
 20
508.8125054666825
 11
212.6549272535528
 21
508.8125777589224
  0
LINE
  8
0
  6
CONTINUOUS
 62
     7
 10
213.326
 20
509.7499999999999
 11
213.2764167770399
 21
509.4402826145657
  0
LINE
  8
0
  6
CONTINUOUS
 62
     7
 10
180.7235832229524
 20
509.4402826145891
 11
180.674
 21
509.7499999999999
  0
LINE
  8
0
  6
CONTINUOUS
 62
     7
 10
197.6611440522598
 20
509.7499999999999
 11
197.1157935030405
 21
509.7499999999999
  0
LINE
  8
0
  6
CONTINUOUS
 62
     7
 10
196.8842064969595
 20
509.7499999999999
 11
196.3388559477402
 21
509.7499999999999
  0
LINE
  8
0
  6
CONTINUOUS
 62
     7
 10
197.1157935030405
 20
509.7499999999999
 11
197.0
 21
509.7499999999999
  0
LINE
  8
0
  6
CONTINUOUS
 62
     7
 10
197.0
 20
509.7499999999999
 11
196.8842064969595
 21
509.7499999999999
  0
LINE
  8
0
  6
CONTINUOUS
 62
     7
 10
196.1186492557565
 20
509.7499999999999
 11
195.5198680983755
 21
509.7499999999999
  0
LINE
  8
0
  6
CONTINUOUS
 62
     7
 10
198.4801319016245
 20
509.7499999999999
 11
197.8813507442435
 21
509.7499999999999
  0
LINE
  8
0
  6
CONTINUOUS
 62
     7
 10
199.1972716701218
 20
509.7499999999999
 11
198.7106037529721
 21
509.7499999999999
  0
LINE
  8
0
  6
CONTINUOUS
 62
     7
 10
195.5198680983755
 20
509.7499999999999
 11
195.3997721669796
 21
509.7499999999999
  0
LINE
  8
0
  6
CONTINUOUS
 62
     7
 10
198.6002278330204
 20
509.7499999999999
 11
198.4801319016245
 21
509.7499999999999
  0
LINE
  8
0
  6
CONTINUOUS
 62
     7
 10
198.7106037529721
 20
509.7499999999999
 11
198.6002278330204
 21
509.7499999999999
  0
LINE
  8
0
  6
CONTINUOUS
 62
     7
 10
195.3997721669796
 20
509.7499999999999
 11
195.2893962470279
 21
509.7499999999999
  0
LINE
  8
0
  6
CONTINUOUS
 62
     7
 10
195.2893962470279
 20
509.7499999999999
 11
194.8027283298782
 21
509.7499999999999
  0
LINE
  8
0
  6
CONTINUOUS
 62
     7
 10
194.5846423487155
 20
509.7499999999999
 11
193.9381971730456
 21
509.7499999999999
  0
LINE
  8
0
  6
CONTINUOUS
 62
     7
 10
200.0618028269544
 20
509.7499999999999
 11
199.4153576512845
 21
509.7499999999999
  0
LINE
  8
0
  6
CONTINUOUS
 62
     7
 10
193.9381971730456
 20
509.7499999999999
 11
193.8149554027647
 21
509.7499999999999
  0
LINE
  8
0
  6
CONTINUOUS
 62
     7
 10
193.8149554027647
 20
509.7499999999999
 11
193.7110600463486
 21
509.7499999999999
  0
LINE
  8
0
  6
CONTINUOUS
 62
     7
 10
200.1850445972353
 20
509.7499999999999
 11
200.0618028269544
 21
509.7499999999999
  0
LINE
  8
0
  6
CONTINUOUS
 62
     7
 10
200.2889399536515
 20
509.7499999999999
 11
200.1850445972353
 21
509.7499999999999
  0
LINE
  8
0
  6
CONTINUOUS
 62
     7
 10
200.7122383606496
 20
509.7499999999999
 11
200.2889399536515
 21
509.7499999999999
  0
LINE
  8
0
  6
CONTINUOUS
 62
     7
 10
193.7110600463486
 20
509.7499999999999
 11
193.2877616393504
 21
509.7499999999999
  0
LINE
  8
0
  6
CONTINUOUS
 62
     7
 10
196.230913272592
 20
509.7499999999999
 11
196.3388559477402
 21
509.7499999999999
  0
LINE
  8
0
  6
CONTINUOUS
 62
     7
 10
197.6611440522598
 20
509.7499999999999
 11
197.769086727408
 21
509.7499999999999
  0
LINE
  8
0
  6
CONTINUOUS
 62
     7
 10
197.769086727408
 20
509.7499999999999
 11
197.8813507442436
 21
509.7499999999999
  0
LINE
  8
0
  6
CONTINUOUS
 62
     7
 10
196.1186492557565
 20
509.7499999999999
 11
196.230913272592
 21
509.7499999999999
  0
LINE
  8
0
  6
CONTINUOUS
 62
     7
 10
193.0738966562253
 20
509.7499999999999
 11
192.3860130826909
 21
509.7499999999999
  0
LINE
  8
0
  6
CONTINUOUS
 62
     7
 10
201.6139869173092
 20
509.7499999999999
 11
200.9261033437748
 21
509.7499999999999
  0
LINE
  8
0
  6
CONTINUOUS
 62
     7
 10
192.3860130826909
 20
509.7499999999999
 11
192.2608123591437
 21
509.7499999999999
  0
LINE
  8
0
  6
CONTINUOUS
 62
     7
 10
192.2608123591437
 20
509.7499999999999
 11
192.1643981353404
 21
509.7499999999999
  0
LINE
  8
0
  6
CONTINUOUS
 62
     7
 10
201.8356018646597
 20
509.7499999999999
 11
201.7391876408564
 21
509.7499999999999
  0
LINE
  8
0
  6
CONTINUOUS
 62
     7
 10
201.7391876408564
 20
509.7499999999999
 11
201.6139869173092
 21
509.7499999999999
  0
LINE
  8
0
  6
CONTINUOUS
 62
     7
 10
194.7001465433867
 20
509.7499999999999
 11
194.8027283298782
 21
509.7499999999999
  0
LINE
  8
0
  6
CONTINUOUS
 62
     7
 10
199.1972716701218
 20
509.7499999999999
 11
199.2998534566134
 21
509.7499999999999
  0
LINE
  8
0
  6
CONTINUOUS
 62
     7
 10
192.1643981353404
 20
509.7499999999999
 11
191.8085458335516
 21
509.7499999999999
  0
LINE
  8
0
  6
CONTINUOUS
 62
     7
 10
202.1914541664484
 20
509.7499999999999
 11
201.8356018646596
 21
509.7499999999999
  0
LINE
  8
0
  6
CONTINUOUS
 62
     7
 10
199.2998534566134
 20
509.7499999999999
 11
199.4153576512845
 21
509.7499999999999
  0
LINE
  8
0
  6
CONTINUOUS
 62
     7
 10
194.5846423487155
 20
509.7499999999999
 11
194.7001465433867
 21
509.7499999999999
  0
LINE
  8
0
  6
CONTINUOUS
 62
     7
 10
193.1915286601962
 20
509.7499999999999
 11
193.2877616393504
 21
509.7499999999999
  0
LINE
  8
0
  6
CONTINUOUS
 62
     7
 10
200.7122383606496
 20
509.7499999999999
 11
200.8084713398038
 21
509.7499999999999
  0
LINE
  8
0
  6
CONTINUOUS
 62
     7
 10
200.8084713398038
 20
509.7499999999999
 11
200.9261033437748
 21
509.7499999999999
  0
LINE
  8
0
  6
CONTINUOUS
 62
     7
 10
193.0738966562253
 20
509.7499999999999
 11
193.1915286601962
 21
509.7499999999999
  0
LINE
  8
0
  6
CONTINUOUS
 62
     7
 10
191.6009614851619
 20
509.7499999999999
 11
190.8782642086116
 21
509.7499999999999
  0
LINE
  8
0
  6
CONTINUOUS
 62
     7
 10
203.1217357913884
 20
509.7499999999999
 11
202.3990385148381
 21
509.7499999999999
  0
LINE
  8
0
  6
CONTINUOUS
 62
     7
 10
190.8782642086116
 20
509.7499999999999
 11
190.7523102832075
 21
509.7499999999999
  0
LINE
  8
0
  6
CONTINUOUS
 62
     7
 10
190.7523102832075
 20
509.7499999999999
 11
190.6643057136977
 21
509.7499999999999
  0
LINE
  8
0
  6
CONTINUOUS
 62
     7
 10
203.2476897167925
 20
509.7499999999999
 11
203.1217357913884
 21
509.7499999999999
  0
LINE
  8
0
  6
CONTINUOUS
 62
     7
 10
203.3356942863023
 20
509.7499999999999
 11
203.2476897167925
 21
509.7499999999999
  0
LINE
  8
0
  6
CONTINUOUS
 62
     7
 10
190.6643057136977
 20
509.7499999999999
 11
190.3793265693131
 21
509.7499999999999
  0
LINE
  8
0
  6
CONTINUOUS
 62
     7
 10
203.6206734306869
 20
509.7499999999999
 11
203.3356942863023
 21
509.7499999999999
  0
LINE
  8
0
  6
CONTINUOUS
 62
     7
 10
191.7195884379303
 20
509.7499999999999
 11
191.8085458335516
 21
509.7499999999999
  0
LINE
  8
0
  6
CONTINUOUS
 62
     7
 10
202.1914541664484
 20
509.7499999999999
 11
202.2804115620697
 21
509.7499999999999
  0
LINE
  8
0
  6
CONTINUOUS
 62
     7
 10
202.2804115620697
 20
509.7499999999999
 11
202.3990385148381
 21
509.7499999999999
  0
LINE
  8
0
  6
CONTINUOUS
 62
     7
 10
191.6009614851619
 20
509.7499999999999
 11
191.7195884379303
 21
509.7499999999999
  0
LINE
  8
0
  6
CONTINUOUS
 62
     7
 10
190.1800220064112
 20
509.7499999999999
 11
189.4294709966847
 21
509.7499999999999
  0
LINE
  8
0
  6
CONTINUOUS
 62
     7
 10
204.5705290033154
 20
509.7499999999999
 11
203.8199779935888
 21
509.7499999999999
  0
LINE
  8
0
  6
CONTINUOUS
 62
     7
 10
189.3039768745788
 20
509.7499999999999
 11
189.225229491475
 21
509.7499999999999
  0
LINE
  8
0
  6
CONTINUOUS
 62
     7
 10
189.4294709966847
 20
509.7499999999999
 11
189.3039768745788
 21
509.7499999999999
  0
LINE
  8
0
  6
CONTINUOUS
 62
     7
 10
204.7747705085251
 20
509.7499999999999
 11
204.6960231254212
 21
509.7499999999999
  0
LINE
  8
0
  6
CONTINUOUS
 62
     7
 10
204.6960231254212
 20
509.7499999999999
 11
204.5705290033154
 21
509.7499999999999
  0
LINE
  8
0
  6
CONTINUOUS
 62
     7
 10
189.225229491475
 20
509.7499999999999
 11
189.0138680094405
 21
509.7499999999999
  0
LINE
  8
0
  6
CONTINUOUS
 62
     7
 10
204.9861319905595
 20
509.7499999999999
 11
204.7747705085251
 21
509.7499999999999
  0
LINE
  8
0
  6
CONTINUOUS
 62
     7
 10
190.2985014655737
 20
509.7499999999999
 11
190.3793265693131
 21
509.7499999999999
  0
LINE
  8
0
  6
CONTINUOUS
 62
     7
 10
203.6206734306868
 20
509.7499999999999
 11
203.7014985344263
 21
509.7499999999999
  0
LINE
  8
0
  6
CONTINUOUS
 62
     7
 10
203.7014985344263
 20
509.7499999999999
 11
203.8199779935888
 21
509.7499999999999
  0
LINE
  8
0
  6
CONTINUOUS
 62
     7
 10
190.1800220064112
 20
509.7499999999999
 11
190.2985014655738
 21
509.7499999999999
  0
LINE
  8
0
  6
CONTINUOUS
 62
     7
 10
188.8247626439179
 20
509.7499999999999
 11
188.0535861175318
 21
509.7499999999999
  0
LINE
  8
0
  6
CONTINUOUS
 62
     7
 10
205.9464138824683
 20
509.7499999999999
 11
205.1752373560821
 21
509.7499999999999
  0
LINE
  8
0
  6
CONTINUOUS
 62
     7
 10
187.929760375722
 20
509.7499999999999
 11
187.8610285593712
 21
509.7499999999999
  0
LINE
  8
0
  6
CONTINUOUS
 62
     7
 10
188.0535861175318
 20
509.7499999999999
 11
187.929760375722
 21
509.7499999999999
  0
LINE
  8
0
  6
CONTINUOUS
 62
     7
 10
206.070239624278
 20
509.7499999999999
 11
205.9464138824683
 21
509.7499999999999
  0
LINE
  8
0
  6
CONTINUOUS
 62
     7
 10
206.1389714406288
 20
509.7499999999999
 11
206.070239624278
 21
509.7499999999999
  0
LINE
  8
0
  6
CONTINUOUS
 62
     7
 10
188.9419535875155
 20
509.7499999999999
 11
189.0138680094405
 21
509.7499999999999
  0
LINE
  8
0
  6
CONTINUOUS
 62
     7
 10
204.9861319905595
 20
509.7499999999999
 11
205.0580464124846
 21
509.7499999999999
  0
LINE
  8
0
  6
CONTINUOUS
 62
     7
 10
187.8610285593712
 20
509.7499999999999
 11
187.7253202663007
 21
509.7499999999999
  0
LINE
  8
0
  6
CONTINUOUS
 62
     7
 10
206.2746797336993
 20
509.7499999999999
 11
206.1389714406288
 21
509.7499999999999
  0
LINE
  8
0
  6
CONTINUOUS
 62
     7
 10
205.0580464124846
 20
509.7499999999999
 11
205.1752373560821
 21
509.7499999999999
  0
LINE
  8
0
  6
CONTINUOUS
 62
     7
 10
188.8247626439179
 20
509.7499999999999
 11
188.9419535875155
 21
509.7499999999999
  0
LINE
  8
0
  6
CONTINUOUS
 62
     7
 10
187.548235286203
 20
509.7499999999999
 11
186.7638600946743
 21
509.7499999999999
  0
LINE
  8
0
  6
CONTINUOUS
 62
     7
 10
207.2361399053257
 20
509.7499999999999
 11
206.451764713797
 21
509.7499999999999
  0
LINE
  8
0
  6
CONTINUOUS
 62
     7
 10
187.6630091013856
 20
509.7499999999999
 11
187.7253202663007
 21
509.7499999999999
  0
LINE
  8
0
  6
CONTINUOUS
 62
     7
 10
206.2746797336993
 20
509.7499999999999
 11
206.3369908986144
 21
509.7499999999999
  0
LINE
  8
0
  6
CONTINUOUS
 62
     7
 10
207.3571047572557
 20
509.7499999999999
 11
207.2361399053257
 21
509.7499999999999
  0
LINE
  8
0
  6
CONTINUOUS
 62
     7
 10
207.4151590818894
 20
509.7499999999999
 11
207.3571047572557
 21
509.7499999999999
  0
LINE
  8
0
  6
CONTINUOUS
 62
     7
 10
186.6428952427443
 20
509.7499999999999
 11
186.5848409181106
 21
509.7499999999999
  0
LINE
  8
0
  6
CONTINUOUS
 62
     7
 10
186.7638600946743
 20
509.7499999999999
 11
186.6428952427443
 21
509.7499999999999
  0
LINE
  8
0
  6
CONTINUOUS
 62
     7
 10
206.3369908986144
 20
509.7499999999999
 11
206.451764713797
 21
509.7499999999999
  0
LINE
  8
0
  6
CONTINUOUS
 62
     7
 10
187.548235286203
 20
509.7499999999999
 11
187.6630091013856
 21
509.7499999999999
  0
LINE
  8
0
  6
CONTINUOUS
 62
     7
 10
186.5848409181106
 20
509.7499999999999
 11
186.5260927590521
 21
509.7499999999999
  0
LINE
  8
0
  6
CONTINUOUS
 62
     7
 10
207.4739072409478
 20
509.7499999999999
 11
207.4151590818894
 21
509.7499999999999
  0
LINE
  8
0
  6
CONTINUOUS
 62
     7
 10
186.4739849417278
 20
509.7499999999999
 11
186.5260927590522
 21
509.7499999999999
  0
LINE
  8
0
  6
CONTINUOUS
 62
     7
 10
207.4739072409478
 20
509.7499999999999
 11
207.5260150582722
 21
509.7499999999999
  0
LINE
  8
0
  6
CONTINUOUS
 62
     7
 10
186.3627335895422
 20
509.7499999999999
 11
185.5727136947484
 21
509.7499999999999
  0
LINE
  8
0
  6
CONTINUOUS
 62
     7
 10
208.4272863052516
 20
509.7499999999999
 11
207.6372664104578
 21
509.7499999999999
  0
LINE
  8
0
  6
CONTINUOUS
 62
     7
 10
207.5260150582722
 20
509.7499999999999
 11
207.6372664104578
 21
509.7499999999999
  0
LINE
  8
0
  6
CONTINUOUS
 62
     7
 10
186.3627335895422
 20
509.7499999999999
 11
186.4739849417278
 21
509.7499999999999
  0
LINE
  8
0
  6
CONTINUOUS
 62
     7
 10
185.5727136947484
 20
509.7499999999999
 11
185.4557746903484
 21
509.7499999999999
  0
LINE
  8
0
  6
CONTINUOUS
 62
     7
 10
185.4557746903484
 20
509.7499999999999
 11
185.4089117753383
 21
509.7499999999999
  0
LINE
  8
0
  6
CONTINUOUS
 62
     7
 10
208.5910882246617
 20
509.7499999999999
 11
208.5442253096516
 21
509.7499999999999
  0
LINE
  8
0
  6
CONTINUOUS
 62
     7
 10
208.5442253096516
 20
509.7499999999999
 11
208.4272863052516
 21
509.7499999999999
  0
LINE
  8
0
  6
CONTINUOUS
 62
     7
 10
185.3863320611864
 20
509.7499999999999
 11
185.4089117753383
 21
509.7499999999999
  0
LINE
  8
0
  6
CONTINUOUS
 62
     7
 10
208.5910882246617
 20
509.7499999999999
 11
208.6136679388137
 21
509.7499999999999
  0
LINE
  8
0
  6
CONTINUOUS
 62
     7
 10
185.2796745833353
 20
509.7499999999999
 11
184.4916183087322
 21
509.7499999999999
  0
LINE
  8
0
  6
CONTINUOUS
 62
     7
 10
209.5083816912678
 20
509.7499999999999
 11
208.7203254166647
 21
509.7499999999999
  0
LINE
  8
0
  6
CONTINUOUS
 62
     7
 10
208.6136679388137
 20
509.7499999999999
 11
208.7203254166647
 21
509.7499999999999
  0
LINE
  8
0
  6
CONTINUOUS
 62
     7
 10
185.2796745833353
 20
509.7499999999999
 11
185.3863320611864
 21
509.7499999999999
  0
LINE
  8
0
  6
CONTINUOUS
 62
     7
 10
209.656486989062
 20
509.7499999999999
 11
209.6201686616
 21
509.7499999999999
  0
LINE
  8
0
  6
CONTINUOUS
 62
     7
 10
209.6201686616
 20
509.7499999999999
 11
209.5083816912678
 21
509.7499999999999
  0
LINE
  8
0
  6
CONTINUOUS
 62
     7
 10
184.3798313384
 20
509.7499999999999
 11
184.343513010938
 21
509.7499999999999
  0
LINE
  8
0
  6
CONTINUOUS
 62
     7
 10
184.4916183087322
 20
509.7499999999999
 11
184.3798313384
 21
509.7499999999999
  0
LINE
  8
0
  6
CONTINUOUS
 62
     7
 10
184.3094887178726
 20
509.7499999999999
 11
183.5309854761799
 21
509.7499999999999
  0
LINE
  8
0
  6
CONTINUOUS
 62
     7
 10
209.656486989062
 20
509.7499999999999
 11
209.6905112821274
 21
509.7499999999999
  0
LINE
  8
0
  6
CONTINUOUS
 62
     7
 10
210.4690145238201
 20
509.7499999999999
 11
209.6905112821274
 21
509.7499999999999
  0
LINE
  8
0
  6
CONTINUOUS
 62
     7
 10
184.3094887178726
 20
509.7499999999999
 11
184.343513010938
 21
509.7499999999999
  0
LINE
  8
0
  6
CONTINUOUS
 62
     7
 10
183.4254271095487
 20
509.7499999999999
 11
183.3984622475171
 21
509.7499999999999
  0
LINE
  8
0
  6
CONTINUOUS
 62
     7
 10
183.5309854761799
 20
509.7499999999999
 11
183.4254271095487
 21
509.7499999999999
  0
LINE
  8
0
  6
CONTINUOUS
 62
     7
 10
210.5745728904513
 20
509.7499999999999
 11
210.4690145238201
 21
509.7499999999999
  0
LINE
  8
0
  6
CONTINUOUS
 62
     7
 10
210.6015377524829
 20
509.7499999999999
 11
210.5745728904513
 21
509.7499999999999
  0
LINE
  8
0
  6
CONTINUOUS
 62
     7
 10
183.3984622475171
 20
509.7499999999999
 11
182.7000666164043
 21
509.7499999999999
  0
LINE
  8
0
  6
CONTINUOUS
 62
     7
 10
211.2999333835957
 20
509.7499999999999
 11
210.6015377524829
 21
509.7499999999999
  0
LINE
  8
0
  6
CONTINUOUS
 62
     7
 10
182.6017534382488
 20
509.7499999999999
 11
182.5828608405445
 21
509.7499999999999
  0
LINE
  8
0
  6
CONTINUOUS
 62
     7
 10
182.7000666164043
 20
509.7499999999999
 11
182.6017534382488
 21
509.7499999999999
  0
LINE
  8
0
  6
CONTINUOUS
 62
     7
 10
211.4171391594555
 20
509.7499999999999
 11
211.3982465617513
 21
509.7499999999999
  0
LINE
  8
0
  6
CONTINUOUS
 62
     7
 10
211.3982465617513
 20
509.7499999999999
 11
211.2999333835957
 21
509.7499999999999
  0
LINE
  8
0
  6
CONTINUOUS
 62
     7
 10
182.5828608405445
 20
509.7499999999999
 11
182.0068639322515
 21
509.7499999999999
  0
LINE
  8
0
  6
CONTINUOUS
 62
     7
 10
211.9931360677485
 20
509.7499999999999
 11
211.4171391594555
 21
509.7499999999999
  0
LINE
  8
0
  6
CONTINUOUS
 62
     7
 10
212.0832572477793
 20
509.7499999999999
 11
211.9931360677485
 21
509.7499999999999
  0
LINE
  8
0
  6
CONTINUOUS
 62
     7
 10
212.0954365225775
 20
509.7499999999999
 11
212.0832572477793
 21
509.7499999999999
  0
LINE
  8
0
  6
CONTINUOUS
 62
     7
 10
182.0068639322515
 20
509.7499999999999
 11
181.9167427522208
 21
509.7499999999999
  0
LINE
  8
0
  6
CONTINUOUS
 62
     7
 10
181.9167427522208
 20
509.7499999999999
 11
181.9045634774226
 21
509.7499999999999
  0
LINE
  8
0
  6
CONTINUOUS
 62
     7
 10
181.9045634774226
 20
509.7499999999999
 11
181.458053344513
 21
509.7499999999999
  0
LINE
  8
0
  6
CONTINUOUS
 62
     7
 10
212.5419466554871
 20
509.7499999999999
 11
212.0954365225774
 21
509.7499999999999
  0
LINE
  8
0
  6
CONTINUOUS
 62
     7
 10
181.4580533445129
 20
509.7499999999999
 11
181.376992078836
 21
509.7499999999999
  0
LINE
  8
0
  6
CONTINUOUS
 62
     7
 10
212.623007921164
 20
509.7499999999999
 11
212.5419466554871
 21
509.7499999999999
  0
LINE
  8
0
  6
CONTINUOUS
 62
     7
 10
181.376992078836
 20
509.7499999999999
 11
181.3701025325531
 21
509.7499999999999
  0
LINE
  8
0
  6
CONTINUOUS
 62
     7
 10
212.6298974674469
 20
509.7499999999999
 11
212.623007921164
 21
509.7499999999999
  0
LINE
  8
0
  6
CONTINUOUS
 62
     7
 10
181.3701025325531
 20
509.7499999999999
 11
181.058920199159
 21
509.7499999999999
  0
LINE
  8
0
  6
CONTINUOUS
 62
     7
 10
212.941079800841
 20
509.7499999999999
 11
212.6298974674469
 21
509.7499999999999
  0
LINE
  8
0
  6
CONTINUOUS
 62
     7
 10
181.058920199159
 20
509.7499999999999
 11
180.9876995121369
 21
509.7499999999999
  0
LINE
  8
0
  6
CONTINUOUS
 62
     7
 10
213.0123004878631
 20
509.7499999999999
 11
212.941079800841
 21
509.7499999999999
  0
LINE
  8
0
  6
CONTINUOUS
 62
     7
 10
180.9876995121369
 20
509.7499999999999
 11
180.9846251570014
 21
509.7499999999999
  0
LINE
  8
0
  6
CONTINUOUS
 62
     7
 10
213.0153748429986
 20
509.7499999999999
 11
213.0123004878631
 21
509.7499999999999
  0
LINE
  8
0
  6
CONTINUOUS
 62
     7
 10
180.9846251570014
 20
509.7499999999999
 11
180.8133083665678
 21
509.7499999999999
  0
LINE
  8
0
  6
CONTINUOUS
 62
     7
 10
213.1866916334322
 20
509.7499999999999
 11
213.0153748429986
 21
509.7499999999999
  0
LINE
  8
0
  6
CONTINUOUS
 62
     7
 10
180.8133083665678
 20
509.7499999999999
 11
180.7526141523497
 21
509.7499999999999
  0
LINE
  8
0
  6
CONTINUOUS
 62
     7
 10
213.2473858476503
 20
509.7499999999999
 11
213.1866916334322
 21
509.7499999999999
  0
LINE
  8
0
  6
CONTINUOUS
 62
     7
 10
180.7526141523497
 20
509.7499999999999
 11
180.7518437086173
 21
509.7499999999999
  0
LINE
  8
0
  6
CONTINUOUS
 62
     7
 10
213.2481562913827
 20
509.7499999999999
 11
213.2473858476503
 21
509.7499999999999
  0
LINE
  8
0
  6
CONTINUOUS
 62
     7
 10
181.3450413594184
 20
508.8125311858562
 11
181.3448800194401
 21
508.8125054666825
  0
LINE
  8
0
  6
CONTINUOUS
 62
     7
 10
180.7518437086173
 20
509.7499999999999
 11
180.7235832229523
 21
509.7499999999999
  0
LINE
  8
0
  6
CONTINUOUS
 62
     7
 10
213.2764167770477
 20
509.7499999999999
 11
213.2481562913827
 21
509.7499999999999
  0
LINE
  8
0
  6
CONTINUOUS
 62
     7
 10
180.7235832229523
 20
509.7499999999999
 11
180.674
 21
509.7499999999999
  0
LINE
  8
0
  6
CONTINUOUS
 62
     7
 10
213.326
 20
509.7499999999999
 11
213.2764167770477
 21
509.7499999999999
  0
LINE
  8
0
  6
CONTINUOUS
 62
     7
 10
196.3388559477402
 20
629.75
 11
196.8842064969595
 21
629.75
  0
LINE
  8
0
  6
CONTINUOUS
 62
     7
 10
212.326
 20
630.75
 11
197.0
 21
630.75
  0
LINE
  8
0
  6
CONTINUOUS
 62
     7
 10
197.0
 20
630.75
 11
181.674
 21
630.75
  0
LINE
  8
0
  6
CONTINUOUS
 62
     7
 10
213.2764167770476
 20
630.059717385411
 11
213.326
 21
629.75
  0
LINE
  8
0
  6
CONTINUOUS
 62
     7
 10
180.674
 20
629.75
 11
180.72358322296
 21
630.059717385434
  0
LINE
  8
0
  6
CONTINUOUS
 62
     7
 10
197.1157935030405
 20
629.75
 11
197.6611440522598
 21
629.75
  0
LINE
  8
0
  6
CONTINUOUS
 62
     7
 10
196.8842064969595
 20
629.75
 11
197.0
 21
629.75
  0
LINE
  8
0
  6
CONTINUOUS
 62
     7
 10
197.0
 20
629.75
 11
197.1157935030405
 21
629.75
  0
LINE
  8
0
  6
CONTINUOUS
 62
     7
 10
197.8813507442436
 20
629.75
 11
198.4801319016245
 21
629.75
  0
LINE
  8
0
  6
CONTINUOUS
 62
     7
 10
195.5198680983755
 20
629.75
 11
196.1186492557565
 21
629.75
  0
LINE
  8
0
  6
CONTINUOUS
 62
     7
 10
194.8027283298782
 20
629.75
 11
195.2893962470279
 21
629.75
  0
LINE
  8
0
  6
CONTINUOUS
 62
     7
 10
198.4801319016245
 20
629.75
 11
198.6002278330204
 21
629.75
  0
LINE
  8
0
  6
CONTINUOUS
 62
     7
 10
198.6002278330204
 20
629.75
 11
198.7106037529721
 21
629.75
  0
LINE
  8
0
  6
CONTINUOUS
 62
     7
 10
195.3997721669796
 20
629.75
 11
195.5198680983755
 21
629.75
  0
LINE
  8
0
  6
CONTINUOUS
 62
     7
 10
195.2893962470279
 20
629.75
 11
195.3997721669796
 21
629.75
  0
LINE
  8
0
  6
CONTINUOUS
 62
     7
 10
198.7106037529721
 20
629.75
 11
199.1972716701218
 21
629.75
  0
LINE
  8
0
  6
CONTINUOUS
 62
     7
 10
199.4153576512845
 20
629.75
 11
200.0618028269544
 21
629.75
  0
LINE
  8
0
  6
CONTINUOUS
 62
     7
 10
193.9381971730456
 20
629.75
 11
194.5846423487155
 21
629.75
  0
LINE
  8
0
  6
CONTINUOUS
 62
     7
 10
193.8149554027647
 20
629.75
 11
193.9381971730456
 21
629.75
  0
LINE
  8
0
  6
CONTINUOUS
 62
     7
 10
193.7110600463486
 20
629.75
 11
193.8149554027647
 21
629.75
  0
LINE
  8
0
  6
CONTINUOUS
 62
     7
 10
200.1850445972353
 20
629.75
 11
200.2889399536515
 21
629.75
  0
LINE
  8
0
  6
CONTINUOUS
 62
     7
 10
200.0618028269544
 20
629.75
 11
200.1850445972353
 21
629.75
  0
LINE
  8
0
  6
CONTINUOUS
 62
     7
 10
200.2889399536515
 20
629.75
 11
200.7122383606496
 21
629.75
  0
LINE
  8
0
  6
CONTINUOUS
 62
     7
 10
193.2877616393504
 20
629.75
 11
193.7110600463486
 21
629.75
  0
LINE
  8
0
  6
CONTINUOUS
 62
     7
 10
197.7690867274079
 20
629.75
 11
197.6611440522598
 21
629.75
  0
LINE
  8
0
  6
CONTINUOUS
 62
     7
 10
196.3388559477402
 20
629.75
 11
196.2309132725921
 21
629.75
  0
LINE
  8
0
  6
CONTINUOUS
 62
     7
 10
196.2309132725921
 20
629.75
 11
196.1186492557565
 21
629.75
  0
LINE
  8
0
  6
CONTINUOUS
 62
     7
 10
197.8813507442436
 20
629.75
 11
197.7690867274079
 21
629.75
  0
LINE
  8
0
  6
CONTINUOUS
 62
     7
 10
200.9261033437748
 20
629.75
 11
201.6139869173092
 21
629.75
  0
LINE
  8
0
  6
CONTINUOUS
 62
     7
 10
192.3860130826909
 20
629.75
 11
193.0738966562253
 21
629.75
  0
LINE
  8
0
  6
CONTINUOUS
 62
     7
 10
192.2608123591437
 20
629.75
 11
192.3860130826909
 21
629.75
  0
LINE
  8
0
  6
CONTINUOUS
 62
     7
 10
192.1643981353403
 20
629.75
 11
192.2608123591437
 21
629.75
  0
LINE
  8
0
  6
CONTINUOUS
 62
     7
 10
201.6139869173092
 20
629.75
 11
201.7391876408564
 21
629.75
  0
LINE
  8
0
  6
CONTINUOUS
 62
     7
 10
201.7391876408564
 20
629.75
 11
201.8356018646597
 21
629.75
  0
LINE
  8
0
  6
CONTINUOUS
 62
     7
 10
199.2998534566134
 20
629.75
 11
199.1972716701218
 21
629.75
  0
LINE
  8
0
  6
CONTINUOUS
 62
     7
 10
194.8027283298782
 20
629.75
 11
194.7001465433867
 21
629.75
  0
LINE
  8
0
  6
CONTINUOUS
 62
     7
 10
201.8356018646597
 20
629.75
 11
202.1914541664484
 21
629.75
  0
LINE
  8
0
  6
CONTINUOUS
 62
     7
 10
191.8085458335516
 20
629.75
 11
192.1643981353404
 21
629.75
  0
LINE
  8
0
  6
CONTINUOUS
 62
     7
 10
194.7001465433867
 20
629.75
 11
194.5846423487155
 21
629.75
  0
LINE
  8
0
  6
CONTINUOUS
 62
     7
 10
199.4153576512845
 20
629.75
 11
199.2998534566134
 21
629.75
  0
LINE
  8
0
  6
CONTINUOUS
 62
     7
 10
200.8084713398038
 20
629.75
 11
200.7122383606496
 21
629.75
  0
LINE
  8
0
  6
CONTINUOUS
 62
     7
 10
193.2877616393504
 20
629.75
 11
193.1915286601963
 21
629.75
  0
LINE
  8
0
  6
CONTINUOUS
 62
     7
 10
193.1915286601962
 20
629.75
 11
193.0738966562253
 21
629.75
  0
LINE
  8
0
  6
CONTINUOUS
 62
     7
 10
200.9261033437748
 20
629.75
 11
200.8084713398038
 21
629.75
  0
LINE
  8
0
  6
CONTINUOUS
 62
     7
 10
202.3990385148381
 20
629.75
 11
203.1217357913884
 21
629.75
  0
LINE
  8
0
  6
CONTINUOUS
 62
     7
 10
190.8782642086116
 20
629.75
 11
191.6009614851619
 21
629.75
  0
LINE
  8
0
  6
CONTINUOUS
 62
     7
 10
203.2476897167925
 20
629.75
 11
203.3356942863023
 21
629.75
  0
LINE
  8
0
  6
CONTINUOUS
 62
     7
 10
203.1217357913884
 20
629.75
 11
203.2476897167925
 21
629.75
  0
LINE
  8
0
  6
CONTINUOUS
 62
     7
 10
190.6643057136977
 20
629.75
 11
190.7523102832076
 21
629.75
  0
LINE
  8
0
  6
CONTINUOUS
 62
     7
 10
190.7523102832076
 20
629.75
 11
190.8782642086116
 21
629.75
  0
LINE
  8
0
  6
CONTINUOUS
 62
     7
 10
190.3793265693131
 20
629.75
 11
190.6643057136977
 21
629.75
  0
LINE
  8
0
  6
CONTINUOUS
 62
     7
 10
203.3356942863023
 20
629.75
 11
203.6206734306869
 21
629.75
  0
LINE
  8
0
  6
CONTINUOUS
 62
     7
 10
202.2804115620697
 20
629.75
 11
202.1914541664484
 21
629.75
  0
LINE
  8
0
  6
CONTINUOUS
 62
     7
 10
191.8085458335516
 20
629.75
 11
191.7195884379303
 21
629.75
  0
LINE
  8
0
  6
CONTINUOUS
 62
     7
 10
191.7195884379303
 20
629.75
 11
191.6009614851619
 21
629.75
  0
LINE
  8
0
  6
CONTINUOUS
 62
     7
 10
202.3990385148381
 20
629.75
 11
202.2804115620697
 21
629.75
  0
LINE
  8
0
  6
CONTINUOUS
 62
     7
 10
203.8199779935888
 20
629.75
 11
204.5705290033154
 21
629.75
  0
LINE
  8
0
  6
CONTINUOUS
 62
     7
 10
189.4294709966847
 20
629.75
 11
190.1800220064112
 21
629.75
  0
LINE
  8
0
  6
CONTINUOUS
 62
     7
 10
204.5705290033154
 20
629.75
 11
204.6960231254212
 21
629.75
  0
LINE
  8
0
  6
CONTINUOUS
 62
     7
 10
189.3039768745788
 20
629.75
 11
189.4294709966847
 21
629.75
  0
LINE
  8
0
  6
CONTINUOUS
 62
     7
 10
189.225229491475
 20
629.75
 11
189.3039768745788
 21
629.75
  0
LINE
  8
0
  6
CONTINUOUS
 62
     7
 10
204.6960231254212
 20
629.75
 11
204.7747705085251
 21
629.75
  0
LINE
  8
0
  6
CONTINUOUS
 62
     7
 10
189.0138680094405
 20
629.75
 11
189.225229491475
 21
629.75
  0
LINE
  8
0
  6
CONTINUOUS
 62
     7
 10
204.7747705085251
 20
629.75
 11
204.9861319905595
 21
629.75
  0
LINE
  8
0
  6
CONTINUOUS
 62
     7
 10
203.7014985344263
 20
629.75
 11
203.6206734306869
 21
629.75
  0
LINE
  8
0
  6
CONTINUOUS
 62
     7
 10
190.3793265693131
 20
629.75
 11
190.2985014655738
 21
629.75
  0
LINE
  8
0
  6
CONTINUOUS
 62
     7
 10
190.2985014655738
 20
629.75
 11
190.1800220064112
 21
629.75
  0
LINE
  8
0
  6
CONTINUOUS
 62
     7
 10
203.8199779935888
 20
629.75
 11
203.7014985344263
 21
629.75
  0
LINE
  8
0
  6
CONTINUOUS
 62
     7
 10
205.1752373560821
 20
629.75
 11
205.9464138824683
 21
629.75
  0
LINE
  8
0
  6
CONTINUOUS
 62
     7
 10
188.0535861175318
 20
629.75
 11
188.8247626439179
 21
629.75
  0
LINE
  8
0
  6
CONTINUOUS
 62
     7
 10
187.8610285593712
 20
629.75
 11
187.929760375722
 21
629.75
  0
LINE
  8
0
  6
CONTINUOUS
 62
     7
 10
187.929760375722
 20
629.75
 11
188.0535861175318
 21
629.75
  0
LINE
  8
0
  6
CONTINUOUS
 62
     7
 10
206.070239624278
 20
629.75
 11
206.1389714406288
 21
629.75
  0
LINE
  8
0
  6
CONTINUOUS
 62
     7
 10
205.9464138824683
 20
629.75
 11
206.070239624278
 21
629.75
  0
LINE
  8
0
  6
CONTINUOUS
 62
     7
 10
205.0580464124846
 20
629.75
 11
204.9861319905595
 21
629.75
  0
LINE
  8
0
  6
CONTINUOUS
 62
     7
 10
189.0138680094405
 20
629.75
 11
188.9419535875154
 21
629.75
  0
LINE
  8
0
  6
CONTINUOUS
 62
     7
 10
206.1389714406288
 20
629.75
 11
206.2746797336993
 21
629.75
  0
LINE
  8
0
  6
CONTINUOUS
 62
     7
 10
187.7253202663007
 20
629.75
 11
187.8610285593712
 21
629.75
  0
LINE
  8
0
  6
CONTINUOUS
 62
     7
 10
188.9419535875154
 20
629.75
 11
188.8247626439179
 21
629.75
  0
LINE
  8
0
  6
CONTINUOUS
 62
     7
 10
205.1752373560821
 20
629.75
 11
205.0580464124846
 21
629.75
  0
LINE
  8
0
  6
CONTINUOUS
 62
     7
 10
206.451764713797
 20
629.75
 11
207.2361399053257
 21
629.75
  0
LINE
  8
0
  6
CONTINUOUS
 62
     7
 10
186.7638600946743
 20
629.75
 11
187.548235286203
 21
629.75
  0
LINE
  8
0
  6
CONTINUOUS
 62
     7
 10
187.7253202663007
 20
629.75
 11
187.6630091013856
 21
629.75
  0
LINE
  8
0
  6
CONTINUOUS
 62
     7
 10
206.3369908986144
 20
629.75
 11
206.2746797336993
 21
629.75
  0
LINE
  8
0
  6
CONTINUOUS
 62
     7
 10
186.6428952427443
 20
629.75
 11
186.7638600946743
 21
629.75
  0
LINE
  8
0
  6
CONTINUOUS
 62
     7
 10
207.3571047572557
 20
629.75
 11
207.4151590818894
 21
629.75
  0
LINE
  8
0
  6
CONTINUOUS
 62
     7
 10
207.2361399053257
 20
629.75
 11
207.3571047572557
 21
629.75
  0
LINE
  8
0
  6
CONTINUOUS
 62
     7
 10
186.5848409181106
 20
629.75
 11
186.6428952427443
 21
629.75
  0
LINE
  8
0
  6
CONTINUOUS
 62
     7
 10
187.6630091013856
 20
629.75
 11
187.548235286203
 21
629.75
  0
LINE
  8
0
  6
CONTINUOUS
 62
     7
 10
206.451764713797
 20
629.75
 11
206.3369908986144
 21
629.75
  0
LINE
  8
0
  6
CONTINUOUS
 62
     7
 10
186.5260927590521
 20
629.75
 11
186.5848409181106
 21
629.75
  0
LINE
  8
0
  6
CONTINUOUS
 62
     7
 10
207.4151590818894
 20
629.75
 11
207.4739072409479
 21
629.75
  0
LINE
  8
0
  6
CONTINUOUS
 62
     7
 10
186.5260927590521
 20
629.75
 11
186.4739849417278
 21
629.75
  0
LINE
  8
0
  6
CONTINUOUS
 62
     7
 10
207.5260150582722
 20
629.75
 11
207.4739072409478
 21
629.75
  0
LINE
  8
0
  6
CONTINUOUS
 62
     7
 10
207.6372664104578
 20
629.75
 11
208.4272863052516
 21
629.75
  0
LINE
  8
0
  6
CONTINUOUS
 62
     7
 10
185.5727136947484
 20
629.75
 11
186.3627335895422
 21
629.75
  0
LINE
  8
0
  6
CONTINUOUS
 62
     7
 10
186.4739849417278
 20
629.75
 11
186.3627335895422
 21
629.75
  0
LINE
  8
0
  6
CONTINUOUS
 62
     7
 10
207.6372664104578
 20
629.75
 11
207.5260150582722
 21
629.75
  0
LINE
  8
0
  6
CONTINUOUS
 62
     7
 10
185.4089117753383
 20
629.75
 11
185.4557746903484
 21
629.75
  0
LINE
  8
0
  6
CONTINUOUS
 62
     7
 10
185.4557746903484
 20
629.75
 11
185.5727136947484
 21
629.75
  0
LINE
  8
0
  6
CONTINUOUS
 62
     7
 10
208.4272863052516
 20
629.75
 11
208.5442253096516
 21
629.75
  0
LINE
  8
0
  6
CONTINUOUS
 62
     7
 10
208.5442253096516
 20
629.75
 11
208.5910882246617
 21
629.75
  0
LINE
  8
0
  6
CONTINUOUS
 62
     7
 10
185.4089569523138
 20
629.75
 11
185.3863320611864
 21
629.75
  0
LINE
  8
0
  6
CONTINUOUS
 62
     7
 10
208.6136679388137
 20
629.75
 11
208.5910430476862
 21
629.75
  0
LINE
  8
0
  6
CONTINUOUS
 62
     7
 10
208.7203254166647
 20
629.75
 11
209.5083816912677
 21
629.75
  0
LINE
  8
0
  6
CONTINUOUS
 62
     7
 10
184.4916183087322
 20
629.75
 11
185.2796745833353
 21
629.75
  0
LINE
  8
0
  6
CONTINUOUS
 62
     7
 10
185.3863320611864
 20
629.75
 11
185.2796745833353
 21
629.75
  0
LINE
  8
0
  6
CONTINUOUS
 62
     7
 10
208.7203254166647
 20
629.75
 11
208.6136679388137
 21
629.75
  0
LINE
  8
0
  6
CONTINUOUS
 62
     7
 10
184.3798313384
 20
629.75
 11
184.4916183087322
 21
629.75
  0
LINE
  8
0
  6
CONTINUOUS
 62
     7
 10
209.6201686616
 20
629.75
 11
209.656486989062
 21
629.75
  0
LINE
  8
0
  6
CONTINUOUS
 62
     7
 10
209.5083816912677
 20
629.75
 11
209.6201686616
 21
629.75
  0
LINE
  8
0
  6
CONTINUOUS
 62
     7
 10
184.343513010938
 20
629.75
 11
184.3798313384
 21
629.75
  0
LINE
  8
0
  6
CONTINUOUS
 62
     7
 10
209.6905112821274
 20
629.75
 11
210.4690145238201
 21
629.75
  0
LINE
  8
0
  6
CONTINUOUS
 62
     7
 10
184.3447010673748
 20
629.75
 11
184.3094887178726
 21
629.75
  0
LINE
  8
0
  6
CONTINUOUS
 62
     7
 10
183.5309854761799
 20
629.75
 11
184.3094887178726
 21
629.75
  0
LINE
  8
0
  6
CONTINUOUS
 62
     7
 10
209.6905112821274
 20
629.75
 11
209.6552989326252
 21
629.75
  0
LINE
  8
0
  6
CONTINUOUS
 62
     7
 10
183.4254271095487
 20
629.75
 11
183.5309854761799
 21
629.75
  0
LINE
  8
0
  6
CONTINUOUS
 62
     7
 10
210.5745728904513
 20
629.75
 11
210.6015377524829
 21
629.75
  0
LINE
  8
0
  6
CONTINUOUS
 62
     7
 10
210.4690145238201
 20
629.75
 11
210.5745728904513
 21
629.75
  0
LINE
  8
0
  6
CONTINUOUS
 62
     7
 10
183.3984622475171
 20
629.75
 11
183.4254271095487
 21
629.75
  0
LINE
  8
0
  6
CONTINUOUS
 62
     7
 10
210.6015377524829
 20
629.75
 11
211.2999333835957
 21
629.75
  0
LINE
  8
0
  6
CONTINUOUS
 62
     7
 10
182.7000666164043
 20
629.75
 11
183.3984622475171
 21
629.75
  0
LINE
  8
0
  6
CONTINUOUS
 62
     7
 10
182.5828608405445
 20
629.75
 11
182.6017534382488
 21
629.75
  0
LINE
  8
0
  6
CONTINUOUS
 62
     7
 10
182.6017534382488
 20
629.75
 11
182.7000666164043
 21
629.75
  0
LINE
  8
0
  6
CONTINUOUS
 62
     7
 10
211.3982465617513
 20
629.75
 11
211.4171391594555
 21
629.75
  0
LINE
  8
0
  6
CONTINUOUS
 62
     7
 10
211.2999333835957
 20
629.75
 11
211.3982465617513
 21
629.75
  0
LINE
  8
0
  6
CONTINUOUS
 62
     7
 10
211.4171391594555
 20
629.75
 11
211.9931360677485
 21
629.75
  0
LINE
  8
0
  6
CONTINUOUS
 62
     7
 10
182.0068639322515
 20
629.75
 11
182.5828608405445
 21
629.75
  0
LINE
  8
0
  6
CONTINUOUS
 62
     7
 10
181.9167427522208
 20
629.75
 11
182.0068639322515
 21
629.75
  0
LINE
  8
0
  6
CONTINUOUS
 62
     7
 10
181.9045634774226
 20
629.75
 11
181.9167427522208
 21
629.75
  0
LINE
  8
0
  6
CONTINUOUS
 62
     7
 10
212.0832572477793
 20
629.75
 11
212.0954365225774
 21
629.75
  0
LINE
  8
0
  6
CONTINUOUS
 62
     7
 10
211.9931360677485
 20
629.75
 11
212.0832572477793
 21
629.75
  0
LINE
  8
0
  6
CONTINUOUS
 62
     7
 10
212.0954365225774
 20
629.75
 11
212.5419466554871
 21
629.75
  0
LINE
  8
0
  6
CONTINUOUS
 62
     7
 10
181.458053344513
 20
629.75
 11
181.9045634774226
 21
629.75
  0
LINE
  8
0
  6
CONTINUOUS
 62
     7
 10
181.376992078836
 20
629.75
 11
181.458053344513
 21
629.75
  0
LINE
  8
0
  6
CONTINUOUS
 62
     7
 10
212.5419466554871
 20
629.75
 11
212.623007921164
 21
629.75
  0
LINE
  8
0
  6
CONTINUOUS
 62
     7
 10
212.623007921164
 20
629.75
 11
212.6298974674469
 21
629.75
  0
LINE
  8
0
  6
CONTINUOUS
 62
     7
 10
181.3701025325531
 20
629.75
 11
181.376992078836
 21
629.75
  0
LINE
  8
0
  6
CONTINUOUS
 62
     7
 10
212.6298974674469
 20
629.75
 11
212.941079800841
 21
629.75
  0
LINE
  8
0
  6
CONTINUOUS
 62
     7
 10
181.058920199159
 20
629.75
 11
181.3701025325531
 21
629.75
  0
LINE
  8
0
  6
CONTINUOUS
 62
     7
 10
212.941079800841
 20
629.75
 11
213.0123004878631
 21
629.75
  0
LINE
  8
0
  6
CONTINUOUS
 62
     7
 10
180.9876995121369
 20
629.75
 11
181.058920199159
 21
629.75
  0
LINE
  8
0
  6
CONTINUOUS
 62
     7
 10
213.0123004878631
 20
629.75
 11
213.0153748429986
 21
629.75
  0
LINE
  8
0
  6
CONTINUOUS
 62
     7
 10
180.9846251570014
 20
629.75
 11
180.9876995121369
 21
629.75
  0
LINE
  8
0
  6
CONTINUOUS
 62
     7
 10
213.0153748429986
 20
629.75
 11
213.1866916334322
 21
629.75
  0
LINE
  8
0
  6
CONTINUOUS
 62
     7
 10
180.8133083665678
 20
629.75
 11
180.9846251570014
 21
629.75
  0
LINE
  8
0
  6
CONTINUOUS
 62
     7
 10
180.7526141523497
 20
629.75
 11
180.8133083665678
 21
629.75
  0
LINE
  8
0
  6
CONTINUOUS
 62
     7
 10
213.1866916334322
 20
629.75
 11
213.2473858476503
 21
629.75
  0
LINE
  8
0
  6
CONTINUOUS
 62
     7
 10
213.2473858476503
 20
629.75
 11
213.2481562913827
 21
629.75
  0
LINE
  8
0
  6
CONTINUOUS
 62
     7
 10
180.7518437086173
 20
629.75
 11
180.7526141523497
 21
629.75
  0
LINE
  8
0
  6
CONTINUOUS
 62
     7
 10
212.6549586405816
 20
630.6874688141437
 11
212.6551199805599
 21
630.6874945333174
  0
LINE
  8
0
  6
CONTINUOUS
 62
     7
 10
213.2481562913827
 20
629.75
 11
213.2764167770477
 21
629.75
  0
LINE
  8
0
  6
CONTINUOUS
 62
     7
 10
180.7235832229523
 20
629.75
 11
180.7518437086173
 21
629.75
  0
LINE
  8
0
  6
CONTINUOUS
 62
     7
 10
180.674
 20
629.75
 11
180.7235832229523
 21
629.75
  0
LINE
  8
0
  6
CONTINUOUS
 62
     7
 10
213.2764167770477
 20
629.75
 11
213.326
 21
629.75
  0
LINE
  8
0
  6
CONTINUOUS
 62
     7
 10
174.0
 20
514.7495430854691
 11
174.200245622337
 21
512.747269852369
  0
LINE
  8
0
  6
CONTINUOUS
 62
     7
 10
174.0
 20
624.7504569903068
 11
174.0
 21
514.7495430854691
  0
LINE
  8
0
  6
CONTINUOUS
 62
     7
 10
174.2002456177977
 20
626.7527301476706
 11
174.0
 21
624.7504569903068
  0
ARC
  8
0
  6
CONTINUOUS
 62
     7
 10
-90.39666075096342
 20
-18662.0382757251
 40
19293.20643019999
 50
89.21330139032648
 51
89.21342058973971
  0
LINE
  8
0
  6
CONTINUOUS
 62
     7
 10
174.5
 20
629.3481421588561
 11
174.5
 21
629.7499999999999
  0
LINE
  8
0
  6
CONTINUOUS
 62
     7
 10
174.5
 20
629.75
 11
223.5087265354984
 21
629.3223073229312
  0
LINE
  8
0
  6
CONTINUOUS
 62
     7
 10
174.2002456177977
 20
626.7527301476706
 11
174.4598657889633
 21
629.3486945715239
  0
LINE
  8
0
  6
CONTINUOUS
 62
     7
 10
174.5
 20
509.7499999999999
 11
174.5
 21
510.1518578411438
  0
ARC
  8
0
  6
CONTINUOUS
 62
     7
 10
-90.39666075096162
 20
19801.5382757251
 40
19293.20643019998
 50
270.7865794102621
 51
270.7866986096735
  0
LINE
  8
0
  6
CONTINUOUS
 62
     7
 10
223.5087265354984
 20
510.1776926770687
 11
174.5
 21
509.7499999999999
  0
LINE
  8
0
  6
CONTINUOUS
 62
     7
 10
174.4598657895708
 20
510.1513054284844
 11
174.200245622337
 21
512.747269852369
  0
LINE
  8
0
  6
CONTINUOUS
 62
     7
 10
224.5
 20
626.3224215537388
 11
224.5
 21
513.1775784462612
  0
LINE
  8
0
  6
CONTINUOUS
 62
     7
 10
224.5
 20
628.3223453998671
 11
224.5
 21
626.3224215537388
  0
ARC
  8
0
  6
CONTINUOUS
 62
     7
 10
223.5
 20
628.3223453998671
 40
1.000000000000001
 50
359.9999999999993
 51
89.49999999999955
  0
LINE
  8
0
  6
CONTINUOUS
 62
     7
 10
224.5
 20
513.1775784462612
 11
224.5
 21
511.1776546001329
  0
ARC
  8
0
  6
CONTINUOUS
 62
     7
 10
223.5
 20
511.1776546001329
 40
1.000000000000001
 50
270.5000000000005
 51
0.0
  0
ARC
  8
0
  6
CONTINUOUS
 62
     7
 10
181.674
 20
509.7499999999999
 40
0.9999999999999852
 50
247.5
 51
270.0000000000002
  0
ARC
  8
0
  6
CONTINUOUS
 62
     7
 10
212.326
 20
509.7499999999999
 40
1.000000000000001
 50
270.0
 51
280.5791955218613
  0
ARC
  8
0
  6
CONTINUOUS
 62
     7
 10
212.326
 20
509.7499999999999
 40
0.9999999999999825
 50
280.5791955218613
 51
289.4942971455018
  0
ARC
  8
0
  6
CONTINUOUS
 62
     7
 10
212.326
 20
509.7499999999999
 40
0.9999999999999738
 50
289.4942971455018
 51
292.5000000000001
  0
ARC
  8
0
  6
CONTINUOUS
 62
     7
 10
212.326
 20
509.7499999999999
 40
0.9999999999999852
 50
292.5000000000001
 51
346.2393418621656
  0
ARC
  8
0
  6
CONTINUOUS
 62
     7
 10
197.0
 20
592.361661866034
 40
85.0000000000001
 50
259.6302401945226
 51
280.3697598054774
  0
LINE
  8
0
  6
CONTINUOUS
 62
     7
 10
183.925
 20
509.8322507289279
 11
183.925
 21
509.7499999999999
  0
LINE
  8
0
  6
CONTINUOUS
 62
     7
 10
210.075
 20
509.7499999999999
 11
210.075
 21
510.0604583216563
  0
ARC
  8
0
  6
CONTINUOUS
 62
     7
 10
212.326
 20
629.75
 40
1.000000000000002
 50
67.95699589194554
 51
89.99999999999996
  0
ARC
  8
0
  6
CONTINUOUS
 62
     7
 10
181.674
 20
629.75
 40
1.000000000000001
 50
89.99999999999982
 51
100.5791955218616
  0
ARC
  8
0
  6
CONTINUOUS
 62
     7
 10
181.674
 20
629.75
 40
0.9999999999999877
 50
100.5791955218616
 51
109.4942971454827
  0
ARC
  8
0
  6
CONTINUOUS
 62
     7
 10
181.674
 20
629.75
 40
0.9999999999999766
 50
109.4942971454827
 51
112.0430041080546
  0
ARC
  8
0
  6
CONTINUOUS
 62
     7
 10
197.0
 20
547.1383381339659
 40
85.0000000000001
 50
79.63024019452259
 51
100.3697598054774
  0
LINE
  8
0
  6
CONTINUOUS
 62
     7
 10
210.075
 20
629.4395416783437
 11
210.075
 21
629.75
  0
ENDBLK
  8
0
  0
ENDSEC
  0
SECTION
  2
ENTITIES
  0
LINE
  8
0
  6
CENTER
 62
     1
 10
52.99999999999999
 20
512.7495430096931
 11
53.0
 21
626.7504569903068
  0
LINE
  8
0
  6
CENTER
 62
     1
 10
52.99999999999998
 20
404.5012083405497
 11
52.99999999999998
 21
457.8115668456075
  0
LINE
  8
0
  6
CENTER
 62
     1
 10
172.238198950758
 20
569.75
 11
225.248791659449
 21
569.75
  0
LINE
  8
0
  6
CONTINUOUS
 62
     7
 10
174.0
 20
624.7504569903068
 11
174.4598657889633
 21
629.3486945715239
  0
LINE
  8
0
  6
CONTINUOUS
 62
     7
 10
180.674
 20
629.75
 11
213.326
 21
629.75
  0
LINE
  8
0
  6
CONTINUOUS
 62
     7
 10
224.5
 20
628.3223453998671
 11
224.5
 21
511.1776546001329
  0
LINE
  8
0
  6
CONTINUOUS
 62
     7
 10
-5.500000000000012
 20
455.75
 11
-5.500000000000012
 21
455.2499999999979
  0
LINE
  8
0
  6
CONTINUOUS
 62
     7
 10
174.4598657895708
 20
510.1513054284844
 11
174.0
 21
514.7495430854691
  0
LINE
  8
0
  6
CONTINUOUS
 62
     7
 10
113.0043634338954
 20
455.75
 11
112.5723073229313
 21
406.2412734645016
  0
LINE
  8
0
  6
CONTINUOUS
 62
     7
 10
111.5
 20
455.2499999999997
 11
111.5
 21
455.75
  0
CIRCLE
  8
0
  6
CONTINUOUS
 62
     7
 10
29.99999999999999
 20
528.0
 40
2.249999999999995
  0
LINE
  8
0
  6
CONTINUOUS
 62
     7
 10
111.5723453998671
 20
405.25
 11
-5.57234539986709
 21
405.25
  0
LINE
  8
0
  6
CONTINUOUS
 62
     7
 10
-5.500000000000026
 20
455.25
 11
111.5
 21
455.25
  0
LINE
  8
0
  6
CONTINUOUS
 62
     7
 10
-6.572307322931414
 20
406.2412734645016
 11
-7.004363433895391
 21
455.75
  0
CIRCLE
  8
0
  6
CONTINUOUS
 62
     7
 10
30.0
 20
611.4999999999999
 40
2.249999999999999
  0
CIRCLE
  8
0
  6
CONTINUOUS
 62
     7
 10
76.0
 20
611.4999999999999
 40
2.250000000000002
  0
CIRCLE
  8
0
  6
CONTINUOUS
 62
     7
 10
75.99999999999999
 20
528.0
 40
2.250000000000002
  0
ARC
  8
0
  6
CONTINUOUS
 62
     7
 10
212.326
 20
509.7499999999999
 40
0.9999999999999852
 50
270.0
 51
346.239341862163
  0
ARC
  8
0
  6
CONTINUOUS
 62
     7
 10
212.326
 20
629.75
 40
1.000000000000002
 50
18.19081395238783
 51
90.0
  0
ARC
  8
0
  6
CONTINUOUS
 62
     7
 10
181.674
 20
629.75
 40
1.000000000000002
 50
90.0
 51
161.8091860461996
  0
ARC
  8
0
  6
CONTINUOUS
 62
     7
 10
68.32600000000002
 20
629.75
 40
0.9999999999999852
 50
18.19081395238817
 51
90.0
  0
ARC
  8
0
  6
CONTINUOUS
 62
     7
 10
68.326
 20
509.7499999999999
 40
0.9999999999999905
 50
270.0
 51
341.8091860462056
  0
ARC
  8
0
  6
CONTINUOUS
 62
     7
 10
37.67400000000001
 20
629.75
 40
0.9999999999999996
 50
89.99999999999962
 51
161.8091860461993
  0
ARC
  8
0
  6
CONTINUOUS
 62
     7
 10
181.674
 20
509.7499999999999
 40
0.9999999999999852
 50
198.1908139523879
 51
270.0
  0
ARC
  8
0
  6
CONTINUOUS
 62
     7
 10
37.67399999999999
 20
509.7499999999999
 40
0.9999999999999852
 50
198.1908139523948
 51
270.0
  0
ARC
  8
0
  6
CONTINUOUS
 62
     7
 10
-4.000267056880561
 20
512.7497329431194
 40
2.999689237593868
 50
240.0024968882462
 51
247.5026335146887
  0
ARC
  8
0
  6
CONTINUOUS
 62
     7
 10
-4.000047317030321
 20
512.7502635110216
 40
3.000263509220009
 50
247.5026335146936
 51
269.9987221532346
  0
ARC
  8
0
  6
CONTINUOUS
 62
     7
 10
-4.010288312679193
 20
512.750515388373
 40
2.992226753978903
 50
180.0621440795371
 51
181.3593412821605
  0
ARC
  8
0
  6
CONTINUOUS
 62
     7
 10
-4.001391623612238
 20
512.7507265017639
 40
3.001125947493959
 50
181.3593412821608
 51
203.8324930584689
  0
ARC
  8
0
  6
CONTINUOUS
 62
     7
 10
-4.005624723385493
 20
512.7488566139625
 40
2.996498246760327
 50
203.8324930584688
 51
226.3593013187302
  0
ARC
  8
0
  6
CONTINUOUS
 62
     7
 10
-3.999477658967552
 20
512.7553024930063
 40
3.005405308992325
 50
226.3593013187392
 51
240.0478146332632
  0
ARC
  8
0
  6
CONTINUOUS
 62
     7
 10
-3.999477658978519
 20
626.7446975070764
 40
3.00540530890772
 50
119.9521853674232
 51
133.6406986614229
  0
ARC
  8
0
  6
CONTINUOUS
 62
     7
 10
-4.005624723297412
 20
626.7511433860205
 40
2.99649824681616
 50
133.6406986614293
 51
156.1675069212693
  0
ARC
  8
0
  6
CONTINUOUS
 62
     7
 10
-4.001391623591872
 20
626.7492734982472
 40
3.001125947476502
 50
156.1675069212687
 51
178.6406586980077
  0
ARC
  8
0
  6
CONTINUOUS
 62
     7
 10
-4.010288312516598
 20
626.7494846116382
 40
2.992226754103673
 50
178.6406586980115
 51
179.9378559214368
  0
ARC
  8
0
  6
CONTINUOUS
 62
     7
 10
-4.000047317030281
 20
626.7497364889783
 40
3.000263509220009
 50
90.00127784676566
 51
112.4973664853064
  0
ARC
  8
0
  6
CONTINUOUS
 62
     7
 10
-4.000267056880516
 20
626.7502670568805
 40
2.999689237593875
 50
112.4973664853114
 51
119.9975031117542
  0
ARC
  8
0
  6
CONTINUOUS
 62
     7
 10
110.0102883126787
 20
626.7494846116269
 40
2.992226753979355
 50
0.06214407953928
 51
1.359341282162461
  0
ARC
  8
0
  6
CONTINUOUS
 62
     7
 10
110.0013916236122
 20
626.7492734982359
 40
3.001125947493942
 50
1.359341282162888
 51
23.83249305846899
  0
ARC
  8
0
  6
CONTINUOUS
 62
     7
 10
110.0056247233858
 20
626.7511433860374
 40
2.996498246759925
 50
23.83249305846994
 51
46.3593013187343
  0
ARC
  8
0
  6
CONTINUOUS
 62
     7
 10
109.9994776589676
 20
626.7446975069938
 40
3.005405308992057
 50
46.35930131873814
 51
60.04781463326215
  0
ARC
  8
0
  6
CONTINUOUS
 62
     7
 10
110.0002670568808
 20
626.7502670568807
 40
2.99968923759345
 50
60.00249688824748
 51
67.5026335146911
  0
ARC
  8
0
  6
CONTINUOUS
 62
     7
 10
110.0000473170302
 20
626.7497364889795
 40
3.000263509218899
 50
67.50263351468355
 51
89.99872215323364
  0
ARC
  8
0
  6
CONTINUOUS
 62
     7
 10
109.9994776589789
 20
512.7553024929229
 40
3.005405308906985
 50
299.9521853674233
 51
313.6406986614292
  0
ARC
  8
0
  6
CONTINUOUS
 62
     7
 10
110.0056247232981
 20
512.748856613979
 40
2.996498246815409
 50
313.6406986614271
 51
336.1675069212723
  0
ARC
  8
0
  6
CONTINUOUS
 62
     7
 10
110.0013916235913
 20
512.7507265017529
 40
3.001125947477094
 50
336.1675069212714
 51
358.6406586980037
  0
ARC
  8
0
  6
CONTINUOUS
 62
     7
 10
110.0102883125172
 20
512.7505153883619
 40
2.992226754103088
 50
358.6406586980091
 51
359.9378559214347
  0
ARC
  8
0
  6
CONTINUOUS
 62
     7
 10
110.0000473170303
 20
512.7502635110217
 40
3.00026350922012
 50
270.0012778467658
 51
292.497366485306
  0
ARC
  8
0
  6
CONTINUOUS
 62
     7
 10
110.0002670568805
 20
512.7497329431194
 40
2.999689237593902
 50
292.4973664853123
 51
299.9975031117533
  0
LINE
  8
0
  6
CONTINUOUS
 62
     7
 10
174.4598657895708
 20
510.1513054284844
 11
174.0
 21
514.7495430854691
  0
ARC
  8
0
  6
CONTINUOUS
 62
     7
 10
-90.39666075096162
 20
19801.5382757251
 40
19293.20643019998
 50
270.7865794102621
 51
270.7866986096735
  0
LINE
  8
0
  6
CONTINUOUS
 62
     7
 10
174.0
 20
624.7504569903068
 11
174.4598657889633
 21
629.3486945715239
  0
ARC
  8
0
  6
CONTINUOUS
 62
     7
 10
-90.39666075096342
 20
-18662.0382757251
 40
19293.20643019999
 50
89.21330139032648
 51
89.21342058973971
  0
ARC
  8
0
  6
CONTINUOUS
 62
     7
 10
2.00052702204265
 20
620.7500946340606
 40
6.000527018439377
 50
157.5026335146912
 51
179.9987221532344
  0
ARC
  8
0
  6
CONTINUOUS
 62
     7
 10
1.999465886238334
 20
620.7505341137617
 40
5.999378475186874
 50
135.0000000000001
 51
157.5026335146916
  0
ARC
  8
0
  6
CONTINUOUS
 62
     7
 10
1.999465886238679
 20
620.7505341137613
 40
5.999378475187354
 50
112.4973664853106
 51
135.0000000000002
  0
ARC
  8
0
  6
CONTINUOUS
 62
     7
 10
1.99990536593937
 20
620.7494729779565
 40
6.000527018440128
 50
90.00127784676572
 51
112.497366485306
  0
ARC
  8
0
  6
CONTINUOUS
 62
     7
 10
104.0000946340606
 20
620.7494729779565
 40
6.000527018440128
 50
67.50263351469401
 51
89.99872215323444
  0
ARC
  8
0
  6
CONTINUOUS
 62
     7
 10
104.0005341137613
 20
620.7505341137613
 40
5.999378475187353
 50
44.99999999999977
 51
67.50263351468942
  0
ARC
  8
0
  6
CONTINUOUS
 62
     7
 10
104.0005341137616
 20
620.7505341137615
 40
5.999378475186989
 50
22.4973664853091
 51
45.00000000000028
  0
ARC
  8
0
  6
CONTINUOUS
 62
     7
 10
103.9994729779573
 20
620.7500946340606
 40
6.000527018439421
 50
0.0012778467655608
 51
22.49736648530865
  0
ARC
  8
0
  6
CONTINUOUS
 62
     7
 10
103.9994729779574
 20
518.7499053659393
 40
6.00052701843931
 50
337.5026335146909
 51
359.9987221532344
  0
ARC
  8
0
  6
CONTINUOUS
 62
     7
 10
104.0005341137615
 20
518.7494658862383
 40
5.999378475187077
 50
315.0000000000005
 51
337.5026335146913
  0
ARC
  8
0
  6
CONTINUOUS
 62
     7
 10
104.0005341137603
 20
518.7494658862395
 40
5.999378475188667
 50
292.4973664853158
 51
315.0000000000007
  0
ARC
  8
0
  6
CONTINUOUS
 62
     7
 10
104.0000946340606
 20
518.7505270220433
 40
6.00052701844024
 50
270.0012778467656
 51
292.4973664853059
  0
ARC
  8
0
  6
CONTINUOUS
 62
     7
 10
1.999905365939359
 20
518.7505270220433
 40
6.000527018440128
 50
247.5026335146939
 51
269.9987221532344
  0
ARC
  8
0
  6
CONTINUOUS
 62
     7
 10
1.999465886238682
 20
518.7494658862387
 40
5.999378475187443
 50
225.0000000000004
 51
247.5026335146896
  0
ARC
  8
0
  6
CONTINUOUS
 62
     7
 10
1.999465886238337
 20
518.7494658862382
 40
5.999378475186885
 50
202.4973664853083
 51
224.9999999999998
  0
ARC
  8
0
  6
CONTINUOUS
 62
     7
 10
2.00052702204267
 20
518.7499053659393
 40
6.000527018439411
 50
180.0012778467656
 51
202.4973664853087
  0
ARC
  8
0
  6
CONTINUOUS
 62
     7
 10
68.326
 20
509.7499999999999
 40
0.9999999999999905
 50
292.5000000000001
 51
341.8091860462058
  0
ARC
  8
0
  6
CONTINUOUS
 62
     7
 10
212.326
 20
629.75
 40
0.9999999999999881
 50
18.19081395238785
 51
67.95699589194554
  0
ARC
  8
0
  6
CONTINUOUS
 62
     7
 10
37.67400000000001
 20
629.75
 40
0.9999999999999996
 50
112.0430041080544
 51
161.8091860461997
  0
ARC
  8
0
  6
CONTINUOUS
 62
     7
 10
68.32600000000002
 20
629.75
 40
0.9999999999999872
 50
18.19081395238812
 51
67.49999999999994
  0
ARC
  8
0
  6
CONTINUOUS
 62
     7
 10
37.67399999999999
 20
509.7499999999999
 40
1.000000000000001
 50
198.1908139523944
 51
247.5000000000001
  0
ARC
  8
0
  6
CONTINUOUS
 62
     7
 10
181.674
 20
509.7499999999999
 40
0.9999999999999881
 50
198.1908139523883
 51
247.5
  0
ARC
  8
0
  6
CONTINUOUS
 62
     7
 10
181.674
 20
629.75
 40
1.000000000000002
 50
112.0430041080546
 51
161.8091860461995
  0
INSERT
  8
0
  6
CONTINUOUS
 62
     7
  2
D_FRAME_VIEW_45101
 10
0.0
 20
0.0
 30
0.0
  0
LINE
  8
0
  6
CONTINUOUS
 62
     7
 10
213.326
 20
509.7499999999999
 11
180.674
 21
509.7499999999999
  0
CIRCLE
  8
0
  6
CONTINUOUS
 62
     7
 10
29.99999999999999
 20
528.0
 40
2.249999999999995
  0
LINE
  8
0
  6
CONTINUOUS
 62
     7
 10
-5.499999999999998
 20
629.3486945715156
 11
-5.499999999999998
 21
510.1513054284761
  0
ARC
  8
0
  6
CONTINUOUS
 62
     7
 10
212.326
 20
509.7499999999999
 40
0.9999999999999852
 50
270.0
 51
346.239341862163
  0
ARC
  8
0
  6
CONTINUOUS
 62
     7
 10
181.674
 20
509.7499999999999
 40
0.9999999999999852
 50
198.1908139523879
 51
270.0
  0
ARC
  8
0
  6
CONTINUOUS
 62
     7
 10
37.67400000000001
 20
629.75
 40
0.9999999999999996
 50
89.99999999999949
 51
161.8091860461993
  0
ARC
  8
0
  6
CONTINUOUS
 62
     7
 10
37.67399999999999
 20
509.7499999999999
 40
0.9999999999999852
 50
198.1908139523946
 51
270.0
  0
CIRCLE
  8
0
  6
CONTINUOUS
 62
     7
 10
76.0
 20
611.4999999999999
 40
2.250000000000002
  0
CIRCLE
  8
0
  6
CONTINUOUS
 62
     7
 10
30.0
 20
611.4999999999999
 40
2.249999999999999
  0
ARC
  8
0
  6
CONTINUOUS
 62
     7
 10
181.674
 20
629.75
 40
1.000000000000002
 50
89.99999999999994
 51
161.8091860461996
  0
ARC
  8
0
  6
CONTINUOUS
 62
     7
 10
212.326
 20
629.75
 40
1.000000000000002
 50
18.19081395238783
 51
90.0
  0
ARC
  8
0
  6
CONTINUOUS
 62
     7
 10
68.32600000000002
 20
629.75
 40
0.9999999999999852
 50
18.19081395238817
 51
90.0
  0
CIRCLE
  8
0
  6
CONTINUOUS
 62
     7
 10
75.99999999999999
 20
528.0
 40
2.250000000000002
  0
ARC
  8
0
  6
CONTINUOUS
 62
     7
 10
68.326
 20
509.7499999999999
 40
0.9999999999999905
 50
270.0
 51
341.8091860462056
  0
LINE
  8
0
  6
CONTINUOUS
 62
     7
 10
111.5
 20
510.1513054284844
 11
111.5
 21
629.3486945715239
  0
LINE
  8
0
  6
CONTINUOUS
 62
     7
 10
113.0043634338954
 20
455.75
 11
112.5723073229313
 21
406.2412734645016
  0
LINE
  8
0
  6
CONTINUOUS
 62
     7
 10
-5.500000000000026
 20
455.25
 11
111.5
 21
455.25
  0
LINE
  8
0
  6
CONTINUOUS
 62
     7
 10
-5.500000000000012
 20
455.75
 11
-5.500000000000012
 21
455.2499999999979
  0
LINE
  8
0
  6
CONTINUOUS
 62
     7
 10
224.5
 20
628.3223453998671
 11
224.5
 21
511.1776546001329
  0
LINE
  8
0
  6
CONTINUOUS
 62
     7
 10
-6.572307322931414
 20
406.2412734645016
 11
-7.004363433895391
 21
455.75
  0
LINE
  8
0
  6
CONTINUOUS
 62
     7
 10
111.5723453998671
 20
405.25
 11
-5.572345399867062
 21
405.25
  0
LINE
  8
0
  6
CONTINUOUS
 62
     7
 10
111.5
 20
455.2499999999997
 11
111.5
 21
455.75
  0
LINE
  8
0
  6
CONTINUOUS
 62
     7
 10
212.326
 20
630.75
 11
181.674
 21
630.75
  0
LINE
  8
0
  6
CONTINUOUS
 62
     7
 10
180.674
 20
629.75
 11
213.326
 21
629.75
  0
LINE
  8
0
  6
CONTINUOUS
 62
     7
 10
212.326
 20
630.75
 11
181.674
 21
630.75
  0
LINE
  8
0
  6
CONTINUOUS
 62
     7
 10
213.326
 20
509.7499999999999
 11
180.674
 21
509.7499999999999
  0
LINE
  8
0
  6
CONTINUOUS
 62
     7
 10
-5.499999999999998
 20
629.3486945715156
 11
-5.499999999999998
 21
510.1513054284761
  0
LINE
  8
0
  6
CONTINUOUS
 62
     7
 10
111.5
 20
510.1513054284844
 11
111.5
 21
629.3486945715239
  0
INSERT
  8
0
  6
CONTINUOUS
 62
     7
  2
D_FRAME_VIEW_47201
 10
0.0
 20
0.0
 30
0.0
  0
INSERT
  8
0
  6
CONTINUOUS
 62
     7
  2
D_FRAME_VIEW_46794
 10
0.0
 20
0.0
 30
0.0
  0
ENDSEC
  0
EOF
