  0
SECTION
  2
HEADER
  9
$ACADVER
  1
AC1004
  9
$INSBASE
 10
0.0
 20
0.0
  9
$EXTMIN
 10
50.49563656610463
 20
-11.32954545454544
  9
$EXTMAX
 10
213.75
 20
201.888338133966
  9
$LIMMIN
 10
0.0
 20
0.0
  9
$LIMMAX
 10
12.0
 20
9.0
  9
$ORTHOMODE
 70
     0
  9
$REGENMODE
 70
     1
  9
$FILLMODE
 70
     1
  9
$QTEXTMODE
 70
     0
  9
$DRAGMODE
 70
     2
  9
$LTSCALE
 40
1.0
  9
$OSMODE
 70
    37
  9
$ATTMODE
 70
     1
  9
$TEXTSIZE
 40
0.2
  9
$TRACEWID
 40
0.05
  9
$TEXTSTYLE
  7
STANDARD
  9
$CLAYER
  8
0
  9
$CELTYPE
  6
BYLAYER
  9
$CECOLOR
 62
   256
  9
$DIMSCALE
 40
1.0
  9
$DIMASZ
 40
3.0
  9
$DIMEXO
 40
0.0625
  9
$DIMDLI
 40
0.38
  9
$DIMRND
 40
0.0
  9
$DIMDLE
 40
0.0
  9
$DIMEXE
 40
1.5
  9
$DIMTP
 40
0.0
  9
$DIMTM
 40
0.0
  9
$DIMTXT
 40
3.0
  9
$DIMCEN
 40
0.09
  9
$DIMTSZ
 40
0.0
  9
$DIMTOL
 70
     0
  9
$DIMLIM
 70
     0
  9
$DIMTIH
 70
     1
  9
$DIMTOH
 70
     1
  9
$DIMSE1
 70
     0
  9
$DIMSE2
 70
     0
  9
$DIMTAD
 70
     1
  9
$DIMZIN
 70
     0
  9
$DIMBLK
  1

  9
$DIMASO
 70
     1
  9
$DIMSHO
 70
     1
  9
$DIMPOST
  1

  9
$DIMAPOST
  1

  9
$DIMALT
 70
     0
  9
$DIMALTD
 70
     2
  9
$DIMALTF
 40
25.4
  9
$DIMLFAC
 40
1.0
  9
$DIMTOFL
 70
     0
  9
$DIMTVP
 40
0.0
  9
$DIMTIX
 70
     0
  9
$DIMSOXD
 70
     0
  9
$DIMSAH
 70
     0
  9
$DIMBLK1
  1

  9
$DIMBLK2
  1

  9
$LUNITS
 70
     2
  9
$LUPREC
 70
     4
  9
$SKETCHINC
 40
0.1
  9
$FILLETRAD
 40
0.5
  9
$AUNITS
 70
     0
  9
$AUPREC
 70
     0
  9
$MENU
  1
.
  9
$ELEVATION
 40
0.0
  9
$THICKNESS
 40
0.0
  9
$LIMCHECK
 70
     0
  9
$CHAMFERA
 40
0.0
  9
$CHAMFERB
 40
0.0
  9
$SKPOLY
 70
     0
  9
$TDCREATE
 40
2458704.559514271
  9
$TDUPDATE
 40
2458704.55951463
  9
$TDINDWG
 40
0.0000000116
  9
$TDUSRTIMER
 40
0.0000000116
  9
$USRTIMER
 70
     1
  9
$ANGBASE
 50
0.0
  9
$ANGDIR
 70
     0
  9
$PDMODE
 70
     0
  9
$PDSIZE
 40
0.0
  9
$PLINEWID
 40
0.0
  9
$COORDS
 70
     1
  9
$SPLFRAME
 70
     0
  9
$SPLINETYPE
 70
     6
  9
$SPLINESEGS
 70
     8
  9
$ATTDIA
 70
     0
  9
$ATTREQ
 70
     1
  9
$SURFTAB1
 70
     6
  9
$SURFTAB2
 70
     6
  9
$SURFTYPE
 70
     6
  9
$SURFU
 70
     6
  9
$SURFV
 70
     6
  9
$UCSNAME
  2

  9
$UCSORG
 10
0.0
 20
0.0
 30
0.0
  9
$UCSXDIR
 10
1.0
 20
0.0
 30
0.0
  9
$UCSYDIR
 10
0.0
 20
1.0
 30
0.0
  9
$USERI1
 70
     0
  9
$USERI2
 70
     0
  9
$USERI3
 70
     0
  9
$USERI4
 70
     0
  9
$USERI5
 70
     0
  9
$USERR1
 40
0.0
  9
$USERR2
 40
0.0
  9
$USERR3
 40
0.0
  9
$USERR4
 40
0.0
  9
$USERR5
 40
0.0
  9
$WORLDVIEW
 70
     1
  0
ENDSEC
  0
SECTION
  2
TABLES
  0
TABLE
  2
LTYPE
 70
     1
  0
LTYPE
  2
CONTINUOUS
 70
     0
  3
Solid line
 72
    65
 73
     0
 40
0.0
  0
ENDTAB
  0
TABLE
  2
LAYER
 70
     1
  0
LAYER
  2
0
 70
     0
 62
     7
  6
CONTINUOUS
  0
ENDTAB
  0
TABLE
  2
STYLE
 70
     2
  0
STYLE
  2
STANDARD
 70
     0
 40
0.0
 41
1.0
 50
0.0
 71
     0
 42
0.2
  3
txt
  4

  0
STYLE
  2
ＭＳ_ゴシック
 70
     0
 40
0.0
 41
1.0
 50
0.0
 71
     0
 42
0.2
  3
ＭＳ ゴシック.shx
  4

  0
ENDTAB
  0
TABLE
  2
VIEW
 70
     0
  0
ENDTAB
  0
ENDSEC
  0
SECTION
  2
BLOCKS
  0
ENDSEC
  0
SECTION
  2
ENTITIES
  0
TEXT
  8
0
  6
CONTINUOUS
 62
     7
 10
83.82768850819058
 20
-11.67157996748779
 40
3.0
  1
PVR-BKY
  0
LINE
  8
0
  6
CONTINUOUS
 62
     7
 10
98.75
 20
190.9249297316604
 11
98.7506022718974
 21
190.9494573789037
  0
LINE
  8
0
  6
CONTINUOUS
 62
     7
 10
98.7506022718974
 20
190.9494573789037
 11
98.7524076366639
 21
190.9739154254022
  0
LINE
  8
0
  6
CONTINUOUS
 62
     7
 10
98.7524076366639
 20
190.9739154254022
 11
98.75541174501761
 21
190.9982449495797
  0
LINE
  8
0
  6
CONTINUOUS
 62
     7
 10
98.75541174501761
 20
190.9982449495797
 11
98.75960735979838
 21
191.0223873394814
  0
LINE
  8
0
  6
CONTINUOUS
 62
     7
 10
98.75960735979838
 20
191.0223873394814
 11
98.76498437340273
 21
191.0462844339752
  0
LINE
  8
0
  6
CONTINUOUS
 62
     7
 10
98.76498437340273
 20
191.0462844339752
 11
98.77152983213388
 21
191.0698786628677
  0
LINE
  8
0
  6
CONTINUOUS
 62
     7
 10
98.77152983213388
 20
191.0698786628677
 11
98.77922796740849
 21
191.0931131855947
  0
LINE
  8
0
  6
CONTINUOUS
 62
     7
 10
98.77922796740849
 20
191.0931131855947
 11
98.78806023374436
 21
191.1159320281558
  0
LINE
  8
0
  6
CONTINUOUS
 62
     7
 10
98.78806023374436
 20
191.1159320281558
 11
98.79800535343827
 21
191.1382802179608
  0
LINE
  8
0
  6
CONTINUOUS
 62
     7
 10
98.79800535343827
 20
191.1382802179608
 11
98.8090393678258
 21
191.1601039162626
  0
LINE
  8
0
  6
CONTINUOUS
 62
     7
 10
98.8090393678258
 20
191.1601039162626
 11
98.82113569499987
 21
191.1813505478608
  0
LINE
  8
0
  6
CONTINUOUS
 62
     7
 10
98.82113569499987
 20
191.1813505478608
 11
98.83426519384872
 21
191.2019689277587
  0
LINE
  8
0
  6
CONTINUOUS
 62
     7
 10
98.83426519384872
 20
191.2019689277587
 11
98.84839623425967
 21
191.2219093844733
  0
LINE
  8
0
  6
CONTINUOUS
 62
     7
 10
98.84839623425967
 20
191.2219093844733
 11
98.86349477331862
 21
191.2411238796978
  0
LINE
  8
0
  6
CONTINUOUS
 62
     7
 10
98.86349477331862
 20
191.2411238796978
 11
98.8795244373225
 21
191.2595661240301
  0
LINE
  8
0
  6
CONTINUOUS
 62
     7
 10
98.8795244373225
 20
191.2595661240301
 11
98.89644660940672
 21
191.2771916884883
  0
LINE
  8
0
  6
CONTINUOUS
 62
     7
 10
98.89644660940672
 20
191.2771916884883
 11
98.91422052257647
 21
191.2939581115439
  0
LINE
  8
0
  6
CONTINUOUS
 62
     7
 10
98.91422052257647
 20
191.2939581115439
 11
98.93280335791817
 21
191.309825001415
  0
LINE
  8
0
  6
CONTINUOUS
 62
     7
 10
98.93280335791817
 20
191.309825001415
 11
98.95215034775379
 21
191.3247541333742
  0
LINE
  8
0
  6
CONTINUOUS
 62
     7
 10
98.95215034775379
 20
191.3247541333742
 11
98.9722148834902
 21
191.3387095418351
  0
LINE
  8
0
  6
CONTINUOUS
 62
     7
 10
98.9722148834902
 20
191.3387095418351
 11
98.99294862790339
 21
191.3516576069962
  0
LINE
  8
0
  6
CONTINUOUS
 62
     7
 10
98.99294862790339
 20
191.3516576069962
 11
99.014301631587
 21
191.3635671358346
  0
LINE
  8
0
  6
CONTINUOUS
 62
     7
 10
99.014301631587
 20
191.3635671358346
 11
99.03622245328486
 21
191.374409437252
  0
LINE
  8
0
  6
CONTINUOUS
 62
     7
 10
99.03622245328486
 20
191.374409437252
 11
99.05865828381746
 21
191.3841583911946
  0
LINE
  8
0
  6
CONTINUOUS
 62
     7
 10
99.05865828381746
 20
191.3841583911946
 11
99.08155507330387
 21
191.3927905115786
  0
LINE
  8
0
  6
CONTINUOUS
 62
     7
 10
99.08155507330387
 20
191.3927905115786
 11
99.10485766137275
 21
191.4002850028698
  0
LINE
  8
0
  6
CONTINUOUS
 62
     7
 10
99.10485766137275
 20
191.4002850028698
 11
99.12850991004836
 21
191.4066238101823
  0
LINE
  8
0
  6
CONTINUOUS
 62
     7
 10
99.12850991004836
 20
191.4066238101823
 11
99.15245483899193
 21
191.411791662774
  0
LINE
  8
0
  6
CONTINUOUS
 62
     7
 10
99.15245483899193
 20
191.411791662774
 11
99.1766347627723
 21
191.4157761108354
  0
LINE
  8
0
  6
CONTINUOUS
 62
     7
 10
99.1766347627723
 20
191.4157761108354
 11
99.20099142983521
 21
191.4185675554821
  0
LINE
  8
0
  6
CONTINUOUS
 62
     7
 10
99.20099142983521
 20
191.4185675554821
 11
99.22546616283628
 21
191.4201592718795
  0
LINE
  8
0
  6
CONTINUOUS
 62
     7
 10
99.22546616283628
 20
191.4201592718795
 11
99.25
 21
191.4205474254433
  0
LINE
  8
0
  6
CONTINUOUS
 62
     7
 10
86.24999999999999
 20
79.0750702683396
 11
86.24939772810258
 21
79.05054262109631
  0
LINE
  8
0
  6
CONTINUOUS
 62
     7
 10
86.24939772810258
 20
79.05054262109631
 11
86.2475923633361
 21
79.0260845745978
  0
LINE
  8
0
  6
CONTINUOUS
 62
     7
 10
86.2475923633361
 20
79.0260845745978
 11
86.24458825498238
 21
79.00175505042034
  0
LINE
  8
0
  6
CONTINUOUS
 62
     7
 10
86.24458825498238
 20
79.00175505042034
 11
86.2403926402016
 21
78.9776126605187
  0
LINE
  8
0
  6
CONTINUOUS
 62
     7
 10
86.2403926402016
 20
78.9776126605187
 11
86.23501562659727
 21
78.95371556602475
  0
LINE
  8
0
  6
CONTINUOUS
 62
     7
 10
86.23501562659727
 20
78.95371556602475
 11
86.2284701678661
 21
78.93012133713229
  0
LINE
  8
0
  6
CONTINUOUS
 62
     7
 10
86.2284701678661
 20
78.93012133713229
 11
86.22077203259151
 21
78.90688681440527
  0
LINE
  8
0
  6
CONTINUOUS
 62
     7
 10
86.22077203259151
 20
78.90688681440527
 11
86.21193976625565
 21
78.88406797184416
  0
LINE
  8
0
  6
CONTINUOUS
 62
     7
 10
86.21193976625565
 20
78.88406797184416
 11
86.20199464656173
 21
78.86171978203926
  0
LINE
  8
0
  6
CONTINUOUS
 62
     7
 10
86.20199464656173
 20
78.86171978203926
 11
86.19096063217418
 21
78.83989608373737
  0
LINE
  8
0
  6
CONTINUOUS
 62
     7
 10
86.19096063217418
 20
78.83989608373737
 11
86.17886430500013
 21
78.8186494521392
  0
LINE
  8
0
  6
CONTINUOUS
 62
     7
 10
86.17886430500013
 20
78.8186494521392
 11
86.16573480615128
 21
78.79803107224126
  0
LINE
  8
0
  6
CONTINUOUS
 62
     7
 10
86.16573480615128
 20
78.79803107224126
 11
86.15160376574032
 21
78.77809061552665
  0
LINE
  8
0
  6
CONTINUOUS
 62
     7
 10
86.15160376574032
 20
78.77809061552665
 11
86.13650522668136
 21
78.75887612030222
  0
LINE
  8
0
  6
CONTINUOUS
 62
     7
 10
86.13650522668136
 20
78.75887612030222
 11
86.12047556267748
 21
78.7404338759699
  0
LINE
  8
0
  6
CONTINUOUS
 62
     7
 10
86.12047556267748
 20
78.7404338759699
 11
86.10355339059328
 21
78.72280831151168
  0
LINE
  8
0
  6
CONTINUOUS
 62
     7
 10
86.10355339059328
 20
78.72280831151168
 11
86.08577947742351
 21
78.70604188845617
  0
LINE
  8
0
  6
CONTINUOUS
 62
     7
 10
86.08577947742351
 20
78.70604188845617
 11
86.06719664208181
 21
78.69017499858505
  0
LINE
  8
0
  6
CONTINUOUS
 62
     7
 10
86.06719664208181
 20
78.69017499858505
 11
86.04784965224621
 21
78.67524586662577
  0
LINE
  8
0
  6
CONTINUOUS
 62
     7
 10
86.04784965224621
 20
78.67524586662577
 11
86.02778511650979
 21
78.66129045816488
  0
LINE
  8
0
  6
CONTINUOUS
 62
     7
 10
86.02778511650979
 20
78.66129045816488
 11
86.0070513720966
 21
78.64834239300374
  0
LINE
  8
0
  6
CONTINUOUS
 62
     7
 10
86.0070513720966
 20
78.64834239300374
 11
85.985698368413
 21
78.63643286416544
  0
LINE
  8
0
  6
CONTINUOUS
 62
     7
 10
85.985698368413
 20
78.63643286416544
 11
85.96377754671514
 21
78.62559056274803
  0
LINE
  8
0
  6
CONTINUOUS
 62
     7
 10
85.96377754671514
 20
78.62559056274803
 11
85.94134171618254
 21
78.61584160880538
  0
LINE
  8
0
  6
CONTINUOUS
 62
     7
 10
85.94134171618254
 20
78.61584160880538
 11
85.91844492669611
 21
78.60720948842142
  0
LINE
  8
0
  6
CONTINUOUS
 62
     7
 10
85.91844492669611
 20
78.60720948842142
 11
85.89514233862724
 21
78.59971499713019
  0
LINE
  8
0
  6
CONTINUOUS
 62
     7
 10
85.89514233862724
 20
78.59971499713019
 11
85.87149008995162
 21
78.59337618981773
  0
LINE
  8
0
  6
CONTINUOUS
 62
     7
 10
85.87149008995162
 20
78.59337618981773
 11
85.84754516100806
 21
78.58820833722602
  0
LINE
  8
0
  6
CONTINUOUS
 62
     7
 10
85.84754516100806
 20
78.58820833722602
 11
85.82336523722769
 21
78.58422388916463
  0
LINE
  8
0
  6
CONTINUOUS
 62
     7
 10
85.82336523722769
 20
78.58422388916463
 11
85.79900857016479
 21
78.5814324445179
  0
LINE
  8
0
  6
CONTINUOUS
 62
     7
 10
85.79900857016479
 20
78.5814324445179
 11
85.77453383716372
 21
78.57984072812052
  0
LINE
  8
0
  6
CONTINUOUS
 62
     7
 10
85.77453383716372
 20
78.57984072812052
 11
85.74999999999999
 21
78.5794525745567
  0
LINE
  8
0
  6
CONTINUOUS
 62
     7
 10
99.25
 20
78.5794525745567
 11
99.22546616283628
 21
78.57984072812052
  0
LINE
  8
0
  6
CONTINUOUS
 62
     7
 10
99.22546616283628
 20
78.57984072812052
 11
99.20099142983521
 21
78.5814324445179
  0
LINE
  8
0
  6
CONTINUOUS
 62
     7
 10
99.20099142983521
 20
78.5814324445179
 11
99.17663476277232
 21
78.58422388916463
  0
LINE
  8
0
  6
CONTINUOUS
 62
     7
 10
99.17663476277232
 20
78.58422388916463
 11
99.15245483899193
 21
78.58820833722602
  0
LINE
  8
0
  6
CONTINUOUS
 62
     7
 10
99.15245483899193
 20
78.58820833722602
 11
99.12850991004836
 21
78.59337618981773
  0
LINE
  8
0
  6
CONTINUOUS
 62
     7
 10
99.12850991004836
 20
78.59337618981773
 11
99.10485766137278
 21
78.59971499713019
  0
LINE
  8
0
  6
CONTINUOUS
 62
     7
 10
99.10485766137278
 20
78.59971499713019
 11
99.0815550733039
 21
78.60720948842142
  0
LINE
  8
0
  6
CONTINUOUS
 62
     7
 10
99.0815550733039
 20
78.60720948842142
 11
99.05865828381746
 21
78.61584160880538
  0
LINE
  8
0
  6
CONTINUOUS
 62
     7
 10
99.05865828381746
 20
78.61584160880538
 11
99.03622245328486
 21
78.62559056274803
  0
LINE
  8
0
  6
CONTINUOUS
 62
     7
 10
99.03622245328486
 20
78.62559056274803
 11
99.014301631587
 21
78.63643286416544
  0
LINE
  8
0
  6
CONTINUOUS
 62
     7
 10
99.014301631587
 20
78.63643286416544
 11
98.99294862790339
 21
78.64834239300374
  0
LINE
  8
0
  6
CONTINUOUS
 62
     7
 10
98.99294862790339
 20
78.64834239300374
 11
98.9722148834902
 21
78.66129045816488
  0
LINE
  8
0
  6
CONTINUOUS
 62
     7
 10
98.9722148834902
 20
78.66129045816488
 11
98.95215034775379
 21
78.67524586662577
  0
LINE
  8
0
  6
CONTINUOUS
 62
     7
 10
98.95215034775379
 20
78.67524586662577
 11
98.93280335791817
 21
78.69017499858505
  0
LINE
  8
0
  6
CONTINUOUS
 62
     7
 10
98.93280335791817
 20
78.69017499858505
 11
98.9142205225765
 21
78.70604188845617
  0
LINE
  8
0
  6
CONTINUOUS
 62
     7
 10
98.9142205225765
 20
78.70604188845617
 11
98.89644660940672
 21
78.72280831151168
  0
LINE
  8
0
  6
CONTINUOUS
 62
     7
 10
98.89644660940672
 20
78.72280831151168
 11
98.87952443732253
 21
78.7404338759699
  0
LINE
  8
0
  6
CONTINUOUS
 62
     7
 10
98.87952443732253
 20
78.7404338759699
 11
98.86349477331862
 21
78.75887612030219
  0
LINE
  8
0
  6
CONTINUOUS
 62
     7
 10
98.86349477331862
 20
78.75887612030219
 11
98.84839623425967
 21
78.77809061552665
  0
LINE
  8
0
  6
CONTINUOUS
 62
     7
 10
98.84839623425967
 20
78.77809061552665
 11
98.83426519384872
 21
78.79803107224126
  0
LINE
  8
0
  6
CONTINUOUS
 62
     7
 10
98.83426519384872
 20
78.79803107224126
 11
98.82113569499987
 21
78.8186494521392
  0
LINE
  8
0
  6
CONTINUOUS
 62
     7
 10
98.82113569499987
 20
78.8186494521392
 11
98.80903936782583
 21
78.83989608373737
  0
LINE
  8
0
  6
CONTINUOUS
 62
     7
 10
98.80903936782583
 20
78.83989608373737
 11
98.79800535343827
 21
78.86171978203926
  0
LINE
  8
0
  6
CONTINUOUS
 62
     7
 10
98.79800535343827
 20
78.86171978203926
 11
98.78806023374436
 21
78.88406797184416
  0
LINE
  8
0
  6
CONTINUOUS
 62
     7
 10
98.78806023374436
 20
78.88406797184416
 11
98.77922796740849
 21
78.90688681440527
  0
LINE
  8
0
  6
CONTINUOUS
 62
     7
 10
98.77922796740849
 20
78.90688681440527
 11
98.77152983213391
 21
78.93012133713229
  0
LINE
  8
0
  6
CONTINUOUS
 62
     7
 10
98.77152983213391
 20
78.93012133713229
 11
98.76498437340273
 21
78.95371556602473
  0
LINE
  8
0
  6
CONTINUOUS
 62
     7
 10
98.76498437340273
 20
78.95371556602473
 11
98.75960735979838
 21
78.9776126605187
  0
LINE
  8
0
  6
CONTINUOUS
 62
     7
 10
98.75960735979838
 20
78.9776126605187
 11
98.75541174501761
 21
79.00175505042034
  0
LINE
  8
0
  6
CONTINUOUS
 62
     7
 10
98.75541174501761
 20
79.00175505042034
 11
98.7524076366639
 21
79.0260845745978
  0
LINE
  8
0
  6
CONTINUOUS
 62
     7
 10
98.7524076366639
 20
79.0260845745978
 11
98.7506022718974
 21
79.05054262109631
  0
LINE
  8
0
  6
CONTINUOUS
 62
     7
 10
98.7506022718974
 20
79.05054262109631
 11
98.75
 21
79.0750702683396
  0
LINE
  8
0
  6
CONTINUOUS
 62
     7
 10
125.9290201424409
 20
0.8619042728706984
 11
126.1420104715224
 21
0.8657818689023246
  0
LINE
  8
0
  6
CONTINUOUS
 62
     7
 10
126.1420104715224
 20
0.8657818689023246
 11
126.370764965618
 21
0.8887469813817529
  0
LINE
  8
0
  6
CONTINUOUS
 62
     7
 10
126.370764965618
 20
0.8887469813817529
 11
126.622590090685
 21
0.9392727737560537
  0
LINE
  8
0
  6
CONTINUOUS
 62
     7
 10
55.244340248405
 20
3.241007128524018
 11
55.25645874138391
 21
3.020757774914732
  0
LINE
  8
0
  6
CONTINUOUS
 62
     7
 10
55.25645874138391
 20
3.020757774914732
 11
55.28745133432991
 21
2.809970258666143
  0
LINE
  8
0
  6
CONTINUOUS
 62
     7
 10
55.28745133432991
 20
2.809970258666143
 11
55.3350931262227
 21
2.610017944813057
  0
LINE
  8
0
  6
CONTINUOUS
 62
     7
 10
55.3350931262227
 20
2.610017944813057
 11
55.43291308707116
 21
2.332553367415727
  0
LINE
  8
0
  6
CONTINUOUS
 62
     7
 10
55.43291308707116
 20
2.332553367415727
 11
55.55588581912898
 21
2.083822670465005
  0
LINE
  8
0
  6
CONTINUOUS
 62
     7
 10
55.55588581912898
 20
2.083822670465005
 11
55.715015836829
 21
1.840242144177054
  0
LINE
  8
0
  6
CONTINUOUS
 62
     7
 10
55.715015836829
 20
1.840242144177054
 11
55.88834871713516
 21
1.633025898843125
  0
LINE
  8
0
  6
CONTINUOUS
 62
     7
 10
55.88834871713516
 20
1.633025898843125
 11
56.10054317148003
 21
1.432816639221155
  0
LINE
  8
0
  6
CONTINUOUS
 62
     7
 10
56.10054317148003
 20
1.432816639221155
 11
56.31397851290312
 21
1.273998277907088
  0
LINE
  8
0
  6
CONTINUOUS
 62
     7
 10
56.31397851290312
 20
1.273998277907088
 11
56.51874878314247
 21
1.152694246951361
  0
LINE
  8
0
  6
CONTINUOUS
 62
     7
 10
56.51874878314247
 20
1.152694246951361
 11
56.76116576674689
 21
1.041428362599909
  0
LINE
  8
0
  6
CONTINUOUS
 62
     7
 10
56.76116576674689
 20
1.041428362599909
 11
56.95715932633355
 21
0.9737548538332786
  0
LINE
  8
0
  6
CONTINUOUS
 62
     7
 10
56.95715932633355
 20
0.9737548538332786
 11
57.15891662967248
 21
0.9241971151482987
  0
LINE
  8
0
  6
CONTINUOUS
 62
     7
 10
86.24999999999999
 20
190.9249297316604
 11
86.24939772810258
 21
190.9494573789037
  0
LINE
  8
0
  6
CONTINUOUS
 62
     7
 10
86.24939772810258
 20
190.9494573789037
 11
86.2475923633361
 21
190.9739154254022
  0
LINE
  8
0
  6
CONTINUOUS
 62
     7
 10
86.2475923633361
 20
190.9739154254022
 11
86.24458825498238
 21
190.9982449495797
  0
LINE
  8
0
  6
CONTINUOUS
 62
     7
 10
86.24458825498238
 20
190.9982449495797
 11
86.2403926402016
 21
191.0223873394813
  0
LINE
  8
0
  6
CONTINUOUS
 62
     7
 10
86.2403926402016
 20
191.0223873394813
 11
86.23501562659727
 21
191.0462844339752
  0
LINE
  8
0
  6
CONTINUOUS
 62
     7
 10
86.23501562659727
 20
191.0462844339752
 11
86.2284701678661
 21
191.0698786628677
  0
LINE
  8
0
  6
CONTINUOUS
 62
     7
 10
86.2284701678661
 20
191.0698786628677
 11
86.22077203259151
 21
191.0931131855947
  0
LINE
  8
0
  6
CONTINUOUS
 62
     7
 10
86.22077203259151
 20
191.0931131855947
 11
86.21193976625563
 21
191.1159320281558
  0
LINE
  8
0
  6
CONTINUOUS
 62
     7
 10
86.21193976625563
 20
191.1159320281558
 11
86.20199464656173
 21
191.1382802179608
  0
LINE
  8
0
  6
CONTINUOUS
 62
     7
 10
86.20199464656173
 20
191.1382802179608
 11
86.19096063217418
 21
191.1601039162626
  0
LINE
  8
0
  6
CONTINUOUS
 62
     7
 10
86.19096063217418
 20
191.1601039162626
 11
86.17886430500013
 21
191.1813505478608
  0
LINE
  8
0
  6
CONTINUOUS
 62
     7
 10
86.17886430500013
 20
191.1813505478608
 11
86.16573480615128
 21
191.2019689277587
  0
LINE
  8
0
  6
CONTINUOUS
 62
     7
 10
86.16573480615128
 20
191.2019689277587
 11
86.15160376574032
 21
191.2219093844733
  0
LINE
  8
0
  6
CONTINUOUS
 62
     7
 10
86.15160376574032
 20
191.2219093844733
 11
86.13650522668136
 21
191.2411238796978
  0
LINE
  8
0
  6
CONTINUOUS
 62
     7
 10
86.13650522668136
 20
191.2411238796978
 11
86.12047556267748
 21
191.2595661240301
  0
LINE
  8
0
  6
CONTINUOUS
 62
     7
 10
86.12047556267748
 20
191.2595661240301
 11
86.10355339059328
 21
191.2771916884883
  0
LINE
  8
0
  6
CONTINUOUS
 62
     7
 10
86.10355339059328
 20
191.2771916884883
 11
86.08577947742351
 21
191.2939581115438
  0
LINE
  8
0
  6
CONTINUOUS
 62
     7
 10
86.08577947742351
 20
191.2939581115438
 11
86.06719664208181
 21
191.309825001415
  0
LINE
  8
0
  6
CONTINUOUS
 62
     7
 10
86.06719664208181
 20
191.309825001415
 11
86.04784965224621
 21
191.3247541333742
  0
LINE
  8
0
  6
CONTINUOUS
 62
     7
 10
86.04784965224621
 20
191.3247541333742
 11
86.02778511650979
 21
191.3387095418351
  0
LINE
  8
0
  6
CONTINUOUS
 62
     7
 10
86.02778511650979
 20
191.3387095418351
 11
86.0070513720966
 21
191.3516576069962
  0
LINE
  8
0
  6
CONTINUOUS
 62
     7
 10
86.0070513720966
 20
191.3516576069962
 11
85.985698368413
 21
191.3635671358346
  0
LINE
  8
0
  6
CONTINUOUS
 62
     7
 10
85.985698368413
 20
191.3635671358346
 11
85.96377754671514
 21
191.374409437252
  0
LINE
  8
0
  6
CONTINUOUS
 62
     7
 10
85.96377754671514
 20
191.374409437252
 11
85.94134171618254
 21
191.3841583911946
  0
LINE
  8
0
  6
CONTINUOUS
 62
     7
 10
85.94134171618254
 20
191.3841583911946
 11
85.91844492669611
 21
191.3927905115786
  0
LINE
  8
0
  6
CONTINUOUS
 62
     7
 10
85.91844492669611
 20
191.3927905115786
 11
85.89514233862721
 21
191.4002850028698
  0
LINE
  8
0
  6
CONTINUOUS
 62
     7
 10
85.89514233862721
 20
191.4002850028698
 11
85.87149008995162
 21
191.4066238101823
  0
LINE
  8
0
  6
CONTINUOUS
 62
     7
 10
85.87149008995162
 20
191.4066238101823
 11
85.84754516100806
 21
191.411791662774
  0
LINE
  8
0
  6
CONTINUOUS
 62
     7
 10
85.84754516100806
 20
191.411791662774
 11
85.82336523722766
 21
191.4157761108354
  0
LINE
  8
0
  6
CONTINUOUS
 62
     7
 10
85.82336523722766
 20
191.4157761108354
 11
85.79900857016479
 21
191.4185675554821
  0
LINE
  8
0
  6
CONTINUOUS
 62
     7
 10
85.79900857016479
 20
191.4185675554821
 11
85.77453383716372
 21
191.4201592718795
  0
LINE
  8
0
  6
CONTINUOUS
 62
     7
 10
85.77453383716372
 20
191.4201592718795
 11
85.74999999999999
 21
191.4205474254433
  0
CIRCLE
  8
0
  6
CONTINUOUS
 62
     7
 10
92.5
 20
176.75
 40
4.000000000000004
  0
CIRCLE
  8
0
  6
CONTINUOUS
 62
     7
 10
92.5
 20
135.0
 40
13.55000000000001
  0
CIRCLE
  8
0
  6
CONTINUOUS
 62
     7
 10
77.50000000000001
 20
160.0
 40
2.500000000000002
  0
CIRCLE
  8
0
  6
CONTINUOUS
 62
     7
 10
92.5
 20
93.25
 40
4.000000000000004
  0
CIRCLE
  8
0
  6
CONTINUOUS
 62
     7
 10
92.5
 20
93.25
 40
2.000000000000002
  0
CIRCLE
  8
0
  6
CONTINUOUS
 62
     7
 10
77.50000000000001
 20
110.0
 40
2.500000000000002
  0
CIRCLE
  8
0
  6
CONTINUOUS
 62
     7
 10
92.5
 20
176.75
 40
2.250000000000002
  0
CIRCLE
  8
0
  6
CONTINUOUS
 62
     7
 10
114.5
 20
135.0
 40
2.500000000000002
  0
CIRCLE
  8
0
  6
CONTINUOUS
 62
     7
 10
92.5
 20
176.75
 40
2.500000000000002
  0
CIRCLE
  8
0
  6
CONTINUOUS
 62
     7
 10
91.830818922223
 20
23.36190427219746
 40
16.3
  0
CIRCLE
  8
0
  6
CONTINUOUS
 62
     7
 10
92.5
 20
93.25
 40
1.649999999999985
  0
CIRCLE
  8
0
  6
CONTINUOUS
 62
     7
 10
107.5
 20
160.0
 40
2.499999999999974
  0
CIRCLE
  8
0
  6
CONTINUOUS
 62
     7
 10
107.5
 20
110.0
 40
2.500000000000002
  0
CIRCLE
  8
0
  6
CONTINUOUS
 62
     7
 10
92.5
 20
176.75
 40
1.650000000000013
  0
CIRCLE
  8
0
  6
CONTINUOUS
 62
     7
 10
92.5
 20
93.25
 40
2.500000000000002
  0
CIRCLE
  8
0
  6
CONTINUOUS
 62
     7
 10
92.5
 20
135.0
 40
13.15000000000005
  0
CIRCLE
  8
0
  6
CONTINUOUS
 62
     7
 10
92.5
 20
135.0
 40
12.40000000000005
  0
CIRCLE
  8
0
  6
CONTINUOUS
 62
     7
 10
118.5
 20
115.0
 40
4.199999999999982
  0
CIRCLE
  8
0
  6
CONTINUOUS
 62
     7
 10
92.5
 20
176.75
 40
2.250000000000002
  0
CIRCLE
  8
0
  6
CONTINUOUS
 62
     7
 10
92.5
 20
176.75
 40
2.000000000000002
  0
CIRCLE
  8
0
  6
CONTINUOUS
 62
     7
 10
70.49999999999997
 20
135.0
 40
2.500000000000002
  0
CIRCLE
  8
0
  6
CONTINUOUS
 62
     7
 10
66.5
 20
115.0
 40
4.200000000000009
  0
ARC
  8
0
  6
CONTINUOUS
 62
     7
 10
57.90825501550039
 20
14.9181491240423
 40
14.01400017281661
 50
266.9348928488334
 51
271.3466613837911
  0
ARC
  8
0
  6
CONTINUOUS
 62
     7
 10
171.9239999999999
 20
194.5
 40
1.000000000000001
 50
90.0
 51
109.4942971454782
  0
ARC
  8
0
  6
CONTINUOUS
 62
     7
 10
66.5
 20
115.0
 40
1.03066852858534
 50
150.0214543835145
 51
209.9785456164872
  0
ARC
  8
0
  6
CONTINUOUS
 62
     7
 10
118.5
 20
115.0
 40
1.03066852858534
 50
330.0214543835145
 51
29.97854561648723
  0
ARC
  8
0
  6
CONTINUOUS
 62
     7
 10
126.0356407832026
 20
3.24682421157602
 40
2.381029846041224
 50
284.2711283301372
 51
303.516539113187
  0
ARC
  8
0
  6
CONTINUOUS
 62
     7
 10
207.35
 20
77.89999999999999
 40
2.399999999999958
 50
270.0
 51
0.0
  0
ARC
  8
0
  6
CONTINUOUS
 62
     7
 10
92.5
 20
93.25
 40
2.250000000000002
 50
0.0
 51
180.0
  0
ARC
  8
0
  6
CONTINUOUS
 62
     7
 10
118.5
 20
115.0
 40
2.25000000000002
 50
76.7683351757012
 51
103.2316648242999
  0
ARC
  8
0
  6
CONTINUOUS
 62
     7
 10
171.9239999999999
 20
194.5
 40
1.00000000000001
 50
109.4942971454797
 51
112.5000000000009
  0
ARC
  8
0
  6
CONTINUOUS
 62
     7
 10
66.5
 20
115.0
 40
2.249999999999993
 50
166.7683351757011
 51
193.2316648242997
  0
ARC
  8
0
  6
CONTINUOUS
 62
     7
 10
77.17399999999999
 20
194.5
 40
1.000000000000001
 50
109.4942971454782
 51
112.4999999999988
  0
ARC
  8
0
  6
CONTINUOUS
 62
     7
 10
171.9239999999999
 20
194.5
 40
0.9999999999999852
 50
112.4999999999999
 51
161.809186046196
  0
ARC
  8
0
  6
CONTINUOUS
 62
     7
 10
171.924
 20
75.50000000000004
 40
1.000000000000001
 50
250.5057028545218
 51
270.0
  0
ARC
  8
0
  6
CONTINUOUS
 62
     7
 10
66.5
 20
115.0
 40
2.249999999999993
 50
346.7683351757011
 51
13.23166482429963
  0
ARC
  8
0
  6
CONTINUOUS
 62
     7
 10
66.5
 20
115.0
 40
2.249999999999993
 50
256.7683351757011
 51
283.2316648242996
  0
ARC
  8
0
  6
CONTINUOUS
 62
     7
 10
118.5
 20
115.0
 40
2.249999999999993
 50
346.7683351757011
 51
13.23166482429963
  0
ARC
  8
0
  6
CONTINUOUS
 62
     7
 10
118.5
 20
115.0
 40
2.249999999999993
 50
166.7683351757011
 51
193.2316648242997
  0
ARC
  8
0
  6
CONTINUOUS
 62
     7
 10
118.5
 20
115.0
 40
1.03066852858534
 50
150.0214543835145
 51
209.9785456164872
  0
ARC
  8
0
  6
CONTINUOUS
 62
     7
 10
77.17399999999999
 20
75.50000000000001
 40
1.000000000000011
 50
247.5000000000007
 51
270.0000000000007
  0
ARC
  8
0
  6
CONTINUOUS
 62
     7
 10
118.5
 20
115.0
 40
2.249999999999993
 50
256.7683351757011
 51
283.2316648242996
  0
ARC
  8
0
  6
CONTINUOUS
 62
     7
 10
66.5
 20
115.0
 40
2.250000000000027
 50
76.76833517570054
 51
103.2316648242992
  0
ARC
  8
0
  6
CONTINUOUS
 62
     7
 10
107.826
 20
75.50000000000001
 40
1.000000000000001
 50
270.0
 51
280.5791955218605
  0
ARC
  8
0
  6
CONTINUOUS
 62
     7
 10
107.826
 20
75.50000000000001
 40
1.000000000000011
 50
292.4999999999993
 51
341.8091860462121
  0
ARC
  8
0
  6
CONTINUOUS
 62
     7
 10
107.826
 20
75.50000000000001
 40
1.00000000000001
 50
289.4942971454797
 51
292.5000000000011
  0
ARC
  8
0
  6
CONTINUOUS
 62
     7
 10
107.826
 20
194.5
 40
0.9999999999999852
 50
67.50000000000006
 51
90.0
  0
ARC
  8
0
  6
CONTINUOUS
 62
     7
 10
92.5
 20
93.25
 40
2.250000000000002
 50
180.0
 51
0.0
  0
ARC
  8
0
  6
CONTINUOUS
 62
     7
 10
77.17399999999999
 20
194.5
 40
1.000000000000037
 50
100.5791955218601
 51
109.4942971454784
  0
ARC
  8
0
  6
CONTINUOUS
 62
     7
 10
77.17399999999999
 20
75.50000000000001
 40
0.9999999999999968
 50
198.1908139523954
 51
247.5000000000004
  0
ARC
  8
0
  6
CONTINUOUS
 62
     7
 10
77.17399999999999
 20
194.5
 40
0.9999999999999852
 50
112.4999999999999
 51
166.2324493685881
  0
ARC
  8
0
  6
CONTINUOUS
 62
     7
 10
118.5
 20
115.0
 40
1.030668528585354
 50
60.02145438351315
 51
119.9785456164851
  0
ARC
  8
0
  6
CONTINUOUS
 62
     7
 10
90.25
 20
175.75
 40
4.000000000000004
 50
180.0
 51
270.0
  0
ARC
  8
0
  6
CONTINUOUS
 62
     7
 10
66.5
 20
115.0
 40
1.03066852858534
 50
330.0214543835145
 51
29.97854561648723
  0
ARC
  8
0
  6
CONTINUOUS
 62
     7
 10
118.5
 20
115.0
 40
1.03066852858534
 50
240.0214543835145
 51
299.9785456164872
  0
ARC
  8
0
  6
CONTINUOUS
 62
     7
 10
90.25
 20
94.25
 40
4.000000000000004
 50
90.0
 51
180.0
  0
ARC
  8
0
  6
CONTINUOUS
 62
     7
 10
94.75
 20
94.25
 40
4.000000000000004
 50
0.0
 51
90.0
  0
ARC
  8
0
  6
CONTINUOUS
 62
     7
 10
107.826
 20
75.50000000000001
 40
1.00000000000001
 50
280.5791955218604
 51
289.4942971454789
  0
ARC
  8
0
  6
CONTINUOUS
 62
     7
 10
94.75
 20
175.75
 40
4.000000000000004
 50
270.0
 51
0.0
  0
ARC
  8
0
  6
CONTINUOUS
 62
     7
 10
92.5
 20
111.888338133966
 40
84.99999999999999
 50
79.6302401945226
 51
80.0112011710881
  0
ARC
  8
0
  6
CONTINUOUS
 62
     7
 10
107.826
 20
194.5
 40
0.9999999999999879
 50
18.19081395239641
 51
67.50000000000155
  0
ARC
  8
0
  6
CONTINUOUS
 62
     7
 10
92.5
 20
111.888338133966
 40
85.00000000000003
 50
80.01120117108809
 51
90.0
  0
ARC
  8
0
  6
CONTINUOUS
 62
     7
 10
92.5
 20
158.111661866034
 40
84.99999999999999
 50
259.6302401945226
 51
260.0112011710881
  0
ARC
  8
0
  6
CONTINUOUS
 62
     7
 10
92.5
 20
158.111661866034
 40
85.0
 50
260.0112011710881
 51
279.9812175320031
  0
ARC
  8
0
  6
CONTINUOUS
 62
     7
 10
92.5
 20
111.888338133966
 40
85.00000000000001
 50
90.0
 51
99.98121753200307
  0
ARC
  8
0
  6
CONTINUOUS
 62
     7
 10
92.5
 20
111.888338133966
 40
85.00000000000003
 50
99.98121753200306
 51
100.3697598054774
  0
ARC
  8
0
  6
CONTINUOUS
 62
     7
 10
207.35
 20
192.1000000000001
 40
2.399999999999958
 50
0.0
 51
90.0
  0
ARC
  8
0
  6
CONTINUOUS
 62
     7
 10
202.576
 20
194.5
 40
0.9999999999999852
 50
67.50000000000006
 51
90.0
  0
ARC
  8
0
  6
CONTINUOUS
 62
     7
 10
187.25
 20
111.888338133966
 40
84.99999999999999
 50
79.6302401945226
 51
80.01856015423763
  0
ARC
  8
0
  6
CONTINUOUS
 62
     7
 10
187.25
 20
111.888338133966
 40
85.00000000000001
 50
80.01856015423763
 51
90.00000000000009
  0
ARC
  8
0
  6
CONTINUOUS
 62
     7
 10
66.5
 20
115.0
 40
1.030668528585354
 50
60.02145438351315
 51
119.9785456164851
  0
ARC
  8
0
  6
CONTINUOUS
 62
     7
 10
202.576
 20
194.5
 40
1.000000000000014
 50
18.19081395239089
 51
67.5000000000007
  0
ARC
  8
0
  6
CONTINUOUS
 62
     7
 10
187.25
 20
111.888338133966
 40
85.00000000000001
 50
90.0
 51
99.98097614256595
  0
ARC
  8
0
  6
CONTINUOUS
 62
     7
 10
77.17399999999999
 20
194.5
 40
1.000000000000001
 50
90.0
 51
100.5791955218603
  0
ARC
  8
0
  6
CONTINUOUS
 62
     7
 10
92.5
 20
93.25
 40
2.250000000000002
 50
180.0
 51
0.0
  0
ARC
  8
0
  6
CONTINUOUS
 62
     7
 10
66.5
 20
115.0
 40
1.03066852858534
 50
240.0214543835145
 51
299.9785456164872
  0
ARC
  8
0
  6
CONTINUOUS
 62
     7
 10
92.5
 20
158.111661866034
 40
84.99999999999999
 50
279.9812175320031
 51
280.3697598054774
  0
ARC
  8
0
  6
CONTINUOUS
 62
     7
 10
92.5
 20
93.25
 40
2.250000000000002
 50
0.0
 51
180.0
  0
ARC
  8
0
  6
CONTINUOUS
 62
     7
 10
187.25
 20
111.888338133966
 40
84.99999999999999
 50
99.98097614256595
 51
100.3697598054774
  0
ARC
  8
0
  6
CONTINUOUS
 62
     7
 10
126.0240554950479
 20
3.261904272197472
 40
2.400000000000007
 50
303.5481553238607
 51
359.4999999999998
  0
ARC
  8
0
  6
CONTINUOUS
 62
     7
 10
187.2500000000001
 20
158.111661866034
 40
84.99999999999999
 50
260.019023857434
 51
270.0
  0
ARC
  8
0
  6
CONTINUOUS
 62
     7
 10
202.576
 20
75.50000000000004
 40
0.999999999999987
 50
270.0
 51
292.4999999999999
  0
ARC
  8
0
  6
CONTINUOUS
 62
     7
 10
187.2500000000001
 20
158.111661866034
 40
84.99999999999999
 50
260.019023857434
 51
270.0
  0
ARC
  8
0
  6
CONTINUOUS
 62
     7
 10
187.2500000000001
 20
158.111661866034
 40
84.99999999999996
 50
259.6302401945226
 51
260.019023857434
  0
ARC
  8
0
  6
CONTINUOUS
 62
     7
 10
187.2500000000001
 20
158.111661866034
 40
84.99999999999997
 50
269.9999999999999
 51
279.9814398457624
  0
ARC
  8
0
  6
CONTINUOUS
 62
     7
 10
187.2500000000001
 20
158.111661866034
 40
84.99999999999997
 50
269.9999999999999
 51
279.9814398457624
  0
ARC
  8
0
  6
CONTINUOUS
 62
     7
 10
171.924
 20
75.50000000000004
 40
0.9999999999999972
 50
198.190813953804
 51
247.5000000000004
  0
ARC
  8
0
  6
CONTINUOUS
 62
     7
 10
171.924
 20
75.50000000000004
 40
1.000000000000009
 50
247.4999999999989
 51
250.5057028545204
  0
ARC
  8
0
  6
CONTINUOUS
 62
     7
 10
171.924
 20
194.4999999999999
 40
0.9999999999999852
 50
112.4999999999999
 51
161.809186046196
  0
ARC
  8
0
  6
CONTINUOUS
 62
     7
 10
171.924
 20
194.4999999999999
 40
1.000000000000001
 50
90.0
 51
109.4942971454782
  0
ARC
  8
0
  6
CONTINUOUS
 62
     7
 10
171.924
 20
75.50000000000004
 40
1.000000000000009
 50
247.4999999999989
 51
250.5057028545204
  0
ARC
  8
0
  6
CONTINUOUS
 62
     7
 10
202.576
 20
75.50000000000004
 40
1.000000000000024
 50
292.499999999999
 51
341.8091860476091
  0
ARC
  8
0
  6
CONTINUOUS
 62
     7
 10
171.924
 20
75.5000000000001
 40
1.000000000000009
 50
247.4999999999989
 51
250.5057028545204
  0
ARC
  8
0
  6
CONTINUOUS
 62
     7
 10
171.924
 20
194.4999999999999
 40
1.00000000000001
 50
109.4942971454797
 51
112.5000000000009
  0
ARC
  8
0
  6
CONTINUOUS
 62
     7
 10
171.924
 20
75.50000000000004
 40
1.000000000000001
 50
250.5057028545218
 51
270.0
  0
ARC
  8
0
  6
CONTINUOUS
 62
     7
 10
187.2500000000001
 20
158.111661866034
 40
84.99999999999994
 50
279.9814398457624
 51
280.3697598054774
  0
ARC
  8
0
  6
CONTINUOUS
 62
     7
 10
171.924
 20
75.5000000000001
 40
1.000000000000001
 50
250.5057028545218
 51
270.0
  0
ARC
  8
0
  6
CONTINUOUS
 62
     7
 10
171.924
 20
75.50000000000004
 40
0.9999999999999972
 50
198.190813953804
 51
247.5000000000004
  0
ARC
  8
0
  6
CONTINUOUS
 62
     7
 10
171.924
 20
75.5000000000001
 40
0.9999999999999972
 50
198.190813953804
 51
247.5000000000004
  0
POLYLINE
  8
0
  6
CONTINUOUS
 62
     7
 66
     1
  0
VERTEX
  8
0
  6
CONTINUOUS
 62
     7
 10
129.5026180603372
 20
191.5
  0
VERTEX
  8
0
  6
CONTINUOUS
 62
     7
 10
129.4364998908562
 20
192.1238013646773
  0
VERTEX
  8
0
  6
CONTINUOUS
 62
     7
 10
129.242124451239
 20
192.7203337561351
  0
VERTEX
  8
0
  6
CONTINUOUS
 62
     7
 10
128.9279887069582
 20
193.2635202423111
  0
VERTEX
  8
0
  6
CONTINUOUS
 62
     7
 10
128.5078248485526
 20
193.7296158643394
  0
VERTEX
  8
0
  6
CONTINUOUS
 62
     7
 10
128.0
 20
194.0982456282646
  0
SEQEND
  8
0
  6
CONTINUOUS
 62
     7
  0
POLYLINE
  8
0
  6
CONTINUOUS
 62
     7
 66
     1
  0
VERTEX
  8
0
  6
CONTINUOUS
 62
     7
 10
128.0
 20
75.90175437173544
  0
VERTEX
  8
0
  6
CONTINUOUS
 62
     7
 10
128.5078248485526
 20
76.27038413566059
  0
VERTEX
  8
0
  6
CONTINUOUS
 62
     7
 10
128.9279887069583
 20
76.73647975768894
  0
VERTEX
  8
0
  6
CONTINUOUS
 62
     7
 10
129.2421244512391
 20
77.27966624386492
  0
VERTEX
  8
0
  6
CONTINUOUS
 62
     7
 10
129.4364998908563
 20
77.87619863532277
  0
VERTEX
  8
0
  6
CONTINUOUS
 62
     7
 10
129.5026180603372
 20
78.50000000000003
  0
SEQEND
  8
0
  6
CONTINUOUS
 62
     7
  0
POLYLINE
  8
0
  6
CONTINUOUS
 62
     7
 66
     1
  0
VERTEX
  8
0
  6
CONTINUOUS
 62
     7
 10
57.00000000000003
 20
194.0982456282646
  0
VERTEX
  8
0
  6
CONTINUOUS
 62
     7
 10
56.49217515144741
 20
193.7296158643394
  0
VERTEX
  8
0
  6
CONTINUOUS
 62
     7
 10
56.07201129304175
 20
193.2635202423111
  0
VERTEX
  8
0
  6
CONTINUOUS
 62
     7
 10
55.75787554876097
 20
192.7203337561351
  0
VERTEX
  8
0
  6
CONTINUOUS
 62
     7
 10
55.56350010914379
 20
192.1238013646773
  0
VERTEX
  8
0
  6
CONTINUOUS
 62
     7
 10
55.49738193966279
 20
191.5
  0
SEQEND
  8
0
  6
CONTINUOUS
 62
     7
  0
POLYLINE
  8
0
  6
CONTINUOUS
 62
     7
 66
     1
  0
VERTEX
  8
0
  6
CONTINUOUS
 62
     7
 10
55.49738193966279
 20
78.49999999999997
  0
VERTEX
  8
0
  6
CONTINUOUS
 62
     7
 10
55.56350010914379
 20
77.87619863532275
  0
VERTEX
  8
0
  6
CONTINUOUS
 62
     7
 10
55.75787554876098
 20
77.27966624386491
  0
VERTEX
  8
0
  6
CONTINUOUS
 62
     7
 10
56.07201129304174
 20
76.73647975768894
  0
VERTEX
  8
0
  6
CONTINUOUS
 62
     7
 10
56.49217515144739
 20
76.27038413566059
  0
VERTEX
  8
0
  6
CONTINUOUS
 62
     7
 10
57.00000000000001
 20
75.90175437173544
  0
SEQEND
  8
0
  6
CONTINUOUS
 62
     7
  0
POLYLINE
  8
0
  6
CONTINUOUS
 62
     7
 66
     1
  0
VERTEX
  8
0
  6
CONTINUOUS
 62
     7
 10
90.17256409279642
 20
87.83530118739398
  0
VERTEX
  8
0
  6
CONTINUOUS
 62
     7
 10
89.98338771971731
 20
87.90136672727083
  0
VERTEX
  8
0
  6
CONTINUOUS
 62
     7
 10
89.78484333283704
 20
87.9283921243765
  0
VERTEX
  8
0
  6
CONTINUOUS
 62
     7
 10
89.58490166031198
 20
87.91529242185565
  0
VERTEX
  8
0
  6
CONTINUOUS
 62
     7
 10
89.39158952548306
 20
87.86259351806964
  0
VERTEX
  8
0
  6
CONTINUOUS
 62
     7
 10
89.21266760343285
 20
87.77241105397322
  0
VERTEX
  8
0
  6
CONTINUOUS
 62
     7
 10
89.05531886228394
 20
87.64836547896348
  0
VERTEX
  8
0
  6
CONTINUOUS
 62
     7
 10
88.92586019701959
 20
87.49543670495302
  0
VERTEX
  8
0
  6
CONTINUOUS
 62
     7
 10
88.82948883252499
 20
87.3197641836991
  0
VERTEX
  8
0
  6
CONTINUOUS
 62
     7
 10
88.77007367670792
 20
87.12840043344943
  0
VERTEX
  8
0
  6
CONTINUOUS
 62
     7
 10
88.75
 20
86.92902790978079
  0
SEQEND
  8
0
  6
CONTINUOUS
 62
     7
  0
POLYLINE
  8
0
  6
CONTINUOUS
 62
     7
 66
     1
  0
VERTEX
  8
0
  6
CONTINUOUS
 62
     7
 10
58.50011423515722
 20
194.5
  0
VERTEX
  8
0
  6
CONTINUOUS
 62
     7
 10
57.97912821473484
 20
194.4544194414986
  0
VERTEX
  8
0
  6
CONTINUOUS
 62
     7
 10
57.47397341683399
 20
194.3190628242031
  0
VERTEX
  8
0
  6
CONTINUOUS
 62
     7
 10
56.99999999999999
 20
194.0980432349225
  0
SEQEND
  8
0
  6
CONTINUOUS
 62
     7
  0
POLYLINE
  8
0
  6
CONTINUOUS
 62
     7
 66
     1
  0
VERTEX
  8
0
  6
CONTINUOUS
 62
     7
 10
126.5
 20
186.5001903846792
  0
VERTEX
  8
0
  6
CONTINUOUS
 62
     7
 10
126.4039320291953
 20
187.4756251371897
  0
VERTEX
  8
0
  6
CONTINUOUS
 62
     7
 10
126.1194195982215
 20
188.4135634703985
  0
VERTEX
  8
0
  6
CONTINUOUS
 62
     7
 10
125.6573953035478
 20
189.2779644237227
  0
VERTEX
  8
0
  6
CONTINUOUS
 62
     7
 10
125.0356127637258
 20
190.0356127637258
  0
VERTEX
  8
0
  6
CONTINUOUS
 62
     7
 10
124.2779644237227
 20
190.6573953035478
  0
VERTEX
  8
0
  6
CONTINUOUS
 62
     7
 10
123.4135634703985
 20
191.1194195982215
  0
VERTEX
  8
0
  6
CONTINUOUS
 62
     7
 10
122.4756251371897
 20
191.4039320291953
  0
VERTEX
  8
0
  6
CONTINUOUS
 62
     7
 10
121.5001903846792
 20
191.5
  0
SEQEND
  8
0
  6
CONTINUOUS
 62
     7
  0
POLYLINE
  8
0
  6
CONTINUOUS
 62
     7
 66
     1
  0
VERTEX
  8
0
  6
CONTINUOUS
 62
     7
 10
126.4998857648428
 20
75.50000000000001
  0
VERTEX
  8
0
  6
CONTINUOUS
 62
     7
 10
127.0208717852652
 20
75.54558055850144
  0
VERTEX
  8
0
  6
CONTINUOUS
 62
     7
 10
127.526026583166
 20
75.68093717579687
  0
VERTEX
  8
0
  6
CONTINUOUS
 62
     7
 10
128.0
 20
75.90195676507751
  0
SEQEND
  8
0
  6
CONTINUOUS
 62
     7
  0
POLYLINE
  8
0
  6
CONTINUOUS
 62
     7
 66
     1
  0
VERTEX
  8
0
  6
CONTINUOUS
 62
     7
 10
86.24999999999999
 20
190.9956175269117
  0
VERTEX
  8
0
  6
CONTINUOUS
 62
     7
 10
86.2403926402016
 20
191.0931664022821
  0
VERTEX
  8
0
  6
CONTINUOUS
 62
     7
 10
86.21193976625563
 20
191.1869665290779
  0
VERTEX
  8
0
  6
CONTINUOUS
 62
     7
 10
86.16573480615126
 20
191.2734132210304
  0
VERTEX
  8
0
  6
CONTINUOUS
 62
     7
 10
86.10355339059326
 20
191.3491843802474
  0
VERTEX
  8
0
  6
CONTINUOUS
 62
     7
 10
86.02778511650979
 20
191.4113681635733
  0
VERTEX
  8
0
  6
CONTINUOUS
 62
     7
 10
85.94134171618254
 20
191.457574883088
  0
VERTEX
  8
0
  6
CONTINUOUS
 62
     7
 10
85.84754516100806
 20
191.4860288404735
  0
VERTEX
  8
0
  6
CONTINUOUS
 62
     7
 10
85.74999999999999
 20
191.4956365661046
  0
SEQEND
  8
0
  6
CONTINUOUS
 62
     7
  0
POLYLINE
  8
0
  6
CONTINUOUS
 62
     7
 66
     1
  0
VERTEX
  8
0
  6
CONTINUOUS
 62
     7
 10
96.24999999999997
 20
86.92902790978077
  0
VERTEX
  8
0
  6
CONTINUOUS
 62
     7
 10
96.22992632329203
 20
87.12840043344943
  0
VERTEX
  8
0
  6
CONTINUOUS
 62
     7
 10
96.17051116747498
 20
87.31976418369909
  0
VERTEX
  8
0
  6
CONTINUOUS
 62
     7
 10
96.0741398029804
 20
87.49543670495301
  0
VERTEX
  8
0
  6
CONTINUOUS
 62
     7
 10
95.94468113771605
 20
87.64836547896347
  0
VERTEX
  8
0
  6
CONTINUOUS
 62
     7
 10
95.78733239656714
 20
87.77241105397322
  0
VERTEX
  8
0
  6
CONTINUOUS
 62
     7
 10
95.60841047451693
 20
87.86259351806964
  0
VERTEX
  8
0
  6
CONTINUOUS
 62
     7
 10
95.415098339688
 20
87.91529242185567
  0
VERTEX
  8
0
  6
CONTINUOUS
 62
     7
 10
95.21515666716293
 20
87.92839212437651
  0
VERTEX
  8
0
  6
CONTINUOUS
 62
     7
 10
95.01661228028266
 20
87.90136672727081
  0
VERTEX
  8
0
  6
CONTINUOUS
 62
     7
 10
94.82743590720355
 20
87.83530118739397
  0
SEQEND
  8
0
  6
CONTINUOUS
 62
     7
  0
POLYLINE
  8
0
  6
CONTINUOUS
 62
     7
 66
     1
  0
VERTEX
  8
0
  6
CONTINUOUS
 62
     7
 10
85.74999999999999
 20
78.50436343389538
  0
VERTEX
  8
0
  6
CONTINUOUS
 62
     7
 10
85.84754516100806
 20
78.51397115952652
  0
VERTEX
  8
0
  6
CONTINUOUS
 62
     7
 10
85.94134171618254
 20
78.542425116912
  0
VERTEX
  8
0
  6
CONTINUOUS
 62
     7
 10
86.02778511650979
 20
78.58863183642666
  0
VERTEX
  8
0
  6
CONTINUOUS
 62
     7
 10
86.10355339059326
 20
78.65081561975259
  0
VERTEX
  8
0
  6
CONTINUOUS
 62
     7
 10
86.16573480615126
 20
78.72658677896963
  0
VERTEX
  8
0
  6
CONTINUOUS
 62
     7
 10
86.21193976625563
 20
78.81303347092202
  0
VERTEX
  8
0
  6
CONTINUOUS
 62
     7
 10
86.2403926402016
 20
78.9068335977179
  0
VERTEX
  8
0
  6
CONTINUOUS
 62
     7
 10
86.24999999999999
 20
79.00438247308824
  0
SEQEND
  8
0
  6
CONTINUOUS
 62
     7
  0
POLYLINE
  8
0
  6
CONTINUOUS
 62
     7
 66
     1
  0
VERTEX
  8
0
  6
CONTINUOUS
 62
     7
 10
121.5001903846791
 20
78.5
  0
VERTEX
  8
0
  6
CONTINUOUS
 62
     7
 10
122.4756251371897
 20
78.59606797080467
  0
VERTEX
  8
0
  6
CONTINUOUS
 62
     7
 10
123.4135634703985
 20
78.88058040177853
  0
VERTEX
  8
0
  6
CONTINUOUS
 62
     7
 10
124.2779644237227
 20
79.34260469645224
  0
VERTEX
  8
0
  6
CONTINUOUS
 62
     7
 10
125.0356127637257
 20
79.96438723627425
  0
VERTEX
  8
0
  6
CONTINUOUS
 62
     7
 10
125.6573953035478
 20
80.72203557627729
  0
VERTEX
  8
0
  6
CONTINUOUS
 62
     7
 10
126.1194195982215
 20
81.5864365296015
  0
VERTEX
  8
0
  6
CONTINUOUS
 62
     7
 10
126.4039320291953
 20
82.52437486281032
  0
VERTEX
  8
0
  6
CONTINUOUS
 62
     7
 10
126.5
 20
83.49980961532086
  0
SEQEND
  8
0
  6
CONTINUOUS
 62
     7
  0
POLYLINE
  8
0
  6
CONTINUOUS
 62
     7
 66
     1
  0
VERTEX
  8
0
  6
CONTINUOUS
 62
     7
 10
99.25
 20
191.4956365661046
  0
VERTEX
  8
0
  6
CONTINUOUS
 62
     7
 10
99.15245483899193
 20
191.4860288404734
  0
VERTEX
  8
0
  6
CONTINUOUS
 62
     7
 10
99.05865828381745
 20
191.4575748830879
  0
VERTEX
  8
0
  6
CONTINUOUS
 62
     7
 10
98.9722148834902
 20
191.4113681635733
  0
VERTEX
  8
0
  6
CONTINUOUS
 62
     7
 10
98.89644660940672
 20
191.3491843802474
  0
VERTEX
  8
0
  6
CONTINUOUS
 62
     7
 10
98.83426519384872
 20
191.2734132210303
  0
VERTEX
  8
0
  6
CONTINUOUS
 62
     7
 10
98.78806023374436
 20
191.1869665290779
  0
VERTEX
  8
0
  6
CONTINUOUS
 62
     7
 10
98.75960735979838
 20
191.0931664022821
  0
VERTEX
  8
0
  6
CONTINUOUS
 62
     7
 10
98.75
 20
190.9956175269117
  0
SEQEND
  8
0
  6
CONTINUOUS
 62
     7
  0
POLYLINE
  8
0
  6
CONTINUOUS
 62
     7
 66
     1
  0
VERTEX
  8
0
  6
CONTINUOUS
 62
     7
 10
88.75000000000003
 20
183.0709720902192
  0
VERTEX
  8
0
  6
CONTINUOUS
 62
     7
 10
88.77007367670797
 20
182.8715995665506
  0
VERTEX
  8
0
  6
CONTINUOUS
 62
     7
 10
88.82948883252502
 20
182.6802358163009
  0
VERTEX
  8
0
  6
CONTINUOUS
 62
     7
 10
88.92586019701959
 20
182.504563295047
  0
VERTEX
  8
0
  6
CONTINUOUS
 62
     7
 10
89.05531886228394
 20
182.3516345210365
  0
VERTEX
  8
0
  6
CONTINUOUS
 62
     7
 10
89.21266760343285
 20
182.2275889460268
  0
VERTEX
  8
0
  6
CONTINUOUS
 62
     7
 10
89.39158952548306
 20
182.1374064819304
  0
VERTEX
  8
0
  6
CONTINUOUS
 62
     7
 10
89.58490166031197
 20
182.0847075781444
  0
VERTEX
  8
0
  6
CONTINUOUS
 62
     7
 10
89.78484333283704
 20
182.0716078756235
  0
VERTEX
  8
0
  6
CONTINUOUS
 62
     7
 10
89.98338771971731
 20
182.0986332727292
  0
VERTEX
  8
0
  6
CONTINUOUS
 62
     7
 10
90.17256409279642
 20
182.164698812606
  0
SEQEND
  8
0
  6
CONTINUOUS
 62
     7
  0
POLYLINE
  8
0
  6
CONTINUOUS
 62
     7
 66
     1
  0
VERTEX
  8
0
  6
CONTINUOUS
 62
     7
 10
128.0
 20
194.0980432349225
  0
VERTEX
  8
0
  6
CONTINUOUS
 62
     7
 10
127.526026583166
 20
194.3190628242031
  0
VERTEX
  8
0
  6
CONTINUOUS
 62
     7
 10
127.0208717852652
 20
194.4544194414986
  0
VERTEX
  8
0
  6
CONTINUOUS
 62
     7
 10
126.4998857648428
 20
194.5
  0
SEQEND
  8
0
  6
CONTINUOUS
 62
     7
  0
POLYLINE
  8
0
  6
CONTINUOUS
 62
     7
 66
     1
  0
VERTEX
  8
0
  6
CONTINUOUS
 62
     7
 10
58.50000000000002
 20
83.49980961532086
  0
VERTEX
  8
0
  6
CONTINUOUS
 62
     7
 10
58.59606797080468
 20
82.52437486281032
  0
VERTEX
  8
0
  6
CONTINUOUS
 62
     7
 10
58.88058040177854
 20
81.5864365296015
  0
VERTEX
  8
0
  6
CONTINUOUS
 62
     7
 10
59.34260469645225
 20
80.72203557627729
  0
VERTEX
  8
0
  6
CONTINUOUS
 62
     7
 10
59.96438723627426
 20
79.96438723627426
  0
VERTEX
  8
0
  6
CONTINUOUS
 62
     7
 10
60.72203557627729
 20
79.34260469645224
  0
VERTEX
  8
0
  6
CONTINUOUS
 62
     7
 10
61.58643652960149
 20
78.88058040177853
  0
VERTEX
  8
0
  6
CONTINUOUS
 62
     7
 10
62.52437486281031
 20
78.59606797080468
  0
VERTEX
  8
0
  6
CONTINUOUS
 62
     7
 10
63.49980961532087
 20
78.5
  0
SEQEND
  8
0
  6
CONTINUOUS
 62
     7
  0
POLYLINE
  8
0
  6
CONTINUOUS
 62
     7
 66
     1
  0
VERTEX
  8
0
  6
CONTINUOUS
 62
     7
 10
98.75
 20
79.00438247308826
  0
VERTEX
  8
0
  6
CONTINUOUS
 62
     7
 10
98.75960735979838
 20
78.90683359771792
  0
VERTEX
  8
0
  6
CONTINUOUS
 62
     7
 10
98.78806023374436
 20
78.81303347092202
  0
VERTEX
  8
0
  6
CONTINUOUS
 62
     7
 10
98.83426519384872
 20
78.72658677896963
  0
VERTEX
  8
0
  6
CONTINUOUS
 62
     7
 10
98.89644660940672
 20
78.65081561975259
  0
VERTEX
  8
0
  6
CONTINUOUS
 62
     7
 10
98.9722148834902
 20
78.58863183642666
  0
VERTEX
  8
0
  6
CONTINUOUS
 62
     7
 10
99.05865828381745
 20
78.542425116912
  0
VERTEX
  8
0
  6
CONTINUOUS
 62
     7
 10
99.15245483899193
 20
78.51397115952652
  0
VERTEX
  8
0
  6
CONTINUOUS
 62
     7
 10
99.25
 20
78.50436343389538
  0
SEQEND
  8
0
  6
CONTINUOUS
 62
     7
  0
POLYLINE
  8
0
  6
CONTINUOUS
 62
     7
 66
     1
  0
VERTEX
  8
0
  6
CONTINUOUS
 62
     7
 10
92.07739783026776
 20
86.94706262809912
  0
VERTEX
  8
0
  6
CONTINUOUS
 62
     7
 10
92.28356905337905
 20
86.87707674595136
  0
VERTEX
  8
0
  6
CONTINUOUS
 62
     7
 10
92.50000000000003
 20
86.85337357574669
  0
VERTEX
  8
0
  6
CONTINUOUS
 62
     7
 10
92.716430946621
 20
86.87707674595136
  0
VERTEX
  8
0
  6
CONTINUOUS
 62
     7
 10
92.92260216973229
 20
86.94706262809912
  0
SEQEND
  8
0
  6
CONTINUOUS
 62
     7
  0
POLYLINE
  8
0
  6
CONTINUOUS
 62
     7
 66
     1
  0
VERTEX
  8
0
  6
CONTINUOUS
 62
     7
 10
56.99999999999999
 20
75.90195676507751
  0
VERTEX
  8
0
  6
CONTINUOUS
 62
     7
 10
57.47397341683399
 20
75.68093717579688
  0
VERTEX
  8
0
  6
CONTINUOUS
 62
     7
 10
57.97912821473484
 20
75.54558055850144
  0
VERTEX
  8
0
  6
CONTINUOUS
 62
     7
 10
58.50011423515722
 20
75.50000000000001
  0
SEQEND
  8
0
  6
CONTINUOUS
 62
     7
  0
POLYLINE
  8
0
  6
CONTINUOUS
 62
     7
 66
     1
  0
VERTEX
  8
0
  6
CONTINUOUS
 62
     7
 10
94.82743590720358
 20
182.164698812606
  0
VERTEX
  8
0
  6
CONTINUOUS
 62
     7
 10
95.01661228028269
 20
182.0986332727292
  0
VERTEX
  8
0
  6
CONTINUOUS
 62
     7
 10
95.21515666716296
 20
182.0716078756235
  0
VERTEX
  8
0
  6
CONTINUOUS
 62
     7
 10
95.41509833968803
 20
182.0847075781444
  0
VERTEX
  8
0
  6
CONTINUOUS
 62
     7
 10
95.60841047451696
 20
182.1374064819304
  0
VERTEX
  8
0
  6
CONTINUOUS
 62
     7
 10
95.78733239656717
 20
182.2275889460268
  0
VERTEX
  8
0
  6
CONTINUOUS
 62
     7
 10
95.94468113771607
 20
182.3516345210365
  0
VERTEX
  8
0
  6
CONTINUOUS
 62
     7
 10
96.07413980298043
 20
182.504563295047
  0
VERTEX
  8
0
  6
CONTINUOUS
 62
     7
 10
96.170511167475
 20
182.6802358163009
  0
VERTEX
  8
0
  6
CONTINUOUS
 62
     7
 10
96.22992632329206
 20
182.8715995665506
  0
VERTEX
  8
0
  6
CONTINUOUS
 62
     7
 10
96.25
 20
183.0709720902192
  0
SEQEND
  8
0
  6
CONTINUOUS
 62
     7
  0
POLYLINE
  8
0
  6
CONTINUOUS
 62
     7
 66
     1
  0
VERTEX
  8
0
  6
CONTINUOUS
 62
     7
 10
92.92260216973224
 20
183.0529373719009
  0
VERTEX
  8
0
  6
CONTINUOUS
 62
     7
 10
92.71643094662095
 20
183.1229232540487
  0
VERTEX
  8
0
  6
CONTINUOUS
 62
     7
 10
92.49999999999997
 20
183.1466264242534
  0
VERTEX
  8
0
  6
CONTINUOUS
 62
     7
 10
92.283569053379
 20
183.1229232540487
  0
VERTEX
  8
0
  6
CONTINUOUS
 62
     7
 10
92.07739783026771
 20
183.0529373719009
  0
SEQEND
  8
0
  6
CONTINUOUS
 62
     7
  0
POLYLINE
  8
0
  6
CONTINUOUS
 62
     7
 66
     1
  0
VERTEX
  8
0
  6
CONTINUOUS
 62
     7
 10
63.49980961532089
 20
191.5
  0
VERTEX
  8
0
  6
CONTINUOUS
 62
     7
 10
62.52437486281034
 20
191.4039320291953
  0
VERTEX
  8
0
  6
CONTINUOUS
 62
     7
 10
61.58643652960151
 20
191.1194195982215
  0
VERTEX
  8
0
  6
CONTINUOUS
 62
     7
 10
60.72203557627731
 20
190.6573953035478
  0
VERTEX
  8
0
  6
CONTINUOUS
 62
     7
 10
59.96438723627426
 20
190.0356127637258
  0
VERTEX
  8
0
  6
CONTINUOUS
 62
     7
 10
59.34260469645225
 20
189.2779644237227
  0
VERTEX
  8
0
  6
CONTINUOUS
 62
     7
 10
58.88058040177852
 20
188.4135634703985
  0
VERTEX
  8
0
  6
CONTINUOUS
 62
     7
 10
58.59606797080468
 20
187.4756251371897
  0
VERTEX
  8
0
  6
CONTINUOUS
 62
     7
 10
58.5
 20
186.5001903846791
  0
SEQEND
  8
0
  6
CONTINUOUS
 62
     7
  0
LINE
  8
0
  6
CONTINUOUS
 62
     7
 10
160.7499999999993
 20
194.0980432349225
 11
160.7098245628308
 21
194.0982456282646
  0
LINE
  8
0
  6
CONTINUOUS
 62
     7
 10
160.7098245628288
 20
75.90175437173548
 11
160.7499999999972
 21
75.90195676507753
  0
LINE
  8
0
  6
CONTINUOUS
 62
     7
 10
55.23767373404412
 20
3.240960587001355
 11
54.82820086188578
 21
50.16190427219744
  0
LINE
  8
0
  6
CONTINUOUS
 62
     7
 10
125.4240326480164
 20
0.8619042721974591
 11
58.23760519642959
 21
0.8619042721974591
  0
LINE
  8
0
  6
CONTINUOUS
 62
     7
 10
57.83093315738022
 20
49.86190427219745
 11
125.8307046870658
 21
49.86190427219745
  0
LINE
  8
0
  6
CONTINUOUS
 62
     7
 10
127.330818922223
 20
49.86190427219761
 11
127.330818922223
 21
49.90207970937083
  0
LINE
  8
0
  6
CONTINUOUS
 62
     7
 10
58.23760519642959
 20
0.8619042721974591
 11
58.23760519642959
 21
0.9080201142924772
  0
LINE
  8
0
  6
CONTINUOUS
 62
     7
 10
127.330818922223
 20
49.902079709371
 11
128.8334369825602
 21
50.16190427219748
  0
LINE
  8
0
  6
CONTINUOUS
 62
     7
 10
128.8334369825602
 20
50.16190427219748
 11
128.4239641104019
 21
3.240960587001365
  0
LINE
  8
0
  6
CONTINUOUS
 62
     7
 10
125.8307046870658
 20
49.86190427219745
 11
127.330818922223
 21
49.86190427219745
  0
LINE
  8
0
  6
CONTINUOUS
 62
     7
 10
55.49563656610462
 20
189.5000000000001
 11
56.99999999999999
 21
189.5000000000001
  0
LINE
  8
0
  6
CONTINUOUS
 62
     7
 10
63.49980961532086
 20
78.50000000000001
 11
121.5001903846791
 21
78.50000000000001
  0
LINE
  8
0
  6
CONTINUOUS
 62
     7
 10
56.99999999999999
 20
194.0982456282646
 11
56.99999999999999
 21
189.5000000000001
  0
LINE
  8
0
  6
CONTINUOUS
 62
     7
 10
121.5001903846791
 20
191.5
 11
63.49980961532086
 21
191.5
  0
LINE
  8
0
  6
CONTINUOUS
 62
     7
 10
58.49999999999999
 20
186.5001903846791
 11
58.50000000000002
 21
83.49980961532087
  0
LINE
  8
0
  6
CONTINUOUS
 62
     7
 10
86.25000000000001
 20
81.525
 11
80.40000000000002
 21
81.525
  0
LINE
  8
0
  6
CONTINUOUS
 62
     7
 10
79.425
 20
189.45
 11
86.24999999999999
 21
189.45
  0
LINE
  8
0
  6
CONTINUOUS
 62
     7
 10
128.0
 20
189.5
 11
129.5043634338953
 21
189.5
  0
LINE
  8
0
  6
CONTINUOUS
 62
     7
 10
68.6902682484116
 20
115.515
 11
67.01500000000001
 21
115.515
  0
LINE
  8
0
  6
CONTINUOUS
 62
     7
 10
76.22358322295244
 20
75.19028261458904
 11
76.17400000000002
 21
75.50000000000001
  0
LINE
  8
0
  6
CONTINUOUS
 62
     7
 10
64.30973175158842
 20
114.485
 11
65.98500000000001
 21
114.485
  0
LINE
  8
0
  6
CONTINUOUS
 62
     7
 10
129.5043634338953
 20
189.5
 11
129.5043634338954
 21
80.49999999999996
  0
LINE
  8
0
  6
CONTINUOUS
 62
     7
 10
55.49563656610462
 20
189.5000000000001
 11
55.49738193966277
 21
191.5
  0
LINE
  8
0
  6
CONTINUOUS
 62
     7
 10
104.6
 20
82.49999999999999
 11
98.75
 21
82.49999999999999
  0
LINE
  8
0
  6
CONTINUOUS
 62
     7
 10
55.49563656610462
 20
80.50000000000001
 11
55.49563656610462
 21
189.5000000000001
  0
LINE
  8
0
  6
CONTINUOUS
 62
     7
 10
65.98500000000001
 20
114.485
 11
65.98500000000001
 21
112.8097317515884
  0
LINE
  8
0
  6
CONTINUOUS
 62
     7
 10
108.826
 20
75.50000000000001
 11
108.77641677704
 21
75.19028261456586
  0
LINE
  8
0
  6
CONTINUOUS
 62
     7
 10
56.99999999999999
 20
80.50000000000001
 11
56.99999999999999
 21
75.90175437173541
  0
LINE
  8
0
  6
CONTINUOUS
 62
     7
 10
86.24999999999999
 20
80.55000000000001
 11
79.425
 21
80.55000000000001
  0
LINE
  8
0
  6
CONTINUOUS
 62
     7
 10
58.50011423515722
 20
75.50000000000001
 11
126.4998857648428
 21
75.50000000000001
  0
LINE
  8
0
  6
CONTINUOUS
 62
     7
 10
126.4998857648428
 20
194.5
 11
58.50011423515722
 21
194.5
  0
LINE
  8
0
  6
CONTINUOUS
 62
     7
 10
86.25000000000001
 20
82.49999999999999
 11
80.40000000000002
 21
82.49999999999999
  0
LINE
  8
0
  6
CONTINUOUS
 62
     7
 10
80.39999999999999
 20
187.5
 11
86.24999999999999
 21
187.5
  0
LINE
  8
0
  6
CONTINUOUS
 62
     7
 10
98.75
 20
187.5
 11
104.6
 21
187.5
  0
LINE
  8
0
  6
CONTINUOUS
 62
     7
 10
126.5
 20
83.49980961532086
 11
126.5
 21
186.5001903846791
  0
LINE
  8
0
  6
CONTINUOUS
 62
     7
 10
108.1551199805599
 20
74.56250546668261
 11
108.1549272535527
 21
74.56257775892239
  0
LINE
  8
0
  6
CONTINUOUS
 62
     7
 10
117.985
 20
114.485
 11
117.985
 21
112.8097317515884
  0
LINE
  8
0
  6
CONTINUOUS
 62
     7
 10
129.5026180603372
 20
191.5
 11
129.5043634338953
 21
189.5
  0
LINE
  8
0
  6
CONTINUOUS
 62
     7
 10
128.0
 20
75.90175437173544
 11
128.0
 21
80.49999999999996
  0
LINE
  8
0
  6
CONTINUOUS
 62
     7
 10
129.5043634338954
 20
80.49999999999996
 11
129.5026180603372
 21
78.50000000000001
  0
LINE
  8
0
  6
CONTINUOUS
 62
     7
 10
88.79807392817074
 20
78.55243736206613
 11
88.75
 21
78.50436343389538
  0
LINE
  8
0
  6
CONTINUOUS
 62
     7
 10
89.79803585123489
 20
78.56108807453532
 11
88.79807392817074
 21
78.55243736206613
  0
LINE
  8
0
  6
CONTINUOUS
 62
     7
 10
120.6902682484116
 20
115.515
 11
119.015
 21
115.515
  0
LINE
  8
0
  6
CONTINUOUS
 62
     7
 10
85.74999999999999
 20
78.50436343389538
 11
88.75
 21
78.50436343389538
  0
LINE
  8
0
  6
CONTINUOUS
 62
     7
 10
104.6
 20
81.525
 11
98.75
 21
81.525
  0
LINE
  8
0
  6
CONTINUOUS
 62
     7
 10
67.01500000000001
 20
114.485
 11
68.6902682484116
 21
114.485
  0
LINE
  8
0
  6
CONTINUOUS
 62
     7
 10
98.75
 20
189.45
 11
105.575
 21
189.45
  0
LINE
  8
0
  6
CONTINUOUS
 62
     7
 10
117.985
 20
115.515
 11
116.3097317515884
 21
115.515
  0
LINE
  8
0
  6
CONTINUOUS
 62
     7
 10
119.015
 20
115.515
 11
119.015
 21
117.1902682484116
  0
LINE
  8
0
  6
CONTINUOUS
 62
     7
 10
116.3097317515884
 20
114.485
 11
117.985
 21
114.485
  0
LINE
  8
0
  6
CONTINUOUS
 62
     7
 10
56.99999999999999
 20
80.50000000000001
 11
55.49563656610462
 21
80.50000000000001
  0
LINE
  8
0
  6
CONTINUOUS
 62
     7
 10
119.015
 20
112.8097317515884
 11
119.015
 21
114.485
  0
LINE
  8
0
  6
CONTINUOUS
 62
     7
 10
128.0
 20
189.5
 11
128.0
 21
194.0982456282646
  0
LINE
  8
0
  6
CONTINUOUS
 62
     7
 10
98.75
 20
188.475
 11
104.6
 21
188.475
  0
LINE
  8
0
  6
CONTINUOUS
 62
     7
 10
65.98500000000001
 20
117.1902682484116
 11
65.98500000000001
 21
115.515
  0
LINE
  8
0
  6
CONTINUOUS
 62
     7
 10
119.015
 20
114.485
 11
120.6902682484116
 21
114.485
  0
LINE
  8
0
  6
CONTINUOUS
 62
     7
 10
76.17399999999999
 20
194.5
 11
76.22358322295999
 21
194.8097173854341
  0
LINE
  8
0
  6
CONTINUOUS
 62
     7
 10
117.985
 20
117.1902682484116
 11
117.985
 21
115.515
  0
LINE
  8
0
  6
CONTINUOUS
 62
     7
 10
105.575
 20
80.55000000000001
 11
98.75
 21
80.55000000000001
  0
LINE
  8
0
  6
CONTINUOUS
 62
     7
 10
55.49738193966277
 20
78.49999999999996
 11
55.49563656610462
 21
80.50000000000001
  0
LINE
  8
0
  6
CONTINUOUS
 62
     7
 10
56.99999999999999
 20
189.5000000000001
 11
56.99999999999999
 21
80.50000000000001
  0
LINE
  8
0
  6
CONTINUOUS
 62
     7
 10
80.39999999999999
 20
188.475
 11
86.24999999999999
 21
188.475
  0
LINE
  8
0
  6
CONTINUOUS
 62
     7
 10
65.98500000000001
 20
115.515
 11
64.30973175158842
 21
115.515
  0
LINE
  8
0
  6
CONTINUOUS
 62
     7
 10
67.01500000000001
 20
112.8097317515884
 11
67.01500000000001
 21
114.485
  0
LINE
  8
0
  6
CONTINUOUS
 62
     7
 10
67.01500000000001
 20
115.515
 11
67.01500000000001
 21
117.1902682484116
  0
LINE
  8
0
  6
CONTINUOUS
 62
     7
 10
129.5043634338954
 20
80.49999999999996
 11
128.0
 21
80.49999999999996
  0
LINE
  8
0
  6
CONTINUOUS
 62
     7
 10
128.0
 20
80.49999999999996
 11
128.0
 21
189.5
  0
LINE
  8
0
  6
CONTINUOUS
 62
     7
 10
108.7760221149656
 20
194.8121826085424
 11
108.826
 21
194.5
  0
LINE
  8
0
  6
CONTINUOUS
 62
     7
 10
103.0
 20
160.0
 11
112.0
 21
160.0
  0
LINE
  8
0
  6
CONTINUOUS
 62
     7
 10
73.00000000000001
 20
110.0
 11
82.00000000000001
 21
110.0
  0
LINE
  8
0
  6
CONTINUOUS
 62
     7
 10
88.75000000000003
 20
191.4956365661046
 11
88.79807392817077
 21
191.4475626379339
  0
LINE
  8
0
  6
CONTINUOUS
 62
     7
 10
92.92260216973227
 20
86.94706262809909
 11
94.82743590720355
 21
87.83530118739397
  0
LINE
  8
0
  6
CONTINUOUS
 62
     7
 10
99.25
 20
191.4956365661046
 11
96.25
 21
191.4956365661046
  0
LINE
  8
0
  6
CONTINUOUS
 62
     7
 10
85.9725324442398
 20
191.37024054517
 11
79.1625
 21
191.2687380035449
  0
LINE
  8
0
  6
CONTINUOUS
 62
     7
 10
107.5
 20
155.5000000000001
 11
107.5
 21
164.5
  0
LINE
  8
0
  6
CONTINUOUS
 62
     7
 10
77.50000000000001
 20
155.5
 11
77.50000000000001
 21
164.5
  0
LINE
  8
0
  6
CONTINUOUS
 62
     7
 10
77.50000000000001
 20
105.5
 11
77.50000000000001
 21
114.5
  0
LINE
  8
0
  6
CONTINUOUS
 62
     7
 10
156.25
 20
135.0
 11
213.75
 21
135.0
  0
LINE
  8
0
  6
CONTINUOUS
 62
     7
 10
95.20196414876509
 20
191.4389119254647
 11
96.20192607182926
 21
191.4475626379339
  0
LINE
  8
0
  6
CONTINUOUS
 62
     7
 10
56.330818922223
 20
50.36190427219745
 11
56.330818922223
 21
49.902079709371
  0
LINE
  8
0
  6
CONTINUOUS
 62
     7
 10
79.42500000000003
 20
78.75424082080984
 11
79.1625
 21
78.7312619964551
  0
LINE
  8
0
  6
CONTINUOUS
 62
     7
 10
128.8351823561184
 20
50.36190427219745
 11
128.8334369825602
 21
50.16190427219748
  0
LINE
  8
0
  6
CONTINUOUS
 62
     7
 10
89.79803585123491
 20
191.4389119254647
 11
95.20196414876509
 21
191.4389119254647
  0
LINE
  8
0
  6
CONTINUOUS
 62
     7
 10
114.5
 20
130.5
 11
114.5
 21
139.5
  0
LINE
  8
0
  6
CONTINUOUS
 62
     7
 10
90.25
 20
171.75
 11
94.75
 21
171.75
  0
LINE
  8
0
  6
CONTINUOUS
 62
     7
 10
103.0
 20
110.0
 11
112.0
 21
110.0
  0
LINE
  8
0
  6
CONTINUOUS
 62
     7
 10
160.25
 20
80.50000000000004
 11
160.25
 21
135.0
  0
LINE
  8
0
  6
CONTINUOUS
 62
     7
 10
209.75
 20
77.89999999999999
 11
209.75
 21
135.0
  0
LINE
  8
0
  6
CONTINUOUS
 62
     7
 10
160.75
 20
75.50000000000004
 11
207.35
 21
75.50000000000004
  0
LINE
  8
0
  6
CONTINUOUS
 62
     7
 10
127.330818922223
 20
49.902079709371
 11
127.330818922223
 21
50.36190427219745
  0
LINE
  8
0
  6
CONTINUOUS
 62
     7
 10
95.20196414876506
 20
78.56108807453532
 11
89.79803585123489
 21
78.56108807453532
  0
LINE
  8
0
  6
CONTINUOUS
 62
     7
 10
96.25
 20
191.4956365661046
 11
96.25
 21
183.0709720902192
  0
LINE
  8
0
  6
CONTINUOUS
 62
     7
 10
56.330818922223
 20
50.36190427219745
 11
54.82645548832762
 21
50.36190427219745
  0
LINE
  8
0
  6
CONTINUOUS
 62
     7
 10
73.00000000000001
 20
160.0
 11
82.00000000000001
 21
160.0
  0
LINE
  8
0
  6
CONTINUOUS
 62
     7
 10
54.82820086188578
 20
50.16190427219745
 11
54.82645548832762
 21
50.36190427219745
  0
LINE
  8
0
  6
CONTINUOUS
 62
     7
 10
96.24999999999997
 20
78.50436343389538
 11
96.20192607182926
 21
78.55243736206613
  0
LINE
  8
0
  6
CONTINUOUS
 62
     7
 10
171.5948800194401
 20
74.56250546668267
 11
171.5950727464473
 21
74.56257775892242
  0
LINE
  8
0
  6
CONTINUOUS
 62
     7
 10
170.924
 20
75.50000000000004
 11
170.9735832229601
 21
75.19028261456592
  0
LINE
  8
0
  6
CONTINUOUS
 62
     7
 10
128.8351823561184
 20
50.36190427219745
 11
127.330818922223
 21
50.36190427219745
  0
LINE
  8
0
  6
CONTINUOUS
 62
     7
 10
70.49999999999997
 20
130.5
 11
70.49999999999997
 21
139.5
  0
LINE
  8
0
  6
CONTINUOUS
 62
     7
 10
88.75000000000003
 20
191.4956365661046
 11
85.74999999999999
 21
191.4956365661046
  0
LINE
  8
0
  6
CONTINUOUS
 62
     7
 10
107.5
 20
105.5
 11
107.5
 21
114.5
  0
LINE
  8
0
  6
CONTINUOUS
 62
     7
 10
91.830818922223
 20
-3.138095727802541
 11
91.830818922223
 21
53.86190427219745
  0
LINE
  8
0
  6
CONTINUOUS
 62
     7
 10
172.0079574315858
 20
195.5
 11
171.9239999999999
 21
195.5
  0
LINE
  8
0
  6
CONTINUOUS
 62
     7
 10
96.20192607182926
 20
78.55243736206613
 11
95.20196414876506
 21
78.56108807453532
  0
LINE
  8
0
  6
CONTINUOUS
 62
     7
 10
92.07739783026771
 20
183.0529373719009
 11
90.17256409279645
 21
182.164698812606
  0
LINE
  8
0
  6
CONTINUOUS
 62
     7
 10
88.75000000000003
 20
183.0709720902193
 11
88.75000000000003
 21
191.4956365661046
  0
LINE
  8
0
  6
CONTINUOUS
 62
     7
 10
86.24999999999999
 20
190.9956175269117
 11
86.24999999999999
 21
175.75
  0
LINE
  8
0
  6
CONTINUOUS
 62
     7
 10
94.82743590720358
 20
182.164698812606
 11
92.92260216973224
 21
183.0529373719009
  0
LINE
  8
0
  6
CONTINUOUS
 62
     7
 10
125.9290675997403
 20
0.8619042721974591
 11
125.4240326480164
 21
0.8619042721974591
  0
LINE
  8
0
  6
CONTINUOUS
 62
     7
 10
96.20192607182926
 20
191.4475626379339
 11
96.25
 21
191.4956365661046
  0
LINE
  8
0
  6
CONTINUOUS
 62
     7
 10
88.79807392817074
 20
191.4475626379339
 11
89.79803585123491
 21
191.4389119254647
  0
LINE
  8
0
  6
CONTINUOUS
 62
     7
 10
98.75
 20
175.75
 11
98.75
 21
190.9956175269117
  0
LINE
  8
0
  6
CONTINUOUS
 62
     7
 10
96.24999999999997
 20
78.50436343389538
 11
99.25
 21
78.50436343389538
  0
LINE
  8
0
  6
CONTINUOUS
 62
     7
 10
187.25
 20
74.50000000000004
 11
175.596169837223
 21
74.50000000000004
  0
LINE
  8
0
  6
CONTINUOUS
 62
     7
 10
86.24999999999999
 20
94.25
 11
86.24999999999999
 21
79.00438247308824
  0
LINE
  8
0
  6
CONTINUOUS
 62
     7
 10
173.0966784098297
 20
74.50000000000004
 11
172.502737006388
 21
74.50000000000004
  0
LINE
  8
0
  6
CONTINUOUS
 62
     7
 10
202.5030232617444
 20
74.50000000000004
 11
202.4450864380698
 21
74.50000000000004
  0
LINE
  8
0
  6
CONTINUOUS
 62
     7
 10
160.45
 20
78.50000000000004
 11
160.25
 21
80.50000000000004
  0
LINE
  8
0
  6
CONTINUOUS
 62
     7
 10
98.75
 20
79.00438247308827
 11
98.75
 21
94.25
  0
LINE
  8
0
  6
CONTINUOUS
 62
     7
 10
173.8258668434003
 20
74.50000000000004
 11
173.0966784098298
 21
74.50000000000004
  0
LINE
  8
0
  6
CONTINUOUS
 62
     7
 10
202.4450864380698
 20
74.50000000000004
 11
202.029607720024
 21
74.50000000000004
  0
LINE
  8
0
  6
CONTINUOUS
 62
     7
 10
200.6741331566
 20
74.50000000000004
 11
199.8768320649411
 21
74.50000000000004
  0
LINE
  8
0
  6
CONTINUOUS
 62
     7
 10
96.24999999999997
 20
86.92902790978074
 11
96.24999999999997
 21
78.50436343389538
  0
LINE
  8
0
  6
CONTINUOUS
 62
     7
 10
90.17256409279642
 20
87.835301187394
 11
92.07739783026774
 21
86.94706262809909
  0
LINE
  8
0
  6
CONTINUOUS
 62
     7
 10
88.75
 20
78.50436343389538
 11
88.75
 21
86.9290279097808
  0
LINE
  8
0
  6
CONTINUOUS
 62
     7
 10
172.4722386021339
 20
74.50000000000004
 11
172.0549135619303
 21
74.50000000000004
  0
LINE
  8
0
  6
CONTINUOUS
 62
     7
 10
199.8107255767488
 20
74.50000000000004
 11
198.903830162777
 21
74.50000000000004
  0
LINE
  8
0
  6
CONTINUOUS
 62
     7
 10
198.903830162777
 20
74.50000000000004
 11
187.25
 21
74.50000000000004
  0
LINE
  8
0
  6
CONTINUOUS
 62
     7
 10
187.25
 20
74.50000000000004
 11
175.596169837223
 21
74.50000000000004
  0
LINE
  8
0
  6
CONTINUOUS
 62
     7
 10
160.45
 20
78.50000000000004
 11
160.7098245628265
 21
75.90175437173544
  0
LINE
  8
0
  6
CONTINUOUS
 62
     7
 10
201.4033215901703
 20
74.50000000000004
 11
200.6741331566
 21
74.50000000000004
  0
LINE
  8
0
  6
CONTINUOUS
 62
     7
 10
199.8768320649411
 20
74.50000000000004
 11
199.8107255767488
 21
74.50000000000004
  0
LINE
  8
0
  6
CONTINUOUS
 62
     7
 10
174.6231679350587
 20
74.50000000000004
 11
173.8258668434002
 21
74.50000000000004
  0
LINE
  8
0
  6
CONTINUOUS
 62
     7
 10
173.8258668434003
 20
74.50000000000004
 11
173.0966784098298
 21
74.50000000000004
  0
LINE
  8
0
  6
CONTINUOUS
 62
     7
 10
175.596169837223
 20
74.50000000000004
 11
174.6231679350587
 21
74.50000000000004
  0
LINE
  8
0
  6
CONTINUOUS
 62
     7
 10
94.75
 20
98.25
 11
90.25
 21
98.25
  0
LINE
  8
0
  6
CONTINUOUS
 62
     7
 10
202.029607720024
 20
74.50000000000004
 11
201.4033215901703
 21
74.50000000000004
  0
LINE
  8
0
  6
CONTINUOUS
 62
     7
 10
173.0966784098297
 20
74.50000000000004
 11
172.502737006388
 21
74.50000000000004
  0
LINE
  8
0
  6
CONTINUOUS
 62
     7
 10
160.75
 20
75.90195676507751
 11
160.75
 21
75.50000000000004
  0
LINE
  8
0
  6
CONTINUOUS
 62
     7
 10
171.5948800194401
 20
195.4374945333173
 11
171.5950727464473
 21
195.4374222410776
  0
LINE
  8
0
  6
CONTINUOUS
 62
     7
 10
202.576
 20
74.50000000000004
 11
202.5030232617445
 21
74.50000000000004
  0
LINE
  8
0
  6
CONTINUOUS
 62
     7
 10
172.502737006388
 20
74.50000000000004
 11
172.4722386021339
 21
74.50000000000004
  0
LINE
  8
0
  6
CONTINUOUS
 62
     7
 10
198.903830162777
 20
74.50000000000004
 11
187.25
 21
74.50000000000004
  0
LINE
  8
0
  6
CONTINUOUS
 62
     7
 10
170.924
 20
194.4999999999999
 11
170.9735832229601
 21
194.8097173854341
  0
LINE
  8
0
  6
CONTINUOUS
 62
     7
 10
73.53081892222299
 20
23.36190427219746
 11
110.130818922223
 21
23.36190427219746
  0
LINE
  8
0
  6
CONTINUOUS
 62
     7
 10
171.5948800194402
 20
74.56250546668272
 11
171.5950727464473
 21
74.56257775892247
  0
LINE
  8
0
  6
CONTINUOUS
 62
     7
 10
203.5264167770476
 20
75.19028261458907
 11
203.576
 21
75.50000000000004
  0
LINE
  8
0
  6
CONTINUOUS
 62
     7
 10
170.924
 20
75.50000000000004
 11
170.9735832229601
 21
75.19028261456592
  0
LINE
  8
0
  6
CONTINUOUS
 62
     7
 10
170.924
 20
75.5000000000001
 11
170.9735832229601
 21
75.19028261456597
  0
LINE
  8
0
  6
CONTINUOUS
 62
     7
 10
172.4722386021339
 20
74.50000000000004
 11
172.0549135619303
 21
74.50000000000004
  0
LINE
  8
0
  6
CONTINUOUS
 62
     7
 10
172.0549135619303
 20
74.50000000000004
 11
172.0079574315858
 21
74.50000000000004
  0
LINE
  8
0
  6
CONTINUOUS
 62
     7
 10
172.0079574315858
 20
74.50000000000004
 11
171.924
 21
74.50000000000004
  0
LINE
  8
0
  6
CONTINUOUS
 62
     7
 10
171.5948800194401
 20
74.56250546668267
 11
171.5950727464473
 21
74.56257775892242
  0
LINE
  8
0
  6
CONTINUOUS
 62
     7
 10
105.575
 20
191.2457591791902
 11
105.8375
 21
191.2687380035449
  0
LINE
  8
0
  6
CONTINUOUS
 62
     7
 10
105.1268331789517
 20
74.50000000000001
 11
105.8824616915967
 21
74.50000000000001
  0
LINE
  8
0
  6
CONTINUOUS
 62
     7
 10
79.1625
 20
191.2687380035449
 11
79.425
 21
191.2457591791902
  0
LINE
  8
0
  6
CONTINUOUS
 62
     7
 10
79.06521680300953
 20
74.50000000000001
 11
79.87316682104836
 21
74.50000000000001
  0
LINE
  8
0
  6
CONTINUOUS
 62
     7
 10
104.1538324540409
 20
74.50000000000001
 11
105.1268331789517
 21
74.50000000000001
  0
LINE
  8
0
  6
CONTINUOUS
 62
     7
 10
105.8375
 20
78.7312619964551
 11
105.575
 21
78.75424082080984
  0
LINE
  8
0
  6
CONTINUOUS
 62
     7
 10
105.8375
 20
191.2687380035449
 11
99.02746755581978
 21
191.3702405451697
  0
LINE
  8
0
  6
CONTINUOUS
 62
     7
 10
77.74817319179111
 20
74.50000000000001
 11
78.33403247434114
 21
74.50000000000001
  0
LINE
  8
0
  6
CONTINUOUS
 62
     7
 10
105.8824616915967
 20
74.50000000000001
 11
105.9343795890253
 21
74.50000000000001
  0
LINE
  8
0
  6
CONTINUOUS
 62
     7
 10
105.9343795890253
 20
74.50000000000001
 11
106.6653520471054
 21
74.50000000000001
  0
LINE
  8
0
  6
CONTINUOUS
 62
     7
 10
99.02746760872127
 20
78.6297594550894
 11
105.8375
 21
78.7312619964551
  0
LINE
  8
0
  6
CONTINUOUS
 62
     7
 10
79.42500000000003
 20
80.55000000000001
 11
79.42500000000003
 21
78.70828317210038
  0
LINE
  8
0
  6
CONTINUOUS
 62
     7
 10
79.425
 20
191.2917168278996
 11
79.425
 21
189.45
  0
LINE
  8
0
  6
CONTINUOUS
 62
     7
 10
78.33403247434114
 20
74.50000000000001
 11
79.06521680300953
 21
74.50000000000001
  0
LINE
  8
0
  6
CONTINUOUS
 62
     7
 10
105.575
 20
80.55000000000001
 11
104.6
 21
81.525
  0
LINE
  8
0
  6
CONTINUOUS
 62
     7
 10
77.17399999999999
 20
74.50000000000001
 11
77.30511605458499
 21
74.50000000000001
  0
LINE
  8
0
  6
CONTINUOUS
 62
     7
 10
105.575
 20
189.45
 11
105.575
 21
191.2917168278996
  0
LINE
  8
0
  6
CONTINUOUS
 62
     7
 10
77.71962859709
 20
74.50000000000001
 11
77.74817319179111
 21
74.50000000000001
  0
LINE
  8
0
  6
CONTINUOUS
 62
     7
 10
104.6
 20
188.475
 11
105.575
 21
189.45
  0
LINE
  8
0
  6
CONTINUOUS
 62
     7
 10
79.1625
 20
78.7312619964551
 11
85.97253239127849
 21
78.6297594550894
  0
LINE
  8
0
  6
CONTINUOUS
 62
     7
 10
80.39999999999999
 20
82.49999999999999
 11
80.39999999999999
 21
81.525
  0
LINE
  8
0
  6
CONTINUOUS
 62
     7
 10
105.575
 20
78.70828317210038
 11
105.575
 21
80.55000000000001
  0
LINE
  8
0
  6
CONTINUOUS
 62
     7
 10
79.425
 20
189.45
 11
80.39999999999999
 21
188.475
  0
LINE
  8
0
  6
CONTINUOUS
 62
     7
 10
104.6
 20
187.5
 11
104.6
 21
188.475
  0
LINE
  8
0
  6
CONTINUOUS
 62
     7
 10
77.30511605458501
 20
74.50000000000001
 11
77.71962859709
 21
74.50000000000001
  0
LINE
  8
0
  6
CONTINUOUS
 62
     7
 10
80.39999999999999
 20
81.525
 11
79.42500000000003
 21
80.55000000000001
  0
LINE
  8
0
  6
CONTINUOUS
 62
     7
 10
104.6
 20
81.525
 11
104.6
 21
82.49999999999999
  0
LINE
  8
0
  6
CONTINUOUS
 62
     7
 10
80.39999999999999
 20
188.475
 11
80.39999999999999
 21
187.5
  0
LINE
  8
0
  6
CONTINUOUS
 62
     7
 10
79.87316682104836
 20
74.50000000000001
 11
79.93942810482568
 21
74.50000000000001
  0
LINE
  8
0
  6
CONTINUOUS
 62
     7
 10
79.93942810482568
 20
74.50000000000001
 11
80.84616754595913
 21
74.50000000000001
  0
LINE
  8
0
  6
CONTINUOUS
 62
     7
 10
80.84616754595913
 20
74.50000000000001
 11
104.1538324540409
 21
74.50000000000001
  0
LINE
  8
0
  6
CONTINUOUS
 62
     7
 10
173.8258668434002
 20
195.5
 11
173.0966784098297
 21
195.5
  0
LINE
  8
0
  6
CONTINUOUS
 62
     7
 10
173.0966784098297
 20
195.5
 11
172.502737006388
 21
195.5
  0
LINE
  8
0
  6
CONTINUOUS
 62
     7
 10
172.0549135619302
 20
195.5
 11
172.0079574315858
 21
195.5
  0
LINE
  8
0
  6
CONTINUOUS
 62
     7
 10
80.84616754595922
 20
195.5
 11
79.87316682104817
 21
195.5
  0
LINE
  8
0
  6
CONTINUOUS
 62
     7
 10
105.9347831969905
 20
195.5
 11
105.1268331789517
 21
195.5
  0
LINE
  8
0
  6
CONTINUOUS
 62
     7
 10
105.1268331789517
 20
195.5
 11
105.0605718951743
 21
195.5
  0
LINE
  8
0
  6
CONTINUOUS
 62
     7
 10
104.1538324540409
 20
195.5
 11
80.84616754595919
 21
195.5
  0
LINE
  8
0
  6
CONTINUOUS
 62
     7
 10
107.2518268082086
 20
74.50000000000001
 11
107.694883945415
 21
74.50000000000001
  0
LINE
  8
0
  6
CONTINUOUS
 62
     7
 10
79.06562041097465
 20
195.5
 11
78.3346479528946
 21
195.5
  0
LINE
  8
0
  6
CONTINUOUS
 62
     7
 10
86.49999999999999
 20
176.75
 11
98.5
 21
176.75
  0
LINE
  8
0
  6
CONTINUOUS
 62
     7
 10
202.5030232617444
 20
195.5
 11
202.4450864380698
 21
195.5
  0
LINE
  8
0
  6
CONTINUOUS
 62
     7
 10
202.4450864380698
 20
195.5
 11
202.029607720024
 21
195.5
  0
LINE
  8
0
  6
CONTINUOUS
 62
     7
 10
201.4033215901703
 20
195.5
 11
200.6741331566
 21
195.5
  0
LINE
  8
0
  6
CONTINUOUS
 62
     7
 10
172.502737006388
 20
195.5
 11
172.4722386021338
 21
195.5
  0
LINE
  8
0
  6
CONTINUOUS
 62
     7
 10
77.74817319179137
 20
195.5
 11
77.30511605458499
 21
195.5
  0
LINE
  8
0
  6
CONTINUOUS
 62
     7
 10
170.9239999999999
 20
194.5
 11
170.97358322296
 21
194.8097173854341
  0
LINE
  8
0
  6
CONTINUOUS
 62
     7
 10
106.6659675256588
 20
195.5
 11
105.9347831969905
 21
195.5
  0
LINE
  8
0
  6
CONTINUOUS
 62
     7
 10
107.826
 20
195.5
 11
107.694883945415
 21
195.5
  0
LINE
  8
0
  6
CONTINUOUS
 62
     7
 10
160.45
 20
191.5
 11
160.25
 21
189.5
  0
LINE
  8
0
  6
CONTINUOUS
 62
     7
 10
50.49563656610463
 20
135.0
 11
134.5043634338954
 21
135.0
  0
LINE
  8
0
  6
CONTINUOUS
 62
     7
 10
198.903830162777
 20
195.5
 11
187.25
 21
195.5
  0
LINE
  8
0
  6
CONTINUOUS
 62
     7
 10
78.3346479528946
 20
195.5
 11
78.29055838168789
 21
195.5
  0
LINE
  8
0
  6
CONTINUOUS
 62
     7
 10
172.4722386021338
 20
195.5
 11
172.0549135619302
 21
195.5
  0
LINE
  8
0
  6
CONTINUOUS
 62
     7
 10
203.5264167770476
 20
194.809717385411
 11
203.576
 21
194.5
  0
LINE
  8
0
  6
CONTINUOUS
 62
     7
 10
106.709441618312
 20
74.50000000000001
 11
107.2518268082086
 21
74.50000000000001
  0
LINE
  8
0
  6
CONTINUOUS
 62
     7
 10
160.75
 20
194.5
 11
207.35
 21
194.5
  0
LINE
  8
0
  6
CONTINUOUS
 62
     7
 10
160.45
 20
191.5
 11
160.7098245628264
 21
194.0982456282646
  0
LINE
  8
0
  6
CONTINUOUS
 62
     7
 10
92.5
 20
68.111661866034
 11
92.5
 21
201.888338133966
  0
LINE
  8
0
  6
CONTINUOUS
 62
     7
 10
55.23767373404414
 20
3.240960587001355
 11
55.24434003705547
 21
3.24100712704849
  0
LINE
  8
0
  6
CONTINUOUS
 62
     7
 10
107.694883945415
 20
74.50000000000001
 11
107.7420425684142
 21
74.50000000000001
  0
LINE
  8
0
  6
CONTINUOUS
 62
     7
 10
107.28037140291
 20
195.5
 11
107.2518268082096
 21
195.5
  0
LINE
  8
0
  6
CONTINUOUS
 62
     7
 10
79.11753830840328
 20
195.5
 11
79.06562041097465
 21
195.5
  0
LINE
  8
0
  6
CONTINUOUS
 62
     7
 10
202.576
 20
195.5
 11
202.5030232617445
 21
195.5
  0
LINE
  8
0
  6
CONTINUOUS
 62
     7
 10
107.2518268082096
 20
195.5
 11
106.6659675256588
 21
195.5
  0
LINE
  8
0
  6
CONTINUOUS
 62
     7
 10
107.694883945415
 20
195.5
 11
107.28037140291
 21
195.5
  0
LINE
  8
0
  6
CONTINUOUS
 62
     7
 10
202.029607720024
 20
195.5
 11
201.4033215901703
 21
195.5
  0
LINE
  8
0
  6
CONTINUOUS
 62
     7
 10
86.49999999999999
 20
93.25
 11
98.5
 21
93.25
  0
LINE
  8
0
  6
CONTINUOUS
 62
     7
 10
171.5948800194401
 20
195.4374945333174
 11
171.5950727464472
 21
195.4374222410776
  0
LINE
  8
0
  6
CONTINUOUS
 62
     7
 10
199.8768320649411
 20
195.5
 11
199.8107255767488
 21
195.5
  0
LINE
  8
0
  6
CONTINUOUS
 62
     7
 10
175.5961698372229
 20
195.5
 11
174.6231679350587
 21
195.5
  0
LINE
  8
0
  6
CONTINUOUS
 62
     7
 10
199.8107255767488
 20
195.5
 11
198.903830162777
 21
195.5
  0
LINE
  8
0
  6
CONTINUOUS
 62
     7
 10
160.75
 20
194.0980432349225
 11
160.75
 21
194.5
  0
LINE
  8
0
  6
CONTINUOUS
 62
     7
 10
209.75
 20
191.5
 11
209.75
 21
135.0
  0
LINE
  8
0
  6
CONTINUOUS
 62
     7
 10
107.7420425684142
 20
74.50000000000001
 11
107.826
 21
74.50000000000001
  0
LINE
  8
0
  6
CONTINUOUS
 62
     7
 10
209.75
 20
192.1000000000001
 11
209.75
 21
191.5
  0
LINE
  8
0
  6
CONTINUOUS
 62
     7
 10
56.330818922223
 20
49.90207970937156
 11
56.330818922223
 21
49.86190427219739
  0
LINE
  8
0
  6
CONTINUOUS
 62
     7
 10
56.330818922223
 20
49.86190427219745
 11
57.83093315738022
 21
49.86190427219745
  0
LINE
  8
0
  6
CONTINUOUS
 62
     7
 10
160.25
 20
189.5
 11
160.25
 21
135.0
  0
LINE
  8
0
  6
CONTINUOUS
 62
     7
 10
77.25795743158581
 20
195.5
 11
77.17399999999996
 21
195.5
  0
LINE
  8
0
  6
CONTINUOUS
 62
     7
 10
174.6231679350587
 20
195.5
 11
173.8258668434002
 21
195.5
  0
LINE
  8
0
  6
CONTINUOUS
 62
     7
 10
54.82820086188578
 20
50.16190427219745
 11
56.330818922223
 21
49.902079709371
  0
LINE
  8
0
  6
CONTINUOUS
 62
     7
 10
105.0605718951743
 20
195.5
 11
104.1538324540409
 21
195.5
  0
LINE
  8
0
  6
CONTINUOUS
 62
     7
 10
200.6741331566
 20
195.5
 11
199.8768320649411
 21
195.5
  0
LINE
  8
0
  6
CONTINUOUS
 62
     7
 10
106.6653520471054
 20
74.50000000000001
 11
106.709441618312
 21
74.50000000000001
  0
LINE
  8
0
  6
CONTINUOUS
 62
     7
 10
78.29055838168789
 20
195.5
 11
77.74817319179137
 21
195.5
  0
LINE
  8
0
  6
CONTINUOUS
 62
     7
 10
187.25
 20
195.5
 11
175.5961698372229
 21
195.5
  0
LINE
  8
0
  6
CONTINUOUS
 62
     7
 10
79.8731668210482
 20
195.5
 11
79.11753830840331
 21
195.5
  0
LINE
  8
0
  6
CONTINUOUS
 62
     7
 10
77.30511605458499
 20
195.5
 11
77.25795743158584
 21
195.5
  0
ENDSEC
  0
EOF
