  0
SECTION
  2
HEADER
  9
$ACADVER
  1
AC1006
  9
$DWGCODEPAGE
  3
ansi_932
  9
$INSBASE
 10
0.0
 20
0.0
 30
0.0
  9
$EXTMIN
 10
-680.2003046154866
 20
-297.1136363636364
  9
$EXTMAX
 10
-494.8629895539145
 20
-75.29969538451338
  9
$LIMMIN
 10
0.0
 20
0.0
  9
$LIMMAX
 10
12.0
 20
9.0
  9
$ORTHOMODE
 70
     0
  9
$REGENMODE
 70
     1
  9
$FILLMODE
 70
     1
  9
$QTEXTMODE
 70
     0
  9
$MIRRTEXT
 70
     1
  9
$DRAGMODE
 70
     2
  9
$LTSCALE
 40
1.0
  9
$OSMODE
 70
    37
  9
$ATTMODE
 70
     1
  9
$TEXTSIZE
 40
0.2
  9
$TRACEWID
 40
0.05
  9
$TEXTSTYLE
  7
STANDARD
  9
$CLAYER
  8
0
  9
$CELTYPE
  6
BYLAYER
  9
$CECOLOR
 62
   256
  9
$DIMSCALE
 40
1.0
  9
$DIMASZ
 40
3.0
  9
$DIMEXO
 40
0.0625
  9
$DIMDLI
 40
0.38
  9
$DIMRND
 40
0.0
  9
$DIMDLE
 40
0.0
  9
$DIMEXE
 40
1.5
  9
$DIMTP
 40
0.0
  9
$DIMTM
 40
0.0
  9
$DIMTXT
 40
3.0
  9
$DIMCEN
 40
0.09
  9
$DIMTSZ
 40
0.0
  9
$DIMTOL
 70
     0
  9
$DIMLIM
 70
     0
  9
$DIMTIH
 70
     1
  9
$DIMTOH
 70
     1
  9
$DIMSE1
 70
     0
  9
$DIMSE2
 70
     0
  9
$DIMTAD
 70
     1
  9
$DIMZIN
 70
     0
  9
$DIMBLK
  1

  9
$DIMASO
 70
     1
  9
$DIMSHO
 70
     1
  9
$DIMPOST
  1

  9
$DIMAPOST
  1

  9
$DIMALT
 70
     0
  9
$DIMALTD
 70
     2
  9
$DIMALTF
 40
25.4
  9
$DIMLFAC
 40
1.0
  9
$DIMTOFL
 70
     0
  9
$DIMTVP
 40
0.0
  9
$DIMTIX
 70
     0
  9
$DIMSOXD
 70
     0
  9
$DIMSAH
 70
     0
  9
$DIMBLK1
  1

  9
$DIMBLK2
  1

  9
$LUNITS
 70
     2
  9
$LUPREC
 70
     4
  9
$SKETCHINC
 40
0.1
  9
$FILLETRAD
 40
0.5
  9
$AUNITS
 70
     0
  9
$AUPREC
 70
     0
  9
$MENU
  1
.
  9
$ELEVATION
 40
0.0
  9
$THICKNESS
 40
0.0
  9
$LIMCHECK
 70
     0
  9
$CHAMFERA
 40
0.0
  9
$CHAMFERB
 40
0.0
  9
$SKPOLY
 70
     0
  9
$TDCREATE
 40
2460427.560281342
  9
$TDUPDATE
 40
2460427.560281655
  9
$TDINDWG
 40
0.0000000116
  9
$TDUSRTIMER
 40
0.0000000116
  9
$USRTIMER
 70
     1
  9
$ANGBASE
 50
0.0
  9
$ANGDIR
 70
     0
  9
$PDMODE
 70
     0
  9
$PDSIZE
 40
0.0
  9
$PLINEWID
 40
0.0
  9
$COORDS
 70
     1
  9
$SPLFRAME
 70
     0
  9
$SPLINETYPE
 70
     6
  9
$SPLINESEGS
 70
     8
  9
$ATTDIA
 70
     0
  9
$ATTREQ
 70
     1
  9
$HANDLING
 70
     1
  9
$HANDSEED
  5
227
  9
$SURFTAB1
 70
     6
  9
$SURFTAB2
 70
     6
  9
$SURFTYPE
 70
     6
  9
$SURFU
 70
     6
  9
$SURFV
 70
     6
  9
$UCSNAME
  2

  9
$UCSORG
 10
0.0
 20
0.0
 30
0.0
  9
$UCSXDIR
 10
1.0
 20
0.0
 30
0.0
  9
$UCSYDIR
 10
0.0
 20
1.0
 30
0.0
  9
$USERI1
 70
     0
  9
$USERI2
 70
     0
  9
$USERI3
 70
     0
  9
$USERI4
 70
     0
  9
$USERI5
 70
     0
  9
$USERR1
 40
0.0
  9
$USERR2
 40
0.0
  9
$USERR3
 40
0.0
  9
$USERR4
 40
0.0
  9
$USERR5
 40
0.0
  9
$WORLDVIEW
 70
     1
  0
ENDSEC
  0
SECTION
  2
TABLES
  0
TABLE
  2
VPORT
 70
     1
  0
VPORT
  2
*ACTIVE
 70
     0
 10
0.0
 20
0.0
 11
1.0
 21
1.0
 12
-587.5316470847006
 22
-186.2066658740749
 13
0.0
 23
0.0
 14
0.5
 24
0.5
 15
0.5
 25
0.5
 16
0.0
 26
0.0
 36
1.0
 17
0.0
 27
0.0
 37
0.0
 40
221.813940979123
 41
1.6
 42
50.0
 43
0.0
 44
0.0
 50
0.0
 51
0.0
 71
     0
 72
   100
 73
     1
 74
     3
 75
     0
 76
     0
 77
     0
 78
     0
  0
ENDTAB
  0
TABLE
  2
LTYPE
 70
     2
  0
LTYPE
  2
CONTINUOUS
 70
     0
  3
Solid line
 72
    65
 73
     0
 40
0.0
  0
LTYPE
  2
CENTER
 70
     0
  3

 72
    65
 73
     0
 40
0.0
  0
ENDTAB
  0
TABLE
  2
LAYER
 70
     2
  0
LAYER
  2
0
 70
     0
 62
     7
  6
CONTINUOUS
  0
LAYER
  2
1
 70
     0
 62
     7
  6
CONTINUOUS
  0
ENDTAB
  0
TABLE
  2
STYLE
 70
     2
  0
STYLE
  2
STANDARD
 70
     0
 40
0.0
 41
1.0
 50
0.0
 71
     0
 42
0.2
  3
txt
  4

  0
STYLE
  2
ＭＳ_ゴシック
 70
     0
 40
0.0
 41
1.0
 50
0.0
 71
     0
 42
0.2
  3
ＭＳ ゴシック.shx
  4

  0
ENDTAB
  0
TABLE
  2
VIEW
 70
     0
  0
ENDTAB
  0
TABLE
  2
UCS
 70
     0
  0
ENDTAB
  0
ENDSEC
  0
SECTION
  2
BLOCKS
  0
ENDSEC
  0
SECTION
  2
ENTITIES
  0
TEXT
  5
70
  8
1
  6
CONTINUOUS
 62
     7
 10
-611.7782918594472
 20
-297.6590909090909
 30
0.0
 40
5.0
  1
ＰＶＲ－Ｗ０ＢＣ
  0
LINE
  5
71
  8
1
  6
CENTER
 62
     1
 10
-574.7996953845133
 20
-140.0
 30
0.0
 11
-680.2003046154866
 21
-140.0
 31
0.0
  0
LINE
  5
73
  8
1
  6
CENTER
 62
     1
 10
-627.4999999999999
 20
-219.6875048150316
 30
0.0
 11
-627.4999999999999
 21
-277.6893706559334
 31
0.0
  0
LINE
  5
74
  8
1
  6
CENTER
 62
     1
 10
-643.0471286753062
 20
-253.9
 30
0.0
 11
-611.9528713246937
 21
-253.9
 31
0.0
  0
LINE
  5
75
  8
1
  6
CENTER
 62
     1
 10
-552.8648553948162
 20
-140.0
 30
0.0
 11
-494.8629895539145
 21
-140.0
 31
0.0
  0
LINE
  5
76
  8
1
  6
CENTER
 62
     1
 10
-627.4999999999999
 20
-75.29969538451338
 30
0.0
 11
-627.4999999999999
 21
-204.7003046154867
 31
0.0
  0
LINE
  5
77
  8
1
  6
CONTINUOUS
 62
     7
 10
-545.5999999999999
 20
-79.30000000000001
 30
0.0
 11
-496.5999999999999
 21
-79.72761652174718
 31
0.0
  0
LINE
  5
78
  8
1
  6
CONTINUOUS
 62
     7
 10
-496.5999999999999
 20
-79.72761652174718
 30
0.0
 11
-496.5999999999999
 21
-87.72731190626055
 31
0.0
  0
LINE
  5
79
  8
1
  6
CONTINUOUS
 62
     7
 10
-545.5999999999999
 20
-87.29969538451337
 30
0.0
 11
-545.5999999999999
 21
-79.3
 31
0.0
  0
LINE
  5
7A
  8
1
  6
CONTINUOUS
 62
     7
 10
-496.5999999999999
 20
-192.2726880937394
 30
0.0
 11
-496.5999999999999
 21
-87.72731190626058
 31
0.0
  0
LINE
  5
7B
  8
1
  6
CONTINUOUS
 62
     7
 10
-545.5999999999999
 20
-192.7003046154867
 30
0.0
 11
-545.5999999999999
 21
-87.29969538451337
 31
0.0
  0
LINE
  5
7C
  8
1
  6
CONTINUOUS
 62
     7
 10
-496.5999999999999
 20
-200.2723834782528
 30
0.0
 11
-545.5999999999999
 21
-200.7
 31
0.0
  0
LINE
  5
7D
  8
1
  6
CONTINUOUS
 62
     7
 10
-496.5999999999999
 20
-192.2726880937394
 30
0.0
 11
-496.5999999999999
 21
-200.2723834782528
 31
0.0
  0
LINE
  5
7E
  8
1
  6
CONTINUOUS
 62
     7
 10
-545.5999999999999
 20
-200.7
 30
0.0
 11
-545.5999999999999
 21
-192.7003046154867
 31
0.0
  0
LINE
  5
7F
  8
1
  6
CONTINUOUS
 62
     7
 10
-548.4
 20
-198.1861272935702
 30
0.0
 11
-548.4
 21
-193.742315643262
 31
0.0
  0
LINE
  5
80
  8
1
  6
CONTINUOUS
 62
     7
 10
-548.4
 20
-86.25768435673803
 30
0.0
 11
-548.4
 21
-81.81387270642983
 31
0.0
  0
LINE
  5
81
  8
1
  6
CONTINUOUS
 62
     7
 10
-548.4
 20
-193.742315643262
 30
0.0
 11
-548.4
 21
-86.25768435673803
 31
0.0
  0
LINE
  5
82
  8
1
  6
CONTINUOUS
 62
     7
 10
-545.5999999999999
 20
-198.9
 30
0.0
 11
-548.4
 21
-198.8755647701859
 31
0.0
  0
LINE
  5
83
  8
1
  6
CONTINUOUS
 62
     7
 10
-548.4
 20
-198.8755647701859
 30
0.0
 11
-548.4
 21
-198.1861272935702
 31
0.0
  0
LINE
  5
84
  8
1
  6
CONTINUOUS
 62
     7
 10
-548.4
 20
-81.12443522981414
 30
0.0
 11
-545.5999999999999
 21
-81.10000000000001
 31
0.0
  0
LINE
  5
85
  8
1
  6
CONTINUOUS
 62
     7
 10
-548.4
 20
-81.81387270642983
 30
0.0
 11
-548.4
 21
-81.12443522981414
 31
0.0
  0
ARC
  5
86
  8
1
  6
CONTINUOUS
 62
     7
 10
-600.0
 20
-160.0
 30
0.0
 40
2.250000000000001
 50
347.1604115930958
 51
12.83958840690411
  0
ARC
  5
87
  8
1
  6
CONTINUOUS
 62
     7
 10
-600.0
 20
-160.0
 30
0.0
 40
2.250000000000001
 50
257.1604115930959
 51
282.8395884069041
  0
ARC
  5
88
  8
1
  6
CONTINUOUS
 62
     7
 10
-600.0
 20
-160.0
 30
0.0
 40
2.250000000000001
 50
77.16041159309584
 51
102.8395884069041
  0
ARC
  5
89
  8
1
  6
CONTINUOUS
 62
     7
 10
-600.0
 20
-160.0
 30
0.0
 40
2.250000000000001
 50
167.1604115930959
 51
192.8395884069042
  0
LINE
  5
8A
  8
1
  6
CONTINUOUS
 62
     7
 10
-600.4999999999999
 20
-157.806258903152
 30
0.0
 11
-600.4999999999999
 21
-158.7
 31
0.0
  0
ARC
  5
8B
  8
1
  6
CONTINUOUS
 62
     7
 10
-601.3
 20
-158.7
 30
0.0
 40
0.800000000000002
 50
270.0000000000002
 51
0.0
  0
LINE
  5
8C
  8
1
  6
CONTINUOUS
 62
     7
 10
-601.3
 20
-159.5
 30
0.0
 11
-602.1937410968479
 21
-159.5
 31
0.0
  0
LINE
  5
8D
  8
1
  6
CONTINUOUS
 62
     7
 10
-602.1937410968479
 20
-160.5
 30
0.0
 11
-601.3
 21
-160.5
 31
0.0
  0
ARC
  5
8E
  8
1
  6
CONTINUOUS
 62
     7
 10
-601.3
 20
-161.3
 30
0.0
 40
0.800000000000002
 50
0.0
 51
89.99999999999949
  0
LINE
  5
8F
  8
1
  6
CONTINUOUS
 62
     7
 10
-600.4999999999999
 20
-161.3
 30
0.0
 11
-600.4999999999999
 21
-162.193741096848
 31
0.0
  0
LINE
  5
90
  8
1
  6
CONTINUOUS
 62
     7
 10
-599.4999999999999
 20
-162.193741096848
 30
0.0
 11
-599.4999999999999
 21
-161.3
 31
0.0
  0
ARC
  5
91
  8
1
  6
CONTINUOUS
 62
     7
 10
-598.7
 20
-161.3
 30
0.0
 40
0.800000000000002
 50
89.99999999999977
 51
179.9999999999995
  0
LINE
  5
92
  8
1
  6
CONTINUOUS
 62
     7
 10
-597.8062589031518
 20
-159.5
 30
0.0
 11
-598.6999999999999
 21
-159.5
 31
0.0
  0
ARC
  5
93
  8
1
  6
CONTINUOUS
 62
     7
 10
-598.6999999999999
 20
-158.7
 30
0.0
 40
0.800000000000002
 50
180.0
 51
269.9999999999995
  0
LINE
  5
94
  8
1
  6
CONTINUOUS
 62
     7
 10
-599.4999999999999
 20
-158.7
 30
0.0
 11
-599.4999999999999
 21
-157.806258903152
 31
0.0
  0
CIRCLE
  5
95
  8
1
  6
CONTINUOUS
 62
     7
 10
-600.0
 20
-160.0
 30
0.0
 40
4.000000000000004
  0
LINE
  5
96
  8
1
  6
CONTINUOUS
 62
     7
 10
-598.6999999999999
 20
-160.5
 30
0.0
 11
-597.8062589031518
 21
-160.5
 31
0.0
  0
ARC
  5
97
  8
1
  6
CONTINUOUS
 62
     7
 10
-654.9999999999999
 20
-160.0
 30
0.0
 40
2.250000000000001
 50
77.16041159309584
 51
102.8395884069041
  0
LINE
  5
98
  8
1
  6
CONTINUOUS
 62
     7
 10
-655.5
 20
-157.806258903152
 30
0.0
 11
-655.5
 21
-158.7
 31
0.0
  0
ARC
  5
99
  8
1
  6
CONTINUOUS
 62
     7
 10
-656.3
 20
-158.7
 30
0.0
 40
0.800000000000002
 50
270.0000000000002
 51
0.0
  0
LINE
  5
9A
  8
1
  6
CONTINUOUS
 62
     7
 10
-656.3
 20
-159.5
 30
0.0
 11
-657.193741096848
 21
-159.5
 31
0.0
  0
ARC
  5
9B
  8
1
  6
CONTINUOUS
 62
     7
 10
-654.9999999999999
 20
-160.0
 30
0.0
 40
2.250000000000001
 50
167.1604115930959
 51
192.8395884069042
  0
ARC
  5
9C
  8
1
  6
CONTINUOUS
 62
     7
 10
-656.3
 20
-161.3
 30
0.0
 40
0.800000000000002
 50
0.0
 51
89.99999999999949
  0
LINE
  5
9D
  8
1
  6
CONTINUOUS
 62
     7
 10
-655.5
 20
-161.3
 30
0.0
 11
-655.5
 21
-162.193741096848
 31
0.0
  0
ARC
  5
9E
  8
1
  6
CONTINUOUS
 62
     7
 10
-654.9999999999999
 20
-160.0
 30
0.0
 40
2.250000000000001
 50
257.1604115930959
 51
282.8395884069041
  0
LINE
  5
9F
  8
1
  6
CONTINUOUS
 62
     7
 10
-654.5
 20
-162.193741096848
 30
0.0
 11
-654.5
 21
-161.3
 31
0.0
  0
ARC
  5
A0
  8
1
  6
CONTINUOUS
 62
     7
 10
-653.6999999999999
 20
-161.3
 30
0.0
 40
0.800000000000002
 50
89.99999999999977
 51
179.9999999999995
  0
LINE
  5
A1
  8
1
  6
CONTINUOUS
 62
     7
 10
-653.6999999999999
 20
-160.5
 30
0.0
 11
-652.806258903152
 21
-160.5
 31
0.0
  0
ARC
  5
A2
  8
1
  6
CONTINUOUS
 62
     7
 10
-654.9999999999999
 20
-160.0
 30
0.0
 40
2.250000000000001
 50
347.1604115930958
 51
12.83958840690411
  0
LINE
  5
A3
  8
1
  6
CONTINUOUS
 62
     7
 10
-652.806258903152
 20
-159.5
 30
0.0
 11
-653.6999999999999
 21
-159.5
 31
0.0
  0
ARC
  5
A4
  8
1
  6
CONTINUOUS
 62
     7
 10
-653.6999999999999
 20
-158.7
 30
0.0
 40
0.800000000000002
 50
180.0
 51
269.9999999999995
  0
LINE
  5
A5
  8
1
  6
CONTINUOUS
 62
     7
 10
-654.5
 20
-158.7
 30
0.0
 11
-654.5
 21
-157.806258903152
 31
0.0
  0
CIRCLE
  5
A6
  8
1
  6
CONTINUOUS
 62
     7
 10
-654.9999999999999
 20
-160.0
 30
0.0
 40
4.0
  0
LINE
  5
A7
  8
1
  6
CONTINUOUS
 62
     7
 10
-657.193741096848
 20
-160.5
 30
0.0
 11
-656.3
 21
-160.5
 31
0.0
  0
CIRCLE
  5
A8
  8
1
  6
CONTINUOUS
 62
     7
 10
-627.4999999999999
 20
-181.75
 30
0.0
 40
1.65
  0
CIRCLE
  5
A9
  8
1
  6
CONTINUOUS
 62
     7
 10
-627.4999999999999
 20
-98.25
 30
0.0
 40
1.65
  0
LINE
  5
AA
  8
1
  6
CONTINUOUS
 62
     7
 10
-668.2246256144931
 20
-82.2755647701859
 30
0.0
 11
-669.3482010418296
 21
-82.40343945759332
 31
0.0
  0
LINE
  5
AB
  8
1
  6
CONTINUOUS
 62
     7
 10
-669.3482010418296
 20
-82.40343945759332
 30
0.0
 11
-670.4142884389217
 21
-82.7805229945964
 31
0.0
  0
LINE
  5
AC
  8
1
  6
CONTINUOUS
 62
     7
 10
-586.7753743855068
 20
-197.7244352298141
 30
0.0
 11
-585.6517989581703
 21
-197.5965605424067
 31
0.0
  0
LINE
  5
AD
  8
1
  6
CONTINUOUS
 62
     7
 10
-585.6517989581703
 20
-197.5965605424067
 30
0.0
 11
-584.585711561078
 21
-197.2194770054036
 31
0.0
  0
LINE
  5
AE
  8
1
  6
CONTINUOUS
 62
     7
 10
-586.7753743855067
 20
-197.7244352298141
 30
0.0
 11
-624.4755647701859
 21
-197.7244352298141
 31
0.0
  0
LINE
  5
AF
  8
1
  6
CONTINUOUS
 62
     7
 10
-584.5857115610779
 20
-197.2194770054036
 30
0.0
 11
-583.9819270895628
 21
-196.8522548481851
 31
0.0
  0
LINE
  5
B0
  8
1
  6
CONTINUOUS
 62
     7
 10
-583.9819270895628
 20
-196.8522548481851
 30
0.0
 11
-583.456588317628
 21
-196.3795785050283
 31
0.0
  0
LINE
  5
B1
  8
1
  6
CONTINUOUS
 62
     7
 10
-583.456588317628
 20
-196.3795785050283
 30
0.0
 11
-583.0278639462526
 21
-195.8177953608922
 31
0.0
  0
LINE
  5
B2
  8
1
  6
CONTINUOUS
 62
     7
 10
-583.0278639462526
 20
-195.8177953608922
 30
0.0
 11
-582.7105812932022
 21
-195.1863345356253
 31
0.0
  0
LINE
  5
B3
  8
1
  6
CONTINUOUS
 62
     7
 10
-582.7105812932022
 20
-195.1863345356253
 30
0.0
 11
-582.5157134942076
 21
-194.5070349330499
 31
0.0
  0
LINE
  5
B4
  8
1
  6
CONTINUOUS
 62
     7
 10
-582.5157134942076
 20
-194.5070349330499
 30
0.0
 11
-582.4499999999999
 21
-193.8033899483117
 31
0.0
  0
LINE
  5
B5
  8
1
  6
CONTINUOUS
 62
     7
 10
-582.4499999999999
 20
-193.8033899483117
 30
0.0
 11
-582.4499999999999
 21
-86.19661005168825
 31
0.0
  0
LINE
  5
B6
  8
1
  6
CONTINUOUS
 62
     7
 10
-582.4499999999999
 20
-86.19661005168825
 30
0.0
 11
-582.5157134942076
 21
-85.49296506695009
 31
0.0
  0
LINE
  5
B7
  8
1
  6
CONTINUOUS
 62
     7
 10
-582.5157134942076
 20
-85.49296506695009
 30
0.0
 11
-582.7105812932022
 21
-84.81366546437467
 31
0.0
  0
LINE
  5
B8
  8
1
  6
CONTINUOUS
 62
     7
 10
-582.7105812932022
 20
-84.81366546437467
 30
0.0
 11
-583.0278639462526
 21
-84.18220463910778
 31
0.0
  0
LINE
  5
B9
  8
1
  6
CONTINUOUS
 62
     7
 10
-583.0278639462526
 20
-84.18220463910778
 30
0.0
 11
-583.456588317628
 21
-83.6204214949717
 31
0.0
  0
LINE
  5
BA
  8
1
  6
CONTINUOUS
 62
     7
 10
-583.456588317628
 20
-83.6204214949717
 30
0.0
 11
-583.9819270895628
 21
-83.14774515181485
 31
0.0
  0
LINE
  5
BB
  8
1
  6
CONTINUOUS
 62
     7
 10
-583.9819270895628
 20
-83.14774515181485
 30
0.0
 11
-584.5857115610779
 21
-82.78052299459641
 31
0.0
  0
LINE
  5
BC
  8
1
  6
CONTINUOUS
 62
     7
 10
-584.5857115610781
 20
-82.78052299459641
 30
0.0
 11
-585.6517989581703
 21
-82.40343945759332
 31
0.0
  0
LINE
  5
BD
  8
1
  6
CONTINUOUS
 62
     7
 10
-585.6517989581703
 20
-82.40343945759332
 30
0.0
 11
-586.7753743855068
 21
-82.2755647701859
 31
0.0
  0
LINE
  5
BE
  8
1
  6
CONTINUOUS
 62
     7
 10
-624.4755647701859
 20
-82.27556477018588
 30
0.0
 11
-586.7753743855068
 21
-82.27556477018588
 31
0.0
  0
LINE
  5
BF
  8
1
  6
CONTINUOUS
 62
     7
 10
-624.4755647701859
 20
-82.27556477018588
 30
0.0
 11
-624.4755647701859
 21
-82.07556477018589
 31
0.0
  0
LINE
  5
C0
  8
1
  6
CONTINUOUS
 62
     7
 10
-624.4755647701859
 20
-82.0755647701859
 30
0.0
 11
-630.524435229814
 21
-82.0755647701859
 31
0.0
  0
LINE
  5
C1
  8
1
  6
CONTINUOUS
 62
     7
 10
-630.524435229814
 20
-82.0755647701859
 30
0.0
 11
-630.524435229814
 21
-82.2755647701859
 31
0.0
  0
LINE
  5
C2
  8
1
  6
CONTINUOUS
 62
     7
 10
-668.2246256144932
 20
-82.27556477018588
 30
0.0
 11
-630.524435229814
 21
-82.27556477018588
 31
0.0
  0
LINE
  5
C3
  8
1
  6
CONTINUOUS
 62
     7
 10
-670.414288438922
 20
-82.7805229945964
 30
0.0
 11
-671.018072910437
 21
-83.14774515181485
 31
0.0
  0
LINE
  5
C4
  8
1
  6
CONTINUOUS
 62
     7
 10
-671.018072910437
 20
-83.14774515181485
 30
0.0
 11
-671.5434116823719
 21
-83.6204214949717
 31
0.0
  0
LINE
  5
C5
  8
1
  6
CONTINUOUS
 62
     7
 10
-671.5434116823719
 20
-83.6204214949717
 30
0.0
 11
-671.9721360537472
 21
-84.18220463910778
 31
0.0
  0
LINE
  5
C6
  8
1
  6
CONTINUOUS
 62
     7
 10
-671.9721360537472
 20
-84.18220463910778
 30
0.0
 11
-672.2894187067977
 21
-84.81366546437467
 31
0.0
  0
LINE
  5
C7
  8
1
  6
CONTINUOUS
 62
     7
 10
-672.2894187067977
 20
-84.81366546437467
 30
0.0
 11
-672.4842865057923
 21
-85.4929650669501
 31
0.0
  0
LINE
  5
C8
  8
1
  6
CONTINUOUS
 62
     7
 10
-672.4842865057923
 20
-85.4929650669501
 30
0.0
 11
-672.55
 21
-86.19661005168827
 31
0.0
  0
LINE
  5
C9
  8
1
  6
CONTINUOUS
 62
     7
 10
-672.55
 20
-193.8033899483117
 30
0.0
 11
-672.55
 21
-86.19661005168825
 31
0.0
  0
LINE
  5
CA
  8
1
  6
CONTINUOUS
 62
     7
 10
-672.55
 20
-193.8033899483117
 30
0.0
 11
-672.4842865057923
 21
-194.5070349330499
 31
0.0
  0
LINE
  5
CB
  8
1
  6
CONTINUOUS
 62
     7
 10
-672.4842865057923
 20
-194.5070349330499
 30
0.0
 11
-672.2894187067977
 21
-195.1863345356253
 31
0.0
  0
LINE
  5
CC
  8
1
  6
CONTINUOUS
 62
     7
 10
-672.2894187067977
 20
-195.1863345356253
 30
0.0
 11
-671.9721360537472
 21
-195.8177953608922
 31
0.0
  0
LINE
  5
CD
  8
1
  6
CONTINUOUS
 62
     7
 10
-671.9721360537472
 20
-195.8177953608922
 30
0.0
 11
-671.5434116823719
 21
-196.3795785050283
 31
0.0
  0
LINE
  5
CE
  8
1
  6
CONTINUOUS
 62
     7
 10
-671.5434116823719
 20
-196.3795785050283
 30
0.0
 11
-671.0180729104371
 21
-196.8522548481851
 31
0.0
  0
LINE
  5
CF
  8
1
  6
CONTINUOUS
 62
     7
 10
-671.0180729104371
 20
-196.8522548481851
 30
0.0
 11
-670.414288438922
 21
-197.2194770054036
 31
0.0
  0
LINE
  5
D0
  8
1
  6
CONTINUOUS
 62
     7
 10
-670.414288438922
 20
-197.2194770054036
 30
0.0
 11
-669.3482010418297
 21
-197.5965605424067
 31
0.0
  0
LINE
  5
D1
  8
1
  6
CONTINUOUS
 62
     7
 10
-669.3482010418297
 20
-197.5965605424067
 30
0.0
 11
-668.2246256144932
 21
-197.7244352298141
 31
0.0
  0
LINE
  5
D2
  8
1
  6
CONTINUOUS
 62
     7
 10
-630.524435229814
 20
-197.7244352298141
 30
0.0
 11
-668.2246256144931
 21
-197.7244352298141
 31
0.0
  0
LINE
  5
D3
  8
1
  6
CONTINUOUS
 62
     7
 10
-624.4978535517348
 20
-197.6715187031891
 30
0.0
 11
-624.4999999999999
 21
-197.669372254924
 31
0.0
  0
LINE
  5
D4
  8
1
  6
CONTINUOUS
 62
     7
 10
-624.4957127214261
 20
-197.7042872785738
 30
0.0
 11
-624.4978535517348
 21
-197.6715187031891
 31
0.0
  0
LINE
  5
D5
  8
1
  6
CONTINUOUS
 62
     7
 10
-624.4755647701859
 20
-197.7244352298141
 30
0.0
 11
-624.4957127214261
 21
-197.7042872785738
 31
0.0
  0
LINE
  5
D6
  8
1
  6
CONTINUOUS
 62
     7
 10
-624.4999999999999
 20
-198.9
 30
0.0
 11
-624.4999999999999
 21
-197.669372254924
 31
0.0
  0
LINE
  5
D7
  8
1
  6
CONTINUOUS
 62
     7
 10
-630.4999999999999
 20
-81.10000000000001
 30
0.0
 11
-630.4999999999999
 21
-81.19999999999999
 31
0.0
  0
LINE
  5
D8
  8
1
  6
CONTINUOUS
 62
     7
 10
-630.4999999999999
 20
-81.2
 30
0.0
 11
-624.4999999999999
 21
-81.2
 31
0.0
  0
LINE
  5
D9
  8
1
  6
CONTINUOUS
 62
     7
 10
-668.200236077002
 20
-81.1
 30
0.0
 11
-669.6621863571094
 21
-81.27482407009937
 31
0.0
  0
LINE
  5
DA
  8
1
  6
CONTINUOUS
 62
     7
 10
-669.6621863571094
 20
-81.27482407009937
 30
0.0
 11
-671.0416666666666
 21
-81.78943747661576
 31
0.0
  0
LINE
  5
DB
  8
1
  6
CONTINUOUS
 62
     7
 10
-630.5021464482651
 20
-82.32848129681093
 30
0.0
 11
-630.4999999999999
 21
-82.33062774507601
 31
0.0
  0
LINE
  5
DC
  8
1
  6
CONTINUOUS
 62
     7
 10
-630.5042872785738
 20
-82.29571272142618
 30
0.0
 11
-630.5021464482651
 21
-82.32848129681092
 31
0.0
  0
LINE
  5
DD
  8
1
  6
CONTINUOUS
 62
     7
 10
-630.524435229814
 20
-82.27556477018588
 30
0.0
 11
-630.5042872785738
 21
-82.29571272142618
 31
0.0
  0
LINE
  5
DE
  8
1
  6
CONTINUOUS
 62
     7
 10
-624.4755647701859
 20
-82.27556477018588
 30
0.0
 11
-624.4957127214261
 21
-82.29571272142618
 31
0.0
  0
LINE
  5
DF
  8
1
  6
CONTINUOUS
 62
     7
 10
-624.4978535517348
 20
-82.32848129681093
 30
0.0
 11
-624.4957127214261
 21
-82.29571272142618
 31
0.0
  0
LINE
  5
E0
  8
1
  6
CONTINUOUS
 62
     7
 10
-624.4999999999999
 20
-82.33062774507601
 30
0.0
 11
-624.4978535517348
 21
-82.32848129681093
 31
0.0
  0
LINE
  5
E1
  8
1
  6
CONTINUOUS
 62
     7
 10
-624.4999999999999
 20
-81.2
 30
0.0
 11
-624.4999999999999
 21
-81.10000000000001
 31
0.0
  0
LINE
  5
E2
  8
1
  6
CONTINUOUS
 62
     7
 10
-630.4999999999999
 20
-81.10000000000001
 30
0.0
 11
-668.200236077002
 21
-81.10000000000001
 31
0.0
  0
LINE
  5
E3
  8
1
  6
CONTINUOUS
 62
     7
 10
-586.7997639229978
 20
-81.10000000000001
 30
0.0
 11
-624.4999999999999
 21
-81.10000000000001
 31
0.0
  0
LINE
  5
E4
  8
1
  6
CONTINUOUS
 62
     7
 10
-630.524435229814
 20
-197.7244352298141
 30
0.0
 11
-630.5042872785738
 21
-197.7042872785738
 31
0.0
  0
LINE
  5
E5
  8
1
  6
CONTINUOUS
 62
     7
 10
-624.4999999999999
 20
-198.9
 30
0.0
 11
-586.7997639229978
 21
-198.9
 31
0.0
  0
LINE
  5
E6
  8
1
  6
CONTINUOUS
 62
     7
 10
-581.2499999999999
 20
-193.7667508730761
 30
0.0
 11
-581.2499999999999
 21
-86.23324912692394
 31
0.0
  0
LINE
  5
E7
  8
1
  6
CONTINUOUS
 62
     7
 10
-673.7499999999999
 20
-193.7667508730761
 30
0.0
 11
-673.6670143762211
 21
-194.6739386996911
 31
0.0
  0
LINE
  5
E8
  8
1
  6
CONTINUOUS
 62
     7
 10
-673.6670143762211
 20
-194.6739386996911
 30
0.0
 11
-673.4208120454979
 21
-195.5510016147499
 31
0.0
  0
LINE
  5
E9
  8
1
  6
CONTINUOUS
 62
     7
 10
-673.4208120454979
 20
-195.5510016147499
 30
0.0
 11
-673.0195651982425
 21
-196.3688272815635
 31
0.0
  0
LINE
  5
EA
  8
1
  6
CONTINUOUS
 62
     7
 10
-673.0195651982425
 20
-196.3688272815635
 30
0.0
 11
-672.4765924152688
 21
-197.1002696245694
 31
0.0
  0
LINE
  5
EB
  8
1
  6
CONTINUOUS
 62
     7
 10
-672.4765924152688
 20
-197.1002696245694
 30
0.0
 11
-671.80991658433
 21
-197.7210498886267
 31
0.0
  0
LINE
  5
EC
  8
1
  6
CONTINUOUS
 62
     7
 10
-671.80991658433
 20
-197.7210498886267
 30
0.0
 11
-671.0416666666666
 21
-198.2105625233842
 31
0.0
  0
LINE
  5
ED
  8
1
  6
CONTINUOUS
 62
     7
 10
-583.9583333333334
 20
-198.2105625233843
 30
0.0
 11
-583.1900834156698
 21
-197.7210498886268
 31
0.0
  0
LINE
  5
EE
  8
1
  6
CONTINUOUS
 62
     7
 10
-583.1900834156698
 20
-197.7210498886268
 30
0.0
 11
-582.5234075847312
 21
-197.1002696245695
 31
0.0
  0
LINE
  5
EF
  8
1
  6
CONTINUOUS
 62
     7
 10
-582.5234075847312
 20
-197.1002696245695
 30
0.0
 11
-581.9804348017574
 21
-196.3688272815635
 31
0.0
  0
LINE
  5
F0
  8
1
  6
CONTINUOUS
 62
     7
 10
-581.9804348017574
 20
-196.3688272815635
 30
0.0
 11
-581.579187954502
 21
-195.5510016147499
 31
0.0
  0
LINE
  5
F1
  8
1
  6
CONTINUOUS
 62
     7
 10
-581.579187954502
 20
-195.5510016147499
 30
0.0
 11
-581.3329856237788
 21
-194.6739386996911
 31
0.0
  0
LINE
  5
F2
  8
1
  6
CONTINUOUS
 62
     7
 10
-581.3329856237788
 20
-194.6739386996911
 30
0.0
 11
-581.25
 21
-193.7667508730761
 31
0.0
  0
LINE
  5
F3
  8
1
  6
CONTINUOUS
 62
     7
 10
-581.25
 20
-86.23324912692391
 30
0.0
 11
-581.3329856237788
 21
-85.32606130030892
 31
0.0
  0
LINE
  5
F4
  8
1
  6
CONTINUOUS
 62
     7
 10
-581.3329856237788
 20
-85.32606130030892
 30
0.0
 11
-581.579187954502
 21
-84.44899838525012
 31
0.0
  0
LINE
  5
F5
  8
1
  6
CONTINUOUS
 62
     7
 10
-581.579187954502
 20
-84.44899838525012
 30
0.0
 11
-581.9804348017574
 21
-83.6311727184365
 31
0.0
  0
LINE
  5
F6
  8
1
  6
CONTINUOUS
 62
     7
 10
-581.9804348017574
 20
-83.6311727184365
 30
0.0
 11
-582.5234075847312
 21
-82.89973037543048
 31
0.0
  0
LINE
  5
F7
  8
1
  6
CONTINUOUS
 62
     7
 10
-582.5234075847312
 20
-82.89973037543048
 30
0.0
 11
-583.1900834156698
 21
-82.27895011137328
 31
0.0
  0
LINE
  5
F8
  8
1
  6
CONTINUOUS
 62
     7
 10
-583.1900834156698
 20
-82.27895011137328
 30
0.0
 11
-583.9583333333334
 21
-81.78943747661572
 31
0.0
  0
LINE
  5
F9
  8
1
  6
CONTINUOUS
 62
     7
 10
-586.7997639229978
 20
-198.9
 30
0.0
 11
-585.3378136428905
 21
-198.7251759299007
 31
0.0
  0
LINE
  5
FA
  8
1
  6
CONTINUOUS
 62
     7
 10
-585.3378136428905
 20
-198.7251759299007
 30
0.0
 11
-583.9583333333334
 21
-198.2105625233843
 31
0.0
  0
LINE
  5
FB
  8
1
  6
CONTINUOUS
 62
     7
 10
-671.0416666666667
 20
-198.2105625233843
 30
0.0
 11
-669.6621863571094
 21
-198.7251759299006
 31
0.0
  0
LINE
  5
FC
  8
1
  6
CONTINUOUS
 62
     7
 10
-669.6621863571094
 20
-198.7251759299006
 30
0.0
 11
-668.200236077002
 21
-198.9
 31
0.0
  0
LINE
  5
FD
  8
1
  6
CONTINUOUS
 62
     7
 10
-630.5021464482651
 20
-197.6715187031891
 30
0.0
 11
-630.5042872785738
 21
-197.7042872785738
 31
0.0
  0
LINE
  5
FE
  8
1
  6
CONTINUOUS
 62
     7
 10
-630.4999999999999
 20
-197.669372254924
 30
0.0
 11
-630.5021464482651
 21
-197.6715187031891
 31
0.0
  0
LINE
  5
FF
  8
1
  6
CONTINUOUS
 62
     7
 10
-630.4999999999999
 20
-197.669372254924
 30
0.0
 11
-630.4999999999999
 21
-198.9
 31
0.0
  0
LINE
  5
100
  8
1
  6
CONTINUOUS
 62
     7
 10
-583.9583333333334
 20
-81.78943747661572
 30
0.0
 11
-585.3378136428905
 21
-81.27482407009936
 31
0.0
  0
LINE
  5
101
  8
1
  6
CONTINUOUS
 62
     7
 10
-585.3378136428905
 20
-81.27482407009936
 30
0.0
 11
-586.7997639229978
 21
-81.1
 31
0.0
  0
LINE
  5
102
  8
1
  6
CONTINUOUS
 62
     7
 10
-671.0416666666666
 20
-81.78943747661576
 30
0.0
 11
-671.80991658433
 21
-82.2789501113733
 31
0.0
  0
LINE
  5
103
  8
1
  6
CONTINUOUS
 62
     7
 10
-671.80991658433
 20
-82.2789501113733
 30
0.0
 11
-672.4765924152688
 21
-82.89973037543052
 31
0.0
  0
LINE
  5
104
  8
1
  6
CONTINUOUS
 62
     7
 10
-672.4765924152688
 20
-82.89973037543052
 30
0.0
 11
-673.0195651982425
 21
-83.63117271843653
 31
0.0
  0
LINE
  5
105
  8
1
  6
CONTINUOUS
 62
     7
 10
-673.0195651982425
 20
-83.63117271843653
 30
0.0
 11
-673.4208120454979
 21
-84.44899838525014
 31
0.0
  0
LINE
  5
106
  8
1
  6
CONTINUOUS
 62
     7
 10
-673.4208120454979
 20
-84.44899838525014
 30
0.0
 11
-673.6670143762211
 21
-85.32606130030892
 31
0.0
  0
LINE
  5
107
  8
1
  6
CONTINUOUS
 62
     7
 10
-673.6670143762211
 20
-85.32606130030892
 30
0.0
 11
-673.7499999999999
 21
-86.23324912692391
 31
0.0
  0
LINE
  5
108
  8
1
  6
CONTINUOUS
 62
     7
 10
-673.75
 20
-193.7667508730761
 30
0.0
 11
-673.75
 21
-86.23324912692391
 31
0.0
  0
LINE
  5
109
  8
1
  6
CONTINUOUS
 62
     7
 10
-668.200236077002
 20
-198.9
 30
0.0
 11
-630.4999999999999
 21
-198.9
 31
0.0
  0
LINE
  5
10A
  8
1
  6
CONTINUOUS
 62
     7
 10
-621.2499619230641
 20
-83.29567464449036
 30
0.0
 11
-621.2483449547597
 21
-83.24687935119141
 31
0.0
  0
LINE
  5
10B
  8
1
  6
CONTINUOUS
 62
     7
 10
-621.2483449547597
 20
-83.24687935119141
 30
0.0
 11
-621.2443495298292
 21
-83.19820030777994
 31
0.0
  0
LINE
  5
10C
  8
1
  6
CONTINUOUS
 62
     7
 10
-621.2443495298292
 20
-83.19820030777994
 30
0.0
 11
-621.2379851669716
 21
-83.14975348718974
 31
0.0
  0
LINE
  5
10D
  8
1
  6
CONTINUOUS
 62
     7
 10
-621.2379851669716
 20
-83.14975348718974
 30
0.0
 11
-621.2292670286424
 21
-83.10165430910706
 31
0.0
  0
LINE
  5
10E
  8
1
  6
CONTINUOUS
 62
     7
 10
-621.2292670286424
 20
-83.10165430910706
 30
0.0
 11
-621.2182158849308
 21
-83.05401736499482
 31
0.0
  0
LINE
  5
10F
  8
1
  6
CONTINUOUS
 62
     7
 10
-621.2182158849308
 20
-83.05401736499482
 30
0.0
 11
-621.2048580640773
 21
-83.00695614508979
 31
0.0
  0
LINE
  5
110
  8
1
  6
CONTINUOUS
 62
     7
 10
-621.2048580640773
 20
-83.00695614508979
 30
0.0
 11
-621.189225389749
 21
-82.96058276802373
 31
0.0
  0
LINE
  5
111
  8
1
  6
CONTINUOUS
 62
     7
 10
-621.189225389749
 20
-82.96058276802373
 30
0.0
 11
-621.1713551052231
 21
-82.91500771371182
 31
0.0
  0
LINE
  5
112
  8
1
  6
CONTINUOUS
 62
     7
 10
-621.1713551052231
 20
-82.91500771371182
 30
0.0
 11
-621.1512897846584
 21
-82.8703395601455
 31
0.0
  0
LINE
  5
113
  8
1
  6
CONTINUOUS
 62
     7
 10
-621.1512897846584
 20
-82.8703395601455
 30
0.0
 11
-621.1290772316665
 21
-82.82668472471613
 31
0.0
  0
LINE
  5
114
  8
1
  6
CONTINUOUS
 62
     7
 10
-621.1290772316665
 20
-82.82668472471613
 30
0.0
 11
-621.1047703654252
 21
-82.78414721068644
 31
0.0
  0
LINE
  5
115
  8
1
  6
CONTINUOUS
 62
     7
 10
-621.1047703654252
 20
-82.78414721068644
 30
0.0
 11
-621.0784270946027
 21
-82.74282835941304
 31
0.0
  0
LINE
  5
116
  8
1
  6
CONTINUOUS
 62
     7
 10
-621.0784270946027
 20
-82.74282835941304
 30
0.0
 11
-621.0501101793973
 21
-82.7028266089109
 31
0.0
  0
LINE
  5
117
  8
1
  6
CONTINUOUS
 62
     7
 10
-621.0501101793973
 20
-82.7028266089109
 30
0.0
 11
-621.0198870820163
 21
-82.6642372593346
 31
0.0
  0
LINE
  5
118
  8
1
  6
CONTINUOUS
 62
     7
 10
-621.0198870820163
 20
-82.6642372593346
 30
0.0
 11
-620.9878298059554
 21
-82.62715224593533
 31
0.0
  0
LINE
  5
119
  8
1
  6
CONTINUOUS
 62
     7
 10
-620.9878298059554
 20
-82.62715224593533
 30
0.0
 11
-620.9540147244559
 21
-82.5916599200344
 31
0.0
  0
LINE
  5
11A
  8
1
  6
CONTINUOUS
 62
     7
 10
-620.9540147244559
 20
-82.5916599200344
 30
0.0
 11
-620.918522398555
 21
-82.55784483853498
 31
0.0
  0
LINE
  5
11B
  8
1
  6
CONTINUOUS
 62
     7
 10
-620.918522398555
 20
-82.55784483853498
 30
0.0
 11
-620.8814373851557
 21
-82.52578756247392
 31
0.0
  0
LINE
  5
11C
  8
1
  6
CONTINUOUS
 62
     7
 10
-620.8814373851557
 20
-82.52578756247392
 30
0.0
 11
-620.8428480355794
 21
-82.49556446509303
 31
0.0
  0
LINE
  5
11D
  8
1
  6
CONTINUOUS
 62
     7
 10
-620.8428480355794
 20
-82.49556446509303
 30
0.0
 11
-620.8028462850773
 21
-82.46724754988756
 31
0.0
  0
LINE
  5
11E
  8
1
  6
CONTINUOUS
 62
     7
 10
-620.8028462850773
 20
-82.46724754988756
 30
0.0
 11
-620.7615274338038
 21
-82.44090427906514
 31
0.0
  0
LINE
  5
11F
  8
1
  6
CONTINUOUS
 62
     7
 10
-620.7615274338038
 20
-82.44090427906514
 30
0.0
 11
-620.7189899197741
 21
-82.41659741282375
 31
0.0
  0
LINE
  5
120
  8
1
  6
CONTINUOUS
 62
     7
 10
-620.7189899197741
 20
-82.41659741282375
 30
0.0
 11
-620.6753350843447
 21
-82.39438485983194
 31
0.0
  0
LINE
  5
121
  8
1
  6
CONTINUOUS
 62
     7
 10
-620.6753350843447
 20
-82.39438485983194
 30
0.0
 11
-620.6306669307785
 21
-82.37431953926719
 31
0.0
  0
LINE
  5
122
  8
1
  6
CONTINUOUS
 62
     7
 10
-620.6306669307785
 20
-82.37431953926719
 30
0.0
 11
-620.5850918764665
 21
-82.35644925474125
 31
0.0
  0
LINE
  5
123
  8
1
  6
CONTINUOUS
 62
     7
 10
-620.5850918764665
 20
-82.35644925474125
 30
0.0
 11
-620.5387184994006
 21
-82.34081658041298
 31
0.0
  0
LINE
  5
124
  8
1
  6
CONTINUOUS
 62
     7
 10
-620.5387184994006
 20
-82.34081658041298
 30
0.0
 11
-620.4916572794955
 21
-82.32745875955949
 31
0.0
  0
LINE
  5
125
  8
1
  6
CONTINUOUS
 62
     7
 10
-620.4916572794955
 20
-82.32745875955949
 30
0.0
 11
-620.4440203353832
 21
-82.31640761584791
 31
0.0
  0
LINE
  5
126
  8
1
  6
CONTINUOUS
 62
     7
 10
-620.4440203353832
 20
-82.31640761584791
 30
0.0
 11
-620.3959211573006
 21
-82.30768947751866
 31
0.0
  0
LINE
  5
127
  8
1
  6
CONTINUOUS
 62
     7
 10
-620.3959211573006
 20
-82.30768947751866
 30
0.0
 11
-620.3474743367103
 21
-82.30132511466105
 31
0.0
  0
LINE
  5
128
  8
1
  6
CONTINUOUS
 62
     7
 10
-620.3474743367103
 20
-82.30132511466105
 30
0.0
 11
-620.2987952932989
 21
-82.29732968973063
 31
0.0
  0
LINE
  5
129
  8
1
  6
CONTINUOUS
 62
     7
 10
-620.2987952932989
 20
-82.29732968973063
 30
0.0
 11
-620.25
 21
-82.29571272142618
 31
0.0
  0
LINE
  5
12A
  8
1
  6
CONTINUOUS
 62
     7
 10
-633.7499999999999
 20
-83.30440151228113
 30
0.0
 11
-633.7500380769358
 21
-83.29567464449038
 31
0.0
  0
LINE
  5
12B
  8
1
  6
CONTINUOUS
 62
     7
 10
-633.7500380769358
 20
-83.29567464449036
 30
0.0
 11
-633.7516550452402
 21
-83.24687935119141
 31
0.0
  0
LINE
  5
12C
  8
1
  6
CONTINUOUS
 62
     7
 10
-633.7516550452402
 20
-83.24687935119141
 30
0.0
 11
-633.7556504701705
 21
-83.19820030777994
 31
0.0
  0
LINE
  5
12D
  8
1
  6
CONTINUOUS
 62
     7
 10
-633.7556504701705
 20
-83.19820030777994
 30
0.0
 11
-633.7620148330282
 21
-83.14975348718974
 31
0.0
  0
LINE
  5
12E
  8
1
  6
CONTINUOUS
 62
     7
 10
-633.7620148330282
 20
-83.14975348718974
 30
0.0
 11
-633.7707329713575
 21
-83.10165430910706
 31
0.0
  0
LINE
  5
12F
  8
1
  6
CONTINUOUS
 62
     7
 10
-633.7707329713575
 20
-83.10165430910706
 30
0.0
 11
-633.7817841150691
 21
-83.05401736499482
 31
0.0
  0
LINE
  5
130
  8
1
  6
CONTINUOUS
 62
     7
 10
-633.7817841150691
 20
-83.05401736499482
 30
0.0
 11
-633.7951419359225
 21
-83.00695614508979
 31
0.0
  0
LINE
  5
131
  8
1
  6
CONTINUOUS
 62
     7
 10
-633.7951419359225
 20
-83.00695614508979
 30
0.0
 11
-633.8107746102507
 21
-82.96058276802373
 31
0.0
  0
LINE
  5
132
  8
1
  6
CONTINUOUS
 62
     7
 10
-633.8107746102507
 20
-82.96058276802373
 30
0.0
 11
-633.8286448947767
 21
-82.91500771371182
 31
0.0
  0
LINE
  5
133
  8
1
  6
CONTINUOUS
 62
     7
 10
-633.8286448947767
 20
-82.91500771371182
 30
0.0
 11
-633.8487102153415
 21
-82.8703395601455
 31
0.0
  0
LINE
  5
134
  8
1
  6
CONTINUOUS
 62
     7
 10
-633.8487102153415
 20
-82.8703395601455
 30
0.0
 11
-633.8709227683333
 21
-82.82668472471613
 31
0.0
  0
LINE
  5
135
  8
1
  6
CONTINUOUS
 62
     7
 10
-633.8709227683333
 20
-82.82668472471613
 30
0.0
 11
-633.8952296345747
 21
-82.78414721068644
 31
0.0
  0
LINE
  5
136
  8
1
  6
CONTINUOUS
 62
     7
 10
-633.8952296345747
 20
-82.78414721068644
 30
0.0
 11
-633.9215729053972
 21
-82.74282835941304
 31
0.0
  0
LINE
  5
137
  8
1
  6
CONTINUOUS
 62
     7
 10
-633.9215729053972
 20
-82.74282835941304
 30
0.0
 11
-633.9498898206026
 21
-82.7028266089109
 31
0.0
  0
LINE
  5
138
  8
1
  6
CONTINUOUS
 62
     7
 10
-633.9498898206026
 20
-82.7028266089109
 30
0.0
 11
-633.9801129179835
 21
-82.66423725933461
 31
0.0
  0
LINE
  5
139
  8
1
  6
CONTINUOUS
 62
     7
 10
-633.9801129179835
 20
-82.66423725933461
 30
0.0
 11
-634.0121701940445
 21
-82.62715224593535
 31
0.0
  0
LINE
  5
13A
  8
1
  6
CONTINUOUS
 62
     7
 10
-634.0121701940445
 20
-82.62715224593535
 30
0.0
 11
-634.045985275544
 21
-82.5916599200344
 31
0.0
  0
LINE
  5
13B
  8
1
  6
CONTINUOUS
 62
     7
 10
-634.045985275544
 20
-82.5916599200344
 30
0.0
 11
-634.0814776014449
 21
-82.55784483853499
 31
0.0
  0
LINE
  5
13C
  8
1
  6
CONTINUOUS
 62
     7
 10
-634.0814776014449
 20
-82.55784483853499
 30
0.0
 11
-634.1185626148441
 21
-82.52578756247394
 31
0.0
  0
LINE
  5
13D
  8
1
  6
CONTINUOUS
 62
     7
 10
-634.1185626148441
 20
-82.52578756247394
 30
0.0
 11
-634.1571519644204
 21
-82.49556446509303
 31
0.0
  0
LINE
  5
13E
  8
1
  6
CONTINUOUS
 62
     7
 10
-634.1571519644204
 20
-82.49556446509303
 30
0.0
 11
-634.1971537149226
 21
-82.46724754988757
 31
0.0
  0
LINE
  5
13F
  8
1
  6
CONTINUOUS
 62
     7
 10
-634.1971537149226
 20
-82.46724754988757
 30
0.0
 11
-634.238472566196
 21
-82.44090427906514
 31
0.0
  0
LINE
  5
140
  8
1
  6
CONTINUOUS
 62
     7
 10
-634.238472566196
 20
-82.44090427906514
 30
0.0
 11
-634.2810100802258
 21
-82.41659741282375
 31
0.0
  0
LINE
  5
141
  8
1
  6
CONTINUOUS
 62
     7
 10
-634.2810100802258
 20
-82.41659741282375
 30
0.0
 11
-634.324664915655
 21
-82.39438485983194
 31
0.0
  0
LINE
  5
142
  8
1
  6
CONTINUOUS
 62
     7
 10
-634.324664915655
 20
-82.39438485983194
 30
0.0
 11
-634.3693330692214
 21
-82.37431953926719
 31
0.0
  0
LINE
  5
143
  8
1
  6
CONTINUOUS
 62
     7
 10
-634.3693330692214
 20
-82.37431953926719
 30
0.0
 11
-634.4149081235333
 21
-82.35644925474126
 31
0.0
  0
LINE
  5
144
  8
1
  6
CONTINUOUS
 62
     7
 10
-634.4149081235333
 20
-82.35644925474126
 30
0.0
 11
-634.4612815005993
 21
-82.34081658041299
 31
0.0
  0
LINE
  5
145
  8
1
  6
CONTINUOUS
 62
     7
 10
-634.4612815005993
 20
-82.34081658041299
 30
0.0
 11
-634.5083427205044
 21
-82.32745875955949
 31
0.0
  0
LINE
  5
146
  8
1
  6
CONTINUOUS
 62
     7
 10
-634.5083427205044
 20
-82.32745875955949
 30
0.0
 11
-634.5559796646166
 21
-82.31640761584792
 31
0.0
  0
LINE
  5
147
  8
1
  6
CONTINUOUS
 62
     7
 10
-634.5559796646166
 20
-82.31640761584792
 30
0.0
 11
-634.6040788426993
 21
-82.30768947751868
 31
0.0
  0
LINE
  5
148
  8
1
  6
CONTINUOUS
 62
     7
 10
-634.6040788426993
 20
-82.30768947751868
 30
0.0
 11
-634.6525256632896
 21
-82.30132511466107
 31
0.0
  0
LINE
  5
149
  8
1
  6
CONTINUOUS
 62
     7
 10
-634.6525256632896
 20
-82.30132511466107
 30
0.0
 11
-634.701204706701
 21
-82.29732968973063
 31
0.0
  0
LINE
  5
14A
  8
1
  6
CONTINUOUS
 62
     7
 10
-634.701204706701
 20
-82.29732968973063
 30
0.0
 11
-634.7499999999999
 21
-82.2957127214262
 31
0.0
  0
LINE
  5
14B
  8
1
  6
CONTINUOUS
 62
     7
 10
-634.7499999999999
 20
-197.7042872785738
 30
0.0
 11
-634.701204706701
 21
-197.7026703102694
 31
0.0
  0
LINE
  5
14C
  8
1
  6
CONTINUOUS
 62
     7
 10
-634.701204706701
 20
-197.7026703102694
 30
0.0
 11
-634.6525256632896
 21
-197.698674885339
 31
0.0
  0
LINE
  5
14D
  8
1
  6
CONTINUOUS
 62
     7
 10
-634.6525256632896
 20
-197.698674885339
 30
0.0
 11
-634.6040788426993
 21
-197.6923105224813
 31
0.0
  0
LINE
  5
14E
  8
1
  6
CONTINUOUS
 62
     7
 10
-634.6040788426993
 20
-197.6923105224813
 30
0.0
 11
-634.5559796646166
 21
-197.6835923841521
 31
0.0
  0
LINE
  5
14F
  8
1
  6
CONTINUOUS
 62
     7
 10
-634.5559796646166
 20
-197.6835923841521
 30
0.0
 11
-634.5083427205044
 21
-197.6725412404405
 31
0.0
  0
LINE
  5
150
  8
1
  6
CONTINUOUS
 62
     7
 10
-634.5083427205044
 20
-197.6725412404405
 30
0.0
 11
-634.4612815005993
 21
-197.659183419587
 31
0.0
  0
LINE
  5
151
  8
1
  6
CONTINUOUS
 62
     7
 10
-634.4612815005993
 20
-197.659183419587
 30
0.0
 11
-634.4149081235333
 21
-197.6435507452588
 31
0.0
  0
LINE
  5
152
  8
1
  6
CONTINUOUS
 62
     7
 10
-634.4149081235333
 20
-197.6435507452588
 30
0.0
 11
-634.3693330692214
 21
-197.6256804607328
 31
0.0
  0
LINE
  5
153
  8
1
  6
CONTINUOUS
 62
     7
 10
-634.3693330692214
 20
-197.6256804607328
 30
0.0
 11
-634.324664915655
 21
-197.6056151401681
 31
0.0
  0
LINE
  5
154
  8
1
  6
CONTINUOUS
 62
     7
 10
-634.324664915655
 20
-197.6056151401681
 30
0.0
 11
-634.2810100802258
 21
-197.5834025871763
 31
0.0
  0
LINE
  5
155
  8
1
  6
CONTINUOUS
 62
     7
 10
-634.2810100802258
 20
-197.5834025871763
 30
0.0
 11
-634.238472566196
 21
-197.5590957209349
 31
0.0
  0
LINE
  5
156
  8
1
  6
CONTINUOUS
 62
     7
 10
-634.238472566196
 20
-197.5590957209349
 30
0.0
 11
-634.1971537149226
 21
-197.5327524501124
 31
0.0
  0
LINE
  5
157
  8
1
  6
CONTINUOUS
 62
     7
 10
-634.1971537149226
 20
-197.5327524501124
 30
0.0
 11
-634.1571519644204
 21
-197.504435534907
 31
0.0
  0
LINE
  5
158
  8
1
  6
CONTINUOUS
 62
     7
 10
-634.1571519644204
 20
-197.504435534907
 30
0.0
 11
-634.1185626148441
 21
-197.4742124375261
 31
0.0
  0
LINE
  5
159
  8
1
  6
CONTINUOUS
 62
     7
 10
-634.1185626148441
 20
-197.4742124375261
 30
0.0
 11
-634.0814776014449
 21
-197.442155161465
 31
0.0
  0
LINE
  5
15A
  8
1
  6
CONTINUOUS
 62
     7
 10
-634.0814776014449
 20
-197.442155161465
 30
0.0
 11
-634.045985275544
 21
-197.4083400799656
 31
0.0
  0
LINE
  5
15B
  8
1
  6
CONTINUOUS
 62
     7
 10
-634.045985275544
 20
-197.4083400799656
 30
0.0
 11
-634.0121701940445
 21
-197.3728477540647
 31
0.0
  0
LINE
  5
15C
  8
1
  6
CONTINUOUS
 62
     7
 10
-634.0121701940445
 20
-197.3728477540647
 30
0.0
 11
-633.9801129179835
 21
-197.3357627406654
 31
0.0
  0
LINE
  5
15D
  8
1
  6
CONTINUOUS
 62
     7
 10
-633.9801129179835
 20
-197.3357627406654
 30
0.0
 11
-633.9498898206026
 21
-197.2971733910891
 31
0.0
  0
LINE
  5
15E
  8
1
  6
CONTINUOUS
 62
     7
 10
-633.9498898206026
 20
-197.2971733910891
 30
0.0
 11
-633.9215729053972
 21
-197.257171640587
 31
0.0
  0
LINE
  5
15F
  8
1
  6
CONTINUOUS
 62
     7
 10
-633.9215729053972
 20
-197.257171640587
 30
0.0
 11
-633.8952296345747
 21
-197.2158527893136
 31
0.0
  0
LINE
  5
160
  8
1
  6
CONTINUOUS
 62
     7
 10
-633.8952296345747
 20
-197.2158527893136
 30
0.0
 11
-633.8709227683333
 21
-197.1733152752839
 31
0.0
  0
LINE
  5
161
  8
1
  6
CONTINUOUS
 62
     7
 10
-633.8709227683333
 20
-197.1733152752839
 30
0.0
 11
-633.8487102153415
 21
-197.1296604398545
 31
0.0
  0
LINE
  5
162
  8
1
  6
CONTINUOUS
 62
     7
 10
-633.8487102153415
 20
-197.1296604398545
 30
0.0
 11
-633.8286448947767
 21
-197.0849922862882
 31
0.0
  0
LINE
  5
163
  8
1
  6
CONTINUOUS
 62
     7
 10
-633.8286448947767
 20
-197.0849922862882
 30
0.0
 11
-633.8107746102507
 21
-197.0394172319763
 31
0.0
  0
LINE
  5
164
  8
1
  6
CONTINUOUS
 62
     7
 10
-633.8107746102507
 20
-197.0394172319763
 30
0.0
 11
-633.7951419359225
 21
-196.9930438549102
 31
0.0
  0
LINE
  5
165
  8
1
  6
CONTINUOUS
 62
     7
 10
-633.7951419359225
 20
-196.9930438549102
 30
0.0
 11
-633.7817841150691
 21
-196.9459826350052
 31
0.0
  0
LINE
  5
166
  8
1
  6
CONTINUOUS
 62
     7
 10
-633.7817841150691
 20
-196.9459826350052
 30
0.0
 11
-633.7707329713575
 21
-196.8983456908929
 31
0.0
  0
LINE
  5
167
  8
1
  6
CONTINUOUS
 62
     7
 10
-633.7707329713575
 20
-196.8983456908929
 30
0.0
 11
-633.7620148330282
 21
-196.8502465128103
 31
0.0
  0
LINE
  5
168
  8
1
  6
CONTINUOUS
 62
     7
 10
-633.7620148330282
 20
-196.8502465128103
 30
0.0
 11
-633.7556504701705
 21
-196.8017996922201
 31
0.0
  0
LINE
  5
169
  8
1
  6
CONTINUOUS
 62
     7
 10
-633.7556504701705
 20
-196.8017996922201
 30
0.0
 11
-633.7516550452402
 21
-196.7531206488086
 31
0.0
  0
LINE
  5
16A
  8
1
  6
CONTINUOUS
 62
     7
 10
-633.7516550452402
 20
-196.7531206488086
 30
0.0
 11
-633.7500380769358
 21
-196.7043253555096
 31
0.0
  0
LINE
  5
16B
  8
1
  6
CONTINUOUS
 62
     7
 10
-633.7500380769358
 20
-196.7043253555096
 30
0.0
 11
-633.7499999999999
 21
-196.6955984877189
 31
0.0
  0
LINE
  5
16C
  8
1
  6
CONTINUOUS
 62
     7
 10
-621.2499619230641
 20
-83.29567464449038
 30
0.0
 11
-621.25
 21
-83.30440151228113
 31
0.0
  0
LINE
  5
16D
  8
1
  6
CONTINUOUS
 62
     7
 10
-620.25
 20
-197.7042872785738
 30
0.0
 11
-620.2987952932989
 21
-197.7026703102694
 31
0.0
  0
LINE
  5
16E
  8
1
  6
CONTINUOUS
 62
     7
 10
-620.2987952932989
 20
-197.7026703102694
 30
0.0
 11
-620.3474743367103
 21
-197.698674885339
 31
0.0
  0
LINE
  5
16F
  8
1
  6
CONTINUOUS
 62
     7
 10
-620.3474743367103
 20
-197.698674885339
 30
0.0
 11
-620.3959211573006
 21
-197.6923105224814
 31
0.0
  0
LINE
  5
170
  8
1
  6
CONTINUOUS
 62
     7
 10
-620.3959211573006
 20
-197.6923105224814
 30
0.0
 11
-620.4440203353832
 21
-197.6835923841521
 31
0.0
  0
LINE
  5
171
  8
1
  6
CONTINUOUS
 62
     7
 10
-620.4440203353832
 20
-197.6835923841521
 30
0.0
 11
-620.4916572794955
 21
-197.6725412404405
 31
0.0
  0
LINE
  5
172
  8
1
  6
CONTINUOUS
 62
     7
 10
-620.4916572794955
 20
-197.6725412404405
 30
0.0
 11
-620.5387184994006
 21
-197.659183419587
 31
0.0
  0
LINE
  5
173
  8
1
  6
CONTINUOUS
 62
     7
 10
-620.5387184994006
 20
-197.659183419587
 30
0.0
 11
-620.5850918764665
 21
-197.6435507452588
 31
0.0
  0
LINE
  5
174
  8
1
  6
CONTINUOUS
 62
     7
 10
-620.5850918764665
 20
-197.6435507452588
 30
0.0
 11
-620.6306669307785
 21
-197.6256804607328
 31
0.0
  0
LINE
  5
175
  8
1
  6
CONTINUOUS
 62
     7
 10
-620.6306669307785
 20
-197.6256804607328
 30
0.0
 11
-620.6753350843447
 21
-197.6056151401681
 31
0.0
  0
LINE
  5
176
  8
1
  6
CONTINUOUS
 62
     7
 10
-620.6753350843447
 20
-197.6056151401681
 30
0.0
 11
-620.7189899197741
 21
-197.5834025871763
 31
0.0
  0
LINE
  5
177
  8
1
  6
CONTINUOUS
 62
     7
 10
-620.7189899197741
 20
-197.5834025871763
 30
0.0
 11
-620.7615274338038
 21
-197.5590957209349
 31
0.0
  0
LINE
  5
178
  8
1
  6
CONTINUOUS
 62
     7
 10
-620.7615274338038
 20
-197.5590957209349
 30
0.0
 11
-620.8028462850773
 21
-197.5327524501125
 31
0.0
  0
LINE
  5
179
  8
1
  6
CONTINUOUS
 62
     7
 10
-620.8028462850773
 20
-197.5327524501125
 30
0.0
 11
-620.8428480355794
 21
-197.504435534907
 31
0.0
  0
LINE
  5
17A
  8
1
  6
CONTINUOUS
 62
     7
 10
-620.8428480355794
 20
-197.504435534907
 30
0.0
 11
-620.8814373851557
 21
-197.4742124375261
 31
0.0
  0
LINE
  5
17B
  8
1
  6
CONTINUOUS
 62
     7
 10
-620.8814373851557
 20
-197.4742124375261
 30
0.0
 11
-620.918522398555
 21
-197.4421551614651
 31
0.0
  0
LINE
  5
17C
  8
1
  6
CONTINUOUS
 62
     7
 10
-620.918522398555
 20
-197.4421551614651
 30
0.0
 11
-620.9540147244559
 21
-197.4083400799656
 31
0.0
  0
LINE
  5
17D
  8
1
  6
CONTINUOUS
 62
     7
 10
-620.9540147244559
 20
-197.4083400799656
 30
0.0
 11
-620.9878298059554
 21
-197.3728477540647
 31
0.0
  0
LINE
  5
17E
  8
1
  6
CONTINUOUS
 62
     7
 10
-620.9878298059554
 20
-197.3728477540647
 30
0.0
 11
-621.0198870820163
 21
-197.3357627406654
 31
0.0
  0
LINE
  5
17F
  8
1
  6
CONTINUOUS
 62
     7
 10
-621.0198870820163
 20
-197.3357627406654
 30
0.0
 11
-621.0501101793973
 21
-197.2971733910891
 31
0.0
  0
LINE
  5
180
  8
1
  6
CONTINUOUS
 62
     7
 10
-621.0501101793973
 20
-197.2971733910891
 30
0.0
 11
-621.0784270946027
 21
-197.257171640587
 31
0.0
  0
LINE
  5
181
  8
1
  6
CONTINUOUS
 62
     7
 10
-621.0784270946027
 20
-197.257171640587
 30
0.0
 11
-621.1047703654252
 21
-197.2158527893136
 31
0.0
  0
LINE
  5
182
  8
1
  6
CONTINUOUS
 62
     7
 10
-621.1047703654252
 20
-197.2158527893136
 30
0.0
 11
-621.1290772316665
 21
-197.1733152752839
 31
0.0
  0
LINE
  5
183
  8
1
  6
CONTINUOUS
 62
     7
 10
-621.1290772316665
 20
-197.1733152752839
 30
0.0
 11
-621.1512897846584
 21
-197.1296604398545
 31
0.0
  0
LINE
  5
184
  8
1
  6
CONTINUOUS
 62
     7
 10
-621.1512897846584
 20
-197.1296604398545
 30
0.0
 11
-621.1713551052231
 21
-197.0849922862882
 31
0.0
  0
LINE
  5
185
  8
1
  6
CONTINUOUS
 62
     7
 10
-621.1713551052231
 20
-197.0849922862882
 30
0.0
 11
-621.189225389749
 21
-197.0394172319763
 31
0.0
  0
LINE
  5
186
  8
1
  6
CONTINUOUS
 62
     7
 10
-621.189225389749
 20
-197.0394172319763
 30
0.0
 11
-621.2048580640773
 21
-196.9930438549102
 31
0.0
  0
LINE
  5
187
  8
1
  6
CONTINUOUS
 62
     7
 10
-621.2048580640773
 20
-196.9930438549102
 30
0.0
 11
-621.2182158849308
 21
-196.9459826350052
 31
0.0
  0
LINE
  5
188
  8
1
  6
CONTINUOUS
 62
     7
 10
-621.2182158849308
 20
-196.9459826350052
 30
0.0
 11
-621.2292670286424
 21
-196.8983456908929
 31
0.0
  0
LINE
  5
189
  8
1
  6
CONTINUOUS
 62
     7
 10
-621.2292670286424
 20
-196.8983456908929
 30
0.0
 11
-621.2379851669716
 21
-196.8502465128103
 31
0.0
  0
LINE
  5
18A
  8
1
  6
CONTINUOUS
 62
     7
 10
-621.2379851669716
 20
-196.8502465128103
 30
0.0
 11
-621.2443495298292
 21
-196.8017996922201
 31
0.0
  0
LINE
  5
18B
  8
1
  6
CONTINUOUS
 62
     7
 10
-621.2443495298292
 20
-196.8017996922201
 30
0.0
 11
-621.2483449547597
 21
-196.7531206488086
 31
0.0
  0
LINE
  5
18C
  8
1
  6
CONTINUOUS
 62
     7
 10
-621.2483449547597
 20
-196.7531206488086
 30
0.0
 11
-621.2499619230641
 21
-196.7043253555097
 31
0.0
  0
LINE
  5
18D
  8
1
  6
CONTINUOUS
 62
     7
 10
-621.25
 20
-196.6955984877189
 30
0.0
 11
-621.2499619230641
 21
-196.7043253555096
 31
0.0
  0
LINE
  5
18E
  8
1
  6
CONTINUOUS
 62
     7
 10
-624.7455984891686
 20
-197.7
 30
0.0
 11
-624.4999999999999
 21
-197.669372254924
 31
0.0
  0
LINE
  5
18F
  8
1
  6
CONTINUOUS
 62
     7
 10
-624.4999999999998
 20
-82.33062774507603
 30
0.0
 11
-624.7455984891686
 21
-82.30000000000001
 31
0.0
  0
LINE
  5
190
  8
1
  6
CONTINUOUS
 62
     7
 10
-630.2544015108313
 20
-82.30000000000001
 30
0.0
 11
-630.5000000000001
 21
-82.33062774507603
 31
0.0
  0
LINE
  5
191
  8
1
  6
CONTINUOUS
 62
     7
 10
-630.5000000000001
 20
-197.669372254924
 30
0.0
 11
-630.2544015108313
 21
-197.7
 31
0.0
  0
LINE
  5
192
  8
1
  6
CONTINUOUS
 62
     7
 10
-630.2544015108311
 20
-82.30000000000001
 30
0.0
 11
-624.7455984891686
 21
-82.30000000000001
 31
0.0
  0
LINE
  5
193
  8
1
  6
CONTINUOUS
 62
     7
 10
-624.7455984891687
 20
-197.7
 30
0.0
 11
-630.2544015108313
 21
-197.7
 31
0.0
  0
LINE
  5
194
  8
1
  6
CONTINUOUS
 62
     7
 10
-676.1999999999999
 20
-87.29969538451337
 30
0.0
 11
-676.1999999999999
 21
-192.7003046154867
 31
0.0
  0
LINE
  5
195
  8
1
  6
CONTINUOUS
 62
     7
 10
-668.2003046154865
 20
-79.30000000000001
 30
0.0
 11
-669.7610002195033
 21
-79.45370875328747
 31
0.0
  0
LINE
  5
196
  8
1
  6
CONTINUOUS
 62
     7
 10
-669.7610002195033
 20
-79.45370875328747
 30
0.0
 11
-671.2617015526375
 21
-79.90892864284565
 31
0.0
  0
LINE
  5
197
  8
1
  6
CONTINUOUS
 62
     7
 10
-671.2617015526375
 20
-79.90892864284565
 30
0.0
 11
-672.6447430779563
 21
-80.64816751432357
 31
0.0
  0
LINE
  5
198
  8
1
  6
CONTINUOUS
 62
     7
 10
-672.6447430779563
 20
-80.64816751432357
 30
0.0
 11
-673.8569804219611
 21
-81.64301957803877
 31
0.0
  0
LINE
  5
199
  8
1
  6
CONTINUOUS
 62
     7
 10
-673.8569804219611
 20
-81.64301957803877
 30
0.0
 11
-674.8518324856764
 21
-82.85525692204365
 31
0.0
  0
LINE
  5
19A
  8
1
  6
CONTINUOUS
 62
     7
 10
-674.8518324856764
 20
-82.85525692204365
 30
0.0
 11
-675.5910713571543
 21
-84.23829844736237
 31
0.0
  0
LINE
  5
19B
  8
1
  6
CONTINUOUS
 62
     7
 10
-675.5910713571543
 20
-84.23829844736237
 30
0.0
 11
-676.0462912467125
 21
-85.73899978049647
 31
0.0
  0
LINE
  5
19C
  8
1
  6
CONTINUOUS
 62
     7
 10
-676.0462912467125
 20
-85.73899978049647
 30
0.0
 11
-676.1999999999999
 21
-87.29969538451337
 31
0.0
  0
LINE
  5
19D
  8
1
  6
CONTINUOUS
 62
     7
 10
-586.7996953845133
 20
-79.30000000000001
 30
0.0
 11
-668.2003046154865
 21
-79.30000000000001
 31
0.0
  0
LINE
  5
19E
  8
1
  6
CONTINUOUS
 62
     7
 10
-578.8
 20
-87.2996953845134
 30
0.0
 11
-578.9537087532875
 21
-85.73899978049653
 31
0.0
  0
LINE
  5
19F
  8
1
  6
CONTINUOUS
 62
     7
 10
-578.9537087532875
 20
-85.73899978049653
 30
0.0
 11
-579.4089286428456
 21
-84.2382984473624
 31
0.0
  0
LINE
  5
1A0
  8
1
  6
CONTINUOUS
 62
     7
 10
-579.4089286428456
 20
-84.2382984473624
 30
0.0
 11
-580.1481675143235
 21
-82.85525692204368
 31
0.0
  0
LINE
  5
1A1
  8
1
  6
CONTINUOUS
 62
     7
 10
-580.1481675143235
 20
-82.85525692204368
 30
0.0
 11
-581.1430195780388
 21
-81.64301957803879
 31
0.0
  0
LINE
  5
1A2
  8
1
  6
CONTINUOUS
 62
     7
 10
-581.1430195780388
 20
-81.64301957803879
 30
0.0
 11
-582.3552569220436
 21
-80.64816751432359
 31
0.0
  0
LINE
  5
1A3
  8
1
  6
CONTINUOUS
 62
     7
 10
-582.3552569220436
 20
-80.64816751432359
 30
0.0
 11
-583.7382984473624
 21
-79.90892864284564
 31
0.0
  0
LINE
  5
1A4
  8
1
  6
CONTINUOUS
 62
     7
 10
-583.7382984473624
 20
-79.90892864284564
 30
0.0
 11
-585.2389997804966
 21
-79.45370875328749
 31
0.0
  0
LINE
  5
1A5
  8
1
  6
CONTINUOUS
 62
     7
 10
-585.2389997804966
 20
-79.45370875328749
 30
0.0
 11
-586.7996953845134
 21
-79.30000000000001
 31
0.0
  0
LINE
  5
1A6
  8
1
  6
CONTINUOUS
 62
     7
 10
-578.8
 20
-192.7003046154867
 30
0.0
 11
-578.8
 21
-87.29969538451337
 31
0.0
  0
LINE
  5
1A7
  8
1
  6
CONTINUOUS
 62
     7
 10
-586.7996953845134
 20
-200.7
 30
0.0
 11
-585.2389997804966
 21
-200.5462912467125
 31
0.0
  0
LINE
  5
1A8
  8
1
  6
CONTINUOUS
 62
     7
 10
-585.2389997804966
 20
-200.5462912467125
 30
0.0
 11
-583.7382984473624
 21
-200.0910713571544
 31
0.0
  0
LINE
  5
1A9
  8
1
  6
CONTINUOUS
 62
     7
 10
-583.7382984473624
 20
-200.0910713571544
 30
0.0
 11
-582.3552569220436
 21
-199.3518324856764
 31
0.0
  0
LINE
  5
1AA
  8
1
  6
CONTINUOUS
 62
     7
 10
-582.3552569220436
 20
-199.3518324856764
 30
0.0
 11
-581.1430195780388
 21
-198.3569804219612
 31
0.0
  0
LINE
  5
1AB
  8
1
  6
CONTINUOUS
 62
     7
 10
-581.1430195780388
 20
-198.3569804219612
 30
0.0
 11
-580.1481675143235
 21
-197.1447430779564
 31
0.0
  0
LINE
  5
1AC
  8
1
  6
CONTINUOUS
 62
     7
 10
-580.1481675143235
 20
-197.1447430779564
 30
0.0
 11
-579.4089286428456
 21
-195.7617015526376
 31
0.0
  0
LINE
  5
1AD
  8
1
  6
CONTINUOUS
 62
     7
 10
-579.4089286428456
 20
-195.7617015526376
 30
0.0
 11
-578.9537087532874
 21
-194.2610002195035
 31
0.0
  0
LINE
  5
1AE
  8
1
  6
CONTINUOUS
 62
     7
 10
-578.9537087532874
 20
-194.2610002195035
 30
0.0
 11
-578.8
 21
-192.7003046154867
 31
0.0
  0
LINE
  5
1AF
  8
1
  6
CONTINUOUS
 62
     7
 10
-668.2003046154866
 20
-200.7
 30
0.0
 11
-586.7996953845134
 21
-200.7
 31
0.0
  0
LINE
  5
1B0
  8
1
  6
CONTINUOUS
 62
     7
 10
-676.2
 20
-192.7003046154866
 30
0.0
 11
-676.0462912467125
 21
-194.2610002195035
 31
0.0
  0
LINE
  5
1B1
  8
1
  6
CONTINUOUS
 62
     7
 10
-676.0462912467125
 20
-194.2610002195035
 30
0.0
 11
-675.5910713571544
 21
-195.7617015526376
 31
0.0
  0
LINE
  5
1B2
  8
1
  6
CONTINUOUS
 62
     7
 10
-675.5910713571544
 20
-195.7617015526376
 30
0.0
 11
-674.8518324856765
 21
-197.1447430779563
 31
0.0
  0
LINE
  5
1B3
  8
1
  6
CONTINUOUS
 62
     7
 10
-674.8518324856765
 20
-197.1447430779563
 30
0.0
 11
-673.8569804219612
 21
-198.3569804219612
 31
0.0
  0
LINE
  5
1B4
  8
1
  6
CONTINUOUS
 62
     7
 10
-673.8569804219612
 20
-198.3569804219612
 30
0.0
 11
-672.6447430779564
 21
-199.3518324856764
 31
0.0
  0
LINE
  5
1B5
  8
1
  6
CONTINUOUS
 62
     7
 10
-672.6447430779564
 20
-199.3518324856764
 30
0.0
 11
-671.2617015526376
 21
-200.0910713571544
 31
0.0
  0
LINE
  5
1B6
  8
1
  6
CONTINUOUS
 62
     7
 10
-671.2617015526376
 20
-200.0910713571544
 30
0.0
 11
-669.7610002195036
 21
-200.5462912467125
 31
0.0
  0
LINE
  5
1B7
  8
1
  6
CONTINUOUS
 62
     7
 10
-669.7610002195036
 20
-200.5462912467125
 30
0.0
 11
-668.2003046154866
 21
-200.7
 31
0.0
  0
LINE
  5
1B8
  8
1
  6
CONTINUOUS
 62
     7
 10
-621.25
 20
-98.25
 30
0.0
 11
-621.25
 21
-83.30440151228112
 31
0.0
  0
ARC
  5
1B9
  8
1
  6
CONTINUOUS
 62
     7
 10
-626.25
 20
-98.25
 30
0.0
 40
4.999999999999997
 50
270.0
 51
0.0
  0
LINE
  5
1BA
  8
1
  6
CONTINUOUS
 62
     7
 10
-628.7499999999999
 20
-103.25
 30
0.0
 11
-626.25
 21
-103.25
 31
0.0
  0
ARC
  5
1BB
  8
1
  6
CONTINUOUS
 62
     7
 10
-628.7499999999999
 20
-98.25
 30
0.0
 40
5.0
 50
180.0
 51
270.0
  0
LINE
  5
1BC
  8
1
  6
CONTINUOUS
 62
     7
 10
-633.7499999999999
 20
-83.30440151228113
 30
0.0
 11
-633.7499999999999
 21
-98.25
 31
0.0
  0
CIRCLE
  5
1BD
  8
1
  6
CONTINUOUS
 62
     7
 10
-627.4999999999999
 20
-98.25
 30
0.0
 40
3.499999999999999
  0
LINE
  5
1BE
  8
1
  6
CONTINUOUS
 62
     7
 10
-633.7499999999999
 20
-196.6955984877189
 30
0.0
 11
-633.7499999999999
 21
-181.75
 31
0.0
  0
ARC
  5
1BF
  8
1
  6
CONTINUOUS
 62
     7
 10
-628.7499999999999
 20
-181.75
 30
0.0
 40
4.999999999999997
 50
90.0
 51
180.0
  0
LINE
  5
1C0
  8
1
  6
CONTINUOUS
 62
     7
 10
-628.7499999999999
 20
-176.75
 30
0.0
 11
-626.25
 21
-176.75
 31
0.0
  0
ARC
  5
1C1
  8
1
  6
CONTINUOUS
 62
     7
 10
-626.25
 20
-181.75
 30
0.0
 40
5.0
 50
0.0
 51
90.0
  0
LINE
  5
1C2
  8
1
  6
CONTINUOUS
 62
     7
 10
-621.25
 20
-181.75
 30
0.0
 11
-621.25
 21
-196.6955984877189
 31
0.0
  0
CIRCLE
  5
1C3
  8
1
  6
CONTINUOUS
 62
     7
 10
-627.4999999999999
 20
-181.75
 30
0.0
 40
3.499999999999999
  0
CIRCLE
  5
1C4
  8
1
  6
CONTINUOUS
 62
     7
 10
-627.4999999999999
 20
-140.0
 30
0.0
 40
13.56221761490706
  0
CIRCLE
  5
1C5
  8
1
  6
CONTINUOUS
 62
     7
 10
-597.4999999999999
 20
-98.25
 30
0.0
 40
2.499999999999999
  0
CIRCLE
  5
1C6
  8
1
  6
CONTINUOUS
 62
     7
 10
-657.5
 20
-98.25
 30
0.0
 40
2.499999999999995
  0
CIRCLE
  5
1C7
  8
1
  6
CONTINUOUS
 62
     7
 10
-657.5
 20
-181.75
 30
0.0
 40
2.500000000000002
  0
CIRCLE
  5
1C8
  8
1
  6
CONTINUOUS
 62
     7
 10
-597.4999999999999
 20
-181.75
 30
0.0
 40
2.499999999999999
  0
CIRCLE
  5
1C9
  8
1
  6
CONTINUOUS
 62
     7
 10
-605.4999999999999
 20
-140.0
 30
0.0
 40
2.500000000000002
  0
CIRCLE
  5
1CA
  8
1
  6
CONTINUOUS
 62
     7
 10
-649.5
 20
-140.0
 30
0.0
 40
2.499999999999999
  0
CIRCLE
  5
1CB
  8
1
  6
CONTINUOUS
 62
     7
 10
-627.4999999999999
 20
-140.0
 30
0.0
 40
12.40000000000001
  0
LINE
  5
1CC
  8
1
  6
CONTINUOUS
 62
     7
 10
-675.7723834782528
 20
-275.9
 30
0.0
 11
-676.1999999999999
 21
-226.9
 31
0.0
  0
LINE
  5
1CD
  8
1
  6
CONTINUOUS
 62
     7
 10
-676.2
 20
-226.9
 30
0.0
 11
-668.2003046154866
 21
-226.9
 31
0.0
  0
LINE
  5
1CE
  8
1
  6
CONTINUOUS
 62
     7
 10
-667.7726880937394
 20
-275.9
 30
0.0
 11
-675.7723834782528
 21
-275.9
 31
0.0
  0
LINE
  5
1CF
  8
1
  6
CONTINUOUS
 62
     7
 10
-613.9528713246937
 20
-253.9
 30
0.0
 11
-614.213175603531
 21
-251.2571869383958
 31
0.0
  0
LINE
  5
1D0
  8
1
  6
CONTINUOUS
 62
     7
 10
-614.213175603531
 20
-251.2571869383958
 30
0.0
 11
-614.9840850925876
 21
-248.7159357006423
 31
0.0
  0
LINE
  5
1D1
  8
1
  6
CONTINUOUS
 62
     7
 10
-614.9840850925876
 20
-248.7159357006423
 30
0.0
 11
-616.2359741725303
 21
-246.3739051466565
 31
0.0
  0
LINE
  5
1D2
  8
1
  6
CONTINUOUS
 62
     7
 10
-616.2359741725303
 20
-246.3739051466565
 30
0.0
 11
-617.9207334480841
 21
-244.321098197202
 31
0.0
  0
LINE
  5
1D3
  8
1
  6
CONTINUOUS
 62
     7
 10
-617.9207334480841
 20
-244.321098197202
 30
0.0
 11
-619.9736185651135
 21
-242.636403072119
 31
0.0
  0
LINE
  5
1D4
  8
1
  6
CONTINUOUS
 62
     7
 10
-619.9736185651135
 20
-242.636403072119
 30
0.0
 11
-622.3157382998421
 21
-241.3845616602766
 31
0.0
  0
LINE
  5
1D5
  8
1
  6
CONTINUOUS
 62
     7
 10
-622.3157382998421
 20
-241.3845616602766
 30
0.0
 11
-624.8570863043404
 21
-240.613681525091
 31
0.0
  0
LINE
  5
1D6
  8
1
  6
CONTINUOUS
 62
     7
 10
-624.8570863043404
 20
-240.613681525091
 30
0.0
 11
-627.4999999999999
 21
-240.353387157843
 31
0.0
  0
LINE
  5
1D7
  8
1
  6
CONTINUOUS
 62
     7
 10
-627.4999999999999
 20
-240.353387157843
 30
0.0
 11
-630.1429136956593
 21
-240.613681525091
 31
0.0
  0
LINE
  5
1D8
  8
1
  6
CONTINUOUS
 62
     7
 10
-630.1429136956593
 20
-240.613681525091
 30
0.0
 11
-632.6842617001577
 21
-241.3845616602766
 31
0.0
  0
LINE
  5
1D9
  8
1
  6
CONTINUOUS
 62
     7
 10
-632.6842617001577
 20
-241.3845616602766
 30
0.0
 11
-635.0263814348863
 21
-242.636403072119
 31
0.0
  0
LINE
  5
1DA
  8
1
  6
CONTINUOUS
 62
     7
 10
-635.0263814348863
 20
-242.636403072119
 30
0.0
 11
-637.0792665519157
 21
-244.321098197202
 31
0.0
  0
LINE
  5
1DB
  8
1
  6
CONTINUOUS
 62
     7
 10
-637.0792665519157
 20
-244.321098197202
 30
0.0
 11
-638.7640258274695
 21
-246.3739051466565
 31
0.0
  0
LINE
  5
1DC
  8
1
  6
CONTINUOUS
 62
     7
 10
-638.7640258274695
 20
-246.3739051466565
 30
0.0
 11
-640.0159149074121
 21
-248.7159357006423
 31
0.0
  0
LINE
  5
1DD
  8
1
  6
CONTINUOUS
 62
     7
 10
-640.0159149074121
 20
-248.7159357006423
 30
0.0
 11
-640.7868243964688
 21
-251.2571869383958
 31
0.0
  0
LINE
  5
1DE
  8
1
  6
CONTINUOUS
 62
     7
 10
-640.7868243964688
 20
-251.2571869383958
 30
0.0
 11
-641.0471286753061
 21
-253.9
 31
0.0
  0
LINE
  5
1DF
  8
1
  6
CONTINUOUS
 62
     7
 10
-641.0471286753061
 20
-253.9
 30
0.0
 11
-640.7868243964688
 21
-256.5428130616042
 31
0.0
  0
LINE
  5
1E0
  8
1
  6
CONTINUOUS
 62
     7
 10
-640.7868243964688
 20
-256.5428130616042
 30
0.0
 11
-640.0159149074121
 21
-259.0840642993577
 31
0.0
  0
LINE
  5
1E1
  8
1
  6
CONTINUOUS
 62
     7
 10
-640.0159149074121
 20
-259.0840642993577
 30
0.0
 11
-638.7640258274695
 21
-261.4260948533436
 31
0.0
  0
LINE
  5
1E2
  8
1
  6
CONTINUOUS
 62
     7
 10
-638.7640258274695
 20
-261.4260948533436
 30
0.0
 11
-637.0792665519157
 21
-263.478901802798
 31
0.0
  0
LINE
  5
1E3
  8
1
  6
CONTINUOUS
 62
     7
 10
-637.0792665519157
 20
-263.478901802798
 30
0.0
 11
-635.0263814348863
 21
-265.163596927881
 31
0.0
  0
LINE
  5
1E4
  8
1
  6
CONTINUOUS
 62
     7
 10
-635.0263814348863
 20
-265.163596927881
 30
0.0
 11
-632.6842617001575
 21
-266.4154383397234
 31
0.0
  0
LINE
  5
1E5
  8
1
  6
CONTINUOUS
 62
     7
 10
-632.6842617001575
 20
-266.4154383397234
 30
0.0
 11
-630.1429136956593
 21
-267.186318474909
 31
0.0
  0
LINE
  5
1E6
  8
1
  6
CONTINUOUS
 62
     7
 10
-630.1429136956593
 20
-267.186318474909
 30
0.0
 11
-627.4999999999999
 21
-267.446612842157
 31
0.0
  0
LINE
  5
1E7
  8
1
  6
CONTINUOUS
 62
     7
 10
-627.4999999999999
 20
-267.446612842157
 30
0.0
 11
-624.8570863043404
 21
-267.186318474909
 31
0.0
  0
LINE
  5
1E8
  8
1
  6
CONTINUOUS
 62
     7
 10
-624.8570863043404
 20
-267.186318474909
 30
0.0
 11
-622.3157382998421
 21
-266.4154383397234
 31
0.0
  0
LINE
  5
1E9
  8
1
  6
CONTINUOUS
 62
     7
 10
-622.3157382998421
 20
-266.4154383397234
 30
0.0
 11
-619.9736185651134
 21
-265.163596927881
 31
0.0
  0
LINE
  5
1EA
  8
1
  6
CONTINUOUS
 62
     7
 10
-619.9736185651134
 20
-265.163596927881
 30
0.0
 11
-617.9207334480841
 21
-263.478901802798
 31
0.0
  0
LINE
  5
1EB
  8
1
  6
CONTINUOUS
 62
     7
 10
-617.9207334480841
 20
-263.478901802798
 30
0.0
 11
-616.2359741725303
 21
-261.4260948533435
 31
0.0
  0
LINE
  5
1EC
  8
1
  6
CONTINUOUS
 62
     7
 10
-616.2359741725303
 20
-261.4260948533435
 30
0.0
 11
-614.9840850925876
 21
-259.0840642993576
 31
0.0
  0
LINE
  5
1ED
  8
1
  6
CONTINUOUS
 62
     7
 10
-614.9840850925876
 20
-259.0840642993576
 30
0.0
 11
-614.213175603531
 21
-256.5428130616042
 31
0.0
  0
LINE
  5
1EE
  8
1
  6
CONTINUOUS
 62
     7
 10
-614.213175603531
 20
-256.5428130616042
 30
0.0
 11
-613.9528713246937
 21
-253.9
 31
0.0
  0
LINE
  5
1EF
  8
1
  6
CONTINUOUS
 62
     7
 10
-667.7726880937394
 20
-275.9
 30
0.0
 11
-587.2273119062605
 21
-275.9
 31
0.0
  0
LINE
  5
1F0
  8
1
  6
CONTINUOUS
 62
     7
 10
-668.2003046154866
 20
-226.9
 30
0.0
 11
-586.7996953845134
 21
-226.9
 31
0.0
  0
LINE
  5
1F1
  8
1
  6
CONTINUOUS
 62
     7
 10
-578.8
 20
-226.9
 30
0.0
 11
-579.2276165217471
 21
-275.9
 31
0.0
  0
LINE
  5
1F2
  8
1
  6
CONTINUOUS
 62
     7
 10
-579.2276165217471
 20
-275.9
 30
0.0
 11
-587.2273119062605
 21
-275.9
 31
0.0
  0
LINE
  5
1F3
  8
1
  6
CONTINUOUS
 62
     7
 10
-586.7996953845134
 20
-226.9
 30
0.0
 11
-578.8
 21
-226.9
 31
0.0
  0
LINE
  5
1F4
  8
1
  6
CONTINUOUS
 62
     7
 10
-627.4999999999999
 20
-242.1874335641598
 30
0.0
 11
-629.7632103709826
 21
-242.4103573065197
 31
0.0
  0
LINE
  5
1F5
  8
1
  6
CONTINUOUS
 62
     7
 10
-629.7632103709826
 20
-242.4103573065197
 30
0.0
 11
-631.9394468366314
 21
-243.0705616991975
 31
0.0
  0
LINE
  5
1F6
  8
1
  6
CONTINUOUS
 62
     7
 10
-631.9394468366314
 20
-243.0705616991975
 30
0.0
 11
-633.945077850019
 21
-244.1426754576295
 31
0.0
  0
LINE
  5
1F7
  8
1
  6
CONTINUOUS
 62
     7
 10
-633.945077850019
 20
-244.1426754576295
 30
0.0
 11
-635.7030281360716
 21
-245.5854978513275
 31
0.0
  0
LINE
  5
1F8
  8
1
  6
CONTINUOUS
 62
     7
 10
-635.7030281360716
 20
-245.5854978513275
 30
0.0
 11
-637.1457406511661
 21
-247.3435820248458
 31
0.0
  0
LINE
  5
1F9
  8
1
  6
CONTINUOUS
 62
     7
 10
-637.1457406511661
 20
-247.3435820248458
 30
0.0
 11
-638.2177727624301
 21
-249.349365789341
 31
0.0
  0
LINE
  5
1FA
  8
1
  6
CONTINUOUS
 62
     7
 10
-638.2177727624301
 20
-249.349365789341
 30
0.0
 11
-638.87792687703
 21
-251.5257679996001
 31
0.0
  0
LINE
  5
1FB
  8
1
  6
CONTINUOUS
 62
     7
 10
-638.87792687703
 20
-251.5257679996001
 30
0.0
 11
-639.1008336425606
 21
-253.7891507392233
 31
0.0
  0
LINE
  5
1FC
  8
1
  6
CONTINUOUS
 62
     7
 10
-639.1008336425606
 20
-253.7891507392233
 30
0.0
 11
-638.87792687703
 21
-256.0525334788465
 31
0.0
  0
LINE
  5
1FD
  8
1
  6
CONTINUOUS
 62
     7
 10
-638.87792687703
 20
-256.0525334788465
 30
0.0
 11
-638.2177727624301
 21
-258.2289356891056
 31
0.0
  0
LINE
  5
1FE
  8
1
  6
CONTINUOUS
 62
     7
 10
-638.2177727624301
 20
-258.2289356891056
 30
0.0
 11
-637.1457406511661
 21
-260.2347194536009
 31
0.0
  0
LINE
  5
1FF
  8
1
  6
CONTINUOUS
 62
     7
 10
-637.1457406511661
 20
-260.2347194536009
 30
0.0
 11
-635.7030281360716
 21
-261.9928036271191
 31
0.0
  0
LINE
  5
200
  8
1
  6
CONTINUOUS
 62
     7
 10
-635.7030281360716
 20
-261.9928036271191
 30
0.0
 11
-633.945077850019
 21
-263.4356260208172
 31
0.0
  0
LINE
  5
201
  8
1
  6
CONTINUOUS
 62
     7
 10
-633.945077850019
 20
-263.4356260208172
 30
0.0
 11
-631.9394468366314
 21
-264.5077397792491
 31
0.0
  0
LINE
  5
202
  8
1
  6
CONTINUOUS
 62
     7
 10
-631.9394468366314
 20
-264.5077397792491
 30
0.0
 11
-629.7632103709826
 21
-265.1679441719269
 31
0.0
  0
LINE
  5
203
  8
1
  6
CONTINUOUS
 62
     7
 10
-629.7632103709826
 20
-265.1679441719269
 30
0.0
 11
-627.4999999999999
 21
-265.3908679142868
 31
0.0
  0
LINE
  5
204
  8
1
  6
CONTINUOUS
 62
     7
 10
-627.4999999999999
 20
-265.3908679142868
 30
0.0
 11
-625.2367896290172
 21
-265.1679441719269
 31
0.0
  0
LINE
  5
205
  8
1
  6
CONTINUOUS
 62
     7
 10
-625.2367896290172
 20
-265.1679441719269
 30
0.0
 11
-623.0605531633684
 21
-264.5077397792491
 31
0.0
  0
LINE
  5
206
  8
1
  6
CONTINUOUS
 62
     7
 10
-623.0605531633684
 20
-264.5077397792491
 30
0.0
 11
-621.0549221499808
 21
-263.4356260208171
 31
0.0
  0
LINE
  5
207
  8
1
  6
CONTINUOUS
 62
     7
 10
-621.0549221499808
 20
-263.4356260208171
 30
0.0
 11
-619.2969718639282
 21
-261.9928036271191
 31
0.0
  0
LINE
  5
208
  8
1
  6
CONTINUOUS
 62
     7
 10
-619.2969718639282
 20
-261.9928036271191
 30
0.0
 11
-617.8542593488336
 21
-260.2347194536009
 31
0.0
  0
LINE
  5
209
  8
1
  6
CONTINUOUS
 62
     7
 10
-617.8542593488336
 20
-260.2347194536009
 30
0.0
 11
-616.7822272375697
 21
-258.2289356891056
 31
0.0
  0
LINE
  5
20A
  8
1
  6
CONTINUOUS
 62
     7
 10
-616.7822272375697
 20
-258.2289356891056
 30
0.0
 11
-616.1220731229698
 21
-256.0525334788465
 31
0.0
  0
LINE
  5
20B
  8
1
  6
CONTINUOUS
 62
     7
 10
-616.1220731229698
 20
-256.0525334788465
 30
0.0
 11
-615.8991663574392
 21
-253.7891507392233
 31
0.0
  0
LINE
  5
20C
  8
1
  6
CONTINUOUS
 62
     7
 10
-615.8991663574392
 20
-253.7891507392233
 30
0.0
 11
-616.1220731229698
 21
-251.5257679996001
 31
0.0
  0
LINE
  5
20D
  8
1
  6
CONTINUOUS
 62
     7
 10
-616.1220731229698
 20
-251.5257679996001
 30
0.0
 11
-616.7822272375697
 21
-249.349365789341
 31
0.0
  0
LINE
  5
20E
  8
1
  6
CONTINUOUS
 62
     7
 10
-616.7822272375697
 20
-249.349365789341
 30
0.0
 11
-617.8542593488337
 21
-247.3435820248457
 31
0.0
  0
LINE
  5
20F
  8
1
  6
CONTINUOUS
 62
     7
 10
-617.8542593488337
 20
-247.3435820248457
 30
0.0
 11
-619.2969718639282
 21
-245.5854978513275
 31
0.0
  0
LINE
  5
210
  8
1
  6
CONTINUOUS
 62
     7
 10
-619.2969718639282
 20
-245.5854978513275
 30
0.0
 11
-621.0549221499808
 21
-244.1426754576295
 31
0.0
  0
LINE
  5
211
  8
1
  6
CONTINUOUS
 62
     7
 10
-621.0549221499808
 20
-244.1426754576295
 30
0.0
 11
-623.0605531633684
 21
-243.0705616991975
 31
0.0
  0
LINE
  5
212
  8
1
  6
CONTINUOUS
 62
     7
 10
-623.0605531633684
 20
-243.0705616991975
 30
0.0
 11
-625.2367896290173
 21
-242.4103573065197
 31
0.0
  0
LINE
  5
213
  8
1
  6
CONTINUOUS
 62
     7
 10
-625.2367896290173
 20
-242.4103573065197
 30
0.0
 11
-627.4999999999999
 21
-242.1874335641598
 31
0.0
  0
LINE
  5
214
  8
1
  6
CONTINUOUS
 62
     7
 10
-586.824199152812
 20
-224.1
 30
0.0
 11
-583.9827685631475
 21
-224.1
 31
0.0
  0
LINE
  5
215
  8
1
  6
CONTINUOUS
 62
     7
 10
-671.0172314368525
 20
-224.1
 30
0.0
 11
-668.1758008471879
 21
-224.1
 31
0.0
  0
LINE
  5
216
  8
1
  6
CONTINUOUS
 62
     7
 10
-624.4755647701859
 20
-224.1
 30
0.0
 11
-624.4999999999999
 21
-226.9
 31
0.0
  0
LINE
  5
217
  8
1
  6
CONTINUOUS
 62
     7
 10
-624.4755647701859
 20
-224.1
 30
0.0
 11
-586.824199152812
 21
-224.1
 31
0.0
  0
LINE
  5
218
  8
1
  6
CONTINUOUS
 62
     7
 10
-668.1758008471879
 20
-224.1
 30
0.0
 11
-630.524435229814
 21
-224.1
 31
0.0
  0
LINE
  5
219
  8
1
  6
CONTINUOUS
 62
     7
 10
-630.524435229814
 20
-224.1
 30
0.0
 11
-630.4999999999999
 21
-226.9
 31
0.0
  0
LINE
  5
21A
  8
1
  6
CONTINUOUS
 62
     7
 10
-581.274435229814
 20
-224.1
 30
0.0
 11
-581.2499999999999
 21
-226.9
 31
0.0
  0
LINE
  5
21B
  8
1
  6
CONTINUOUS
 62
     7
 10
-583.9827685631475
 20
-224.1
 30
0.0
 11
-581.274435229814
 21
-224.1
 31
0.0
  0
LINE
  5
21C
  8
1
  6
CONTINUOUS
 62
     7
 10
-673.75
 20
-226.9
 30
0.0
 11
-673.7255647701859
 21
-224.1
 31
0.0
  0
LINE
  5
21D
  8
1
  6
CONTINUOUS
 62
     7
 10
-673.7255647701859
 20
-224.1
 30
0.0
 11
-671.0172314368525
 21
-224.1
 31
0.0
  0
LINE
  5
21E
  8
1
  6
CONTINUOUS
 62
     7
 10
-637.2481786824433
 20
-262.2133581382296
 30
0.0
 11
-637.2480240900468
 21
-262.2134221700588
 31
0.0
  0
LINE
  5
21F
  8
1
  6
CONTINUOUS
 62
     7
 10
-624.4755647701859
 20
-224.1
 30
0.0
 11
-630.524435229814
 21
-224.1
 31
0.0
  0
ENDSEC
  0
EOF
