  0
SECTION
  2
HEADER
  9
$ACADVER
  1
AC1006
  9
$DWGCODEPAGE
  3
ansi_932
  9
$INSBASE
 10
0.0
 20
0.0
 30
0.0
  9
$EXTMIN
 10
334.9999999999999
 20
67.3409090909091
  9
$EXTMAX
 10
499.5376871560977
 20
384.5376871560978
  9
$LIMMIN
 10
0.0
 20
0.0
  9
$LIMMAX
 10
12.0
 20
9.0
  9
$ORTHOMODE
 70
     0
  9
$REGENMODE
 70
     1
  9
$FILLMODE
 70
     1
  9
$QTEXTMODE
 70
     0
  9
$MIRRTEXT
 70
     1
  9
$DRAGMODE
 70
     2
  9
$LTSCALE
 40
1.0
  9
$OSMODE
 70
    37
  9
$ATTMODE
 70
     1
  9
$TEXTSIZE
 40
0.2
  9
$TRACEWID
 40
0.05
  9
$TEXTSTYLE
  7
STANDARD
  9
$CLAYER
  8
0
  9
$CELTYPE
  6
BYLAYER
  9
$CECOLOR
 62
   256
  9
$DIMSCALE
 40
1.0
  9
$DIMASZ
 40
3.0
  9
$DIMEXO
 40
0.0625
  9
$DIMDLI
 40
0.38
  9
$DIMRND
 40
0.0
  9
$DIMDLE
 40
0.0
  9
$DIMEXE
 40
1.5
  9
$DIMTP
 40
0.0
  9
$DIMTM
 40
0.0
  9
$DIMTXT
 40
3.0
  9
$DIMCEN
 40
0.09
  9
$DIMTSZ
 40
0.0
  9
$DIMTOL
 70
     0
  9
$DIMLIM
 70
     0
  9
$DIMTIH
 70
     1
  9
$DIMTOH
 70
     1
  9
$DIMSE1
 70
     0
  9
$DIMSE2
 70
     0
  9
$DIMTAD
 70
     1
  9
$DIMZIN
 70
     0
  9
$DIMBLK
  1

  9
$DIMASO
 70
     1
  9
$DIMSHO
 70
     1
  9
$DIMPOST
  1

  9
$DIMAPOST
  1

  9
$DIMALT
 70
     0
  9
$DIMALTD
 70
     2
  9
$DIMALTF
 40
25.4
  9
$DIMLFAC
 40
1.0
  9
$DIMTOFL
 70
     0
  9
$DIMTVP
 40
0.0
  9
$DIMTIX
 70
     0
  9
$DIMSOXD
 70
     0
  9
$DIMSAH
 70
     0
  9
$DIMBLK1
  1

  9
$DIMBLK2
  1

  9
$LUNITS
 70
     2
  9
$LUPREC
 70
     4
  9
$SKETCHINC
 40
0.1
  9
$FILLETRAD
 40
0.5
  9
$AUNITS
 70
     0
  9
$AUPREC
 70
     0
  9
$MENU
  1
.
  9
$ELEVATION
 40
0.0
  9
$THICKNESS
 40
0.0
  9
$LIMCHECK
 70
     0
  9
$CHAMFERA
 40
0.0
  9
$CHAMFERB
 40
0.0
  9
$SKPOLY
 70
     0
  9
$TDCREATE
 40
2459011.637014595
  9
$TDUPDATE
 40
2459011.637014595
  9
$TDINDWG
 40
0.0000000116
  9
$TDUSRTIMER
 40
0.0000000116
  9
$USRTIMER
 70
     1
  9
$ANGBASE
 50
0.0
  9
$ANGDIR
 70
     0
  9
$PDMODE
 70
     0
  9
$PDSIZE
 40
0.0
  9
$PLINEWID
 40
0.0
  9
$COORDS
 70
     1
  9
$SPLFRAME
 70
     0
  9
$SPLINETYPE
 70
     6
  9
$SPLINESEGS
 70
     8
  9
$ATTDIA
 70
     0
  9
$ATTREQ
 70
     1
  9
$HANDLING
 70
     1
  9
$HANDSEED
  5
2FC
  9
$SURFTAB1
 70
     6
  9
$SURFTAB2
 70
     6
  9
$SURFTYPE
 70
     6
  9
$SURFU
 70
     6
  9
$SURFV
 70
     6
  9
$UCSNAME
  2

  9
$UCSORG
 10
0.0
 20
0.0
 30
0.0
  9
$UCSXDIR
 10
1.0
 20
0.0
 30
0.0
  9
$UCSYDIR
 10
0.0
 20
1.0
 30
0.0
  9
$USERI1
 70
     0
  9
$USERI2
 70
     0
  9
$USERI3
 70
     0
  9
$USERI4
 70
     0
  9
$USERI5
 70
     0
  9
$USERR1
 40
0.0
  9
$USERR2
 40
0.0
  9
$USERR3
 40
0.0
  9
$USERR4
 40
0.0
  9
$USERR5
 40
0.0
  9
$WORLDVIEW
 70
     1
  0
ENDSEC
  0
SECTION
  2
TABLES
  0
TABLE
  2
VPORT
 70
     1
  0
VPORT
  2
*ACTIVE
 70
     0
 10
0.0
 20
0.0
 11
1.0
 21
1.0
 12
417.2688435780488
 22
225.9392981235034
 13
0.0
 23
0.0
 14
0.5
 24
0.5
 15
0.5
 25
0.5
 16
0.0
 26
0.0
 36
1.0
 17
0.0
 27
0.0
 37
0.0
 40
317.1967780651887
 41
1.6
 42
50.0
 43
0.0
 44
0.0
 50
0.0
 51
0.0
 71
     0
 72
   100
 73
     1
 74
     3
 75
     0
 76
     0
 77
     0
 78
     0
  0
ENDTAB
  0
TABLE
  2
LTYPE
 70
     1
  0
LTYPE
  2
CONTINUOUS
 70
     0
  3
Solid line
 72
    65
 73
     0
 40
0.0
  0
ENDTAB
  0
TABLE
  2
LAYER
 70
     1
  0
LAYER
  2
0
 70
     0
 62
     7
  6
CONTINUOUS
  0
ENDTAB
  0
TABLE
  2
STYLE
 70
     2
  0
STYLE
  2
STANDARD
 70
     0
 40
0.0
 41
1.0
 50
0.0
 71
     0
 42
0.2
  3
txt
  4

  0
STYLE
  2
ＭＳ_ゴシック
 70
     0
 40
0.0
 41
1.0
 50
0.0
 71
     0
 42
0.2
  3
ＭＳ ゴシック.shx
  4

  0
ENDTAB
  0
TABLE
  2
VIEW
 70
     0
  0
ENDTAB
  0
TABLE
  2
UCS
 70
     0
  0
ENDTAB
  0
ENDSEC
  0
SECTION
  2
BLOCKS
  0
BLOCK
  8
0
  2
D_FRAME_VIEW_5100
 70
     0
 10
0.0
 20
0.0
 30
0.0
  0
LINE
  5
70
  8
0
  6
CONTINUOUS
 62
     7
 10
460.5376871560977
 20
287.5
 30
0.0
 11
497.5551402270945
 21
287.1769535810988
 31
0.0
  0
ARC
  5
71
  8
0
  6
CONTINUOUS
 62
     7
 10
497.5376871560977
 20
285.1770297349705
 30
0.0
 40
2.000000000000006
 50
0.0
 51
89.49999999999989
  0
ARC
  5
72
  8
0
  6
CONTINUOUS
 62
     7
 10
497.5376871560977
 20
159.5
 30
0.0
 40
2.000000000000002
 50
270.0
 51
0.0
  0
LINE
  5
73
  8
0
  6
CONTINUOUS
 62
     7
 10
474.0376871560977
 20
317.5
 30
0.0
 11
499.0376871560976
 21
317.5
 31
0.0
  0
ARC
  5
74
  8
0
  6
CONTINUOUS
 62
     7
 10
472.5376871560977
 20
288.3953156648967
 30
0.0
 40
1.000000000000001
 50
269.5000000000001
 51
0.0
  0
LINE
  5
75
  8
0
  6
CONTINUOUS
 62
     7
 10
499.5376871560977
 20
285.5
 30
0.0
 11
499.5376871560977
 21
317.0
 31
0.0
  0
LINE
  5
76
  8
0
  6
CONTINUOUS
 62
     7
 10
473.5376871560977
 20
317.0
 30
0.0
 11
473.5376871560977
 21
288.3953156648967
 31
0.0
  0
ARC
  5
77
  8
0
  6
CONTINUOUS
 62
     7
 10
499.0376871560976
 20
317.0
 30
0.0
 40
0.500000000000056
 50
0.0
 51
89.9999999999992
  0
ARC
  5
78
  8
0
  6
CONTINUOUS
 62
     7
 10
474.0376871560977
 20
317.0
 30
0.0
 40
0.5000000000000004
 50
90.0000000000008
 51
180.0
  0
ENDBLK
  8
0
  0
BLOCK
  8
0
  2
D_FRAME_VIEW_5135
 70
     0
 10
0.0
 20
0.0
 30
0.0
  0
CIRCLE
  5
7D
  8
0
  6
CONTINUOUS
 62
     7
 10
372.5
 20
371.5376871560977
 30
0.0
 40
10.80000000000003
  0
LINE
  5
7E
  8
0
  6
CONTINUOUS
 62
     7
 10
371.4507443319528
 20
384.5114374462577
 30
0.0
 11
371.8513985395357
 21
384.5214969261723
 31
0.0
  0
LINE
  5
7F
  8
0
  6
CONTINUOUS
 62
     7
 10
373.1486014604644
 20
384.5214969261723
 30
0.0
 11
373.5492556680312
 21
384.5114374462586
 31
0.0
  0
LINE
  5
80
  8
0
  6
CONTINUOUS
 62
     7
 10
409.6769535810988
 20
382.5551402270945
 30
0.0
 11
410.0
 21
345.5376871560977
 31
0.0
  0
LINE
  5
81
  8
0
  6
CONTINUOUS
 62
     7
 10
335.0
 20
345.5376871560977
 30
0.0
 11
335.3230464189012
 21
382.5551402270945
 31
0.0
  0
ARC
  5
82
  8
0
  6
CONTINUOUS
 62
     7
 10
407.6770297349705
 20
382.5376871560978
 30
0.0
 40
2.000000000000006
 50
0.5000000000000828
 51
90.0
  0
ARC
  5
83
  8
0
  6
CONTINUOUS
 62
     7
 10
337.3229702650295
 20
382.5376871560978
 30
0.0
 40
2.000000000000006
 50
90.0
 51
179.4999999999999
  0
ENDBLK
  8
0
  0
BLOCK
  8
0
  2
D_FRAME_VIEW_4838
 70
     0
 10
0.0
 20
0.0
 30
0.0
  0
CIRCLE
  5
94
  8
0
  6
CONTINUOUS
 62
     7
 10
372.5
 20
178.05
 30
0.0
 40
2.25
  0
CIRCLE
  5
95
  8
0
  6
CONTINUOUS
 62
     7
 10
372.5
 20
178.05
 30
0.0
 40
1.65
  0
CIRCLE
  5
96
  8
0
  6
CONTINUOUS
 62
     7
 10
372.5
 20
261.55
 30
0.0
 40
2.25
  0
CIRCLE
  5
97
  8
0
  6
CONTINUOUS
 62
     7
 10
372.5
 20
261.55
 30
0.0
 40
1.65
  0
ARC
  5
98
  8
0
  6
CONTINUOUS
 62
     7
 10
400.0
 20
199.8
 30
0.0
 40
2.250000000000001
 50
347.1604115930959
 51
12.83958840690417
  0
ARC
  5
99
  8
0
  6
CONTINUOUS
 62
     7
 10
400.0
 20
199.8
 30
0.0
 40
2.250000000000005
 50
77.16041159309589
 51
102.8395884069042
  0
ARC
  5
9A
  8
0
  6
CONTINUOUS
 62
     7
 10
400.0
 20
199.8
 30
0.0
 40
2.250000000000001
 50
167.1604115930959
 51
192.8395884069041
  0
CIRCLE
  5
9B
  8
0
  6
CONTINUOUS
 62
     7
 10
400.0
 20
199.8
 30
0.0
 40
4.0
  0
ARC
  5
9C
  8
0
  6
CONTINUOUS
 62
     7
 10
398.7
 20
201.1
 30
0.0
 40
0.800000000000009
 50
270.0000000000005
 51
0.0
  0
LINE
  5
9D
  8
0
  6
CONTINUOUS
 62
     7
 10
398.7
 20
199.3
 30
0.0
 11
397.806258903152
 21
199.3
 31
0.0
  0
ARC
  5
9E
  8
0
  6
CONTINUOUS
 62
     7
 10
398.7
 20
198.5
 30
0.0
 40
0.800000000000002
 50
0.000000000000497
 51
90.00000000000026
  0
ARC
  5
9F
  8
0
  6
CONTINUOUS
 62
     7
 10
400.0
 20
199.8
 30
0.0
 40
2.250000000000005
 50
257.1604115930959
 51
282.8395884069041
  0
LINE
  5
A0
  8
0
  6
CONTINUOUS
 62
     7
 10
401.3
 20
200.3
 30
0.0
 11
402.193741096848
 21
200.3
 31
0.0
  0
LINE
  5
A1
  8
0
  6
CONTINUOUS
 62
     7
 10
402.193741096848
 20
199.3
 30
0.0
 11
401.3
 21
199.3
 31
0.0
  0
LINE
  5
A2
  8
0
  6
CONTINUOUS
 62
     7
 10
400.5
 20
198.5
 30
0.0
 11
400.5
 21
197.606258903152
 31
0.0
  0
LINE
  5
A3
  8
0
  6
CONTINUOUS
 62
     7
 10
399.5
 20
197.606258903152
 30
0.0
 11
399.5
 21
198.5
 31
0.0
  0
ARC
  5
A4
  8
0
  6
CONTINUOUS
 62
     7
 10
401.3
 20
198.5
 30
0.0
 40
0.800000000000002
 50
90.0000000000005
 51
180.0
  0
LINE
  5
A5
  8
0
  6
CONTINUOUS
 62
     7
 10
397.806258903152
 20
200.3
 30
0.0
 11
398.7
 21
200.3
 31
0.0
  0
ARC
  5
A6
  8
0
  6
CONTINUOUS
 62
     7
 10
401.3
 20
201.1
 30
0.0
 40
0.800000000000002
 50
180.0
 51
269.9999999999998
  0
LINE
  5
A7
  8
0
  6
CONTINUOUS
 62
     7
 10
400.5
 20
201.993741096848
 30
0.0
 11
400.5
 21
201.1
 31
0.0
  0
LINE
  5
A8
  8
0
  6
CONTINUOUS
 62
     7
 10
399.5
 20
201.1
 30
0.0
 11
399.5
 21
201.993741096848
 31
0.0
  0
ARC
  5
A9
  8
0
  6
CONTINUOUS
 62
     7
 10
344.9999999999999
 20
199.8
 30
0.0
 40
2.250000000000005
 50
77.16041159309584
 51
102.8395884069041
  0
ARC
  5
AA
  8
0
  6
CONTINUOUS
 62
     7
 10
344.9999999999999
 20
199.8
 30
0.0
 40
2.250000000000001
 50
167.1604115930959
 51
192.8395884069042
  0
ARC
  5
AB
  8
0
  6
CONTINUOUS
 62
     7
 10
344.9999999999999
 20
199.8
 30
0.0
 40
2.250000000000005
 50
257.1604115930959
 51
282.8395884069041
  0
ARC
  5
AC
  8
0
  6
CONTINUOUS
 62
     7
 10
346.3
 20
198.5
 30
0.0
 40
0.800000000000002
 50
89.99999999999977
 51
179.9999999999995
  0
LINE
  5
AD
  8
0
  6
CONTINUOUS
 62
     7
 10
346.3
 20
199.3
 30
0.0
 11
347.193741096848
 21
199.3
 31
0.0
  0
ARC
  5
AE
  8
0
  6
CONTINUOUS
 62
     7
 10
344.9999999999999
 20
199.8
 30
0.0
 40
2.250000000000001
 50
347.1604115930958
 51
12.83958840690411
  0
ARC
  5
AF
  8
0
  6
CONTINUOUS
 62
     7
 10
346.3
 20
201.1
 30
0.0
 40
0.800000000000009
 50
180.0
 51
269.9999999999995
  0
LINE
  5
B0
  8
0
  6
CONTINUOUS
 62
     7
 10
344.4999999999999
 20
201.993741096848
 30
0.0
 11
344.4999999999999
 21
201.1
 31
0.0
  0
LINE
  5
B1
  8
0
  6
CONTINUOUS
 62
     7
 10
345.4999999999999
 20
201.1
 30
0.0
 11
345.4999999999999
 21
201.993741096848
 31
0.0
  0
CIRCLE
  5
B2
  8
0
  6
CONTINUOUS
 62
     7
 10
344.9999999999999
 20
199.8
 30
0.0
 40
4.0
  0
LINE
  5
B3
  8
0
  6
CONTINUOUS
 62
     7
 10
347.193741096848
 20
200.3
 30
0.0
 11
346.3
 21
200.3
 31
0.0
  0
LINE
  5
B4
  8
0
  6
CONTINUOUS
 62
     7
 10
345.4999999999999
 20
197.606258903152
 30
0.0
 11
345.4999999999999
 21
198.5
 31
0.0
  0
LINE
  5
B5
  8
0
  6
CONTINUOUS
 62
     7
 10
344.4999999999999
 20
198.5
 30
0.0
 11
344.4999999999999
 21
197.606258903152
 31
0.0
  0
ARC
  5
B6
  8
0
  6
CONTINUOUS
 62
     7
 10
343.7
 20
198.5
 30
0.0
 40
0.800000000000002
 50
0.0
 51
89.99999999999949
  0
ARC
  5
B7
  8
0
  6
CONTINUOUS
 62
     7
 10
343.7
 20
201.1
 30
0.0
 40
0.800000000000002
 50
270.0000000000002
 51
0.0
  0
LINE
  5
B8
  8
0
  6
CONTINUOUS
 62
     7
 10
343.7
 20
200.3
 30
0.0
 11
342.806258903152
 21
200.3
 31
0.0
  0
LINE
  5
B9
  8
0
  6
CONTINUOUS
 62
     7
 10
342.806258903152
 20
199.3
 30
0.0
 11
343.7
 21
199.3
 31
0.0
  0
POLYLINE
  5
BA
  8
0
  6
CONTINUOUS
 62
     7
 66
     1
 10
0.0
 20
0.0
 30
0.0
  0
VERTEX
  5
10F
  8
0
  6
CONTINUOUS
 62
     7
 10
365.0
 20
284.5
 30
0.0
  0
VERTEX
  5
110
  8
0
  6
CONTINUOUS
 62
     7
 10
365.0282140529426
 20
284.4995816666314
 30
0.0
  0
VERTEX
  5
111
  8
0
  6
CONTINUOUS
 62
     7
 10
365.0564127355254
 20
284.4983438809433
 30
0.0
  0
VERTEX
  5
112
  8
0
  6
CONTINUOUS
 62
     7
 10
365.0844988529244
 20
284.4963124645622
 30
0.0
  0
VERTEX
  5
113
  8
0
  6
CONTINUOUS
 62
     7
 10
365.1123752103157
 20
284.4935132391145
 30
0.0
  0
VERTEX
  5
114
  8
0
  6
CONTINUOUS
 62
     7
 10
365.1399446128754
 20
284.4899720262268
 30
0.0
  0
VERTEX
  5
115
  8
0
  6
CONTINUOUS
 62
     7
 10
365.1671098657797
 20
284.4857146475257
 30
0.0
  0
VERTEX
  5
116
  8
0
  6
CONTINUOUS
 62
     7
 10
365.1937737742045
 20
284.4807669246376
 30
0.0
  0
VERTEX
  5
117
  8
0
  6
CONTINUOUS
 62
     7
 10
365.2385289007108
 20
284.4707255855652
 30
0.0
  0
VERTEX
  5
118
  8
0
  6
CONTINUOUS
 62
     7
 10
365.2821462648848
 20
284.4588156868796
 30
0.0
  0
VERTEX
  5
119
  8
0
  6
CONTINUOUS
 62
     7
 10
365.3246113357114
 20
284.4451250593923
 30
0.0
  0
VERTEX
  5
11A
  8
0
  6
CONTINUOUS
 62
     7
 10
365.3659095821758
 20
284.4297415339147
 30
0.0
  0
VERTEX
  5
11B
  8
0
  6
CONTINUOUS
 62
     7
 10
365.4060264732628
 20
284.4127529412584
 30
0.0
  0
VERTEX
  5
11C
  8
0
  6
CONTINUOUS
 62
     7
 10
365.4449474779575
 20
284.3942471122349
 30
0.0
  0
VERTEX
  5
11D
  8
0
  6
CONTINUOUS
 62
     7
 10
365.4927900014554
 20
284.3685990186386
 30
0.0
  0
VERTEX
  5
11E
  8
0
  6
CONTINUOUS
 62
     7
 10
365.5391846740142
 20
284.3404067487077
 30
0.0
  0
VERTEX
  5
11F
  8
0
  6
CONTINUOUS
 62
     7
 10
365.5840451357928
 20
284.3097027845812
 30
0.0
  0
VERTEX
  5
120
  8
0
  6
CONTINUOUS
 62
     7
 10
365.6272850269503
 20
284.2765196083983
 30
0.0
  0
VERTEX
  5
121
  8
0
  6
CONTINUOUS
 62
     7
 10
365.6688179876458
 20
284.240889702298
 30
0.0
  0
VERTEX
  5
122
  8
0
  6
CONTINUOUS
 62
     7
 10
365.7085576580382
 20
284.2028455484196
 30
0.0
  0
VERTEX
  5
123
  8
0
  6
CONTINUOUS
 62
     7
 10
365.7464176782865
 20
284.1624196289019
 30
0.0
  0
VERTEX
  5
124
  8
0
  6
CONTINUOUS
 62
     7
 10
365.7725809907546
 20
284.1316774769296
 30
0.0
  0
VERTEX
  5
125
  8
0
  6
CONTINUOUS
 62
     7
 10
365.797763995126
 20
284.0995394325973
 30
0.0
  0
VERTEX
  5
126
  8
0
  6
CONTINUOUS
 62
     7
 10
365.8218708247573
 20
284.0660672299641
 30
0.0
  0
VERTEX
  5
127
  8
0
  6
CONTINUOUS
 62
     7
 10
365.8448056130049
 20
284.0313226030892
 30
0.0
  0
VERTEX
  5
128
  8
0
  6
CONTINUOUS
 62
     7
 10
365.8664724932254
 20
283.9953672860315
 30
0.0
  0
VERTEX
  5
129
  8
0
  6
CONTINUOUS
 62
     7
 10
365.8867755987754
 20
283.9582630128501
 30
0.0
  0
VERTEX
  5
12A
  8
0
  6
CONTINUOUS
 62
     7
 10
365.9056190630113
 20
283.9200715176043
 30
0.0
  0
VERTEX
  5
12B
  8
0
  6
CONTINUOUS
 62
     7
 10
365.9204701767755
 20
283.8866381311668
 30
0.0
  0
VERTEX
  5
12C
  8
0
  6
CONTINUOUS
 62
     7
 10
365.9342167403219
 20
283.8522987526859
 30
0.0
  0
VERTEX
  5
12D
  8
0
  6
CONTINUOUS
 62
     7
 10
365.9468030379513
 20
283.8171737026495
 30
0.0
  0
VERTEX
  5
12E
  8
0
  6
CONTINUOUS
 62
     7
 10
365.9581733539647
 20
283.7813833015456
 30
0.0
  0
VERTEX
  5
12F
  8
0
  6
CONTINUOUS
 62
     7
 10
365.9682719726627
 20
283.7450478698624
 30
0.0
  0
VERTEX
  5
130
  8
0
  6
CONTINUOUS
 62
     7
 10
365.9770431783463
 20
283.7082877280876
 30
0.0
  0
VERTEX
  5
131
  8
0
  6
CONTINUOUS
 62
     7
 10
365.9844312553162
 20
283.6712231967093
 30
0.0
  0
VERTEX
  5
132
  8
0
  6
CONTINUOUS
 62
     7
 10
365.9903804878732
 20
283.6339745962156
 30
0.0
  0
SEQEND
  5
2E4
  8
0
  6
CONTINUOUS
 62
     7
  0
POLYLINE
  5
BB
  8
0
  6
CONTINUOUS
 62
     7
 66
     1
 10
0.0
 20
0.0
 30
0.0
  0
VERTEX
  5
133
  8
0
  6
CONTINUOUS
 62
     7
 10
369.9955984891688
 20
284.5
 30
0.0
  0
VERTEX
  5
134
  8
0
  6
CONTINUOUS
 62
     7
 10
369.9778660490616
 20
284.4998399603885
 30
0.0
  0
VERTEX
  5
135
  8
0
  6
CONTINUOUS
 62
     7
 10
369.9601507231828
 20
284.4993612171285
 30
0.0
  0
VERTEX
  5
136
  8
0
  6
CONTINUOUS
 62
     7
 10
369.9424861085246
 20
284.4985658335817
 30
0.0
  0
VERTEX
  5
137
  8
0
  6
CONTINUOUS
 62
     7
 10
369.9150530145553
 20
284.4966889353218
 30
0.0
  0
VERTEX
  5
138
  8
0
  6
CONTINUOUS
 62
     7
 10
369.8877981143198
 20
284.4940509601281
 30
0.0
  0
VERTEX
  5
139
  8
0
  6
CONTINUOUS
 62
     7
 10
369.860784587053
 20
284.4906806527981
 30
0.0
  0
VERTEX
  5
13A
  8
0
  6
CONTINUOUS
 62
     7
 10
369.8340756119897
 20
284.4866067581294
 30
0.0
  0
VERTEX
  5
13B
  8
0
  6
CONTINUOUS
 62
     7
 10
369.8077343683647
 20
284.4818580209196
 30
0.0
  0
VERTEX
  5
13C
  8
0
  6
CONTINUOUS
 62
     7
 10
369.7818240354128
 20
284.4764631859661
 30
0.0
  0
VERTEX
  5
13D
  8
0
  6
CONTINUOUS
 62
     7
 10
369.756407792369
 20
284.4704509980667
 30
0.0
  0
VERTEX
  5
13E
  8
0
  6
CONTINUOUS
 62
     7
 10
369.7083048038992
 20
284.4570871872697
 30
0.0
  0
VERTEX
  5
13F
  8
0
  6
CONTINUOUS
 62
     7
 10
369.6615993769311
 20
284.4415487902641
 30
0.0
  0
VERTEX
  5
140
  8
0
  6
CONTINUOUS
 62
     7
 10
369.6162864536499
 20
284.4239215978338
 30
0.0
  0
VERTEX
  5
141
  8
0
  6
CONTINUOUS
 62
     7
 10
369.5723609762409
 20
284.4042914007636
 30
0.0
  0
VERTEX
  5
142
  8
0
  6
CONTINUOUS
 62
     7
 10
369.5298178868895
 20
284.3827439898374
 30
0.0
  0
VERTEX
  5
143
  8
0
  6
CONTINUOUS
 62
     7
 10
369.488652127781
 20
284.3593651558398
 30
0.0
  0
VERTEX
  5
144
  8
0
  6
CONTINUOUS
 62
     7
 10
369.4461856899521
 20
284.3324308654905
 30
0.0
  0
VERTEX
  5
145
  8
0
  6
CONTINUOUS
 62
     7
 10
369.4049730168063
 20
284.3032768117669
 30
0.0
  0
VERTEX
  5
146
  8
0
  6
CONTINUOUS
 62
     7
 10
369.3651092071719
 20
284.2719333426853
 30
0.0
  0
VERTEX
  5
147
  8
0
  6
CONTINUOUS
 62
     7
 10
369.3266893598778
 20
284.2384308062618
 30
0.0
  0
VERTEX
  5
148
  8
0
  6
CONTINUOUS
 62
     7
 10
369.2898085737524
 20
284.2027995505126
 30
0.0
  0
VERTEX
  5
149
  8
0
  6
CONTINUOUS
 62
     7
 10
369.2545619476243
 20
284.1650699234538
 30
0.0
  0
VERTEX
  5
14A
  8
0
  6
CONTINUOUS
 62
     7
 10
369.2210445803221
 20
284.1252722731017
 30
0.0
  0
VERTEX
  5
14B
  8
0
  6
CONTINUOUS
 62
     7
 10
369.1951112137905
 20
284.0913522453043
 30
0.0
  0
VERTEX
  5
14C
  8
0
  6
CONTINUOUS
 62
     7
 10
369.1703513030576
 20
284.0559279302735
 30
0.0
  0
VERTEX
  5
14D
  8
0
  6
CONTINUOUS
 62
     7
 10
369.1468787665931
 20
284.0190848256843
 30
0.0
  0
VERTEX
  5
14E
  8
0
  6
CONTINUOUS
 62
     7
 10
369.1248075228672
 20
283.9809084292119
 30
0.0
  0
VERTEX
  5
14F
  8
0
  6
CONTINUOUS
 62
     7
 10
369.1042514903497
 20
283.9414842385315
 30
0.0
  0
VERTEX
  5
150
  8
0
  6
CONTINUOUS
 62
     7
 10
369.0853245875108
 20
283.9008977513183
 30
0.0
  0
VERTEX
  5
151
  8
0
  6
CONTINUOUS
 62
     7
 10
369.0721590860568
 20
283.8694520316951
 30
0.0
  0
VERTEX
  5
152
  8
0
  6
CONTINUOUS
 62
     7
 10
369.0599658905507
 20
283.8372610398591
 30
0.0
  0
VERTEX
  5
153
  8
0
  6
CONTINUOUS
 62
     7
 10
369.048787576014
 20
283.8044231726645
 30
0.0
  0
VERTEX
  5
154
  8
0
  6
CONTINUOUS
 62
     7
 10
369.0386667174679
 20
283.7710368269658
 30
0.0
  0
VERTEX
  5
155
  8
0
  6
CONTINUOUS
 62
     7
 10
369.029645889934
 20
283.7372003996171
 30
0.0
  0
VERTEX
  5
156
  8
0
  6
CONTINUOUS
 62
     7
 10
369.0217676684335
 20
283.703012287473
 30
0.0
  0
VERTEX
  5
157
  8
0
  6
CONTINUOUS
 62
     7
 10
369.0150746279878
 20
283.6685708873877
 30
0.0
  0
VERTEX
  5
158
  8
0
  6
CONTINUOUS
 62
     7
 10
369.0096093436184
 20
283.6339745962156
 30
0.0
  0
SEQEND
  5
2E5
  8
0
  6
CONTINUOUS
 62
     7
  0
LINE
  5
BC
  8
0
  6
CONTINUOUS
 62
     7
 10
366.0
 20
283.4955984877189
 30
0.0
 11
365.9903804878732
 21
283.6339745962156
 31
0.0
  0
LINE
  5
BD
  8
0
  6
CONTINUOUS
 62
     7
 10
379.0096195121268
 20
283.6339745962156
 30
0.0
 11
379.0
 21
283.4955984877189
 31
0.0
  0
POLYLINE
  5
BE
  8
0
  6
CONTINUOUS
 62
     7
 66
     1
 10
0.0
 20
0.0
 30
0.0
  0
VERTEX
  5
159
  8
0
  6
CONTINUOUS
 62
     7
 10
379.0096195121268
 20
283.6339745962156
 30
0.0
  0
VERTEX
  5
15A
  8
0
  6
CONTINUOUS
 62
     7
 10
379.0155687446838
 20
283.6712231967093
 30
0.0
  0
VERTEX
  5
15B
  8
0
  6
CONTINUOUS
 62
     7
 10
379.0229568216537
 20
283.7082877280876
 30
0.0
  0
VERTEX
  5
15C
  8
0
  6
CONTINUOUS
 62
     7
 10
379.0317280273372
 20
283.7450478698624
 30
0.0
  0
VERTEX
  5
15D
  8
0
  6
CONTINUOUS
 62
     7
 10
379.0418266460353
 20
283.7813833015457
 30
0.0
  0
VERTEX
  5
15E
  8
0
  6
CONTINUOUS
 62
     7
 10
379.0531969620486
 20
283.8171737026495
 30
0.0
  0
VERTEX
  5
15F
  8
0
  6
CONTINUOUS
 62
     7
 10
379.0657832596781
 20
283.8522987526859
 30
0.0
  0
VERTEX
  5
160
  8
0
  6
CONTINUOUS
 62
     7
 10
379.0795298232245
 20
283.8866381311668
 30
0.0
  0
VERTEX
  5
161
  8
0
  6
CONTINUOUS
 62
     7
 10
379.0943809369887
 20
283.9200715176043
 30
0.0
  0
VERTEX
  5
162
  8
0
  6
CONTINUOUS
 62
     7
 10
379.1132244012245
 20
283.9582630128501
 30
0.0
  0
VERTEX
  5
163
  8
0
  6
CONTINUOUS
 62
     7
 10
379.1335275067746
 20
283.9953672860315
 30
0.0
  0
VERTEX
  5
164
  8
0
  6
CONTINUOUS
 62
     7
 10
379.155194386995
 20
284.0313226030892
 30
0.0
  0
VERTEX
  5
165
  8
0
  6
CONTINUOUS
 62
     7
 10
379.1781291752427
 20
284.0660672299641
 30
0.0
  0
VERTEX
  5
166
  8
0
  6
CONTINUOUS
 62
     7
 10
379.202236004874
 20
284.0995394325973
 30
0.0
  0
VERTEX
  5
167
  8
0
  6
CONTINUOUS
 62
     7
 10
379.2274190092454
 20
284.1316774769296
 30
0.0
  0
VERTEX
  5
168
  8
0
  6
CONTINUOUS
 62
     7
 10
379.2535823217135
 20
284.1624196289019
 30
0.0
  0
VERTEX
  5
169
  8
0
  6
CONTINUOUS
 62
     7
 10
379.2914423419619
 20
284.2028455484196
 30
0.0
  0
VERTEX
  5
16A
  8
0
  6
CONTINUOUS
 62
     7
 10
379.3311820123542
 20
284.240889702298
 30
0.0
  0
VERTEX
  5
16B
  8
0
  6
CONTINUOUS
 62
     7
 10
379.3727149730497
 20
284.2765196083983
 30
0.0
  0
VERTEX
  5
16C
  8
0
  6
CONTINUOUS
 62
     7
 10
379.4159548642072
 20
284.3097027845812
 30
0.0
  0
VERTEX
  5
16D
  8
0
  6
CONTINUOUS
 62
     7
 10
379.4608153259858
 20
284.3404067487077
 30
0.0
  0
VERTEX
  5
16E
  8
0
  6
CONTINUOUS
 62
     7
 10
379.5072099985445
 20
284.3685990186386
 30
0.0
  0
VERTEX
  5
16F
  8
0
  6
CONTINUOUS
 62
     7
 10
379.5550525220424
 20
284.394247112235
 30
0.0
  0
VERTEX
  5
170
  8
0
  6
CONTINUOUS
 62
     7
 10
379.5939735267372
 20
284.4127529412584
 30
0.0
  0
VERTEX
  5
171
  8
0
  6
CONTINUOUS
 62
     7
 10
379.6340904178242
 20
284.4297415339148
 30
0.0
  0
VERTEX
  5
172
  8
0
  6
CONTINUOUS
 62
     7
 10
379.6753886642886
 20
284.4451250593923
 30
0.0
  0
VERTEX
  5
173
  8
0
  6
CONTINUOUS
 62
     7
 10
379.7178537351152
 20
284.4588156868796
 30
0.0
  0
VERTEX
  5
174
  8
0
  6
CONTINUOUS
 62
     7
 10
379.7614710992892
 20
284.4707255855652
 30
0.0
  0
VERTEX
  5
175
  8
0
  6
CONTINUOUS
 62
     7
 10
379.8062262257955
 20
284.4807669246376
 30
0.0
  0
VERTEX
  5
176
  8
0
  6
CONTINUOUS
 62
     7
 10
379.8328901342203
 20
284.4857146475258
 30
0.0
  0
VERTEX
  5
177
  8
0
  6
CONTINUOUS
 62
     7
 10
379.8600553871246
 20
284.4899720262268
 30
0.0
  0
VERTEX
  5
178
  8
0
  6
CONTINUOUS
 62
     7
 10
379.8876247896843
 20
284.4935132391145
 30
0.0
  0
VERTEX
  5
179
  8
0
  6
CONTINUOUS
 62
     7
 10
379.9155011470755
 20
284.4963124645622
 30
0.0
  0
VERTEX
  5
17A
  8
0
  6
CONTINUOUS
 62
     7
 10
379.9435872644745
 20
284.4983438809433
 30
0.0
  0
VERTEX
  5
17B
  8
0
  6
CONTINUOUS
 62
     7
 10
379.9717859470573
 20
284.4995816666314
 30
0.0
  0
VERTEX
  5
17C
  8
0
  6
CONTINUOUS
 62
     7
 10
380.0
 20
284.5
 30
0.0
  0
SEQEND
  5
2E6
  8
0
  6
CONTINUOUS
 62
     7
  0
POLYLINE
  5
BF
  8
0
  6
CONTINUOUS
 62
     7
 66
     1
 10
0.0
 20
0.0
 30
0.0
  0
VERTEX
  5
17D
  8
0
  6
CONTINUOUS
 62
     7
 10
375.9903906563816
 20
283.6339745962156
 30
0.0
  0
VERTEX
  5
17E
  8
0
  6
CONTINUOUS
 62
     7
 10
375.984402362122
 20
283.6714895424771
 30
0.0
  0
VERTEX
  5
17F
  8
0
  6
CONTINUOUS
 62
     7
 10
375.9769662745645
 20
283.7088196133746
 30
0.0
  0
VERTEX
  5
180
  8
0
  6
CONTINUOUS
 62
     7
 10
375.9681382987168
 20
283.7458427224487
 30
0.0
  0
VERTEX
  5
181
  8
0
  6
CONTINUOUS
 62
     7
 10
375.9579743395865
 20
283.7824367832401
 30
0.0
  0
VERTEX
  5
182
  8
0
  6
CONTINUOUS
 62
     7
 10
375.9465303021811
 20
283.8184797092896
 30
0.0
  0
VERTEX
  5
183
  8
0
  6
CONTINUOUS
 62
     7
 10
375.9338620915083
 20
283.8538494141377
 30
0.0
  0
VERTEX
  5
184
  8
0
  6
CONTINUOUS
 62
     7
 10
375.9200256125754
 20
283.8884238113252
 30
0.0
  0
VERTEX
  5
185
  8
0
  6
CONTINUOUS
 62
     7
 10
375.9050767703901
 20
283.9220808143927
 30
0.0
  0
VERTEX
  5
186
  8
0
  6
CONTINUOUS
 62
     7
 10
375.8861654940026
 20
283.9604104317562
 30
0.0
  0
VERTEX
  5
187
  8
0
  6
CONTINUOUS
 62
     7
 10
375.8657911415535
 20
283.9976451894102
 30
0.0
  0
VERTEX
  5
188
  8
0
  6
CONTINUOUS
 62
     7
 10
375.8440491556413
 20
284.0337224643641
 30
0.0
  0
VERTEX
  5
189
  8
0
  6
CONTINUOUS
 62
     7
 10
375.821034978864
 20
284.068579633627
 30
0.0
  0
VERTEX
  5
18A
  8
0
  6
CONTINUOUS
 62
     7
 10
375.7968440538202
 20
284.1021540742081
 30
0.0
  0
VERTEX
  5
18B
  8
0
  6
CONTINUOUS
 62
     7
 10
375.7715718231081
 20
284.1343831631168
 30
0.0
  0
VERTEX
  5
18C
  8
0
  6
CONTINUOUS
 62
     7
 10
375.7453137293261
 20
284.1652042773619
 30
0.0
  0
VERTEX
  5
18D
  8
0
  6
CONTINUOUS
 62
     7
 10
375.7076761137735
 20
284.205351116951
 30
0.0
  0
VERTEX
  5
18E
  8
0
  6
CONTINUOUS
 62
     7
 10
375.6681771324979
 20
284.2431376754373
 30
0.0
  0
VERTEX
  5
18F
  8
0
  6
CONTINUOUS
 62
     7
 10
375.6268987894683
 20
284.2785296112231
 30
0.0
  0
VERTEX
  5
190
  8
0
  6
CONTINUOUS
 62
     7
 10
375.5839230886542
 20
284.311492582711
 30
0.0
  0
VERTEX
  5
191
  8
0
  6
CONTINUOUS
 62
     7
 10
375.5393320340247
 20
284.3419922483034
 30
0.0
  0
VERTEX
  5
192
  8
0
  6
CONTINUOUS
 62
     7
 10
375.4932076295493
 20
284.3699942664027
 30
0.0
  0
VERTEX
  5
193
  8
0
  6
CONTINUOUS
 62
     7
 10
375.445631879197
 20
284.3954642954117
 30
0.0
  0
VERTEX
  5
194
  8
0
  6
CONTINUOUS
 62
     7
 10
375.4071304361809
 20
284.4137398092255
 30
0.0
  0
VERTEX
  5
195
  8
0
  6
CONTINUOUS
 62
     7
 10
375.3674415689853
 20
284.4305184986702
 30
0.0
  0
VERTEX
  5
196
  8
0
  6
CONTINUOUS
 62
     7
 10
375.3265807016446
 20
284.4457132994106
 30
0.0
  0
VERTEX
  5
197
  8
0
  6
CONTINUOUS
 62
     7
 10
375.2845632581932
 20
284.4592371471111
 30
0.0
  0
VERTEX
  5
198
  8
0
  6
CONTINUOUS
 62
     7
 10
375.2414046626654
 20
284.4710029774367
 30
0.0
  0
VERTEX
  5
199
  8
0
  6
CONTINUOUS
 62
     7
 10
375.1971203390959
 20
284.480923726052
 30
0.0
  0
VERTEX
  5
19A
  8
0
  6
CONTINUOUS
 62
     7
 10
375.1706006461869
 20
284.4858361566168
 30
0.0
  0
VERTEX
  5
19B
  8
0
  6
CONTINUOUS
 62
     7
 10
375.1435823282112
 20
284.4900607881317
 30
0.0
  0
VERTEX
  5
19C
  8
0
  6
CONTINUOUS
 62
     7
 10
375.1161622465542
 20
284.4935728503122
 30
0.0
  0
VERTEX
  5
19D
  8
0
  6
CONTINUOUS
 62
     7
 10
375.088437262602
 20
284.4963475728738
 30
0.0
  0
VERTEX
  5
19E
  8
0
  6
CONTINUOUS
 62
     7
 10
375.0605042377402
 20
284.498360185532
 30
0.0
  0
VERTEX
  5
19F
  8
0
  6
CONTINUOUS
 62
     7
 10
375.0324600333547
 20
284.4995859180023
 30
0.0
  0
VERTEX
  5
1A0
  8
0
  6
CONTINUOUS
 62
     7
 10
375.0044015108312
 20
284.5
 30
0.0
  0
SEQEND
  5
2E7
  8
0
  6
CONTINUOUS
 62
     7
  0
POLYLINE
  5
C0
  8
0
  6
CONTINUOUS
 62
     7
 66
     1
 10
0.0
 20
0.0
 30
0.0
  0
VERTEX
  5
1A1
  8
0
  6
CONTINUOUS
 62
     7
 10
369.009015576718
 20
161.3660254037845
 30
0.0
  0
VERTEX
  5
1A2
  8
0
  6
CONTINUOUS
 62
     7
 10
369.0125313999458
 20
161.3421726023335
 30
0.0
  0
VERTEX
  5
1A3
  8
0
  6
CONTINUOUS
 62
     7
 10
369.0166138927943
 20
161.3184236356499
 30
0.0
  0
VERTEX
  5
1A4
  8
0
  6
CONTINUOUS
 62
     7
 10
369.0239509625995
 20
161.2823965791037
 30
0.0
  0
VERTEX
  5
1A5
  8
0
  6
CONTINUOUS
 62
     7
 10
369.0326085556778
 20
161.2466724734201
 30
0.0
  0
VERTEX
  5
1A6
  8
0
  6
CONTINUOUS
 62
     7
 10
369.042533005822
 20
161.2113571817179
 30
0.0
  0
VERTEX
  5
1A7
  8
0
  6
CONTINUOUS
 62
     7
 10
369.0536706468243
 20
161.1765565671154
 30
0.0
  0
VERTEX
  5
1A8
  8
0
  6
CONTINUOUS
 62
     7
 10
369.0659678124776
 20
161.1423764927314
 30
0.0
  0
VERTEX
  5
1A9
  8
0
  6
CONTINUOUS
 62
     7
 10
369.0793708365742
 20
161.1089228216842
 30
0.0
  0
VERTEX
  5
1AA
  8
0
  6
CONTINUOUS
 62
     7
 10
369.0938260529068
 20
161.0763014170926
 30
0.0
  0
VERTEX
  5
1AB
  8
0
  6
CONTINUOUS
 62
     7
 10
369.1125870621447
 20
161.0381308788434
 30
0.0
  0
VERTEX
  5
1AC
  8
0
  6
CONTINUOUS
 62
     7
 10
369.1328102657567
 20
161.0010506382184
 30
0.0
  0
VERTEX
  5
1AD
  8
0
  6
CONTINUOUS
 62
     7
 10
369.1544009783359
 20
160.9651233673476
 30
0.0
  0
VERTEX
  5
1AE
  8
0
  6
CONTINUOUS
 62
     7
 10
369.1772645144752
 20
160.930411738361
 30
0.0
  0
VERTEX
  5
1AF
  8
0
  6
CONTINUOUS
 62
     7
 10
369.2013061887677
 20
160.8969784233885
 30
0.0
  0
VERTEX
  5
1B0
  8
0
  6
CONTINUOUS
 62
     7
 10
369.2264313158063
 20
160.8648860945601
 30
0.0
  0
VERTEX
  5
1B1
  8
0
  6
CONTINUOUS
 62
     7
 10
369.2525452101841
 20
160.8341974240057
 30
0.0
  0
VERTEX
  5
1B2
  8
0
  6
CONTINUOUS
 62
     7
 10
369.2899376696317
 20
160.7942799830501
 30
0.0
  0
VERTEX
  5
1B3
  8
0
  6
CONTINUOUS
 62
     7
 10
369.3291919501479
 20
160.7567094764727
 30
0.0
  0
VERTEX
  5
1B4
  8
0
  6
CONTINUOUS
 62
     7
 10
369.3702244360254
 20
160.7215188244366
 30
0.0
  0
VERTEX
  5
1B5
  8
0
  6
CONTINUOUS
 62
     7
 10
369.4129515115571
 20
160.6887409471051
 30
0.0
  0
VERTEX
  5
1B6
  8
0
  6
CONTINUOUS
 62
     7
 10
369.4572895610358
 20
160.6584087646413
 30
0.0
  0
VERTEX
  5
1B7
  8
0
  6
CONTINUOUS
 62
     7
 10
369.5031549687544
 20
160.6305551972083
 30
0.0
  0
VERTEX
  5
1B8
  8
0
  6
CONTINUOUS
 62
     7
 10
369.5504641190057
 20
160.6052131649695
 30
0.0
  0
VERTEX
  5
1B9
  8
0
  6
CONTINUOUS
 62
     7
 10
369.5892429999349
 20
160.5868005504241
 30
0.0
  0
VERTEX
  5
1BA
  8
0
  6
CONTINUOUS
 62
     7
 10
369.6292260227014
 20
160.5699070318628
 30
0.0
  0
VERTEX
  5
1BB
  8
0
  6
CONTINUOUS
 62
     7
 10
369.6703942732937
 20
160.5546174883004
 30
0.0
  0
VERTEX
  5
1BC
  8
0
  6
CONTINUOUS
 62
     7
 10
369.7127288377004
 20
160.5410167987523
 30
0.0
  0
VERTEX
  5
1BD
  8
0
  6
CONTINUOUS
 62
     7
 10
369.7562108019098
 20
160.5291898422333
 30
0.0
  0
VERTEX
  5
1BE
  8
0
  6
CONTINUOUS
 62
     7
 10
369.8008212519106
 20
160.5192214977588
 30
0.0
  0
VERTEX
  5
1BF
  8
0
  6
CONTINUOUS
 62
     7
 10
369.827639988338
 20
160.5142675799345
 30
0.0
  0
VERTEX
  5
1C0
  8
0
  6
CONTINUOUS
 62
     7
 10
369.8549605009293
 20
160.5100091966308
 30
0.0
  0
VERTEX
  5
1C1
  8
0
  6
CONTINUOUS
 62
     7
 10
369.8826852164888
 20
160.5064706250498
 30
0.0
  0
VERTEX
  5
1C2
  8
0
  6
CONTINUOUS
 62
     7
 10
369.9107165618205
 20
160.503676142394
 30
0.0
  0
VERTEX
  5
1C3
  8
0
  6
CONTINUOUS
 62
     7
 10
369.9389569637286
 20
160.5016500258655
 30
0.0
  0
VERTEX
  5
1C4
  8
0
  6
CONTINUOUS
 62
     7
 10
369.9673088490172
 20
160.5004165526668
 30
0.0
  0
VERTEX
  5
1C5
  8
0
  6
CONTINUOUS
 62
     7
 10
369.9956746444904
 20
160.5
 30
0.0
  0
SEQEND
  5
2E8
  8
0
  6
CONTINUOUS
 62
     7
  0
POLYLINE
  5
C1
  8
0
  6
CONTINUOUS
 62
     7
 66
     1
 10
0.0
 20
0.0
 30
0.0
  0
VERTEX
  5
1C6
  8
0
  6
CONTINUOUS
 62
     7
 10
365.9909847665675
 20
161.3660254037845
 30
0.0
  0
VERTEX
  5
1C7
  8
0
  6
CONTINUOUS
 62
     7
 10
365.9851657142538
 20
161.3285622094141
 30
0.0
  0
VERTEX
  5
1C8
  8
0
  6
CONTINUOUS
 62
     7
 10
365.9778883426296
 20
161.2912785239002
 30
0.0
  0
VERTEX
  5
1C9
  8
0
  6
CONTINUOUS
 62
     7
 10
365.9692082763707
 20
161.2542977168858
 30
0.0
  0
VERTEX
  5
1CA
  8
0
  6
CONTINUOUS
 62
     7
 10
365.9591811401527
 20
161.2177431580138
 30
0.0
  0
VERTEX
  5
1CB
  8
0
  6
CONTINUOUS
 62
     7
 10
365.9478625586513
 20
161.1817382169276
 30
0.0
  0
VERTEX
  5
1CC
  8
0
  6
CONTINUOUS
 62
     7
 10
365.9353081565421
 20
161.1464062632699
 30
0.0
  0
VERTEX
  5
1CD
  8
0
  6
CONTINUOUS
 62
     7
 10
365.9215735585009
 20
161.111870666684
 30
0.0
  0
VERTEX
  5
1CE
  8
0
  6
CONTINUOUS
 62
     7
 10
365.9067143892034
 20
161.0782547968128
 30
0.0
  0
VERTEX
  5
1CF
  8
0
  6
CONTINUOUS
 62
     7
 10
365.8880200215194
 20
161.0402207496978
 30
0.0
  0
VERTEX
  5
1D0
  8
0
  6
CONTINUOUS
 62
     7
 10
365.8678668196289
 20
161.0032695397199
 30
0.0
  0
VERTEX
  5
1D1
  8
0
  6
CONTINUOUS
 62
     7
 10
365.8463499017859
 20
160.9674629585688
 30
0.0
  0
VERTEX
  5
1D2
  8
0
  6
CONTINUOUS
 62
     7
 10
365.8235643862441
 20
160.9328627979342
 30
0.0
  0
VERTEX
  5
1D3
  8
0
  6
CONTINUOUS
 62
     7
 10
365.7996053912576
 20
160.8995308495058
 30
0.0
  0
VERTEX
  5
1D4
  8
0
  6
CONTINUOUS
 62
     7
 10
365.7745680350801
 20
160.8675289049733
 30
0.0
  0
VERTEX
  5
1D5
  8
0
  6
CONTINUOUS
 62
     7
 10
365.7485474359656
 20
160.8369187560266
 30
0.0
  0
VERTEX
  5
1D6
  8
0
  6
CONTINUOUS
 62
     7
 10
365.7109406431568
 20
160.7967321253584
 30
0.0
  0
VERTEX
  5
1D7
  8
0
  6
CONTINUOUS
 62
     7
 10
365.671454348189
 20
160.7589131312387
 30
0.0
  0
VERTEX
  5
1D8
  8
0
  6
CONTINUOUS
 62
     7
 10
365.6301764096529
 20
160.7234928593848
 30
0.0
  0
VERTEX
  5
1D9
  8
0
  6
CONTINUOUS
 62
     7
 10
365.5871946861396
 20
160.6905023955141
 30
0.0
  0
VERTEX
  5
1DA
  8
0
  6
CONTINUOUS
 62
     7
 10
365.5425970362402
 20
160.6599728253439
 30
0.0
  0
VERTEX
  5
1DB
  8
0
  6
CONTINUOUS
 62
     7
 10
365.4964713185456
 20
160.6319352345914
 30
0.0
  0
VERTEX
  5
1DC
  8
0
  6
CONTINUOUS
 62
     7
 10
365.4489053916468
 20
160.6064207089741
 30
0.0
  0
VERTEX
  5
1DD
  8
0
  6
CONTINUOUS
 62
     7
 10
365.4097102175677
 20
160.5877792168179
 30
0.0
  0
VERTEX
  5
1DE
  8
0
  6
CONTINUOUS
 62
     7
 10
365.3693023340803
 20
160.5706772990762
 30
0.0
  0
VERTEX
  5
1DF
  8
0
  6
CONTINUOUS
 62
     7
 10
365.3276998254366
 20
160.5552005470889
 30
0.0
  0
VERTEX
  5
1E0
  8
0
  6
CONTINUOUS
 62
     7
 10
365.2849207758889
 20
160.5414345521957
 30
0.0
  0
VERTEX
  5
1E1
  8
0
  6
CONTINUOUS
 62
     7
 10
365.2409832696893
 20
160.5294649057363
 30
0.0
  0
VERTEX
  5
1E2
  8
0
  6
CONTINUOUS
 62
     7
 10
365.1959053910896
 20
160.5193771990506
 30
0.0
  0
VERTEX
  5
1E3
  8
0
  6
CONTINUOUS
 62
     7
 10
365.1689427901208
 20
160.5143882136939
 30
0.0
  0
VERTEX
  5
1E4
  8
0
  6
CONTINUOUS
 62
     7
 10
365.1414757220512
 20
160.5100973040842
 30
0.0
  0
VERTEX
  5
1E5
  8
0
  6
CONTINUOUS
 62
     7
 10
365.1136020904466
 20
160.5065297875861
 30
0.0
  0
VERTEX
  5
1E6
  8
0
  6
CONTINUOUS
 62
     7
 10
365.0854197988733
 20
160.503710981564
 30
0.0
  0
VERTEX
  5
1E7
  8
0
  6
CONTINUOUS
 62
     7
 10
365.0570267508971
 20
160.5016662033826
 30
0.0
  0
VERTEX
  5
1E8
  8
0
  6
CONTINUOUS
 62
     7
 10
365.028520850084
 20
160.5004207704064
 30
0.0
  0
VERTEX
  5
1E9
  8
0
  6
CONTINUOUS
 62
     7
 10
365.0
 20
160.5
 30
0.0
  0
SEQEND
  5
2E9
  8
0
  6
CONTINUOUS
 62
     7
  0
LINE
  5
C2
  8
0
  6
CONTINUOUS
 62
     7
 10
376.0
 20
283.4956746430405
 30
0.0
 11
375.9903906563817
 21
283.6339745962156
 31
0.0
  0
LINE
  5
C3
  8
0
  6
CONTINUOUS
 62
     7
 10
369.0
 20
161.5
 30
0.0
 11
369.009015576718
 21
161.3660254037845
 31
0.0
  0
POLYLINE
  5
C4
  8
0
  6
CONTINUOUS
 62
     7
 66
     1
 10
0.0
 20
0.0
 30
0.0
  0
VERTEX
  5
1EA
  8
0
  6
CONTINUOUS
 62
     7
 10
380.0
 20
160.5
 30
0.0
  0
VERTEX
  5
1EB
  8
0
  6
CONTINUOUS
 62
     7
 10
379.9742373127299
 20
160.5003322874863
 30
0.0
  0
VERTEX
  5
1EC
  8
0
  6
CONTINUOUS
 62
     7
 10
379.9485418734708
 20
160.5013248470027
 30
0.0
  0
VERTEX
  5
1ED
  8
0
  6
CONTINUOUS
 62
     7
 10
379.9206556337108
 20
160.5031612924923
 30
0.0
  0
VERTEX
  5
1EE
  8
0
  6
CONTINUOUS
 62
     7
 10
379.89294303809
 20
160.5057709607583
 30
0.0
  0
VERTEX
  5
1EF
  8
0
  6
CONTINUOUS
 62
     7
 10
379.8654691941598
 20
160.5091250475127
 30
0.0
  0
VERTEX
  5
1F0
  8
0
  6
CONTINUOUS
 62
     7
 10
379.838299209471
 20
160.5131947484676
 30
0.0
  0
VERTEX
  5
1F1
  8
0
  6
CONTINUOUS
 62
     7
 10
379.811498191575
 20
160.5179512593353
 30
0.0
  0
VERTEX
  5
1F2
  8
0
  6
CONTINUOUS
 62
     7
 10
379.7851312480226
 20
160.5233657758278
 30
0.0
  0
VERTEX
  5
1F3
  8
0
  6
CONTINUOUS
 62
     7
 10
379.7592634863651
 20
160.5294094936571
 30
0.0
  0
VERTEX
  5
1F4
  8
0
  6
CONTINUOUS
 62
     7
 10
379.7097136645912
 20
160.5430452426943
 30
0.0
  0
VERTEX
  5
1F5
  8
0
  6
CONTINUOUS
 62
     7
 10
379.6616107660623
 20
160.5589559721366
 30
0.0
  0
VERTEX
  5
1F6
  8
0
  6
CONTINUOUS
 62
     7
 10
379.6149545355324
 20
160.5770549639055
 30
0.0
  0
VERTEX
  5
1F7
  8
0
  6
CONTINUOUS
 62
     7
 10
379.5697447177554
 20
160.5972554999225
 30
0.0
  0
VERTEX
  5
1F8
  8
0
  6
CONTINUOUS
 62
     7
 10
379.5259810574853
 20
160.6194708621094
 30
0.0
  0
VERTEX
  5
1F9
  8
0
  6
CONTINUOUS
 62
     7
 10
379.4836632994761
 20
160.6436143323876
 30
0.0
  0
VERTEX
  5
1FA
  8
0
  6
CONTINUOUS
 62
     7
 10
379.4414555252222
 20
160.6705235587739
 30
0.0
  0
VERTEX
  5
1FB
  8
0
  6
CONTINUOUS
 62
     7
 10
379.4004875583958
 20
160.6996283576734
 30
0.0
  0
VERTEX
  5
1FC
  8
0
  6
CONTINUOUS
 62
     7
 10
379.3608580094067
 20
160.730900642982
 30
0.0
  0
VERTEX
  5
1FD
  8
0
  6
CONTINUOUS
 62
     7
 10
379.3226654886643
 20
160.7643123285949
 30
0.0
  0
VERTEX
  5
1FE
  8
0
  6
CONTINUOUS
 62
     7
 10
379.2860086065784
 20
160.7998353284078
 30
0.0
  0
VERTEX
  5
1FF
  8
0
  6
CONTINUOUS
 62
     7
 10
379.2509859735587
 20
160.8374415563164
 30
0.0
  0
VERTEX
  5
200
  8
0
  6
CONTINUOUS
 62
     7
 10
379.2176962000147
 20
160.8771029262161
 30
0.0
  0
VERTEX
  5
201
  8
0
  6
CONTINUOUS
 62
     7
 10
379.1919677289997
 20
160.9108829056041
 30
0.0
  0
VERTEX
  5
202
  8
0
  6
CONTINUOUS
 62
     7
 10
379.1674166821612
 20
160.9461573536397
 30
0.0
  0
VERTEX
  5
203
  8
0
  6
CONTINUOUS
 62
     7
 10
379.1441572916452
 20
160.9828407539145
 30
0.0
  0
VERTEX
  5
204
  8
0
  6
CONTINUOUS
 62
     7
 10
379.1223037895979
 20
161.0208475900199
 30
0.0
  0
VERTEX
  5
205
  8
0
  6
CONTINUOUS
 62
     7
 10
379.1019704081652
 20
161.0600923455472
 30
0.0
  0
VERTEX
  5
206
  8
0
  6
CONTINUOUS
 62
     7
 10
379.0832713794933
 20
161.100489504088
 30
0.0
  0
VERTEX
  5
207
  8
0
  6
CONTINUOUS
 62
     7
 10
379.070282376193
 20
161.1317841977711
 30
0.0
  0
VERTEX
  5
208
  8
0
  6
CONTINUOUS
 62
     7
 10
379.0582691537913
 20
161.1638175521853
 30
0.0
  0
VERTEX
  5
209
  8
0
  6
CONTINUOUS
 62
     7
 10
379.0472733911307
 20
161.1964912789336
 30
0.0
  0
VERTEX
  5
20A
  8
0
  6
CONTINUOUS
 62
     7
 10
379.0373367670537
 20
161.2297070896187
 30
0.0
  0
VERTEX
  5
20B
  8
0
  6
CONTINUOUS
 62
     7
 10
379.0285009604028
 20
161.2633666958435
 30
0.0
  0
VERTEX
  5
20C
  8
0
  6
CONTINUOUS
 62
     7
 10
379.0208076500206
 20
161.2973718092108
 30
0.0
  0
VERTEX
  5
20D
  8
0
  6
CONTINUOUS
 62
     7
 10
379.0142985147497
 20
161.3316241413236
 30
0.0
  0
VERTEX
  5
20E
  8
0
  6
CONTINUOUS
 62
     7
 10
379.0090152334325
 20
161.3660254037845
 30
0.0
  0
SEQEND
  5
2EA
  8
0
  6
CONTINUOUS
 62
     7
  0
POLYLINE
  5
C5
  8
0
  6
CONTINUOUS
 62
     7
 66
     1
 10
0.0
 20
0.0
 30
0.0
  0
VERTEX
  5
20F
  8
0
  6
CONTINUOUS
 62
     7
 10
375.990984423282
 20
161.3660254037845
 30
0.0
  0
VERTEX
  5
210
  8
0
  6
CONTINUOUS
 62
     7
 10
375.9874686000542
 20
161.3421726023335
 30
0.0
  0
VERTEX
  5
211
  8
0
  6
CONTINUOUS
 62
     7
 10
375.9833861072057
 20
161.3184236356499
 30
0.0
  0
VERTEX
  5
212
  8
0
  6
CONTINUOUS
 62
     7
 10
375.9760490374005
 20
161.2823965791036
 30
0.0
  0
VERTEX
  5
213
  8
0
  6
CONTINUOUS
 62
     7
 10
375.9673914443222
 20
161.2466724734201
 30
0.0
  0
VERTEX
  5
214
  8
0
  6
CONTINUOUS
 62
     7
 10
375.957466994178
 20
161.2113571817179
 30
0.0
  0
VERTEX
  5
215
  8
0
  6
CONTINUOUS
 62
     7
 10
375.9463293531756
 20
161.1765565671154
 30
0.0
  0
VERTEX
  5
216
  8
0
  6
CONTINUOUS
 62
     7
 10
375.9340321875224
 20
161.1423764927313
 30
0.0
  0
VERTEX
  5
217
  8
0
  6
CONTINUOUS
 62
     7
 10
375.9206291634258
 20
161.1089228216842
 30
0.0
  0
VERTEX
  5
218
  8
0
  6
CONTINUOUS
 62
     7
 10
375.9061739470932
 20
161.0763014170926
 30
0.0
  0
VERTEX
  5
219
  8
0
  6
CONTINUOUS
 62
     7
 10
375.8874129378553
 20
161.0381308788434
 30
0.0
  0
VERTEX
  5
21A
  8
0
  6
CONTINUOUS
 62
     7
 10
375.8671897342433
 20
161.0010506382184
 30
0.0
  0
VERTEX
  5
21B
  8
0
  6
CONTINUOUS
 62
     7
 10
375.8455990216641
 20
160.9651233673476
 30
0.0
  0
VERTEX
  5
21C
  8
0
  6
CONTINUOUS
 62
     7
 10
375.8227354855247
 20
160.930411738361
 30
0.0
  0
VERTEX
  5
21D
  8
0
  6
CONTINUOUS
 62
     7
 10
375.7986938112323
 20
160.8969784233885
 30
0.0
  0
VERTEX
  5
21E
  8
0
  6
CONTINUOUS
 62
     7
 10
375.7735686841937
 20
160.8648860945601
 30
0.0
  0
VERTEX
  5
21F
  8
0
  6
CONTINUOUS
 62
     7
 10
375.7474547898158
 20
160.8341974240057
 30
0.0
  0
VERTEX
  5
220
  8
0
  6
CONTINUOUS
 62
     7
 10
375.7100623303683
 20
160.7942799830501
 30
0.0
  0
VERTEX
  5
221
  8
0
  6
CONTINUOUS
 62
     7
 10
375.6708080498521
 20
160.7567094764727
 30
0.0
  0
VERTEX
  5
222
  8
0
  6
CONTINUOUS
 62
     7
 10
375.6297755639746
 20
160.7215188244366
 30
0.0
  0
VERTEX
  5
223
  8
0
  6
CONTINUOUS
 62
     7
 10
375.5870484884429
 20
160.6887409471051
 30
0.0
  0
VERTEX
  5
224
  8
0
  6
CONTINUOUS
 62
     7
 10
375.5427104389642
 20
160.6584087646413
 30
0.0
  0
VERTEX
  5
225
  8
0
  6
CONTINUOUS
 62
     7
 10
375.4968450312456
 20
160.6305551972083
 30
0.0
  0
VERTEX
  5
226
  8
0
  6
CONTINUOUS
 62
     7
 10
375.4495358809943
 20
160.6052131649695
 30
0.0
  0
VERTEX
  5
227
  8
0
  6
CONTINUOUS
 62
     7
 10
375.4107570000651
 20
160.5868005504241
 30
0.0
  0
VERTEX
  5
228
  8
0
  6
CONTINUOUS
 62
     7
 10
375.3707739772985
 20
160.5699070318628
 30
0.0
  0
VERTEX
  5
229
  8
0
  6
CONTINUOUS
 62
     7
 10
375.3296057267062
 20
160.5546174883004
 30
0.0
  0
VERTEX
  5
22A
  8
0
  6
CONTINUOUS
 62
     7
 10
375.2872711622996
 20
160.5410167987523
 30
0.0
  0
VERTEX
  5
22B
  8
0
  6
CONTINUOUS
 62
     7
 10
375.2437891980902
 20
160.5291898422333
 30
0.0
  0
VERTEX
  5
22C
  8
0
  6
CONTINUOUS
 62
     7
 10
375.1991787480894
 20
160.5192214977588
 30
0.0
  0
VERTEX
  5
22D
  8
0
  6
CONTINUOUS
 62
     7
 10
375.172360011662
 20
160.5142675799345
 30
0.0
  0
VERTEX
  5
22E
  8
0
  6
CONTINUOUS
 62
     7
 10
375.1450394990706
 20
160.5100091966308
 30
0.0
  0
VERTEX
  5
22F
  8
0
  6
CONTINUOUS
 62
     7
 10
375.1173147835111
 20
160.5064706250498
 30
0.0
  0
VERTEX
  5
230
  8
0
  6
CONTINUOUS
 62
     7
 10
375.0892834381795
 20
160.503676142394
 30
0.0
  0
VERTEX
  5
231
  8
0
  6
CONTINUOUS
 62
     7
 10
375.0610430362714
 20
160.5016500258655
 30
0.0
  0
VERTEX
  5
232
  8
0
  6
CONTINUOUS
 62
     7
 10
375.0326911509828
 20
160.5004165526668
 30
0.0
  0
VERTEX
  5
233
  8
0
  6
CONTINUOUS
 62
     7
 10
375.0043253555096
 20
160.5
 30
0.0
  0
SEQEND
  5
2EB
  8
0
  6
CONTINUOUS
 62
     7
  0
LINE
  5
C6
  8
0
  6
CONTINUOUS
 62
     7
 10
375.990984423282
 20
161.3660254037845
 30
0.0
 11
376.0
 21
161.5
 31
0.0
  0
LINE
  5
C7
  8
0
  6
CONTINUOUS
 62
     7
 10
369.0096093436183
 20
283.6339745962156
 30
0.0
 11
369.0
 21
283.4956746430405
 31
0.0
  0
LINE
  5
C8
  8
0
  6
CONTINUOUS
 62
     7
 10
406.9999999999999
 20
161.5
 30
0.0
 11
406.9999999999999
 21
283.5000380769358
 31
0.0
  0
POLYLINE
  5
C9
  8
0
  6
CONTINUOUS
 62
     7
 66
     1
 10
0.0
 20
0.0
 30
0.0
  0
VERTEX
  5
234
  8
0
  6
CONTINUOUS
 62
     7
 10
407.9999238432285
 20
157.5
 30
0.0
  0
VERTEX
  5
235
  8
0
  6
CONTINUOUS
 62
     7
 10
408.3901193447099
 20
157.5384294391936
 30
0.0
  0
VERTEX
  5
236
  8
0
  6
CONTINUOUS
 62
     7
 10
408.7653198518934
 20
157.6522409349774
 30
0.0
  0
VERTEX
  5
237
  8
0
  6
CONTINUOUS
 62
     7
 10
409.111106619703
 20
157.8370607753949
 30
0.0
  0
VERTEX
  5
238
  8
0
  6
CONTINUOUS
 62
     7
 10
409.4141912565712
 20
158.0857864376269
 30
0.0
  0
VERTEX
  5
239
  8
0
  6
CONTINUOUS
 62
     7
 10
409.6629263898749
 20
158.3888595339608
 30
0.0
  0
VERTEX
  5
23A
  8
0
  6
CONTINUOUS
 62
     7
 10
409.8477532679336
 20
158.7346331352698
 30
0.0
  0
VERTEX
  5
23B
  8
0
  6
CONTINUOUS
 62
     7
 10
409.9615690974755
 20
159.1098193559678
 30
0.0
  0
VERTEX
  5
23C
  8
0
  6
CONTINUOUS
 62
     7
 10
410.0
 20
159.5
 30
0.0
  0
SEQEND
  5
2EC
  8
0
  6
CONTINUOUS
 62
     7
  0
POLYLINE
  5
CA
  8
0
  6
CONTINUOUS
 62
     7
 66
     1
 10
0.0
 20
0.0
 30
0.0
  0
VERTEX
  5
23D
  8
0
  6
CONTINUOUS
 62
     7
 10
335.0
 20
159.5
 30
0.0
  0
VERTEX
  5
23E
  8
0
  6
CONTINUOUS
 62
     7
 10
335.0384309025245
 20
159.1098193559678
 30
0.0
  0
VERTEX
  5
23F
  8
0
  6
CONTINUOUS
 62
     7
 10
335.1522467320664
 20
158.7346331352699
 30
0.0
  0
VERTEX
  5
240
  8
0
  6
CONTINUOUS
 62
     7
 10
335.3370736101251
 20
158.3888595339608
 30
0.0
  0
VERTEX
  5
241
  8
0
  6
CONTINUOUS
 62
     7
 10
335.5858087434288
 20
158.0857864376269
 30
0.0
  0
VERTEX
  5
242
  8
0
  6
CONTINUOUS
 62
     7
 10
335.888893380297
 20
157.8370607753949
 30
0.0
  0
VERTEX
  5
243
  8
0
  6
CONTINUOUS
 62
     7
 10
336.2346801481066
 20
157.6522409349774
 30
0.0
  0
VERTEX
  5
244
  8
0
  6
CONTINUOUS
 62
     7
 10
336.6098806552901
 20
157.5384294391936
 30
0.0
  0
VERTEX
  5
245
  8
0
  6
CONTINUOUS
 62
     7
 10
337.0000761567715
 20
157.5
 30
0.0
  0
SEQEND
  5
2ED
  8
0
  6
CONTINUOUS
 62
     7
  0
LINE
  5
CB
  8
0
  6
CONTINUOUS
 62
     7
 10
335.0
 20
285.5000761538717
 30
0.0
 11
335.0
 21
159.5
 31
0.0
  0
LINE
  5
CC
  8
0
  6
CONTINUOUS
 62
     7
 10
409.9999999999999
 20
159.5
 30
0.0
 11
409.9999999999999
 21
285.5000761538717
 31
0.0
  0
LINE
  5
CD
  8
0
  6
CONTINUOUS
 62
     7
 10
337.0000761567715
 20
157.5
 30
0.0
 11
407.9999238432285
 21
157.5
 31
0.0
  0
POLYLINE
  5
CE
  8
0
  6
CONTINUOUS
 62
     7
 66
     1
 10
0.0
 20
0.0
 30
0.0
  0
VERTEX
  5
246
  8
0
  6
CONTINUOUS
 62
     7
 10
338.9999619230641
 20
284.5000000000001
 30
0.0
  0
VERTEX
  5
247
  8
0
  6
CONTINUOUS
 62
     7
 10
338.804874972562
 20
284.4807864058391
 30
0.0
  0
VERTEX
  5
248
  8
0
  6
CONTINUOUS
 62
     7
 10
338.6172873059203
 20
284.4238839196443
 30
0.0
  0
VERTEX
  5
249
  8
0
  6
CONTINUOUS
 62
     7
 10
338.4444071152554
 20
284.3314790607096
 30
0.0
  0
VERTEX
  5
24A
  8
0
  6
CONTINUOUS
 62
     7
 10
338.2928774472549
 20
284.2071225527452
 30
0.0
  0
VERTEX
  5
24B
  8
0
  6
CONTINUOUS
 62
     7
 10
338.1685209392904
 20
284.0555928847446
 30
0.0
  0
VERTEX
  5
24C
  8
0
  6
CONTINUOUS
 62
     7
 10
338.0761160803557
 20
283.8827126940797
 30
0.0
  0
VERTEX
  5
24D
  8
0
  6
CONTINUOUS
 62
     7
 10
338.0192135941609
 20
283.695125027438
 30
0.0
  0
VERTEX
  5
24E
  8
0
  6
CONTINUOUS
 62
     7
 10
338.0
 20
283.5000380769359
 30
0.0
  0
SEQEND
  5
2EE
  8
0
  6
CONTINUOUS
 62
     7
  0
LINE
  5
CF
  8
0
  6
CONTINUOUS
 62
     7
 10
338.0
 20
283.5000380769358
 30
0.0
 11
338.0
 21
161.5
 31
0.0
  0
POLYLINE
  5
D0
  8
0
  6
CONTINUOUS
 62
     7
 66
     1
 10
0.0
 20
0.0
 30
0.0
  0
VERTEX
  5
24F
  8
0
  6
CONTINUOUS
 62
     7
 10
338.0
 20
161.5
 30
0.0
  0
VERTEX
  5
250
  8
0
  6
CONTINUOUS
 62
     7
 10
338.0192154512623
 20
161.3049096779839
 30
0.0
  0
VERTEX
  5
251
  8
0
  6
CONTINUOUS
 62
     7
 10
338.0761233660332
 20
161.1173165676349
 30
0.0
  0
VERTEX
  5
252
  8
0
  6
CONTINUOUS
 62
     7
 10
338.1685368050626
 20
160.9444297669804
 30
0.0
  0
VERTEX
  5
253
  8
0
  6
CONTINUOUS
 62
     7
 10
338.2929043717144
 20
160.7928932188135
 30
0.0
  0
VERTEX
  5
254
  8
0
  6
CONTINUOUS
 62
     7
 10
338.4444466901485
 20
160.6685303876975
 30
0.0
  0
VERTEX
  5
255
  8
0
  6
CONTINUOUS
 62
     7
 10
338.6173400740533
 20
160.5761204674887
 30
0.0
  0
VERTEX
  5
256
  8
0
  6
CONTINUOUS
 62
     7
 10
338.8049403276451
 20
160.5192147195968
 30
0.0
  0
VERTEX
  5
257
  8
0
  6
CONTINUOUS
 62
     7
 10
339.0000380783857
 20
160.5
 30
0.0
  0
SEQEND
  5
2EF
  8
0
  6
CONTINUOUS
 62
     7
  0
POLYLINE
  5
D1
  8
0
  6
CONTINUOUS
 62
     7
 66
     1
 10
0.0
 20
0.0
 30
0.0
  0
VERTEX
  5
258
  8
0
  6
CONTINUOUS
 62
     7
 10
405.9999619216142
 20
160.5
 30
0.0
  0
VERTEX
  5
259
  8
0
  6
CONTINUOUS
 62
     7
 10
406.1950596723549
 20
160.5192147195968
 30
0.0
  0
VERTEX
  5
25A
  8
0
  6
CONTINUOUS
 62
     7
 10
406.3826599259467
 20
160.5761204674887
 30
0.0
  0
VERTEX
  5
25B
  8
0
  6
CONTINUOUS
 62
     7
 10
406.5555533098515
 20
160.6685303876975
 30
0.0
  0
VERTEX
  5
25C
  8
0
  6
CONTINUOUS
 62
     7
 10
406.7070956282855
 20
160.7928932188135
 30
0.0
  0
VERTEX
  5
25D
  8
0
  6
CONTINUOUS
 62
     7
 10
406.8314631949374
 20
160.9444297669804
 30
0.0
  0
VERTEX
  5
25E
  8
0
  6
CONTINUOUS
 62
     7
 10
406.9238766339667
 20
161.1173165676349
 30
0.0
  0
VERTEX
  5
25F
  8
0
  6
CONTINUOUS
 62
     7
 10
406.9807845487377
 20
161.3049096779839
 30
0.0
  0
VERTEX
  5
260
  8
0
  6
CONTINUOUS
 62
     7
 10
406.9999999999999
 20
161.5
 30
0.0
  0
SEQEND
  5
2F0
  8
0
  6
CONTINUOUS
 62
     7
  0
POLYLINE
  5
D2
  8
0
  6
CONTINUOUS
 62
     7
 66
     1
 10
0.0
 20
0.0
 30
0.0
  0
VERTEX
  5
261
  8
0
  6
CONTINUOUS
 62
     7
 10
407.0
 20
283.5000380769359
 30
0.0
  0
VERTEX
  5
262
  8
0
  6
CONTINUOUS
 62
     7
 10
406.9807864058391
 20
283.695125027438
 30
0.0
  0
VERTEX
  5
263
  8
0
  6
CONTINUOUS
 62
     7
 10
406.9238839196443
 20
283.8827126940797
 30
0.0
  0
VERTEX
  5
264
  8
0
  6
CONTINUOUS
 62
     7
 10
406.8314790607095
 20
284.0555928847446
 30
0.0
  0
VERTEX
  5
265
  8
0
  6
CONTINUOUS
 62
     7
 10
406.7071225527451
 20
284.2071225527452
 30
0.0
  0
VERTEX
  5
266
  8
0
  6
CONTINUOUS
 62
     7
 10
406.5555928847445
 20
284.3314790607096
 30
0.0
  0
VERTEX
  5
267
  8
0
  6
CONTINUOUS
 62
     7
 10
406.3827126940797
 20
284.4238839196443
 30
0.0
  0
VERTEX
  5
268
  8
0
  6
CONTINUOUS
 62
     7
 10
406.1951250274379
 20
284.4807864058391
 30
0.0
  0
VERTEX
  5
269
  8
0
  6
CONTINUOUS
 62
     7
 10
406.0000380769358
 20
284.5000000000001
 30
0.0
  0
SEQEND
  5
2F1
  8
0
  6
CONTINUOUS
 62
     7
  0
POLYLINE
  5
D3
  8
0
  6
CONTINUOUS
 62
     7
 66
     1
 10
0.0
 20
0.0
 30
0.0
  0
VERTEX
  5
26A
  8
0
  6
CONTINUOUS
 62
     7
 10
336.9999238461284
 20
287.5
 30
0.0
  0
VERTEX
  5
26B
  8
0
  6
CONTINUOUS
 62
     7
 10
336.6097499451241
 20
287.4615728116781
 30
0.0
  0
VERTEX
  5
26C
  8
0
  6
CONTINUOUS
 62
     7
 10
336.2345746118406
 20
287.3477678392886
 30
0.0
  0
VERTEX
  5
26D
  8
0
  6
CONTINUOUS
 62
     7
 10
335.8888142305109
 20
287.1629581214191
 30
0.0
  0
VERTEX
  5
26E
  8
0
  6
CONTINUOUS
 62
     7
 10
335.5857548945097
 20
286.9142451054903
 30
0.0
  0
VERTEX
  5
26F
  8
0
  6
CONTINUOUS
 62
     7
 10
335.3370418785809
 20
286.6111857694891
 30
0.0
  0
VERTEX
  5
270
  8
0
  6
CONTINUOUS
 62
     7
 10
335.1522321607114
 20
286.2654253881594
 30
0.0
  0
VERTEX
  5
271
  8
0
  6
CONTINUOUS
 62
     7
 10
335.0384271883219
 20
285.8902500548759
 30
0.0
  0
VERTEX
  5
272
  8
0
  6
CONTINUOUS
 62
     7
 10
335.0
 20
285.5000761538716
 30
0.0
  0
SEQEND
  5
2F2
  8
0
  6
CONTINUOUS
 62
     7
  0
POLYLINE
  5
D4
  8
0
  6
CONTINUOUS
 62
     7
 66
     1
 10
0.0
 20
0.0
 30
0.0
  0
VERTEX
  5
273
  8
0
  6
CONTINUOUS
 62
     7
 10
410.0
 20
285.5000761538716
 30
0.0
  0
VERTEX
  5
274
  8
0
  6
CONTINUOUS
 62
     7
 10
409.9615728116781
 20
285.8902500548759
 30
0.0
  0
VERTEX
  5
275
  8
0
  6
CONTINUOUS
 62
     7
 10
409.8477678392886
 20
286.2654253881594
 30
0.0
  0
VERTEX
  5
276
  8
0
  6
CONTINUOUS
 62
     7
 10
409.6629581214191
 20
286.6111857694891
 30
0.0
  0
VERTEX
  5
277
  8
0
  6
CONTINUOUS
 62
     7
 10
409.4142451054903
 20
286.9142451054903
 30
0.0
  0
VERTEX
  5
278
  8
0
  6
CONTINUOUS
 62
     7
 10
409.1111857694891
 20
287.1629581214191
 30
0.0
  0
VERTEX
  5
279
  8
0
  6
CONTINUOUS
 62
     7
 10
408.7654253881594
 20
287.3477678392886
 30
0.0
  0
VERTEX
  5
27A
  8
0
  6
CONTINUOUS
 62
     7
 10
408.3902500548759
 20
287.4615728116781
 30
0.0
  0
VERTEX
  5
27B
  8
0
  6
CONTINUOUS
 62
     7
 10
408.0000761538716
 20
287.5
 30
0.0
  0
SEQEND
  5
2F3
  8
0
  6
CONTINUOUS
 62
     7
  0
LINE
  5
D5
  8
0
  6
CONTINUOUS
 62
     7
 10
408.0000761538716
 20
287.5
 30
0.0
 11
336.9999238461284
 21
287.5
 31
0.0
  0
ARC
  5
D6
  8
0
  6
CONTINUOUS
 62
     7
 10
377.0
 20
258.55
 30
0.0
 40
2.000000000000002
 50
270.0
 51
0.0
  0
LINE
  5
D7
  8
0
  6
CONTINUOUS
 62
     7
 10
368.0
 20
256.55
 30
0.0
 11
377.0
 21
256.55
 31
0.0
  0
ARC
  5
D8
  8
0
  6
CONTINUOUS
 62
     7
 10
368.0
 20
258.55
 30
0.0
 40
2.0
 50
180.0
 51
270.0
  0
LINE
  5
D9
  8
0
  6
CONTINUOUS
 62
     7
 10
366.0
 20
283.495598487719
 30
0.0
 11
366.0
 21
258.5500000000001
 31
0.0
  0
LINE
  5
DA
  8
0
  6
CONTINUOUS
 62
     7
 10
369.0
 20
283.4956746430405
 30
0.0
 11
369.0
 21
267.887549004758
 31
0.0
  0
POLYLINE
  5
DB
  8
0
  6
CONTINUOUS
 62
     7
 66
     1
 10
0.0
 20
0.0
 30
0.0
  0
VERTEX
  5
27C
  8
0
  6
CONTINUOUS
 62
     7
 10
369.0
 20
267.887549004758
 30
0.0
  0
VERTEX
  5
27D
  8
0
  6
CONTINUOUS
 62
     7
 10
369.0200736767079
 20
267.6881764810893
 30
0.0
  0
VERTEX
  5
27E
  8
0
  6
CONTINUOUS
 62
     7
 10
369.079488832525
 20
267.4968127308396
 30
0.0
  0
VERTEX
  5
27F
  8
0
  6
CONTINUOUS
 62
     7
 10
369.1758601970196
 20
267.3211402095857
 30
0.0
  0
VERTEX
  5
280
  8
0
  6
CONTINUOUS
 62
     7
 10
369.3053188622839
 20
267.1682114355752
 30
0.0
  0
VERTEX
  5
281
  8
0
  6
CONTINUOUS
 62
     7
 10
369.4626676034329
 20
267.0441658605656
 30
0.0
  0
VERTEX
  5
282
  8
0
  6
CONTINUOUS
 62
     7
 10
369.641589525483
 20
266.9539833964691
 30
0.0
  0
VERTEX
  5
283
  8
0
  6
CONTINUOUS
 62
     7
 10
369.834901660312
 20
266.9012844926831
 30
0.0
  0
VERTEX
  5
284
  8
0
  6
CONTINUOUS
 62
     7
 10
370.0348433328371
 20
266.8881847901623
 30
0.0
  0
VERTEX
  5
285
  8
0
  6
CONTINUOUS
 62
     7
 10
370.2333877197173
 20
266.915210187268
 30
0.0
  0
VERTEX
  5
286
  8
0
  6
CONTINUOUS
 62
     7
 10
370.4225640927964
 20
266.9812757271448
 30
0.0
  0
SEQEND
  5
2F4
  8
0
  6
CONTINUOUS
 62
     7
  0
LINE
  5
DC
  8
0
  6
CONTINUOUS
 62
     7
 10
370.4225640927964
 20
266.9812757271448
 30
0.0
 11
372.0773978302678
 21
267.752937371901
 31
0.0
  0
POLYLINE
  5
DD
  8
0
  6
CONTINUOUS
 62
     7
 66
     1
 10
0.0
 20
0.0
 30
0.0
  0
VERTEX
  5
287
  8
0
  6
CONTINUOUS
 62
     7
 10
372.9226021697323
 20
267.7529373719009
 30
0.0
  0
VERTEX
  5
288
  8
0
  6
CONTINUOUS
 62
     7
 10
372.716430946621
 20
267.8229232540486
 30
0.0
  0
VERTEX
  5
289
  8
0
  6
CONTINUOUS
 62
     7
 10
372.5000000000001
 20
267.8466264242533
 30
0.0
  0
VERTEX
  5
28A
  8
0
  6
CONTINUOUS
 62
     7
 10
372.2835690533791
 20
267.8229232540486
 30
0.0
  0
VERTEX
  5
28B
  8
0
  6
CONTINUOUS
 62
     7
 10
372.0773978302678
 20
267.7529373719009
 30
0.0
  0
SEQEND
  5
2F5
  8
0
  6
CONTINUOUS
 62
     7
  0
LINE
  5
DE
  8
0
  6
CONTINUOUS
 62
     7
 10
372.9226021697323
 20
267.7529373719009
 30
0.0
 11
374.5774359072036
 21
266.9812757271448
 31
0.0
  0
POLYLINE
  5
DF
  8
0
  6
CONTINUOUS
 62
     7
 66
     1
 10
0.0
 20
0.0
 30
0.0
  0
VERTEX
  5
28C
  8
0
  6
CONTINUOUS
 62
     7
 10
374.5774359072036
 20
266.9812757271448
 30
0.0
  0
VERTEX
  5
28D
  8
0
  6
CONTINUOUS
 62
     7
 10
374.7666122802827
 20
266.915210187268
 30
0.0
  0
VERTEX
  5
28E
  8
0
  6
CONTINUOUS
 62
     7
 10
374.9651566671629
 20
266.8881847901623
 30
0.0
  0
VERTEX
  5
28F
  8
0
  6
CONTINUOUS
 62
     7
 10
375.165098339688
 20
266.9012844926831
 30
0.0
  0
VERTEX
  5
290
  8
0
  6
CONTINUOUS
 62
     7
 10
375.358410474517
 20
266.9539833964691
 30
0.0
  0
VERTEX
  5
291
  8
0
  6
CONTINUOUS
 62
     7
 10
375.5373323965671
 20
267.0441658605656
 30
0.0
  0
VERTEX
  5
292
  8
0
  6
CONTINUOUS
 62
     7
 10
375.6946811377161
 20
267.1682114355752
 30
0.0
  0
VERTEX
  5
293
  8
0
  6
CONTINUOUS
 62
     7
 10
375.8241398029804
 20
267.3211402095857
 30
0.0
  0
VERTEX
  5
294
  8
0
  6
CONTINUOUS
 62
     7
 10
375.920511167475
 20
267.4968127308396
 30
0.0
  0
VERTEX
  5
295
  8
0
  6
CONTINUOUS
 62
     7
 10
375.9799263232921
 20
267.6881764810893
 30
0.0
  0
VERTEX
  5
296
  8
0
  6
CONTINUOUS
 62
     7
 10
376.0
 20
267.887549004758
 30
0.0
  0
SEQEND
  5
2F6
  8
0
  6
CONTINUOUS
 62
     7
  0
LINE
  5
E0
  8
0
  6
CONTINUOUS
 62
     7
 10
376.0
 20
267.887549004758
 30
0.0
 11
376.0
 21
283.4956746430405
 31
0.0
  0
LINE
  5
E1
  8
0
  6
CONTINUOUS
 62
     7
 10
379.0
 20
258.55
 30
0.0
 11
379.0
 21
283.4955984877189
 31
0.0
  0
CIRCLE
  5
E2
  8
0
  6
CONTINUOUS
 62
     7
 10
372.5
 20
261.55
 30
0.0
 40
3.499999999999999
  0
POLYLINE
  5
E3
  8
0
  6
CONTINUOUS
 62
     7
 66
     1
 10
0.0
 20
0.0
 30
0.0
  0
VERTEX
  5
297
  8
0
  6
CONTINUOUS
 62
     7
 10
370.4225640927964
 20
172.6187242728552
 30
0.0
  0
VERTEX
  5
298
  8
0
  6
CONTINUOUS
 62
     7
 10
370.2333877197173
 20
172.6847898127321
 30
0.0
  0
VERTEX
  5
299
  8
0
  6
CONTINUOUS
 62
     7
 10
370.0348433328371
 20
172.7118152098378
 30
0.0
  0
VERTEX
  5
29A
  8
0
  6
CONTINUOUS
 62
     7
 10
369.834901660312
 20
172.6987155073169
 30
0.0
  0
VERTEX
  5
29B
  8
0
  6
CONTINUOUS
 62
     7
 10
369.641589525483
 20
172.6460166035309
 30
0.0
  0
VERTEX
  5
29C
  8
0
  6
CONTINUOUS
 62
     7
 10
369.4626676034329
 20
172.5558341394345
 30
0.0
  0
VERTEX
  5
29D
  8
0
  6
CONTINUOUS
 62
     7
 10
369.3053188622839
 20
172.4317885644247
 30
0.0
  0
VERTEX
  5
29E
  8
0
  6
CONTINUOUS
 62
     7
 10
369.1758601970196
 20
172.2788597904143
 30
0.0
  0
VERTEX
  5
29F
  8
0
  6
CONTINUOUS
 62
     7
 10
369.079488832525
 20
172.1031872691604
 30
0.0
  0
VERTEX
  5
2A0
  8
0
  6
CONTINUOUS
 62
     7
 10
369.0200736767079
 20
171.9118235189107
 30
0.0
  0
VERTEX
  5
2A1
  8
0
  6
CONTINUOUS
 62
     7
 10
369.0
 20
171.7124509952421
 30
0.0
  0
SEQEND
  5
2F7
  8
0
  6
CONTINUOUS
 62
     7
  0
CIRCLE
  5
E4
  8
0
  6
CONTINUOUS
 62
     7
 10
372.5
 20
178.05
 30
0.0
 40
3.499999999999999
  0
CIRCLE
  5
E5
  8
0
  6
CONTINUOUS
 62
     7
 10
372.5
 20
178.05
 30
0.0
 40
2.75
  0
POLYLINE
  5
E6
  8
0
  6
CONTINUOUS
 62
     7
 66
     1
 10
0.0
 20
0.0
 30
0.0
  0
VERTEX
  5
2A2
  8
0
  6
CONTINUOUS
 62
     7
 10
376.0
 20
171.712450995242
 30
0.0
  0
VERTEX
  5
2A3
  8
0
  6
CONTINUOUS
 62
     7
 10
375.9799263232921
 20
171.9118235189107
 30
0.0
  0
VERTEX
  5
2A4
  8
0
  6
CONTINUOUS
 62
     7
 10
375.920511167475
 20
172.1031872691603
 30
0.0
  0
VERTEX
  5
2A5
  8
0
  6
CONTINUOUS
 62
     7
 10
375.8241398029804
 20
172.2788597904143
 30
0.0
  0
VERTEX
  5
2A6
  8
0
  6
CONTINUOUS
 62
     7
 10
375.6946811377161
 20
172.4317885644247
 30
0.0
  0
VERTEX
  5
2A7
  8
0
  6
CONTINUOUS
 62
     7
 10
375.5373323965671
 20
172.5558341394345
 30
0.0
  0
VERTEX
  5
2A8
  8
0
  6
CONTINUOUS
 62
     7
 10
375.358410474517
 20
172.6460166035309
 30
0.0
  0
VERTEX
  5
2A9
  8
0
  6
CONTINUOUS
 62
     7
 10
375.165098339688
 20
172.6987155073169
 30
0.0
  0
VERTEX
  5
2AA
  8
0
  6
CONTINUOUS
 62
     7
 10
374.9651566671629
 20
172.7118152098378
 30
0.0
  0
VERTEX
  5
2AB
  8
0
  6
CONTINUOUS
 62
     7
 10
374.7666122802827
 20
172.6847898127321
 30
0.0
  0
VERTEX
  5
2AC
  8
0
  6
CONTINUOUS
 62
     7
 10
374.5774359072036
 20
172.6187242728552
 30
0.0
  0
SEQEND
  5
2F8
  8
0
  6
CONTINUOUS
 62
     7
  0
LINE
  5
E7
  8
0
  6
CONTINUOUS
 62
     7
 10
376.0
 20
171.712450995242
 30
0.0
 11
376.0
 21
161.5
 31
0.0
  0
POLYLINE
  5
E8
  8
0
  6
CONTINUOUS
 62
     7
 66
     1
 10
0.0
 20
0.0
 30
0.0
  0
VERTEX
  5
2AD
  8
0
  6
CONTINUOUS
 62
     7
 10
372.0773978302677
 20
171.8470626280991
 30
0.0
  0
VERTEX
  5
2AE
  8
0
  6
CONTINUOUS
 62
     7
 10
372.283569053379
 20
171.7770767459513
 30
0.0
  0
VERTEX
  5
2AF
  8
0
  6
CONTINUOUS
 62
     7
 10
372.5
 20
171.7533735757467
 30
0.0
  0
VERTEX
  5
2B0
  8
0
  6
CONTINUOUS
 62
     7
 10
372.716430946621
 20
171.7770767459513
 30
0.0
  0
VERTEX
  5
2B1
  8
0
  6
CONTINUOUS
 62
     7
 10
372.9226021697323
 20
171.8470626280991
 30
0.0
  0
SEQEND
  5
2F9
  8
0
  6
CONTINUOUS
 62
     7
  0
LINE
  5
E9
  8
0
  6
CONTINUOUS
 62
     7
 10
372.9226021697323
 20
171.8470626280991
 30
0.0
 11
374.5774359072036
 21
172.6187242728552
 31
0.0
  0
LINE
  5
EA
  8
0
  6
CONTINUOUS
 62
     7
 10
370.4225640927964
 20
172.6187242728552
 30
0.0
 11
372.0773978302678
 21
171.8470626280991
 31
0.0
  0
LINE
  5
EB
  8
0
  6
CONTINUOUS
 62
     7
 10
369.0
 20
161.5
 30
0.0
 11
369.0
 21
171.712450995242
 31
0.0
  0
LINE
  5
EC
  8
0
  6
CONTINUOUS
 62
     7
 10
366.0
 20
161.5
 30
0.0
 11
366.0
 21
181.05
 31
0.0
  0
ARC
  5
ED
  8
0
  6
CONTINUOUS
 62
     7
 10
368.0
 20
181.05
 30
0.0
 40
2.000000000000002
 50
90.0
 51
180.0
  0
ARC
  5
EE
  8
0
  6
CONTINUOUS
 62
     7
 10
377.0
 20
181.05
 30
0.0
 40
2.0
 50
0.0
 51
90.0
  0
LINE
  5
EF
  8
0
  6
CONTINUOUS
 62
     7
 10
379.0
 20
181.05
 30
0.0
 11
379.0
 21
161.5
 31
0.0
  0
ARC
  5
F0
  8
0
  6
CONTINUOUS
 62
     7
 10
380.0
 20
161.5
 30
0.0
 40
1.000000000000001
 50
180.0
 51
187.699329946381
  0
ARC
  5
F1
  8
0
  6
CONTINUOUS
 62
     7
 10
365.0
 20
161.5
 30
0.0
 40
1.0
 50
352.300670053619
 51
0.0
  0
CIRCLE
  5
F2
  8
0
  6
CONTINUOUS
 62
     7
 10
372.5
 20
261.55
 30
0.0
 40
2.75
  0
ARC
  5
F3
  8
0
  6
CONTINUOUS
 62
     7
 10
358.5
 20
161.5
 30
0.0
 40
1.000000000000001
 50
270.0
 51
359.9999999999985
  0
ARC
  5
F4
  8
0
  6
CONTINUOUS
 62
     7
 10
386.5
 20
161.5
 30
0.0
 40
1.000000000000001
 50
180.0000000000016
 51
269.9999999999999
  0
LINE
  5
F5
  8
0
  6
CONTINUOUS
 62
     7
 10
385.5
 20
161.5
 30
0.0
 11
385.5
 21
183.05
 31
0.0
  0
LINE
  5
F6
  8
0
  6
CONTINUOUS
 62
     7
 10
359.5
 20
161.5
 30
0.0
 11
359.5
 21
183.05
 31
0.0
  0
LINE
  5
F7
  8
0
  6
CONTINUOUS
 62
     7
 10
360.0
 20
317.5
 30
0.0
 11
384.9999999999999
 21
317.5
 31
0.0
  0
CIRCLE
  5
F8
  8
0
  6
CONTINUOUS
 62
     7
 10
372.5
 20
219.8
 30
0.0
 40
13.55
  0
CIRCLE
  5
F9
  8
0
  6
CONTINUOUS
 62
     7
 10
372.5
 20
241.8
 30
0.0
 40
2.5
  0
CIRCLE
  5
FA
  8
0
  6
CONTINUOUS
 62
     7
 10
372.5
 20
197.8
 30
0.0
 40
2.5
  0
CIRCLE
  5
FB
  8
0
  6
CONTINUOUS
 62
     7
 10
350.4999999999999
 20
219.8
 30
0.0
 40
2.499999999999999
  0
CIRCLE
  5
FC
  8
0
  6
CONTINUOUS
 62
     7
 10
394.5
 20
219.8
 30
0.0
 40
2.499999999999999
  0
CIRCLE
  5
FD
  8
0
  6
CONTINUOUS
 62
     7
 10
372.5
 20
219.8
 30
0.0
 40
13.14999999999999
  0
CIRCLE
  5
FE
  8
0
  6
CONTINUOUS
 62
     7
 10
372.5
 20
219.8
 30
0.0
 40
12.40000000000001
  0
POLYLINE
  5
FF
  8
0
  6
CONTINUOUS
 62
     7
 66
     1
 10
0.0
 20
0.0
 30
0.0
  0
VERTEX
  5
2B2
  8
0
  6
CONTINUOUS
 62
     7
 10
385.8659527364701
 20
287.4998281495974
 30
0.0
  0
VERTEX
  5
2B3
  8
0
  6
CONTINUOUS
 62
     7
 10
385.8517420715452
 20
287.5117111124886
 30
0.0
  0
VERTEX
  5
2B4
  8
0
  6
CONTINUOUS
 62
     7
 10
385.8298037377876
 20
287.5309613274895
 30
0.0
  0
VERTEX
  5
2B5
  8
0
  6
CONTINUOUS
 62
     7
 10
385.8073586037219
 20
287.5518754663108
 30
0.0
  0
VERTEX
  5
2B6
  8
0
  6
CONTINUOUS
 62
     7
 10
385.7845226400512
 20
287.574533168429
 30
0.0
  0
VERTEX
  5
2B7
  8
0
  6
CONTINUOUS
 62
     7
 10
385.7614219269307
 20
287.5990118548101
 30
0.0
  0
VERTEX
  5
2B8
  8
0
  6
CONTINUOUS
 62
     7
 10
385.7381930155394
 20
287.6253856623439
 30
0.0
  0
VERTEX
  5
2B9
  8
0
  6
CONTINUOUS
 62
     7
 10
385.7149832286986
 20
287.6537242904699
 30
0.0
  0
VERTEX
  5
2BA
  8
0
  6
CONTINUOUS
 62
     7
 10
385.6919508874283
 20
287.6840917596552
 30
0.0
  0
VERTEX
  5
2BB
  8
0
  6
CONTINUOUS
 62
     7
 10
385.6692654494374
 20
287.7165450826151
 30
0.0
  0
VERTEX
  5
2BC
  8
0
  6
CONTINUOUS
 62
     7
 10
385.6471075447137
 20
287.7511328505947
 30
0.0
  0
VERTEX
  5
2BD
  8
0
  6
CONTINUOUS
 62
     7
 10
385.6256688926324
 20
287.7878937386566
 30
0.0
  0
VERTEX
  5
2BE
  8
0
  6
CONTINUOUS
 62
     7
 10
385.6084986188174
 20
287.8202078325563
 30
0.0
  0
VERTEX
  5
2BF
  8
0
  6
CONTINUOUS
 62
     7
 10
385.5920911620061
 20
287.8540589978948
 30
0.0
  0
VERTEX
  5
2C0
  8
0
  6
CONTINUOUS
 62
     7
 10
385.5765742154265
 20
287.8894490748041
 30
0.0
  0
VERTEX
  5
2C1
  8
0
  6
CONTINUOUS
 62
     7
 10
385.5620800609665
 20
287.9263722010526
 30
0.0
  0
VERTEX
  5
2C2
  8
0
  6
CONTINUOUS
 62
     7
 10
385.5487452323982
 20
287.9648141049075
 30
0.0
  0
VERTEX
  5
2C3
  8
0
  6
CONTINUOUS
 62
     7
 10
385.5367101079913
 20
288.0047513909552
 30
0.0
  0
VERTEX
  5
2C4
  8
0
  6
CONTINUOUS
 62
     7
 10
385.5261184279919
 20
288.0461508242701
 30
0.0
  0
VERTEX
  5
2C5
  8
0
  6
CONTINUOUS
 62
     7
 10
385.5171167326652
 20
288.0889686190336
 30
0.0
  0
VERTEX
  5
2C6
  8
0
  6
CONTINUOUS
 62
     7
 10
385.5098537169014
 20
288.133149738441
 30
0.0
  0
VERTEX
  5
2C7
  8
0
  6
CONTINUOUS
 62
     7
 10
385.5044794977672
 20
288.1786272134921
 30
0.0
  0
VERTEX
  5
2C8
  8
0
  6
CONTINUOUS
 62
     7
 10
385.5011447918678
 20
288.2253214890243
 30
0.0
  0
VERTEX
  5
2C9
  8
0
  6
CONTINUOUS
 62
     7
 10
385.4999999999633
 20
288.2731398061181
 30
0.0
  0
SEQEND
  5
2FA
  8
0
  6
CONTINUOUS
 62
     7
  0
POLYLINE
  5
100
  8
0
  6
CONTINUOUS
 62
     7
 66
     1
 10
0.0
 20
0.0
 30
0.0
  0
VERTEX
  5
2CA
  8
0
  6
CONTINUOUS
 62
     7
 10
359.5000000000207
 20
288.2731392976831
 30
0.0
  0
VERTEX
  5
2CB
  8
0
  6
CONTINUOUS
 62
     7
 10
359.4991563789964
 20
288.2320872996763
 30
0.0
  0
VERTEX
  5
2CC
  8
0
  6
CONTINUOUS
 62
     7
 10
359.4966880246462
 20
288.191846568508
 30
0.0
  0
VERTEX
  5
2CD
  8
0
  6
CONTINUOUS
 62
     7
 10
359.4926892260302
 20
288.152477398239
 30
0.0
  0
VERTEX
  5
2CE
  8
0
  6
CONTINUOUS
 62
     7
 10
359.4872546543014
 20
288.1140329195058
 30
0.0
  0
VERTEX
  5
2CF
  8
0
  6
CONTINUOUS
 62
     7
 10
359.4804789272271
 20
288.0765593725882
 30
0.0
  0
VERTEX
  5
2D0
  8
0
  6
CONTINUOUS
 62
     7
 10
359.4724562102343
 20
288.0400963965416
 30
0.0
  0
VERTEX
  5
2D1
  8
0
  6
CONTINUOUS
 62
     7
 10
359.4632798532482
 20
288.0046773312139
 30
0.0
  0
VERTEX
  5
2D2
  8
0
  6
CONTINUOUS
 62
     7
 10
359.4512389658996
 20
287.9647106486246
 30
0.0
  0
VERTEX
  5
2D3
  8
0
  6
CONTINUOUS
 62
     7
 10
359.4378971978009
 20
287.9262355725631
 30
0.0
  0
VERTEX
  5
2D4
  8
0
  6
CONTINUOUS
 62
     7
 10
359.4233952352741
 20
287.8892760328763
 30
0.0
  0
VERTEX
  5
2D5
  8
0
  6
CONTINUOUS
 62
     7
 10
359.4078700611216
 20
287.8538468638889
 30
0.0
  0
VERTEX
  5
2D6
  8
0
  6
CONTINUOUS
 62
     7
 10
359.3914545465832
 20
287.8199545083225
 30
0.0
  0
VERTEX
  5
2D7
  8
0
  6
CONTINUOUS
 62
     7
 10
359.3742771130027
 20
287.7875977148263
 30
0.0
  0
VERTEX
  5
2D8
  8
0
  6
CONTINUOUS
 62
     7
 10
359.3564614586429
 20
287.7567682244439
 30
0.0
  0
VERTEX
  5
2D9
  8
0
  6
CONTINUOUS
 62
     7
 10
359.3381263460084
 20
287.7274514419793
 30
0.0
  0
VERTEX
  5
2DA
  8
0
  6
CONTINUOUS
 62
     7
 10
359.3193854449965
 20
287.699627088828
 30
0.0
  0
VERTEX
  5
2DB
  8
0
  6
CONTINUOUS
 62
     7
 10
359.3003472272203
 20
287.6732698344023
 30
0.0
  0
VERTEX
  5
2DC
  8
0
  6
CONTINUOUS
 62
     7
 10
359.2811149069034
 20
287.6483499038046
 30
0.0
  0
VERTEX
  5
2DD
  8
0
  6
CONTINUOUS
 62
     7
 10
359.2617864238448
 20
287.6248336598906
 30
0.0
  0
VERTEX
  5
2DE
  8
0
  6
CONTINUOUS
 62
     7
 10
359.2385954443846
 20
287.5984148145315
 30
0.0
  0
VERTEX
  5
2DF
  8
0
  6
CONTINUOUS
 62
     7
 10
359.2155494771658
 20
287.5738949022947
 30
0.0
  0
VERTEX
  5
2E0
  8
0
  6
CONTINUOUS
 62
     7
 10
359.1927882518539
 20
287.5512003573838
 30
0.0
  0
VERTEX
  5
2E1
  8
0
  6
CONTINUOUS
 62
     7
 10
359.1704412223207
 20
287.5302542236018
 30
0.0
  0
VERTEX
  5
2E2
  8
0
  6
CONTINUOUS
 62
     7
 10
359.1486279157785
 20
287.5109772142374
 30
0.0
  0
VERTEX
  5
2E3
  8
0
  6
CONTINUOUS
 62
     7
 10
359.1354080168761
 20
287.4998181460172
 30
0.0
  0
SEQEND
  5
2FB
  8
0
  6
CONTINUOUS
 62
     7
  0
LINE
  5
101
  8
0
  6
CONTINUOUS
 62
     7
 10
385.5
 20
288.2731395158261
 30
0.0
 11
385.5
 21
317.0
 31
0.0
  0
LINE
  5
102
  8
0
  6
CONTINUOUS
 62
     7
 10
359.5
 20
317.0
 30
0.0
 11
359.5
 21
288.2731395158261
 31
0.0
  0
ARC
  5
103
  8
0
  6
CONTINUOUS
 62
     7
 10
385.0
 20
317.0
 30
0.0
 40
0.5000000000000004
 50
0.0
 51
90.0
  0
ARC
  5
104
  8
0
  6
CONTINUOUS
 62
     7
 10
360.0
 20
317.0
 30
0.0
 40
0.5000000000000004
 50
90.0
 51
180.0
  0
ENDBLK
  8
0
  0
ENDSEC
  0
SECTION
  2
ENTITIES
  0
INSERT
  5
79
  8
0
  6
CONTINUOUS
 62
     7
  2
D_FRAME_VIEW_5100
 10
0.0
 20
0.0
 30
0.0
  0
INSERT
  5
84
  8
0
  6
CONTINUOUS
 62
     7
  2
D_FRAME_VIEW_5135
 10
0.0
 20
0.0
 30
0.0
  0
TEXT
  5
85
  8
0
  6
CONTINUOUS
 62
     7
 10
398.4781042891084
 20
66.65684006502438
 30
0.0
 40
6.0
  1
PVR16-2L
  0
LINE
  5
86
  8
0
  6
CONTINUOUS
 62
     7
 10
406.0000380769358
 20
284.5
 30
0.0
 11
338.9999619230642
 21
284.5
 31
0.0
  0
LINE
  5
87
  8
0
  6
CONTINUOUS
 62
     7
 10
337.3229702650295
 20
384.5376871560978
 30
0.0
 11
407.6770297349705
 21
384.5376871560978
 31
0.0
  0
LINE
  5
88
  8
0
  6
CONTINUOUS
 62
     7
 10
385.5
 20
183.05
 30
0.0
 11
359.5
 21
183.05
 31
0.0
  0
LINE
  5
89
  8
0
  6
CONTINUOUS
 62
     7
 10
499.5376871560977
 20
157.5
 30
0.0
 11
499.5376871560977
 21
285.1770297349705
 31
0.0
  0
LINE
  5
8A
  8
0
  6
CONTINUOUS
 62
     7
 10
460.5376871560977
 20
157.5
 30
0.0
 11
460.5376871560977
 21
287.5
 31
0.0
  0
CIRCLE
  5
8B
  8
0
  6
CONTINUOUS
 62
     7
 10
372.5
 20
371.5376871560977
 30
0.0
 40
13.00000000000001
  0
LINE
  5
8C
  8
0
  6
CONTINUOUS
 62
     7
 10
499.5376871560977
 20
157.5
 30
0.0
 11
460.5376871560977
 21
157.5
 31
0.0
  0
LINE
  5
8D
  8
0
  6
CONTINUOUS
 62
     7
 10
499.5376871560977
 20
285.500000000008
 30
0.0
 11
499.5114374462585
 21
285.4999999999951
 31
0.0
  0
CIRCLE
  5
8E
  8
0
  6
CONTINUOUS
 62
     7
 10
372.5
 20
371.5376871560977
 30
0.0
 40
9.000000000000007
  0
LINE
  5
8F
  8
0
  6
CONTINUOUS
 62
     7
 10
339.0000380783857
 20
160.5
 30
0.0
 11
405.9999619216142
 21
160.5
 31
0.0
  0
LINE
  5
90
  8
0
  6
CONTINUOUS
 62
     7
 10
410.0
 20
345.5376871560977
 30
0.0
 11
335.0
 21
345.5376871560977
 31
0.0
  0
INSERT
  5
105
  8
0
  6
CONTINUOUS
 62
     7
  2
D_FRAME_VIEW_4838
 10
0.0
 20
0.0
 30
0.0
  0
ENDSEC
  0
EOF
