  0
SECTION
  2
HEADER
  9
$ACADVER
  1
AC1004
  9
$INSBASE
 10
0.0
 20
0.0
  9
$EXTMIN
 10
-341.0000380769
 20
35.7977704317
  9
$EXTMAX
 10
-167.7687839911
 20
294.2022295683
  9
$LIMMIN
 10
0.0
 20
0.0
  9
$LIMMAX
 10
12.0
 20
9.0
  9
$ORTHOMODE
 70
     0
  9
$REGENMODE
 70
     1
  9
$FILLMODE
 70
     1
  9
$QTEXTMODE
 70
     0
  9
$DRAGMODE
 70
     2
  9
$LTSCALE
 40
1.0
  9
$OSMODE
 70
    37
  9
$ATTMODE
 70
     1
  9
$TEXTSIZE
 40
0.2
  9
$TRACEWID
 40
0.05
  9
$TEXTSTYLE
  7
STANDARD
  9
$CLAYER
  8
0
  9
$CELTYPE
  6
BYLAYER
  9
$CECOLOR
 62
   256
  9
$DIMSCALE
 40
1.0
  9
$DIMASZ
 40
3.0
  9
$DIMEXO
 40
0.0625
  9
$DIMDLI
 40
0.38
  9
$DIMRND
 40
0.0
  9
$DIMDLE
 40
0.0
  9
$DIMEXE
 40
1.5
  9
$DIMTP
 40
0.0
  9
$DIMTM
 40
0.0
  9
$DIMTXT
 40
5.0
  9
$DIMCEN
 40
0.09
  9
$DIMTSZ
 40
0.0
  9
$DIMTOL
 70
     0
  9
$DIMLIM
 70
     0
  9
$DIMTIH
 70
     1
  9
$DIMTOH
 70
     1
  9
$DIMSE1
 70
     0
  9
$DIMSE2
 70
     0
  9
$DIMTAD
 70
     1
  9
$DIMZIN
 70
     0
  9
$DIMBLK
  1

  9
$DIMASO
 70
     1
  9
$DIMSHO
 70
     1
  9
$DIMPOST
  1

  9
$DIMAPOST
  1

  9
$DIMALT
 70
     0
  9
$DIMALTD
 70
     2
  9
$DIMALTF
 40
25.4
  9
$DIMLFAC
 40
1.0
  9
$DIMTOFL
 70
     0
  9
$DIMTVP
 40
0.0
  9
$DIMTIX
 70
     0
  9
$DIMSOXD
 70
     0
  9
$DIMSAH
 70
     0
  9
$DIMBLK1
  1

  9
$DIMBLK2
  1

  9
$LUNITS
 70
     2
  9
$LUPREC
 70
     4
  9
$SKETCHINC
 40
0.1
  9
$FILLETRAD
 40
0.5
  9
$AUNITS
 70
     0
  9
$AUPREC
 70
     0
  9
$MENU
  1
.
  9
$ELEVATION
 40
0.0
  9
$THICKNESS
 40
0.0
  9
$LIMCHECK
 70
     0
  9
$CHAMFERA
 40
0.0
  9
$CHAMFERB
 40
0.0
  9
$SKPOLY
 70
     0
  9
$TDCREATE
 40
2460293.638812269
  9
$TDUPDATE
 40
2460293.638812338
  9
$TDINDWG
 40
0.0000000116
  9
$TDUSRTIMER
 40
0.0000000116
  9
$USRTIMER
 70
     1
  9
$ANGBASE
 50
0.0
  9
$ANGDIR
 70
     0
  9
$PDMODE
 70
     0
  9
$PDSIZE
 40
0.0
  9
$PLINEWID
 40
0.0
  9
$COORDS
 70
     1
  9
$SPLFRAME
 70
     0
  9
$SPLINETYPE
 70
     6
  9
$SPLINESEGS
 70
     8
  9
$ATTDIA
 70
     0
  9
$ATTREQ
 70
     1
  9
$SURFTAB1
 70
     6
  9
$SURFTAB2
 70
     6
  9
$SURFTYPE
 70
     6
  9
$SURFU
 70
     6
  9
$SURFV
 70
     6
  9
$UCSNAME
  2

  9
$UCSORG
 10
0.0
 20
0.0
 30
0.0
  9
$UCSXDIR
 10
1.0
 20
0.0
 30
0.0
  9
$UCSYDIR
 10
0.0
 20
1.0
 30
0.0
  9
$USERI1
 70
     0
  9
$USERI2
 70
     0
  9
$USERI3
 70
     0
  9
$USERI4
 70
     0
  9
$USERI5
 70
     0
  9
$USERR1
 40
0.0
  9
$USERR2
 40
0.0
  9
$USERR3
 40
0.0
  9
$USERR4
 40
0.0
  9
$USERR5
 40
0.0
  9
$WORLDVIEW
 70
     1
  0
ENDSEC
  0
SECTION
  2
TABLES
  0
TABLE
  2
LTYPE
 70
     2
  0
LTYPE
  2
CONTINUOUS
 70
     0
  3
Solid line
 72
    65
 73
     0
 40
0.0
  0
LTYPE
  2
CENTER
 70
     0
  3

 72
    65
 73
     0
 40
0.0
  0
ENDTAB
  0
TABLE
  2
LAYER
 70
     2
  0
LAYER
  2
0
 70
     0
 62
     7
  6
CONTINUOUS
  0
LAYER
  2
1
 70
     0
 62
     7
  6
CONTINUOUS
  0
ENDTAB
  0
TABLE
  2
STYLE
 70
     2
  0
STYLE
  2
STANDARD
 70
     0
 40
0.0
 41
1.0
 50
0.0
 71
     0
 42
0.2
  3
txt
  4

  0
STYLE
  2
ＭＳ_ゴシック
 70
     0
 40
0.0
 41
1.0
 50
0.0
 71
     0
 42
0.2
  3
ＭＳ ゴシック.shx
  4

  0
ENDTAB
  0
TABLE
  2
VIEW
 70
     0
  0
ENDTAB
  0
ENDSEC
  0
SECTION
  2
BLOCKS
  0
ENDSEC
  0
SECTION
  2
ENTITIES
  0
CIRCLE
  8
0
  6
CONTINUOUS
 62
     7
 10
-319.75
 20
59.0477704317
 40
13.5
  0
CIRCLE
  8
0
  6
CONTINUOUS
 62
     7
 10
-280.25
 20
59.0477704317
 40
13.5
  0
LINE
  8
1
  6
CENTER
 62
     7
 10
-300.0
 20
103.5428305231
 11
-300.0
 21
226.25
  0
LINE
  8
1
  6
CENTER
 62
     7
 10
-341.0000380769
 20
165.0
 11
-258.9999619231
 21
165.0
  0
LINE
  8
1
  6
CENTER
 62
     7
 10
-300.0
 20
294.2022295683
 11
-300.0
 21
242.7022295683
  0
LINE
  8
1
  6
CONTINUOUS
 62
     7
 10
-260.0
 20
85.5477704317
 11
-340.0
 21
85.5477704317
  0
LINE
  8
1
  6
CONTINUOUS
 62
     7
 10
-333.5
 20
87.3477704317
 11
-333.5
 21
85.5477704317
  0
LINE
  8
1
  6
CONTINUOUS
 62
     7
 10
-261.5
 20
87.3477704317
 11
-262.984291638
 21
87.3477704317
  0
LINE
  8
1
  6
CONTINUOUS
 62
     7
 10
-266.5
 20
87.3477704317
 11
-266.5
 21
85.5477704317
  0
LINE
  8
1
  6
CENTER
 62
     7
 10
-249.7688601449
 20
165.0
 11
-167.7687839911
 21
165.0
  0
LINE
  8
1
  6
CONTINUOUS
 62
     7
 10
-260.4189658093
 20
37.5390438962
 11
-260.0
 21
85.5477704317
  0
ARC
  8
1
  6
CONTINUOUS
 62
     7
 10
-338.5810722677
 20
37.5477704317
 40
1.0
 50
180.5
 51
270.0
  0
LINE
  8
1
  6
CONTINUOUS
 62
     7
 10
-337.015708362
 20
87.3477704317
 11
-337.0
 21
85.5477704317
  0
LINE
  8
1
  6
CONTINUOUS
 62
     7
 10
-303.75
 20
85.5477704317
 11
-303.75
 21
87.3477704317
  0
LINE
  8
1
  6
CONTINUOUS
 62
     7
 10
-338.5
 20
87.3477704317
 11
-338.5
 21
85.5477704317
  0
LINE
  8
1
  6
CONTINUOUS
 62
     7
 10
-338.5
 20
87.3477704317
 11
-337.015708362
 21
87.3477704317
  0
LINE
  8
1
  6
CONTINUOUS
 62
     7
 10
-296.25
 20
85.5477704317
 11
-296.25
 21
87.3477704317
  0
LINE
  8
1
  6
CONTINUOUS
 62
     7
 10
-261.5
 20
87.3477704317
 11
-261.5
 21
85.5477704317
  0
LINE
  8
1
  6
CONTINUOUS
 62
     7
 10
-338.5810722677
 20
36.5477704317
 11
-261.4189277323
 21
36.5477704317
  0
LINE
  8
1
  6
CONTINUOUS
 62
     7
 10
-266.5
 20
87.3477704317
 11
-296.25
 21
87.3477704317
  0
LINE
  8
1
  6
CONTINUOUS
 62
     7
 10
-262.984291638
 20
87.3477704317
 11
-263.0
 21
85.5477704317
  0
ARC
  8
1
  6
CONTINUOUS
 62
     7
 10
-261.4189277323
 20
37.5477704317
 40
1.0
 50
270.0
 51
359.5000000000001
  0
LINE
  8
1
  6
CONTINUOUS
 62
     7
 10
-340.0
 20
85.5477704317
 11
-339.5810341907
 21
37.5390438962
  0
LINE
  8
1
  6
CENTER
 62
     7
 10
-300.0
 20
35.7977704317
 11
-300.0
 21
87.2977704317
  0
LINE
  8
1
  6
CONTINUOUS
 62
     7
 10
-333.5
 20
87.3477704317
 11
-303.75
 21
87.3477704317
  0
LINE
  8
0
  6
CENTER
 62
     7
 10
-295.75
 20
59.0477704317
 11
-264.75
 21
59.0477704317
  0
LINE
  8
0
  6
CENTER
 62
     7
 10
-319.75
 20
43.5477704317
 11
-319.75
 21
74.54777043169999
  0
LINE
  8
0
  6
CENTER
 62
     7
 10
-280.25
 20
43.5477704317
 11
-280.25
 21
74.54777043169999
  0
LINE
  8
0
  6
CENTER
 62
     7
 10
-335.25
 20
59.0477704317
 11
-304.2499999999999
 21
59.0477704317
  0
TEXT
  8
1
  6
CONTINUOUS
 62
     7
 10
-202.5796016806771
 20
36.11896621433038
 40
3.0
  1
PVR22-BCU
 41
1.025193
  0
CIRCLE
  8
1
  6
CONTINUOUS
 62
     7
 10
-300.0
 20
206.75
 40
1.65
  0
CIRCLE
  8
1
  6
CONTINUOUS
 62
     7
 10
-300.0
 20
123.25
 40
1.65
  0
LINE
  8
1
  6
CONTINUOUS
 62
     7
 10
-333.5
 20
107.75
 11
-336.0000380769
 21
107.75
  0
LINE
  8
1
  6
CONTINUOUS
 62
     7
 10
-263.9999619231
 20
107.75
 11
-266.5
 21
107.75
  0
LINE
  8
1
  6
CONTINUOUS
 62
     7
 10
-266.5
 20
107.75
 11
-266.5
 21
106.75
  0
LINE
  8
1
  6
CONTINUOUS
 62
     7
 10
-266.5
 20
107.734291638
 11
-296.25
 21
107.734291638
  0
LINE
  8
1
  6
CONTINUOUS
 62
     7
 10
-296.25
 20
107.75
 11
-296.25
 21
106.75
  0
LINE
  8
1
  6
CONTINUOUS
 62
     7
 10
-296.25
 20
107.75
 11
-303.75
 21
107.75
  0
LINE
  8
1
  6
CONTINUOUS
 62
     7
 10
-303.75
 20
107.75
 11
-303.75
 21
106.75
  0
LINE
  8
1
  6
CONTINUOUS
 62
     7
 10
-333.5
 20
107.734291638
 11
-303.75
 21
107.734291638
  0
LINE
  8
1
  6
CONTINUOUS
 62
     7
 10
-333.5
 20
106.75
 11
-333.5
 21
107.75
  0
LINE
  8
1
  6
CONTINUOUS
 62
     7
 10
-303.75
 20
106.75
 11
-333.5
 21
106.75
  0
LINE
  8
1
  6
CONTINUOUS
 62
     7
 10
-261.5
 20
111.75
 11
-263.0
 21
111.75
  0
LINE
  8
1
  6
CONTINUOUS
 62
     7
 10
-263.0
 20
111.75
 11
-263.0
 21
108.7499619231
  0
LINE
  8
1
  6
CONTINUOUS
 62
     7
 10
-263.0
 20
218.25
 11
-263.0
 21
221.25
  0
LINE
  8
1
  6
CONTINUOUS
 62
     7
 10
-261.5
 20
218.25
 11
-263.0
 21
218.25
  0
LINE
  8
1
  6
CONTINUOUS
 62
     7
 10
-262.984291638
 20
218.25
 11
-262.984291638
 21
111.75
  0
LINE
  8
1
  6
CONTINUOUS
 62
     7
 10
-296.25
 20
106.75
 11
-266.5
 21
106.75
  0
LINE
  8
1
  6
CONTINUOUS
 62
     7
 10
-337.015708362
 20
218.25
 11
-337.015708362
 21
111.75
  0
LINE
  8
1
  6
CONTINUOUS
 62
     7
 10
-337.0
 20
111.75
 11
-338.5
 21
111.75
  0
LINE
  8
1
  6
CONTINUOUS
 62
     7
 10
-338.5
 20
111.75
 11
-338.5
 21
218.25
  0
LINE
  8
1
  6
CONTINUOUS
 62
     7
 10
-338.5
 20
218.25
 11
-337.0
 21
218.25
  0
LINE
  8
1
  6
CONTINUOUS
 62
     7
 10
-333.5
 20
223.25
 11
-303.75
 21
223.25
  0
LINE
  8
1
  6
CONTINUOUS
 62
     7
 10
-264.0000380784
 20
222.25
 11
-335.9999619216
 21
222.25
  0
LINE
  8
1
  6
CONTINUOUS
 62
     7
 10
-333.5
 20
222.25
 11
-333.5
 21
223.25
  0
LINE
  8
1
  6
CONTINUOUS
 62
     7
 10
-303.75
 20
223.25
 11
-303.75
 21
222.25
  0
LINE
  8
1
  6
CONTINUOUS
 62
     7
 10
-266.5
 20
222.25
 11
-266.5
 21
223.25
  0
LINE
  8
1
  6
CONTINUOUS
 62
     7
 10
-296.25
 20
223.25
 11
-296.25
 21
222.25
  0
LINE
  8
1
  6
CONTINUOUS
 62
     7
 10
-266.5
 20
223.25
 11
-296.25
 21
223.25
  0
LINE
  8
1
  6
CONTINUOUS
 62
     7
 10
-261.5
 20
111.75
 11
-261.5
 21
218.25
  0
LINE
  8
1
  6
CONTINUOUS
 62
     7
 10
-337.0
 20
218.25
 11
-337.0
 21
221.25
  0
LINE
  8
1
  6
CONTINUOUS
 62
     7
 10
-337.0
 20
108.7499619231
 11
-337.0
 21
111.75
  0
ARC
  8
1
  6
CONTINUOUS
 62
     7
 10
-335.9999977338
 20
108.74996002
 40
1.0000022662
 50
180.0
 51
198.433100134
  0
ARC
  8
1
  6
CONTINUOUS
 62
     7
 10
-336.0000588258
 20
108.7499392238
 40
0.9999377329
 50
198.4330765242
 51
251.5667821157001
  0
ARC
  8
1
  6
CONTINUOUS
 62
     7
 10
-336.0000590153
 20
108.7498849528
 40
0.9998849531000001
 50
251.5658090863
 51
270.00119982
  0
ARC
  8
1
  6
CONTINUOUS
 62
     7
 10
-335.9999626113
 20
221.2499307826
 40
1.0000692174
 50
89.999960486
 51
116.5641150007
  0
ARC
  8
1
  6
CONTINUOUS
 62
     7
 10
-335.9999768557
 20
221.2499597362
 40
1.0000369502
 50
116.5641268764
 51
134.998854606
  0
ARC
  8
1
  6
CONTINUOUS
 62
     7
 10
-336.0000021784
 20
221.249985061
 40
1.000001137
 50
134.9988546514
 51
153.4340244216
  0
ARC
  8
1
  6
CONTINUOUS
 62
     7
 10
-336.0000311352
 20
221.2499993103
 40
0.9999688648
 50
153.434012652
 51
180.0
  0
ARC
  8
1
  6
CONTINUOUS
 62
     7
 10
-263.9999688648
 20
221.2499993103
 40
0.9999688648
 50
0.0000395165
 51
26.565987348
  0
ARC
  8
1
  6
CONTINUOUS
 62
     7
 10
-263.9999978216
 20
221.249985061
 40
1.000001137
 50
26.5659755784
 51
45.00114534860001
  0
ARC
  8
1
  6
CONTINUOUS
 62
     7
 10
-264.0000231443
 20
221.2499597362
 40
1.0000369502
 50
45.001145394
 51
63.4358731236
  0
ARC
  8
1
  6
CONTINUOUS
 62
     7
 10
-264.0000373887
 20
221.2499307826
 40
1.0000692174
 50
63.4358849993
 51
90.00003951400001
  0
ARC
  8
1
  6
CONTINUOUS
 62
     7
 10
-263.99996002
 20
108.7500022662
 40
1.0000022662
 50
269.9998909598
 51
288.4331001339
  0
ARC
  8
1
  6
CONTINUOUS
 62
     7
 10
-263.9999392238
 20
108.7499411742
 40
0.9999377329
 50
288.4330765242
 51
341.5667821157001
  0
ARC
  8
1
  6
CONTINUOUS
 62
     7
 10
-263.9998849528
 20
108.7499409847
 40
0.9998849531000001
 50
341.5658090863
 51
0.0011998200000107
  0
ARC
  8
1
  6
CONTINUOUS
 62
     7
 10
-338.9999977338
 20
105.74996002
 40
1.0000022662
 50
180.0
 51
198.433100134
  0
ARC
  8
1
  6
CONTINUOUS
 62
     7
 10
-339.0000588258
 20
105.7499392238
 40
0.9999377329
 50
198.4330765242
 51
251.5667821157001
  0
ARC
  8
1
  6
CONTINUOUS
 62
     7
 10
-339.0000590153
 20
105.7498849528
 40
0.9998849531000001
 50
251.5658090863
 51
270.00119982
  0
LINE
  8
1
  6
CONTINUOUS
 62
     7
 10
-340.0
 20
224.25
 11
-340.0
 21
105.7499619231
  0
ARC
  8
1
  6
CONTINUOUS
 62
     7
 10
-338.9999626113
 20
224.2499307826
 40
1.0000692174
 50
89.999960486
 51
116.5641150007
  0
ARC
  8
1
  6
CONTINUOUS
 62
     7
 10
-338.9999768557
 20
224.2499597362
 40
1.0000369502
 50
116.5641268764
 51
134.998854606
  0
ARC
  8
1
  6
CONTINUOUS
 62
     7
 10
-339.0000021784
 20
224.249985061
 40
1.000001137
 50
134.9988546514
 51
153.4340244216
  0
ARC
  8
1
  6
CONTINUOUS
 62
     7
 10
-339.0000311352
 20
224.2499993103
 40
0.9999688648
 50
153.434012652
 51
180.0
  0
LINE
  8
1
  6
CONTINUOUS
 62
     7
 10
-261.0000380784
 20
225.25
 11
-338.9999619216
 21
225.25
  0
ARC
  8
1
  6
CONTINUOUS
 62
     7
 10
-260.9999688648
 20
224.2499993103
 40
0.9999688648
 50
0.0000395165
 51
26.565987348
  0
ARC
  8
1
  6
CONTINUOUS
 62
     7
 10
-260.9999978216
 20
224.249985061
 40
1.000001137
 50
26.5659755784
 51
45.00114534860001
  0
ARC
  8
1
  6
CONTINUOUS
 62
     7
 10
-261.0000231443
 20
224.2499597362
 40
1.0000369502
 50
45.001145394
 51
63.4358731236
  0
ARC
  8
1
  6
CONTINUOUS
 62
     7
 10
-261.0000373887
 20
224.2499307826
 40
1.0000692174
 50
63.4358849993
 51
90.00003951400001
  0
LINE
  8
1
  6
CONTINUOUS
 62
     7
 10
-260.0
 20
105.7499619231
 11
-260.0
 21
224.25
  0
ARC
  8
1
  6
CONTINUOUS
 62
     7
 10
-260.99996002
 20
105.7500022662
 40
1.0000022662
 50
269.9998909598
 51
288.4331001339
  0
ARC
  8
1
  6
CONTINUOUS
 62
     7
 10
-260.9999392238
 20
105.7499411742
 40
0.9999377329
 50
288.4330765242
 51
341.5667821157001
  0
ARC
  8
1
  6
CONTINUOUS
 62
     7
 10
-260.9998849528
 20
105.7499409847
 40
0.9998849531000001
 50
341.5658090863
 51
0.0011998200000107
  0
LINE
  8
1
  6
CONTINUOUS
 62
     7
 10
-339.0000380769
 20
104.75
 11
-260.9999619231
 21
104.75
  0
LINE
  8
1
  6
CONTINUOUS
 62
     7
 10
-296.25
 20
221.75
 11
-296.2505970389
 21
221.7745338372
  0
LINE
  8
1
  6
CONTINUOUS
 62
     7
 10
-296.2505970389
 20
221.7745338372
 11
-296.2523867172
 21
221.7990085702
  0
LINE
  8
1
  6
CONTINUOUS
 62
     7
 10
-296.2523867172
 20
221.7990085702
 11
-296.2553647235
 21
221.8233652372
  0
LINE
  8
1
  6
CONTINUOUS
 62
     7
 10
-296.2553647235
 20
221.8233652372
 11
-296.2595238835
 21
221.847545161
  0
LINE
  8
1
  6
CONTINUOUS
 62
     7
 10
-296.2595238835
 20
221.847545161
 11
-296.2648541773
 21
221.87149009
  0
LINE
  8
1
  6
CONTINUOUS
 62
     7
 10
-296.2648541773
 20
221.87149009
 11
-296.271342764
 21
221.8951423386
  0
LINE
  8
1
  6
CONTINUOUS
 62
     7
 10
-296.271342764
 20
221.8951423386
 11
-296.2789740118
 21
221.9184449267
  0
LINE
  8
1
  6
CONTINUOUS
 62
     7
 10
-296.2789740118
 20
221.9184449267
 11
-296.2877295364
 21
221.9413417162
  0
LINE
  8
1
  6
CONTINUOUS
 62
     7
 10
-296.2877295364
 20
221.9413417162
 11
-296.297588245
 21
221.9637775467
  0
LINE
  8
1
  6
CONTINUOUS
 62
     7
 10
-296.297588245
 20
221.9637775467
 11
-296.3085263872
 21
221.9856983684
  0
LINE
  8
1
  6
CONTINUOUS
 62
     7
 10
-296.3085263872
 20
221.9856983684
 11
-296.3205176119
 21
222.0070513721
  0
LINE
  8
1
  6
CONTINUOUS
 62
     7
 10
-296.3205176119
 20
222.0070513721
 11
-296.3335330313
 21
222.0277851165
  0
LINE
  8
1
  6
CONTINUOUS
 62
     7
 10
-296.3335330313
 20
222.0277851165
 11
-296.3475412901
 21
222.0478496522
  0
LINE
  8
1
  6
CONTINUOUS
 62
     7
 10
-296.3475412901
 20
222.0478496522
 11
-296.3625086411
 21
222.0671966421
  0
LINE
  8
1
  6
CONTINUOUS
 62
     7
 10
-296.3625086411
 20
222.0671966421
 11
-296.3783990268
 21
222.0857794774
  0
LINE
  8
1
  6
CONTINUOUS
 62
     7
 10
-296.3783990268
 20
222.0857794774
 11
-296.3951741657
 21
222.1035533906
  0
LINE
  8
1
  6
CONTINUOUS
 62
     7
 10
-296.3951741657
 20
222.1035533906
 11
-296.412793645
 21
222.1204755627
  0
LINE
  8
1
  6
CONTINUOUS
 62
     7
 10
-296.412793645
 20
222.1204755627
 11
-296.431215018
 21
222.1365052267
  0
LINE
  8
1
  6
CONTINUOUS
 62
     7
 10
-296.431215018
 20
222.1365052267
 11
-296.450393906
 21
222.1516037657
  0
LINE
  8
1
  6
CONTINUOUS
 62
     7
 10
-296.450393906
 20
222.1516037657
 11
-296.4702841052
 21
222.1657348062
  0
LINE
  8
1
  6
CONTINUOUS
 62
     7
 10
-296.4702841052
 20
222.1657348062
 11
-296.4908376984
 21
222.178864305
  0
LINE
  8
1
  6
CONTINUOUS
 62
     7
 10
-296.4908376984
 20
222.178864305
 11
-296.5120051704
 21
222.1909606322
  0
LINE
  8
1
  6
CONTINUOUS
 62
     7
 10
-296.5120051704
 20
222.1909606322
 11
-296.5337355267
 21
222.2019946466
  0
LINE
  8
1
  6
CONTINUOUS
 62
     7
 10
-296.5337355267
 20
222.2019946466
 11
-296.555976417
 21
222.2119397663
  0
LINE
  8
1
  6
CONTINUOUS
 62
     7
 10
-296.555976417
 20
222.2119397663
 11
-296.5786742611
 21
222.2207720326
  0
LINE
  8
1
  6
CONTINUOUS
 62
     7
 10
-296.5786742611
 20
222.2207720326
 11
-296.6017743779
 21
222.2284701679
  0
LINE
  8
1
  6
CONTINUOUS
 62
     7
 10
-296.6017743779
 20
222.2284701679
 11
-296.6252211172
 21
222.2350156266
  0
LINE
  8
1
  6
CONTINUOUS
 62
     7
 10
-296.6252211172
 20
222.2350156266
 11
-296.6489579937
 21
222.2403926402
  0
LINE
  8
1
  6
CONTINUOUS
 62
     7
 10
-296.6489579937
 20
222.2403926402
 11
-296.6729278232
 21
222.244588255
  0
LINE
  8
1
  6
CONTINUOUS
 62
     7
 10
-296.6729278232
 20
222.244588255
 11
-296.6970728603
 21
222.2475923633
  0
LINE
  8
1
  6
CONTINUOUS
 62
     7
 10
-296.6970728603
 20
222.2475923633
 11
-296.7213349375
 21
222.2493977281
  0
LINE
  8
1
  6
CONTINUOUS
 62
     7
 10
-296.7213349375
 20
222.2493977281
 11
-296.7456556053
 21
222.25
  0
LINE
  8
1
  6
CONTINUOUS
 62
     7
 10
-293.75
 20
221.75
 11
-293.7493977281
 21
221.7745338372
  0
LINE
  8
1
  6
CONTINUOUS
 62
     7
 10
-293.7493977281
 20
221.7745338372
 11
-293.7475923633
 21
221.7990085702
  0
LINE
  8
1
  6
CONTINUOUS
 62
     7
 10
-293.7475923633
 20
221.7990085702
 11
-293.744588255
 21
221.8233652372
  0
LINE
  8
1
  6
CONTINUOUS
 62
     7
 10
-293.744588255
 20
221.8233652372
 11
-293.7403926402
 21
221.847545161
  0
LINE
  8
1
  6
CONTINUOUS
 62
     7
 10
-293.7403926402
 20
221.847545161
 11
-293.7350156266
 21
221.87149009
  0
LINE
  8
1
  6
CONTINUOUS
 62
     7
 10
-293.7350156266
 20
221.87149009
 11
-293.7284701679
 21
221.8951423386
  0
LINE
  8
1
  6
CONTINUOUS
 62
     7
 10
-293.7284701679
 20
221.8951423386
 11
-293.7207720326
 21
221.9184449267
  0
LINE
  8
1
  6
CONTINUOUS
 62
     7
 10
-293.7207720326
 20
221.9184449267
 11
-293.7119397663
 21
221.9413417162
  0
LINE
  8
1
  6
CONTINUOUS
 62
     7
 10
-293.7119397663
 20
221.9413417162
 11
-293.7019946466
 21
221.9637775467
  0
LINE
  8
1
  6
CONTINUOUS
 62
     7
 10
-293.7019946466
 20
221.9637775467
 11
-293.6909606322
 21
221.9856983684
  0
LINE
  8
1
  6
CONTINUOUS
 62
     7
 10
-293.6909606322
 20
221.9856983684
 11
-293.678864305
 21
222.0070513721
  0
LINE
  8
1
  6
CONTINUOUS
 62
     7
 10
-293.678864305
 20
222.0070513721
 11
-293.6657348062
 21
222.0277851165
  0
LINE
  8
1
  6
CONTINUOUS
 62
     7
 10
-293.6657348062
 20
222.0277851165
 11
-293.6516037657
 21
222.0478496522
  0
LINE
  8
1
  6
CONTINUOUS
 62
     7
 10
-293.6516037657
 20
222.0478496522
 11
-293.6365052267
 21
222.0671966421
  0
LINE
  8
1
  6
CONTINUOUS
 62
     7
 10
-293.6365052267
 20
222.0671966421
 11
-293.6204755627
 21
222.0857794774
  0
LINE
  8
1
  6
CONTINUOUS
 62
     7
 10
-293.6204755627
 20
222.0857794774
 11
-293.6035533906
 21
222.1035533906
  0
LINE
  8
1
  6
CONTINUOUS
 62
     7
 10
-293.6035533906
 20
222.1035533906
 11
-293.5857794774
 21
222.1204755627
  0
LINE
  8
1
  6
CONTINUOUS
 62
     7
 10
-293.5857794774
 20
222.1204755627
 11
-293.5671966421
 21
222.1365052267
  0
LINE
  8
1
  6
CONTINUOUS
 62
     7
 10
-293.5671966421
 20
222.1365052267
 11
-293.5478496522
 21
222.1516037657
  0
LINE
  8
1
  6
CONTINUOUS
 62
     7
 10
-293.5478496522
 20
222.1516037657
 11
-293.5277851165
 21
222.1657348062
  0
LINE
  8
1
  6
CONTINUOUS
 62
     7
 10
-293.5277851165
 20
222.1657348062
 11
-293.5070513721
 21
222.178864305
  0
LINE
  8
1
  6
CONTINUOUS
 62
     7
 10
-293.5070513721
 20
222.178864305
 11
-293.4856983684
 21
222.1909606322
  0
LINE
  8
1
  6
CONTINUOUS
 62
     7
 10
-293.4856983684
 20
222.1909606322
 11
-293.4637775467
 21
222.2019946466
  0
LINE
  8
1
  6
CONTINUOUS
 62
     7
 10
-293.4637775467
 20
222.2019946466
 11
-293.4413417162
 21
222.2119397663
  0
LINE
  8
1
  6
CONTINUOUS
 62
     7
 10
-293.4413417162
 20
222.2119397663
 11
-293.4184449267
 21
222.2207720326
  0
LINE
  8
1
  6
CONTINUOUS
 62
     7
 10
-293.4184449267
 20
222.2207720326
 11
-293.3951423386
 21
222.2284701679
  0
LINE
  8
1
  6
CONTINUOUS
 62
     7
 10
-293.3951423386
 20
222.2284701679
 11
-293.37149009
 21
222.2350156266
  0
LINE
  8
1
  6
CONTINUOUS
 62
     7
 10
-293.37149009
 20
222.2350156266
 11
-293.347545161
 21
222.2403926402
  0
LINE
  8
1
  6
CONTINUOUS
 62
     7
 10
-293.347545161
 20
222.2403926402
 11
-293.3233652372
 21
222.244588255
  0
LINE
  8
1
  6
CONTINUOUS
 62
     7
 10
-293.3233652372
 20
222.244588255
 11
-293.2990085702
 21
222.2475923633
  0
LINE
  8
1
  6
CONTINUOUS
 62
     7
 10
-293.2990085702
 20
222.2475923633
 11
-293.2745338372
 21
222.2493977281
  0
LINE
  8
1
  6
CONTINUOUS
 62
     7
 10
-293.2745338372
 20
222.2493977281
 11
-293.25
 21
222.25
  0
LINE
  8
1
  6
CONTINUOUS
 62
     7
 10
-303.2543443947
 20
222.25
 11
-303.2786650625
 21
222.2493977281
  0
LINE
  8
1
  6
CONTINUOUS
 62
     7
 10
-303.2786650625
 20
222.2493977281
 11
-303.3029271397
 21
222.2475923633
  0
LINE
  8
1
  6
CONTINUOUS
 62
     7
 10
-303.3029271397
 20
222.2475923633
 11
-303.3270721768
 21
222.244588255
  0
LINE
  8
1
  6
CONTINUOUS
 62
     7
 10
-303.3270721768
 20
222.244588255
 11
-303.3510420063
 21
222.2403926402
  0
LINE
  8
1
  6
CONTINUOUS
 62
     7
 10
-303.3510420063
 20
222.2403926402
 11
-303.3747788828
 21
222.2350156266
  0
LINE
  8
1
  6
CONTINUOUS
 62
     7
 10
-303.3747788828
 20
222.2350156266
 11
-303.3982256221
 21
222.2284701679
  0
LINE
  8
1
  6
CONTINUOUS
 62
     7
 10
-303.3982256221
 20
222.2284701679
 11
-303.4213257389
 21
222.2207720326
  0
LINE
  8
1
  6
CONTINUOUS
 62
     7
 10
-303.4213257389
 20
222.2207720326
 11
-303.444023583
 21
222.2119397663
  0
LINE
  8
1
  6
CONTINUOUS
 62
     7
 10
-303.444023583
 20
222.2119397663
 11
-303.4662644733
 21
222.2019946466
  0
LINE
  8
1
  6
CONTINUOUS
 62
     7
 10
-303.4662644733
 20
222.2019946466
 11
-303.4879948296
 21
222.1909606322
  0
LINE
  8
1
  6
CONTINUOUS
 62
     7
 10
-303.4879948296
 20
222.1909606322
 11
-303.5091623016
 21
222.178864305
  0
LINE
  8
1
  6
CONTINUOUS
 62
     7
 10
-303.5091623016
 20
222.178864305
 11
-303.5297158948
 21
222.1657348062
  0
LINE
  8
1
  6
CONTINUOUS
 62
     7
 10
-303.5297158948
 20
222.1657348062
 11
-303.549606094
 21
222.1516037657
  0
LINE
  8
1
  6
CONTINUOUS
 62
     7
 10
-303.549606094
 20
222.1516037657
 11
-303.568784982
 21
222.1365052267
  0
LINE
  8
1
  6
CONTINUOUS
 62
     7
 10
-303.568784982
 20
222.1365052267
 11
-303.587206355
 21
222.1204755627
  0
LINE
  8
1
  6
CONTINUOUS
 62
     7
 10
-303.587206355
 20
222.1204755627
 11
-303.6048258343
 21
222.1035533906
  0
LINE
  8
1
  6
CONTINUOUS
 62
     7
 10
-303.6048258343
 20
222.1035533906
 11
-303.6216009732
 21
222.0857794774
  0
LINE
  8
1
  6
CONTINUOUS
 62
     7
 10
-303.6216009732
 20
222.0857794774
 11
-303.6374913589
 21
222.0671966421
  0
LINE
  8
1
  6
CONTINUOUS
 62
     7
 10
-303.6374913589
 20
222.0671966421
 11
-303.6524587099
 21
222.0478496522
  0
LINE
  8
1
  6
CONTINUOUS
 62
     7
 10
-303.6524587099
 20
222.0478496522
 11
-303.6664669687
 21
222.0277851165
  0
LINE
  8
1
  6
CONTINUOUS
 62
     7
 10
-303.6664669687
 20
222.0277851165
 11
-303.6794823881
 21
222.0070513721
  0
LINE
  8
1
  6
CONTINUOUS
 62
     7
 10
-303.6794823881
 20
222.0070513721
 11
-303.6914736128
 21
221.9856983684
  0
LINE
  8
1
  6
CONTINUOUS
 62
     7
 10
-303.6914736128
 20
221.9856983684
 11
-303.702411755
 21
221.9637775467
  0
LINE
  8
1
  6
CONTINUOUS
 62
     7
 10
-303.702411755
 20
221.9637775467
 11
-303.7122704636
 21
221.9413417162
  0
LINE
  8
1
  6
CONTINUOUS
 62
     7
 10
-303.7122704636
 20
221.9413417162
 11
-303.7210259882
 21
221.9184449267
  0
LINE
  8
1
  6
CONTINUOUS
 62
     7
 10
-303.7210259882
 20
221.9184449267
 11
-303.728657236
 21
221.8951423386
  0
LINE
  8
1
  6
CONTINUOUS
 62
     7
 10
-303.728657236
 20
221.8951423386
 11
-303.7351458227
 21
221.87149009
  0
LINE
  8
1
  6
CONTINUOUS
 62
     7
 10
-303.7351458227
 20
221.87149009
 11
-303.7404761165
 21
221.847545161
  0
LINE
  8
1
  6
CONTINUOUS
 62
     7
 10
-303.7404761165
 20
221.847545161
 11
-303.7446352765
 21
221.8233652372
  0
LINE
  8
1
  6
CONTINUOUS
 62
     7
 10
-303.7446352765
 20
221.8233652372
 11
-303.7476132828
 21
221.7990085702
  0
LINE
  8
1
  6
CONTINUOUS
 62
     7
 10
-303.7476132828
 20
221.7990085702
 11
-303.7494029611
 21
221.7745338372
  0
LINE
  8
1
  6
CONTINUOUS
 62
     7
 10
-303.7494029611
 20
221.7745338372
 11
-303.75
 21
221.75
  0
LINE
  8
1
  6
CONTINUOUS
 62
     7
 10
-306.75
 20
222.25
 11
-306.7254661628
 21
222.2493977281
  0
LINE
  8
1
  6
CONTINUOUS
 62
     7
 10
-306.7254661628
 20
222.2493977281
 11
-306.7009914298
 21
222.2475923633
  0
LINE
  8
1
  6
CONTINUOUS
 62
     7
 10
-306.7009914298
 20
222.2475923633
 11
-306.6766347628
 21
222.244588255
  0
LINE
  8
1
  6
CONTINUOUS
 62
     7
 10
-306.6766347628
 20
222.244588255
 11
-306.652454839
 21
222.2403926402
  0
LINE
  8
1
  6
CONTINUOUS
 62
     7
 10
-306.652454839
 20
222.2403926402
 11
-306.62850991
 21
222.2350156266
  0
LINE
  8
1
  6
CONTINUOUS
 62
     7
 10
-306.62850991
 20
222.2350156266
 11
-306.6048576614
 21
222.2284701679
  0
LINE
  8
1
  6
CONTINUOUS
 62
     7
 10
-306.6048576614
 20
222.2284701679
 11
-306.5815550733
 21
222.2207720326
  0
LINE
  8
1
  6
CONTINUOUS
 62
     7
 10
-306.5815550733
 20
222.2207720326
 11
-306.5586582838
 21
222.2119397663
  0
LINE
  8
1
  6
CONTINUOUS
 62
     7
 10
-306.5586582838
 20
222.2119397663
 11
-306.5362224533
 21
222.2019946466
  0
LINE
  8
1
  6
CONTINUOUS
 62
     7
 10
-306.5362224533
 20
222.2019946466
 11
-306.5143016316
 21
222.1909606322
  0
LINE
  8
1
  6
CONTINUOUS
 62
     7
 10
-306.5143016316
 20
222.1909606322
 11
-306.4929486279
 21
222.178864305
  0
LINE
  8
1
  6
CONTINUOUS
 62
     7
 10
-306.4929486279
 20
222.178864305
 11
-306.4722148835
 21
222.1657348062
  0
LINE
  8
1
  6
CONTINUOUS
 62
     7
 10
-306.4722148835
 20
222.1657348062
 11
-306.4521503478
 21
222.1516037657
  0
LINE
  8
1
  6
CONTINUOUS
 62
     7
 10
-306.4521503478
 20
222.1516037657
 11
-306.4328033579
 21
222.1365052267
  0
LINE
  8
1
  6
CONTINUOUS
 62
     7
 10
-306.4328033579
 20
222.1365052267
 11
-306.4142205226
 21
222.1204755627
  0
LINE
  8
1
  6
CONTINUOUS
 62
     7
 10
-306.4142205226
 20
222.1204755627
 11
-306.3964466094
 21
222.1035533906
  0
LINE
  8
1
  6
CONTINUOUS
 62
     7
 10
-306.3964466094
 20
222.1035533906
 11
-306.3795244373
 21
222.0857794774
  0
LINE
  8
1
  6
CONTINUOUS
 62
     7
 10
-306.3795244373
 20
222.0857794774
 11
-306.3634947733
 21
222.0671966421
  0
LINE
  8
1
  6
CONTINUOUS
 62
     7
 10
-306.3634947733
 20
222.0671966421
 11
-306.3483962343
 21
222.0478496522
  0
LINE
  8
1
  6
CONTINUOUS
 62
     7
 10
-306.3483962343
 20
222.0478496522
 11
-306.3342651938
 21
222.0277851165
  0
LINE
  8
1
  6
CONTINUOUS
 62
     7
 10
-306.3342651938
 20
222.0277851165
 11
-306.321135695
 21
222.0070513721
  0
LINE
  8
1
  6
CONTINUOUS
 62
     7
 10
-306.321135695
 20
222.0070513721
 11
-306.3090393678
 21
221.9856983684
  0
LINE
  8
1
  6
CONTINUOUS
 62
     7
 10
-306.3090393678
 20
221.9856983684
 11
-306.2980053534
 21
221.9637775467
  0
LINE
  8
1
  6
CONTINUOUS
 62
     7
 10
-306.2980053534
 20
221.9637775467
 11
-306.2880602337
 21
221.9413417162
  0
LINE
  8
1
  6
CONTINUOUS
 62
     7
 10
-306.2880602337
 20
221.9413417162
 11
-306.2792279674
 21
221.9184449267
  0
LINE
  8
1
  6
CONTINUOUS
 62
     7
 10
-306.2792279674
 20
221.9184449267
 11
-306.2715298321
 21
221.8951423386
  0
LINE
  8
1
  6
CONTINUOUS
 62
     7
 10
-306.2715298321
 20
221.8951423386
 11
-306.2649843734
 21
221.87149009
  0
LINE
  8
1
  6
CONTINUOUS
 62
     7
 10
-306.2649843734
 20
221.87149009
 11
-306.2596073598
 21
221.847545161
  0
LINE
  8
1
  6
CONTINUOUS
 62
     7
 10
-306.2596073598
 20
221.847545161
 11
-306.255411745
 21
221.8233652372
  0
LINE
  8
1
  6
CONTINUOUS
 62
     7
 10
-306.255411745
 20
221.8233652372
 11
-306.2524076367
 21
221.7990085702
  0
LINE
  8
1
  6
CONTINUOUS
 62
     7
 10
-306.2524076367
 20
221.7990085702
 11
-306.2506022719
 21
221.7745338372
  0
LINE
  8
1
  6
CONTINUOUS
 62
     7
 10
-306.2506022719
 20
221.7745338372
 11
-306.25
 21
221.75
  0
LINE
  8
1
  6
CONTINUOUS
 62
     7
 10
-303.1888928863
 20
222.25
 11
-303.2132135541
 21
222.2493977281
  0
LINE
  8
1
  6
CONTINUOUS
 62
     7
 10
-296.2500187084
 20
108.2500190392
 11
-296.250820168
 21
108.2256213925
  0
LINE
  8
1
  6
CONTINUOUS
 62
     7
 10
-296.250820168
 20
108.2256213925
 11
-296.2528005234
 21
108.2012818708
  0
LINE
  8
1
  6
CONTINUOUS
 62
     7
 10
-296.2528005234
 20
108.2012818708
 11
-296.2559550566
 21
108.1770584605
  0
LINE
  8
1
  6
CONTINUOUS
 62
     7
 10
-296.2559550566
 20
108.1770584605
 11
-296.2602762522
 21
108.1530088715
  0
LINE
  8
1
  6
CONTINUOUS
 62
     7
 10
-296.2602762522
 20
108.1530088715
 11
-296.2657538153
 21
108.1291903994
  0
LINE
  8
1
  6
CONTINUOUS
 62
     7
 10
-296.2657538153
 20
108.1291903994
 11
-296.2723746963
 21
108.1056597895
  0
LINE
  8
1
  6
CONTINUOUS
 62
     7
 10
-296.2723746963
 20
108.1056597895
 11
-296.2801231215
 21
108.082473101
  0
LINE
  8
1
  6
CONTINUOUS
 62
     7
 10
-296.2801231215
 20
108.082473101
 11
-296.2889806312
 21
108.0596855738
  0
LINE
  8
1
  6
CONTINUOUS
 62
     7
 10
-296.2889806312
 20
108.0596855738
 11
-296.2989261231
 21
108.037351497
  0
LINE
  8
1
  6
CONTINUOUS
 62
     7
 10
-296.2989261231
 20
108.037351497
 11
-296.3099359032
 21
108.0155240793
  0
LINE
  8
1
  6
CONTINUOUS
 62
     7
 10
-296.3099359032
 20
108.0155240793
 11
-296.3219837417
 21
107.9942553223
  0
LINE
  8
1
  6
CONTINUOUS
 62
     7
 10
-296.3219837417
 20
107.9942553223
 11
-296.3350409358
 21
107.9735958967
  0
LINE
  8
1
  6
CONTINUOUS
 62
     7
 10
-296.3350409358
 20
107.9735958967
 11
-296.3490763782
 21
107.9535950214
  0
LINE
  8
1
  6
CONTINUOUS
 62
     7
 10
-296.3490763782
 20
107.9535950214
 11
-296.3640566309
 21
107.9343003466
  0
LINE
  8
1
  6
CONTINUOUS
 62
     7
 10
-296.3640566309
 20
107.9343003466
 11
-296.3799460047
 21
107.9157578399
  0
LINE
  8
1
  6
CONTINUOUS
 62
     7
 10
-296.3799460047
 20
107.9157578399
 11
-296.396706645
 21
107.898011677
  0
LINE
  8
1
  6
CONTINUOUS
 62
     7
 10
-296.396706645
 20
107.898011677
 11
-296.4142986211
 21
107.8811041362
  0
LINE
  8
1
  6
CONTINUOUS
 62
     7
 10
-296.4142986211
 20
107.8811041362
 11
-296.432680022
 21
107.8650754982
  0
LINE
  8
1
  6
CONTINUOUS
 62
     7
 10
-296.432680022
 20
107.8650754982
 11
-296.4518070557
 21
107.8499639495
  0
LINE
  8
1
  6
CONTINUOUS
 62
     7
 10
-296.4518070557
 20
107.8499639495
 11
-296.4716341542
 21
107.8358054919
  0
LINE
  8
1
  6
CONTINUOUS
 62
     7
 10
-296.4716341542
 20
107.8358054919
 11
-296.4921140812
 21
107.8226338565
  0
LINE
  8
1
  6
CONTINUOUS
 62
     7
 10
-296.4921140812
 20
107.8226338565
 11
-296.5131980455
 21
107.8104804234
  0
LINE
  8
1
  6
CONTINUOUS
 62
     7
 10
-296.5131980455
 20
107.8104804234
 11
-296.5348358166
 21
107.7993741469
  0
LINE
  8
1
  6
CONTINUOUS
 62
     7
 10
-296.5348358166
 20
107.7993741469
 11
-296.5569758446
 21
107.7893414866
  0
LINE
  8
1
  6
CONTINUOUS
 62
     7
 10
-296.5569758446
 20
107.7893414866
 11
-296.5795653832
 21
107.7804063443
  0
LINE
  8
1
  6
CONTINUOUS
 62
     7
 10
-296.5795653832
 20
107.7804063443
 11
-296.6025506152
 21
107.7725900072
  0
LINE
  8
1
  6
CONTINUOUS
 62
     7
 10
-296.6025506152
 20
107.7725900072
 11
-296.6258767804
 21
107.7659110967
  0
LINE
  8
1
  6
CONTINUOUS
 62
     7
 10
-296.6258767804
 20
107.7659110967
 11
-296.6494883066
 21
107.7603855249
  0
LINE
  8
1
  6
CONTINUOUS
 62
     7
 10
-296.6494883066
 20
107.7603855249
 11
-296.6733289417
 21
107.7560264557
  0
LINE
  8
1
  6
CONTINUOUS
 62
     7
 10
-296.6733289417
 20
107.7560264557
 11
-296.6973418879
 21
107.7528442743
  0
LINE
  8
1
  6
CONTINUOUS
 62
     7
 10
-296.6973418879
 20
107.7528442743
 11
-296.7214699366
 21
107.7508465618
  0
LINE
  8
1
  6
CONTINUOUS
 62
     7
 10
-296.7214699366
 20
107.7508465618
 11
-296.7456556053
 21
107.7500380777
  0
LINE
  8
1
  6
CONTINUOUS
 62
     7
 10
-293.7499809615
 20
108.2500190392
 11
-293.7491724774
 21
108.2256213925
  0
LINE
  8
1
  6
CONTINUOUS
 62
     7
 10
-293.7491724774
 20
108.2256213925
 11
-293.7471747649
 21
108.2012818708
  0
LINE
  8
1
  6
CONTINUOUS
 62
     7
 10
-293.7471747649
 20
108.2012818708
 11
-293.7439925835
 21
108.1770584605
  0
LINE
  8
1
  6
CONTINUOUS
 62
     7
 10
-293.7439925835
 20
108.1770584605
 11
-293.7396335143
 21
108.1530088715
  0
LINE
  8
1
  6
CONTINUOUS
 62
     7
 10
-293.7396335143
 20
108.1530088715
 11
-293.7341079425
 21
108.1291903994
  0
LINE
  8
1
  6
CONTINUOUS
 62
     7
 10
-293.7341079425
 20
108.1291903994
 11
-293.727429032
 21
108.1056597895
  0
LINE
  8
1
  6
CONTINUOUS
 62
     7
 10
-293.727429032
 20
108.1056597895
 11
-293.7196126949
 21
108.082473101
  0
LINE
  8
1
  6
CONTINUOUS
 62
     7
 10
-293.7196126949
 20
108.082473101
 11
-293.7106775526
 21
108.0596855738
  0
LINE
  8
1
  6
CONTINUOUS
 62
     7
 10
-293.7106775526
 20
108.0596855738
 11
-293.7006448923
 21
108.037351497
  0
LINE
  8
1
  6
CONTINUOUS
 62
     7
 10
-293.7006448923
 20
108.037351497
 11
-293.6895386158
 21
108.0155240793
  0
LINE
  8
1
  6
CONTINUOUS
 62
     7
 10
-293.6895386158
 20
108.0155240793
 11
-293.6773851827
 21
107.9942553223
  0
LINE
  8
1
  6
CONTINUOUS
 62
     7
 10
-293.6773851827
 20
107.9942553223
 11
-293.6642135473
 21
107.9735958967
  0
LINE
  8
1
  6
CONTINUOUS
 62
     7
 10
-293.6642135473
 20
107.9735958967
 11
-293.6500550897
 21
107.9535950214
  0
LINE
  8
1
  6
CONTINUOUS
 62
     7
 10
-293.6500550897
 20
107.9535950214
 11
-293.634943541
 21
107.9343003466
  0
LINE
  8
1
  6
CONTINUOUS
 62
     7
 10
-293.634943541
 20
107.9343003466
 11
-293.618914903
 21
107.9157578399
  0
LINE
  8
1
  6
CONTINUOUS
 62
     7
 10
-293.618914903
 20
107.9157578399
 11
-293.6020073622
 21
107.898011677
  0
LINE
  8
1
  6
CONTINUOUS
 62
     7
 10
-293.6020073622
 20
107.898011677
 11
-293.5842611993
 21
107.8811041362
  0
LINE
  8
1
  6
CONTINUOUS
 62
     7
 10
-293.5842611993
 20
107.8811041362
 11
-293.5657186926
 21
107.8650754982
  0
LINE
  8
1
  6
CONTINUOUS
 62
     7
 10
-293.5657186926
 20
107.8650754982
 11
-293.5464240178
 21
107.8499639495
  0
LINE
  8
1
  6
CONTINUOUS
 62
     7
 10
-293.5464240178
 20
107.8499639495
 11
-293.5264231425
 21
107.8358054919
  0
LINE
  8
1
  6
CONTINUOUS
 62
     7
 10
-293.5264231425
 20
107.8358054919
 11
-293.5057637169
 21
107.8226338565
  0
LINE
  8
1
  6
CONTINUOUS
 62
     7
 10
-293.5057637169
 20
107.8226338565
 11
-293.4844949599
 21
107.8104804234
  0
LINE
  8
1
  6
CONTINUOUS
 62
     7
 10
-293.4844949599
 20
107.8104804234
 11
-293.4626675422
 21
107.7993741469
  0
LINE
  8
1
  6
CONTINUOUS
 62
     7
 10
-293.4626675422
 20
107.7993741469
 11
-293.4403334654
 21
107.7893414866
  0
LINE
  8
1
  6
CONTINUOUS
 62
     7
 10
-293.4403334654
 20
107.7893414866
 11
-293.4175459382
 21
107.7804063443
  0
LINE
  8
1
  6
CONTINUOUS
 62
     7
 10
-293.4175459382
 20
107.7804063443
 11
-293.3943592497
 21
107.7725900072
  0
LINE
  8
1
  6
CONTINUOUS
 62
     7
 10
-293.3943592497
 20
107.7725900072
 11
-293.3708286397
 21
107.7659110967
  0
LINE
  8
1
  6
CONTINUOUS
 62
     7
 10
-293.3708286397
 20
107.7659110967
 11
-293.3470101677
 21
107.7603855249
  0
LINE
  8
1
  6
CONTINUOUS
 62
     7
 10
-293.3470101677
 20
107.7603855249
 11
-293.3229605787
 21
107.7560264557
  0
LINE
  8
1
  6
CONTINUOUS
 62
     7
 10
-293.3229605787
 20
107.7560264557
 11
-293.2987371684
 21
107.7528442743
  0
LINE
  8
1
  6
CONTINUOUS
 62
     7
 10
-293.2987371684
 20
107.7528442743
 11
-293.2743976466
 21
107.7508465618
  0
LINE
  8
1
  6
CONTINUOUS
 62
     7
 10
-293.2743976466
 20
107.7508465618
 11
-293.25
 21
107.7500380777
  0
LINE
  8
1
  6
CONTINUOUS
 62
     7
 10
-306.75
 20
107.7500380777
 11
-306.7256023534
 21
107.7508465618
  0
LINE
  8
1
  6
CONTINUOUS
 62
     7
 10
-306.7256023534
 20
107.7508465618
 11
-306.7012628316
 21
107.7528442743
  0
LINE
  8
1
  6
CONTINUOUS
 62
     7
 10
-306.7012628316
 20
107.7528442743
 11
-306.6770394213
 21
107.7560264557
  0
LINE
  8
1
  6
CONTINUOUS
 62
     7
 10
-306.6770394213
 20
107.7560264557
 11
-306.6529898323
 21
107.7603855249
  0
LINE
  8
1
  6
CONTINUOUS
 62
     7
 10
-306.6529898323
 20
107.7603855249
 11
-306.6291713603
 21
107.7659110967
  0
LINE
  8
1
  6
CONTINUOUS
 62
     7
 10
-306.6291713603
 20
107.7659110967
 11
-306.6056407503
 21
107.7725900072
  0
LINE
  8
1
  6
CONTINUOUS
 62
     7
 10
-306.6056407503
 20
107.7725900072
 11
-306.5824540618
 21
107.7804063443
  0
LINE
  8
1
  6
CONTINUOUS
 62
     7
 10
-306.5824540618
 20
107.7804063443
 11
-306.5596665346
 21
107.7893414866
  0
LINE
  8
1
  6
CONTINUOUS
 62
     7
 10
-306.5596665346
 20
107.7893414866
 11
-306.5373324578
 21
107.7993741469
  0
LINE
  8
1
  6
CONTINUOUS
 62
     7
 10
-306.5373324578
 20
107.7993741469
 11
-306.5155050401
 21
107.8104804234
  0
LINE
  8
1
  6
CONTINUOUS
 62
     7
 10
-306.5155050401
 20
107.8104804234
 11
-306.4942362831
 21
107.8226338565
  0
LINE
  8
1
  6
CONTINUOUS
 62
     7
 10
-306.4942362831
 20
107.8226338565
 11
-306.4735768575
 21
107.8358054919
  0
LINE
  8
1
  6
CONTINUOUS
 62
     7
 10
-306.4735768575
 20
107.8358054919
 11
-306.4535759822
 21
107.8499639495
  0
LINE
  8
1
  6
CONTINUOUS
 62
     7
 10
-306.4535759822
 20
107.8499639495
 11
-306.4342813074
 21
107.8650754982
  0
LINE
  8
1
  6
CONTINUOUS
 62
     7
 10
-306.4342813074
 20
107.8650754982
 11
-306.4157388007
 21
107.8811041362
  0
LINE
  8
1
  6
CONTINUOUS
 62
     7
 10
-306.4157388007
 20
107.8811041362
 11
-306.3979926378
 21
107.898011677
  0
LINE
  8
1
  6
CONTINUOUS
 62
     7
 10
-306.3979926378
 20
107.898011677
 11
-306.381085097
 21
107.9157578399
  0
LINE
  8
1
  6
CONTINUOUS
 62
     7
 10
-306.381085097
 20
107.9157578399
 11
-306.365056459
 21
107.9343003466
  0
LINE
  8
1
  6
CONTINUOUS
 62
     7
 10
-306.365056459
 20
107.9343003466
 11
-306.3499449103
 21
107.9535950214
  0
LINE
  8
1
  6
CONTINUOUS
 62
     7
 10
-306.3499449103
 20
107.9535950214
 11
-306.3357864527
 21
107.9735958967
  0
LINE
  8
1
  6
CONTINUOUS
 62
     7
 10
-306.3357864527
 20
107.9735958967
 11
-306.3226148173
 21
107.9942553223
  0
LINE
  8
1
  6
CONTINUOUS
 62
     7
 10
-306.3226148173
 20
107.9942553223
 11
-306.3104613842
 21
108.0155240793
  0
LINE
  8
1
  6
CONTINUOUS
 62
     7
 10
-306.3104613842
 20
108.0155240793
 11
-306.2993551077
 21
108.037351497
  0
LINE
  8
1
  6
CONTINUOUS
 62
     7
 10
-306.2993551077
 20
108.037351497
 11
-306.2893224474
 21
108.0596855738
  0
LINE
  8
1
  6
CONTINUOUS
 62
     7
 10
-306.2893224474
 20
108.0596855738
 11
-306.2803873051
 21
108.082473101
  0
LINE
  8
1
  6
CONTINUOUS
 62
     7
 10
-306.2803873051
 20
108.082473101
 11
-306.272570968
 21
108.1056597895
  0
LINE
  8
1
  6
CONTINUOUS
 62
     7
 10
-306.272570968
 20
108.1056597895
 11
-306.2658920575
 21
108.1291903994
  0
LINE
  8
1
  6
CONTINUOUS
 62
     7
 10
-306.2658920575
 20
108.1291903994
 11
-306.2603664857
 21
108.1530088715
  0
LINE
  8
1
  6
CONTINUOUS
 62
     7
 10
-306.2603664857
 20
108.1530088715
 11
-306.2560074165
 21
108.1770584605
  0
LINE
  8
1
  6
CONTINUOUS
 62
     7
 10
-306.2560074165
 20
108.1770584605
 11
-306.2528252351
 21
108.2012818708
  0
LINE
  8
1
  6
CONTINUOUS
 62
     7
 10
-306.2528252351
 20
108.2012818708
 11
-306.2508275226
 21
108.2256213925
  0
LINE
  8
1
  6
CONTINUOUS
 62
     7
 10
-306.2508275226
 20
108.2256213925
 11
-306.2500190385
 21
108.2500190392
  0
LINE
  8
1
  6
CONTINUOUS
 62
     7
 10
-306.2506022719
 20
108.312760236
 11
-306.25
 21
108.3372878832
  0
LINE
  8
1
  6
CONTINUOUS
 62
     7
 10
-303.2543443947
 20
107.7500380777
 11
-303.2785300634
 21
107.7508465618
  0
LINE
  8
1
  6
CONTINUOUS
 62
     7
 10
-303.2785300634
 20
107.7508465618
 11
-303.3026581121
 21
107.7528442743
  0
LINE
  8
1
  6
CONTINUOUS
 62
     7
 10
-303.3026581121
 20
107.7528442743
 11
-303.3266710583
 21
107.7560264557
  0
LINE
  8
1
  6
CONTINUOUS
 62
     7
 10
-303.3266710583
 20
107.7560264557
 11
-303.3505116934
 21
107.7603855249
  0
LINE
  8
1
  6
CONTINUOUS
 62
     7
 10
-303.3505116934
 20
107.7603855249
 11
-303.3741232196
 21
107.7659110967
  0
LINE
  8
1
  6
CONTINUOUS
 62
     7
 10
-303.3741232196
 20
107.7659110967
 11
-303.3974493848
 21
107.7725900072
  0
LINE
  8
1
  6
CONTINUOUS
 62
     7
 10
-303.3974493848
 20
107.7725900072
 11
-303.4204346168
 21
107.7804063443
  0
LINE
  8
1
  6
CONTINUOUS
 62
     7
 10
-303.4204346168
 20
107.7804063443
 11
-303.4430241554
 21
107.7893414866
  0
LINE
  8
1
  6
CONTINUOUS
 62
     7
 10
-303.4430241554
 20
107.7893414866
 11
-303.4651641834
 21
107.7993741469
  0
LINE
  8
1
  6
CONTINUOUS
 62
     7
 10
-303.4651641834
 20
107.7993741469
 11
-303.4868019545
 21
107.8104804234
  0
LINE
  8
1
  6
CONTINUOUS
 62
     7
 10
-303.4868019545
 20
107.8104804234
 11
-303.5078859188
 21
107.8226338565
  0
LINE
  8
1
  6
CONTINUOUS
 62
     7
 10
-303.5078859188
 20
107.8226338565
 11
-303.5283658458
 21
107.8358054919
  0
LINE
  8
1
  6
CONTINUOUS
 62
     7
 10
-303.5283658458
 20
107.8358054919
 11
-303.5481929443
 21
107.8499639495
  0
LINE
  8
1
  6
CONTINUOUS
 62
     7
 10
-303.5481929443
 20
107.8499639495
 11
-303.567319978
 21
107.8650754982
  0
LINE
  8
1
  6
CONTINUOUS
 62
     7
 10
-303.567319978
 20
107.8650754982
 11
-303.5857013789
 21
107.8811041362
  0
LINE
  8
1
  6
CONTINUOUS
 62
     7
 10
-303.5857013789
 20
107.8811041362
 11
-303.603293355
 21
107.898011677
  0
LINE
  8
1
  6
CONTINUOUS
 62
     7
 10
-303.603293355
 20
107.898011677
 11
-303.6200539953
 21
107.9157578399
  0
LINE
  8
1
  6
CONTINUOUS
 62
     7
 10
-303.6200539953
 20
107.9157578399
 11
-303.6359433691
 21
107.9343003466
  0
LINE
  8
1
  6
CONTINUOUS
 62
     7
 10
-303.6359433691
 20
107.9343003466
 11
-303.6509236218
 21
107.9535950214
  0
LINE
  8
1
  6
CONTINUOUS
 62
     7
 10
-303.6509236218
 20
107.9535950214
 11
-303.6649590642
 21
107.9735958967
  0
LINE
  8
1
  6
CONTINUOUS
 62
     7
 10
-303.6649590642
 20
107.9735958967
 11
-303.6780162583
 21
107.9942553223
  0
LINE
  8
1
  6
CONTINUOUS
 62
     7
 10
-303.6780162583
 20
107.9942553223
 11
-303.6900640968
 21
108.0155240793
  0
LINE
  8
1
  6
CONTINUOUS
 62
     7
 10
-303.6900640968
 20
108.0155240793
 11
-303.7010738769
 21
108.037351497
  0
LINE
  8
1
  6
CONTINUOUS
 62
     7
 10
-303.7010738769
 20
108.037351497
 11
-303.7110193688
 21
108.0596855738
  0
LINE
  8
1
  6
CONTINUOUS
 62
     7
 10
-303.7110193688
 20
108.0596855738
 11
-303.7198768785
 21
108.082473101
  0
LINE
  8
1
  6
CONTINUOUS
 62
     7
 10
-303.7198768785
 20
108.082473101
 11
-303.7276253037
 21
108.1056597895
  0
LINE
  8
1
  6
CONTINUOUS
 62
     7
 10
-303.7276253037
 20
108.1056597895
 11
-303.7342461847
 21
108.1291903994
  0
LINE
  8
1
  6
CONTINUOUS
 62
     7
 10
-303.7342461847
 20
108.1291903994
 11
-303.7397237478
 21
108.1530088715
  0
LINE
  8
1
  6
CONTINUOUS
 62
     7
 10
-303.7397237478
 20
108.1530088715
 11
-303.7440449434
 21
108.1770584605
  0
LINE
  8
1
  6
CONTINUOUS
 62
     7
 10
-303.7440449434
 20
108.1770584605
 11
-303.7471994766
 21
108.2012818708
  0
LINE
  8
1
  6
CONTINUOUS
 62
     7
 10
-303.7471994766
 20
108.2012818708
 11
-303.749179832
 21
108.2256213925
  0
LINE
  8
1
  6
CONTINUOUS
 62
     7
 10
-303.749179832
 20
108.2256213925
 11
-303.7499812916
 21
108.2500190392
  0
ARC
  8
1
  6
CONTINUOUS
 62
     7
 10
-303.7366623431
 20
108.252239366
 40
0.0135027493
 50
171.0312144636
 51
189.4644236419
  0
ARC
  8
1
  6
CONTINUOUS
 62
     7
 10
-293.740748256
 20
108.2522410818
 40
0.0094963321
 50
166.9679136449
 51
193.5320681586
  0
LINE
  8
1
  6
CONTINUOUS
 62
     7
 10
-293.75
 20
108.3372878832
 11
-293.7493977281
 21
108.312760236
  0
LINE
  8
1
  6
CONTINUOUS
 62
     7
 10
-303.75
 20
212.9709720902
 11
-303.75
 21
221.75
  0
LINE
  8
1
  6
CONTINUOUS
 62
     7
 10
-300.4226021697
 20
212.9529373719
 11
-302.3274359072
 21
212.0646988126
  0
ARC
  8
1
  6
CONTINUOUS
 62
     7
 10
-297.2501086018
 20
117.0290294163
 40
1.0001086018
 50
0.0
 51
12.4961332925
  0
ARC
  8
1
  6
CONTINUOUS
 62
     7
 10
-297.250006796
 20
117.0290537735
 40
1.0000039374
 50
12.4960329012
 51
30.93174706470001
  0
ARC
  8
1
  6
CONTINUOUS
 62
     7
 10
-297.2499112871
 20
117.0291118386
 40
0.9998921653
 50
30.9317061564
 51
57.49986310789999
  0
ARC
  8
1
  6
CONTINUOUS
 62
     7
 10
-297.2499072575
 20
117.0291092713
 40
0.9998921655
 50
57.5001368889
 51
84.06829384030002
  0
ARC
  8
1
  6
CONTINUOUS
 62
     7
 10
-297.2499195185
 20
117.0289981715
 40
1.0000039375
 50
84.0682529344
 51
102.5039670978
  0
ARC
  8
1
  6
CONTINUOUS
 62
     7
 10
-297.353862938
 20
117.3351300598
 40
0.6795408806
 50
99.5348849764
 51
117.9690680619
  0
LINE
  8
1
  6
CONTINUOUS
 62
     7
 10
-297.6725640928
 20
117.9353011874
 11
-299.5773978303
 21
117.0470626281
  0
ARC
  8
1
  6
CONTINUOUS
 62
     7
 10
-299.9999992976
 20
117.9533347304
 40
0.9999611546999999
 50
244.9999350658
 51
269.9999597546
  0
ARC
  8
1
  6
CONTINUOUS
 62
     7
 10
-299.987127059
 20
117.8952657301
 40
0.9419801182
 50
269.2169811947999
 51
295.7831239848001
  0
LINE
  8
1
  6
CONTINUOUS
 62
     7
 10
-300.4226021697
 20
117.0470626281
 11
-302.3274359072
 21
117.9353011874
  0
ARC
  8
1
  6
CONTINUOUS
 62
     7
 10
-302.7501014315
 20
117.0288956106
 40
1.0001086016
 50
64.9999136826
 51
77.4961332792
  0
ARC
  8
1
  6
CONTINUOUS
 62
     7
 10
-302.7500804815
 20
117.0289981715
 40
1.0000039375
 50
77.4960329022
 51
95.93174706559999
  0
ARC
  8
1
  6
CONTINUOUS
 62
     7
 10
-302.7500927425
 20
117.0291092713
 40
0.9998921655
 50
95.9317061597
 51
122.4998631111
  0
ARC
  8
1
  6
CONTINUOUS
 62
     7
 10
-302.7500887129
 20
117.0291118386
 40
0.9998921653
 50
122.5001368921
 51
149.0682938436
  0
ARC
  8
1
  6
CONTINUOUS
 62
     7
 10
-302.749993204
 20
117.0290537735
 40
1.0000039374
 50
149.0682529353
 51
167.5039670988
  0
ARC
  8
1
  6
CONTINUOUS
 62
     7
 10
-303.0713713054
 20
117.0642259693
 40
0.6795408807
 50
164.534884963
 51
182.9690680486
  0
LINE
  8
1
  6
CONTINUOUS
 62
     7
 10
-303.75
 20
117.0290279098
 11
-303.75
 21
108.2543443954
  0
LINE
  8
1
  6
CONTINUOUS
 62
     7
 10
-306.25
 20
126.25
 11
-306.25
 21
108.2543824731
  0
ARC
  8
1
  6
CONTINUOUS
 62
     7
 10
-304.25
 20
126.25
 40
2.0
 50
90.0
 51
180.0
  0
LINE
  8
1
  6
CONTINUOUS
 62
     7
 10
-295.75
 20
128.25
 11
-304.25
 21
128.25
  0
ARC
  8
1
  6
CONTINUOUS
 62
     7
 10
-295.75
 20
126.25
 40
2.0
 50
0.0
 51
90.0
  0
LINE
  8
1
  6
CONTINUOUS
 62
     7
 10
-293.75
 20
108.2543824731
 11
-293.75
 21
126.25
  0
LINE
  8
1
  6
CONTINUOUS
 62
     7
 10
-296.25
 20
108.2543443954
 11
-296.25
 21
117.0290279098
  0
CIRCLE
  8
1
  6
CONTINUOUS
 62
     7
 10
-300.0
 20
123.25
 40
3.0
  0
ARC
  8
1
  6
CONTINUOUS
 62
     7
 10
-300.0000007024
 20
212.0466652696
 40
0.9999611546999999
 50
64.9999350659
 51
89.9999597546
  0
ARC
  8
1
  6
CONTINUOUS
 62
     7
 10
-300.012872941
 20
212.1047342699
 40
0.9419801182
 50
89.21698119480001
 51
115.7831239847
  0
ARC
  8
1
  6
CONTINUOUS
 62
     7
 10
-302.7498913982
 20
212.9709705837
 40
1.0001086018
 50
180.0
 51
192.4961332925
  0
ARC
  8
1
  6
CONTINUOUS
 62
     7
 10
-302.749993204
 20
212.9709462265
 40
1.0000039374
 50
192.4960329012
 51
210.9317470647
  0
ARC
  8
1
  6
CONTINUOUS
 62
     7
 10
-302.7500887129
 20
212.9708881614
 40
0.9998921653
 50
210.9317061565001
 51
237.4998631079
  0
ARC
  8
1
  6
CONTINUOUS
 62
     7
 10
-302.7500927425
 20
212.9708907287
 40
0.9998921655
 50
237.5001368889
 51
264.0682938403
  0
ARC
  8
1
  6
CONTINUOUS
 62
     7
 10
-302.7500804815
 20
212.9710018285
 40
1.0000039375
 50
264.0682529344
 51
282.5039670978
  0
ARC
  8
1
  6
CONTINUOUS
 62
     7
 10
-302.646137062
 20
212.6648699402
 40
0.6795408806
 50
279.5348849764
 51
297.9690680619
  0
LINE
  8
1
  6
CONTINUOUS
 62
     7
 10
-297.6725640928
 20
212.0646988126
 11
-299.5773978303
 21
212.9529373719
  0
ARC
  8
1
  6
CONTINUOUS
 62
     7
 10
-297.2498985685
 20
212.9711043894
 40
1.0001086016
 50
244.9999136826
 51
257.4961332792001
  0
ARC
  8
1
  6
CONTINUOUS
 62
     7
 10
-297.2499195185
 20
212.9710018285
 40
1.0000039375
 50
257.4960329022
 51
275.9317470656
  0
ARC
  8
1
  6
CONTINUOUS
 62
     7
 10
-297.2499072575
 20
212.9708907287
 40
0.9998921655
 50
275.9317061597
 51
302.4998631111
  0
ARC
  8
1
  6
CONTINUOUS
 62
     7
 10
-297.2499112871
 20
212.9708881614
 40
0.9998921653
 50
302.5001368921
 51
329.0682938435
  0
ARC
  8
1
  6
CONTINUOUS
 62
     7
 10
-297.250006796
 20
212.9709462265
 40
1.0000039374
 50
329.0682529353
 51
347.5039670988
  0
ARC
  8
1
  6
CONTINUOUS
 62
     7
 10
-296.9286286946
 20
212.9357740307
 40
0.6795408807
 50
344.5348849630001
 51
2.969068048599979
  0
LINE
  8
1
  6
CONTINUOUS
 62
     7
 10
-296.25
 20
221.75
 11
-296.25
 21
212.9709720902
  0
ARC
  8
1
  6
CONTINUOUS
 62
     7
 10
-295.75
 20
203.75
 40
2.0
 50
270.0
 51
0.0
  0
ARC
  8
1
  6
CONTINUOUS
 62
     7
 10
-304.25
 20
203.75
 40
2.0
 50
180.0
 51
270.0
  0
CIRCLE
  8
1
  6
CONTINUOUS
 62
     7
 10
-300.0
 20
206.75
 40
3.0
  0
LINE
  8
1
  6
CONTINUOUS
 62
     7
 10
-293.75
 20
221.75
 11
-293.75
 21
203.75
  0
LINE
  8
1
  6
CONTINUOUS
 62
     7
 10
-284.0
 20
201.75
 11
-316.0
 21
201.75
  0
LINE
  8
1
  6
CONTINUOUS
 62
     7
 10
-306.25
 20
203.75
 11
-306.25
 21
221.75
  0
CIRCLE
  8
1
  6
CONTINUOUS
 62
     7
 10
-300.0
 20
123.25
 40
2.25
  0
CIRCLE
  8
1
  6
CONTINUOUS
 62
     7
 10
-300.0
 20
206.75
 40
2.25
  0
ARC
  8
1
  6
CONTINUOUS
 62
     7
 10
-284.0
 20
221.25
 40
1.0
 50
90.0
 51
180.0000000003
  0
ARC
  8
1
  6
CONTINUOUS
 62
     7
 10
-316.0
 20
221.25
 40
1.0
 50
0.0
 51
90.0
  0
LINE
  8
1
  6
CONTINUOUS
 62
     7
 10
-315.0
 20
221.25
 11
-315.0
 21
201.75
  0
LINE
  8
1
  6
CONTINUOUS
 62
     7
 10
-285.0
 20
221.25
 11
-285.0
 21
201.75
  0
CIRCLE
  8
1
  6
CONTINUOUS
 62
     7
 10
-300.0
 20
187.0
 40
2.5
  0
CIRCLE
  8
1
  6
CONTINUOUS
 62
     7
 10
-327.5
 20
202.5
 40
2.5
  0
CIRCLE
  8
1
  6
CONTINUOUS
 62
     7
 10
-327.5
 20
127.5
 40
2.5
  0
CIRCLE
  8
1
  6
CONTINUOUS
 62
     7
 10
-300.0
 20
165.0
 40
13.55
  0
CIRCLE
  8
1
  6
CONTINUOUS
 62
     7
 10
-272.5
 20
127.5
 40
2.5
  0
CIRCLE
  8
1
  6
CONTINUOUS
 62
     7
 10
-272.5
 20
202.5
 40
2.5
  0
CIRCLE
  8
1
  6
CONTINUOUS
 62
     7
 10
-300.0
 20
143.0
 40
2.5
  0
CIRCLE
  8
1
  6
CONTINUOUS
 62
     7
 10
-300.0
 20
165.0
 40
13.15
  0
CIRCLE
  8
1
  6
CONTINUOUS
 62
     7
 10
-300.0
 20
165.0
 40
12.4
  0
ARC
  8
1
  6
CONTINUOUS
 62
     7
 10
-261.4189277323
 20
292.4522295683
 40
1.0
 50
0.5
 51
90.0
  0
LINE
  8
1
  6
CONTINUOUS
 62
     7
 10
-260.0
 20
244.4522295683
 11
-340.0
 21
244.4522295683
  0
LINE
  8
1
  6
CONTINUOUS
 62
     7
 10
-260.4189658093
 20
292.4609561038
 11
-260.0
 21
244.4522295683
  0
LINE
  8
1
  6
CONTINUOUS
 62
     7
 10
-338.5810722677
 20
293.4522295683
 11
-261.4189277323
 21
293.4522295683
  0
LINE
  8
1
  6
CONTINUOUS
 62
     7
 10
-340.0
 20
244.4522295683
 11
-339.5810341907
 21
292.4609561038
  0
ARC
  8
1
  6
CONTINUOUS
 62
     7
 10
-338.5810722677
 20
292.4522295683
 40
1.0
 50
90.0
 51
179.5
  0
CIRCLE
  8
1
  6
CONTINUOUS
 62
     7
 10
-300.0
 20
278.4522295683
 40
13.25
  0
LINE
  8
1
  6
CONTINUOUS
 62
     7
 10
-266.5
 20
242.6522295683
 11
-296.25
 21
242.6522295683
  0
LINE
  8
1
  6
CONTINUOUS
 62
     7
 10
-296.25
 20
244.4522295683
 11
-296.25
 21
242.6522295683
  0
LINE
  8
1
  6
CONTINUOUS
 62
     7
 10
-266.5
 20
242.6522295683
 11
-266.5
 21
244.4522295683
  0
LINE
  8
1
  6
CONTINUOUS
 62
     7
 10
-303.75
 20
244.4522295683
 11
-303.75
 21
242.6522295683
  0
LINE
  8
1
  6
CONTINUOUS
 62
     7
 10
-333.5
 20
242.6522295683
 11
-303.75
 21
242.6522295683
  0
LINE
  8
1
  6
CONTINUOUS
 62
     7
 10
-333.5
 20
242.6522295683
 11
-333.5
 21
244.4522295683
  0
LINE
  8
1
  6
CONTINUOUS
 62
     7
 10
-261.5
 20
242.6522295683
 11
-261.5
 21
244.4522295683
  0
LINE
  8
1
  6
CONTINUOUS
 62
     7
 10
-261.5
 20
242.6522295683
 11
-262.984291638
 21
242.6522295683
  0
LINE
  8
1
  6
CONTINUOUS
 62
     7
 10
-262.984291638
 20
242.6522295683
 11
-263.0
 21
244.4522295683
  0
LINE
  8
1
  6
CONTINUOUS
 62
     7
 10
-338.5
 20
242.6522295683
 11
-338.5
 21
244.4522295683
  0
LINE
  8
1
  6
CONTINUOUS
 62
     7
 10
-338.5
 20
242.6522295683
 11
-337.015708362
 21
242.6522295683
  0
LINE
  8
1
  6
CONTINUOUS
 62
     7
 10
-337.015708362
 20
242.6522295683
 11
-337.0
 21
244.4522295683
  0
LINE
  8
1
  6
CONTINUOUS
 62
     7
 10
-234.9630110619
 20
225.25
 11
-234.9630110619
 21
104.75
  0
LINE
  8
1
  6
CONTINUOUS
 62
     7
 10
-185.9630110619
 20
225.25
 11
-234.9630110619
 21
225.25
  0
LINE
  8
1
  6
CONTINUOUS
 62
     7
 10
-234.9630110619
 20
104.75
 11
-186.9542845264
 21
105.1689658093
  0
LINE
  8
1
  6
CONTINUOUS
 62
     7
 10
-185.9630110619
 20
106.1689277323
 11
-185.9630110619
 21
225.25
  0
ARC
  8
1
  6
CONTINUOUS
 62
     7
 10
-186.9630110619
 20
224.25
 40
1.0
 50
0.0
 51
90.0
  0
ARC
  8
1
  6
CONTINUOUS
 62
     7
 10
-186.9630110619
 20
106.1689277323
 40
1.0
 50
270.5000000000001
 51
0.0
  0
LINE
  8
1
  6
CONTINUOUS
 62
     7
 10
-236.7630110619
 20
111.75
 11
-236.7630110619
 21
218.25
  0
LINE
  8
1
  6
CONTINUOUS
 62
     7
 10
-236.7630110619
 20
111.75
 11
-234.9630110619
 21
111.75
  0
LINE
  8
1
  6
CONTINUOUS
 62
     7
 10
-236.7630110619
 20
218.25
 11
-234.9630110619
 21
218.25
  0
LINE
  8
1
  6
CONTINUOUS
 62
     7
 10
-236.7630110619
 20
106.75
 11
-236.7630110619
 21
107.734291638
  0
LINE
  8
1
  6
CONTINUOUS
 62
     7
 10
-236.7630110619
 20
106.75
 11
-234.9630110619
 21
106.75
  0
LINE
  8
1
  6
CONTINUOUS
 62
     7
 10
-236.7630110619
 20
107.734291638
 11
-234.9630110619
 21
107.75
  0
LINE
  8
1
  6
CONTINUOUS
 62
     7
 10
-236.7630110619
 20
222.25
 11
-236.7630110619
 21
223.25
  0
LINE
  8
1
  6
CONTINUOUS
 62
     7
 10
-236.7630110619
 20
223.25
 11
-234.9630110619
 21
223.25
  0
LINE
  8
1
  6
CONTINUOUS
 62
     7
 10
-234.9630110619
 20
222.25
 11
-236.7630110619
 21
222.25
  0
POINT
  8
0
 62
     7
 10
-319.75
 20
59.0477704317
 30
0.0
  0
POINT
  8
0
 62
     7
 10
-280.25
 20
59.0477704317
 30
0.0
  0
ENDSEC
  0
EOF
