  0
SECTION
  2
HEADER
  9
$ACADVER
  1
AC1014
  9
$ACADMAINTVER
 70
     9
  9
$DWGCODEPAGE
  3
ANSI_932
  9
$INSBASE
 10
0.0
 20
0.0
 30
0.0
  9
$EXTMIN
 10
-395.4837183428336
 20
-66.0
 30
0.0
  9
$EXTMAX
 10
-219.4837183428335
 20
232.7999999999999
 30
0.0
  9
$LIMMIN
 10
0.0
 20
0.0
  9
$LIMMAX
 10
12.0
 20
9.0
  9
$ORTHOMODE
 70
     0
  9
$REGENMODE
 70
     1
  9
$FILLMODE
 70
     1
  9
$QTEXTMODE
 70
     0
  9
$MIRRTEXT
 70
     1
  9
$DRAGMODE
 70
     2
  9
$LTSCALE
 40
1.0
  9
$OSMODE
 70
    37
  9
$ATTMODE
 70
     1
  9
$TEXTSIZE
 40
0.2
  9
$TRACEWID
 40
0.05
  9
$TEXTSTYLE
  7
STANDARD
  9
$CLAYER
  8
0
  9
$CELTYPE
  6
BYLAYER
  9
$CECOLOR
 62
   256
  9
$CELTSCALE
 40
1.0
  9
$DELOBJ
 70
     1
  9
$DISPSILH
 70
     0
  9
$DIMSCALE
 40
1.0
  9
$DIMASZ
 40
3.0
  9
$DIMEXO
 40
0.0625
  9
$DIMDLI
 40
0.38
  9
$DIMRND
 40
0.0
  9
$DIMDLE
 40
0.0
  9
$DIMEXE
 40
1.5
  9
$DIMTP
 40
0.0
  9
$DIMTM
 40
0.0
  9
$DIMTXT
 40
3.0
  9
$DIMCEN
 40
0.09
  9
$DIMTSZ
 40
0.0
  9
$DIMTOL
 70
     0
  9
$DIMLIM
 70
     0
  9
$DIMTIH
 70
     1
  9
$DIMTOH
 70
     1
  9
$DIMSE1
 70
     0
  9
$DIMSE2
 70
     0
  9
$DIMTAD
 70
     1
  9
$DIMZIN
 70
     0
  9
$DIMBLK
  1

  9
$DIMASO
 70
     1
  9
$DIMSHO
 70
     1
  9
$DIMPOST
  1

  9
$DIMAPOST
  1

  9
$DIMALT
 70
     0
  9
$DIMALTD
 70
     2
  9
$DIMALTF
 40
25.4
  9
$DIMLFAC
 40
1.0
  9
$DIMTOFL
 70
     0
  9
$DIMTVP
 40
0.0
  9
$DIMTIX
 70
     0
  9
$DIMSOXD
 70
     0
  9
$DIMSAH
 70
     0
  9
$DIMBLK1
  1

  9
$DIMBLK2
  1

  9
$DIMSTYLE
  2
STANDARD
  9
$DIMCLRD
 70
     0
  9
$DIMCLRE
 70
     0
  9
$DIMCLRT
 70
     0
  9
$DIMTFAC
 40
1.0
  9
$DIMGAP
 40
1.5
  9
$DIMJUST
 70
     0
  9
$DIMSD1
 70
     0
  9
$DIMSD2
 70
     0
  9
$DIMTOLJ
 70
     1
  9
$DIMTZIN
 70
     0
  9
$DIMALTZ
 70
     0
  9
$DIMALTTZ
 70
     0
  9
$DIMFIT
 70
     3
  9
$DIMUPT
 70
     0
  9
$DIMUNIT
 70
     2
  9
$DIMDEC
 70
     2
  9
$DIMTDEC
 70
     4
  9
$DIMALTU
 70
     2
  9
$DIMALTTD
 70
     2
  9
$DIMTXSTY
  7
ＭＳ_ゴシック
  9
$DIMAUNIT
 70
     0
  9
$LUNITS
 70
     2
  9
$LUPREC
 70
     4
  9
$SKETCHINC
 40
0.1
  9
$FILLETRAD
 40
0.5
  9
$AUNITS
 70
     0
  9
$AUPREC
 70
     0
  9
$MENU
  1
.
  9
$ELEVATION
 40
0.0
  9
$PELEVATION
 40
0.0
  9
$THICKNESS
 40
0.0
  9
$LIMCHECK
 70
     0
  9
$CHAMFERA
 40
0.0
  9
$CHAMFERB
 40
0.0
  9
$CHAMFERC
 40
0.0
  9
$CHAMFERD
 40
0.0
  9
$SKPOLY
 70
     0
  9
$TDCREATE
 40
2460095.434531678
  9
$TDUPDATE
 40
2460095.43453191
  9
$TDINDWG
 40
0.0000000116
  9
$TDUSRTIMER
 40
0.0000000116
  9
$USRTIMER
 70
     1
  9
$ANGBASE
 50
0.0
  9
$ANGDIR
 70
     0
  9
$PDMODE
 70
     0
  9
$PDSIZE
 40
0.0
  9
$PLINEWID
 40
0.0
  9
$COORDS
 70
     1
  9
$SPLFRAME
 70
     0
  9
$SPLINETYPE
 70
     6
  9
$SPLINESEGS
 70
     8
  9
$ATTDIA
 70
     0
  9
$ATTREQ
 70
     1
  9
$HANDLING
 70
     1
  9
$HANDSEED
  5
1B3
  9
$SURFTAB1
 70
     6
  9
$SURFTAB2
 70
     6
  9
$SURFTYPE
 70
     6
  9
$SURFU
 70
     6
  9
$SURFV
 70
     6
  9
$UCSNAME
  2

  9
$UCSORG
 10
0.0
 20
0.0
 30
0.0
  9
$UCSXDIR
 10
1.0
 20
0.0
 30
0.0
  9
$UCSYDIR
 10
0.0
 20
1.0
 30
0.0
  9
$PUCSNAME
  2

  9
$PUCSORG
 10
0.0
 20
0.0
 30
0.0
  9
$PUCSXDIR
 10
1.0
 20
0.0
 30
0.0
  9
$PUCSYDIR
 10
0.0
 20
1.0
 30
0.0
  9
$USERI1
 70
     0
  9
$USERI2
 70
     0
  9
$USERI3
 70
     0
  9
$USERI4
 70
     0
  9
$USERI5
 70
     0
  9
$USERR1
 40
0.0
  9
$USERR2
 40
0.0
  9
$USERR3
 40
0.0
  9
$USERR4
 40
0.0
  9
$USERR5
 40
0.0
  9
$WORLDVIEW
 70
     1
  9
$SHADEDGE
 70
     3
  9
$SHADEDIF
 70
    70
  9
$TILEMODE
 70
     1
  9
$MAXACTVP
 70
    64
  9
$PINSBASE
 10
0.0
 20
0.0
 30
0.0
  9
$PLIMCHECK
 70
     0
  9
$PEXTMIN
 10
1.000000000000000E+20
 20
1.000000000000000E+20
 30
1.000000000000000E+20
  9
$PEXTMAX
 10
-1.000000000000000E+20
 20
-1.000000000000000E+20
 30
-1.000000000000000E+20
  9
$PLIMMIN
 10
0.0
 20
0.0
  9
$PLIMMAX
 10
12.0
 20
9.0
  9
$UNITMODE
 70
     0
  9
$VISRETAIN
 70
     1
  9
$PLINEGEN
 70
     0
  9
$PSLTSCALE
 70
     1
  9
$TREEDEPTH
 70
  3020
  9
$PICKSTYLE
 70
     1
  9
$CMLSTYLE
  2
STANDARD
  9
$CMLJUST
 70
     0
  9
$CMLSCALE
 40
1.0
  9
$PROXYGRAPHICS
 70
     1
  9
$MEASUREMENT
 70
     1
  0
ENDSEC
  0
SECTION
  2
CLASSES
  0
CLASS
  1
ACDBDICTIONARYWDFLT
  2
AcDbDictionaryWithDefault
  3
ObjectDBX Classes
 90
        0
280
     0
281
     0
  0
CLASS
  1
VISUALSTYLE
  2
AcDbVisualStyle
  3
ObjectDBX Classes
 90
     4095
280
     0
281
     0
  0
CLASS
  1
MATERIAL
  2
AcDbMaterial
  3
ObjectDBX Classes
 90
     1153
280
     0
281
     0
  0
CLASS
  1
SCALE
  2
AcDbScale
  3
ObjectDBX Classes
 90
     1153
280
     0
281
     0
  0
CLASS
  1
TABLESTYLE
  2
AcDbTableStyle
  3
ObjectDBX Classes
 90
     4095
280
     0
281
     0
  0
CLASS
  1
MLEADERSTYLE
  2
AcDbMLeaderStyle
  3
ACDB_MLEADERSTYLE_CLASS
 90
     4095
280
     0
281
     0
  0
CLASS
  1
SUN
  2
AcDbSun
  3
SCENEOE
 90
     1153
280
     0
281
     0
  0
CLASS
  1
DICTIONARYVAR
  2
AcDbDictionaryVar
  3
ObjectDBX Classes
 90
        0
280
     0
281
     0
  0
CLASS
  1
XRECORD
  2
AcDbXrecord
  3
ObjectDBX Classes
 90
        0
280
     0
281
     0
  0
CLASS
  1
LWPOLYLINE
  2
AcDbPolyline
  3
ObjectDBX Classes
 90
        0
280
     0
281
     1
  0
CLASS
  1
HATCH
  2
AcDbHatch
  3
ObjectDBX Classes
 90
        0
280
     0
281
     1
  0
CLASS
  1
ACDBPLACEHOLDER
  2
AcDbPlaceHolder
  3
ObjectDBX Classes
 90
        0
280
     0
281
     0
  0
CLASS
  1
LAYOUT
  2
AcDbLayout
  3
ObjectDBX Classes
 90
        0
280
     0
281
     0
  0
ENDSEC
  0
SECTION
  2
TABLES
  0
TABLE
  2
VPORT
  5
8
102
{ACAD_XDICTIONARY
360
1A8
102
}
330
0
100
AcDbSymbolTable
 70
     1
  0
VPORT
  5
29
330
8
100
AcDbSymbolTableRecord
100
AcDbViewportTableRecord
  2
*ACTIVE
 70
     0
 10
0.0
 20
0.0
 11
1.0
 21
1.0
 12
-307.4837183428335
 22
83.39999999999996
 13
0.0
 23
0.0
 14
0.5
 24
0.5
 15
0.5
 25
0.5
 16
0.0
 26
0.0
 36
1.0
 17
0.0
 27
0.0
 37
0.0
 40
298.8
 41
1.6
 42
50.0
 43
0.0
 44
0.0
 50
0.0
 51
0.0
 71
     0
 72
   100
 73
     1
 74
     3
 75
     0
 76
     0
 77
     0
 78
     0
  0
ENDTAB
  0
TABLE
  2
LTYPE
  5
5
330
0
100
AcDbSymbolTable
 70
     2
  0
LTYPE
  5
14
330
5
100
AcDbSymbolTableRecord
100
AcDbLinetypeTableRecord
  2
BYBLOCK
 70
     0
  3

 72
    65
 73
     0
 40
0.0
  0
LTYPE
  5
15
330
5
100
AcDbSymbolTableRecord
100
AcDbLinetypeTableRecord
  2
BYLAYER
 70
     0
  3

 72
    65
 73
     0
 40
0.0
  0
LTYPE
  5
16
330
5
100
AcDbSymbolTableRecord
100
AcDbLinetypeTableRecord
  2
CONTINUOUS
 70
     0
  3
Solid line
 72
    65
 73
     0
 40
0.0
  0
LTYPE
  5
72
330
5
100
AcDbSymbolTableRecord
100
AcDbLinetypeTableRecord
  2
CENTER
 70
     0
  3

 72
    65
 73
     0
 40
0.0
  0
ENDTAB
  0
TABLE
  2
LAYER
  5
2
330
0
100
AcDbSymbolTable
 70
     2
  0
LAYER
  5
10
330
2
100
AcDbSymbolTableRecord
100
AcDbLayerTableRecord
  2
0
 70
     0
 62
     7
  6
CONTINUOUS
  0
LAYER
  5
6E
330
2
100
AcDbSymbolTableRecord
100
AcDbLayerTableRecord
  2
1
 70
     0
 62
     7
  6
CONTINUOUS
  0
ENDTAB
  0
TABLE
  2
STYLE
  5
3
330
0
100
AcDbSymbolTable
 70
     2
  0
STYLE
  5
11
330
3
100
AcDbSymbolTableRecord
100
AcDbTextStyleTableRecord
  2
STANDARD
 70
     0
 40
0.0
 41
1.0
 50
0.0
 71
     0
 42
0.2
  3
txt
  4

  0
STYLE
  5
6F
330
3
100
AcDbSymbolTableRecord
100
AcDbTextStyleTableRecord
  2
ＭＳ_ゴシック
 70
     0
 40
0.0
 41
1.0
 50
0.0
 71
     0
 42
0.2
  3
ＭＳ ゴシック.shx
  4

  0
ENDTAB
  0
TABLE
  2
VIEW
  5
6
330
0
100
AcDbSymbolTable
 70
     0
  0
ENDTAB
  0
TABLE
  2
UCS
  5
7
330
0
100
AcDbSymbolTable
 70
     0
  0
ENDTAB
  0
TABLE
  2
APPID
  5
9
330
0
100
AcDbSymbolTable
 70
     2
  0
APPID
  5
12
330
9
100
AcDbSymbolTableRecord
100
AcDbRegAppTableRecord
  2
ACAD
 70
     0
  0
APPID
  5
1B2
330
9
100
AcDbSymbolTableRecord
100
AcDbRegAppTableRecord
  2
ACAD_MLEADERVER
 70
     0
  0
ENDTAB
  0
TABLE
  2
DIMSTYLE
  5
A
330
0
100
AcDbSymbolTable
 70
     1
  0
DIMSTYLE
105
27
330
A
100
AcDbSymbolTableRecord
100
AcDbDimStyleTableRecord
  2
STANDARD
 70
     0
  3

  4

  5

  6

  7

 40
1.0
 41
0.18
 42
0.0625
 43
0.38
 44
0.18
 45
0.0
 46
0.0
 47
0.0
 48
0.0
140
0.18
141
0.09
142
0.0
143
25.4
144
1.0
145
0.0
146
1.0
147
0.09
 71
     0
 72
     0
 73
     1
 74
     1
 75
     0
 76
     0
 77
     0
 78
     0
170
     0
171
     2
172
     0
173
     0
174
     0
175
     0
176
     0
177
     0
178
     0
270
     2
271
     4
272
     4
273
     2
274
     2
340
11
275
     0
280
     0
281
     0
282
     0
283
     1
284
     0
285
     0
286
     0
287
     3
288
     0
  0
ENDTAB
  0
TABLE
  2
BLOCK_RECORD
  5
1
330
0
100
AcDbSymbolTable
 70
     0
  0
BLOCK_RECORD
  5
1F
330
1
100
AcDbSymbolTableRecord
100
AcDbBlockTableRecord
  2
*MODEL_SPACE
  0
BLOCK_RECORD
  5
1B
330
1
100
AcDbSymbolTableRecord
100
AcDbBlockTableRecord
  2
*PAPER_SPACE
  0
ENDTAB
  0
ENDSEC
  0
SECTION
  2
BLOCKS
  0
BLOCK
  5
20
330
1F
100
AcDbEntity
  8
0
100
AcDbBlockBegin
  2
*MODEL_SPACE
 70
     0
 10
0.0
 20
0.0
 30
0.0
  3
*MODEL_SPACE
  1

  0
ENDBLK
  5
21
330
1F
100
AcDbEntity
  8
0
100
AcDbBlockEnd
  0
BLOCK
  5
1C
330
1B
100
AcDbEntity
 67
     1
  8
0
100
AcDbBlockBegin
  2
*PAPER_SPACE
 70
     0
 10
0.0
 20
0.0
 30
0.0
  3
*PAPER_SPACE
  1

  0
ENDBLK
  5
1D
330
1B
100
AcDbEntity
 67
     1
  8
0
100
AcDbBlockEnd
  0
ENDSEC
  0
SECTION
  2
ENTITIES
  0
MTEXT
  5
70
330
1F
100
AcDbEntity
  8
1
 62
     7
100
AcDbMText
 10
-265.6037571073701
 20
11.19887457796673
 30
0.0
 40
3.0
 41
0.0
 71
     1
 72
     1
  1
{\fＭＳ ゴシック;PVR22-LBC}
  0
LINE
  5
71
330
1F
100
AcDbEntity
  8
0
  6
CENTER
 62
     1
100
AcDbLine
 10
-351.9837183428335
 20
16.70000000000005
 30
0.0
 11
-351.9837183428335
 21
232.7999999999999
 31
0.0
  0
LINE
  5
73
330
1F
100
AcDbEntity
  8
0
  6
CENTER
 62
     1
100
AcDbLine
 10
-351.9837183428335
 20
-66.0
 30
0.0
 11
-351.9837183428335
 21
15.00411348378439
 31
0.0
  0
LINE
  5
74
330
1F
100
AcDbEntity
  8
1
  6
CONTINUOUS
 62
     7
100
AcDbLine
 10
-274.4837183428335
 20
220.0
 30
0.0
 11
-268.3344994021917
 21
220.0
 31
0.0
  0
LINE
  5
75
330
1F
100
AcDbEntity
  8
1
  6
CONTINUOUS
 62
     7
100
AcDbLine
 10
-274.4837183428335
 20
219.0
 30
0.0
 11
-274.4837183428335
 21
220.0
 31
0.0
  0
LINE
  5
76
330
1F
100
AcDbEntity
  8
1
  6
CONTINUOUS
 62
     7
100
AcDbLine
 10
-268.5721216918321
 20
30.0
 30
0.0
 11
-274.4837183428335
 21
30.0
 31
0.0
  0
LINE
  5
77
330
1F
100
AcDbEntity
  8
1
  6
CONTINUOUS
 62
     7
100
AcDbLine
 10
-274.4837183428335
 20
30.0
 30
0.0
 11
-274.4837183428335
 21
31.0
 31
0.0
  0
LINE
  5
78
330
1F
100
AcDbEntity
  8
1
  6
CONTINUOUS
 62
     7
100
AcDbLine
 10
-274.4837183428335
 20
219.0
 30
0.0
 11
-274.4837183428335
 21
31.0
 31
0.0
  0
ARC
  5
79
330
1F
100
AcDbEntity
  8
1
  6
CONTINUOUS
 62
     7
100
AcDbCircle
 10
-268.5721216918321
 20
31.0
 30
0.0
 40
1.000000000000003
100
AcDbArc
 50
270.0
 51
330.9453959009228
  0
LINE
  5
7A
330
1F
100
AcDbEntity
  8
1
  6
CONTINUOUS
 62
     7
100
AcDbLine
 10
-265.7694722699565
 20
33.98564293117863
 30
0.0
 11
-267.6979644157105
 21
30.51435706882137
 31
0.0
  0
ARC
  5
7B
330
1F
100
AcDbEntity
  8
1
  6
CONTINUOUS
 62
     7
100
AcDbCircle
 10
-268.3344994021917
 20
219.0
 30
0.0
 40
1.000000000000001
100
AcDbArc
 50
51.34019174591009
 51
90.0
  0
LINE
  5
7C
330
1F
100
AcDbEntity
  8
1
  6
CONTINUOUS
 62
     7
100
AcDbLine
 10
-267.7098043546373
 20
219.780868809443
 30
0.0
 11
-265.7576323310297
 21
218.219131190557
 31
0.0
  0
ARC
  5
7D
330
1F
100
AcDbEntity
  8
1
  6
CONTINUOUS
 62
     7
100
AcDbCircle
 10
-264.895314993835
 20
33.5
 30
0.0
 40
1.000000000000001
100
AcDbArc
 50
90.0
 51
150.9453959009232
  0
ARC
  5
7E
330
1F
100
AcDbEntity
  8
1
  6
CONTINUOUS
 62
     7
100
AcDbCircle
 10
-265.1329372834753
 20
219.0
 30
0.0
 40
1.000000000000001
100
AcDbArc
 50
231.3401917459097
 51
270.0
  0
LINE
  5
7F
330
1F
100
AcDbEntity
  8
1
  6
CONTINUOUS
 62
     7
100
AcDbLine
 10
-265.1329372834753
 20
218.0
 30
0.0
 11
-220.4837183428335
 21
218.0
 31
0.0
  0
LINE
  5
80
330
1F
100
AcDbEntity
  8
1
  6
CONTINUOUS
 62
     7
100
AcDbLine
 10
-220.4837183428335
 20
34.5
 30
0.0
 11
-264.895314993835
 21
34.5
 31
0.0
  0
LINE
  5
81
330
1F
100
AcDbEntity
  8
1
  6
CONTINUOUS
 62
     7
100
AcDbLine
 10
-219.4837183428335
 20
217.0
 30
0.0
 11
-219.4837183428335
 21
35.5
 31
0.0
  0
ARC
  5
82
330
1F
100
AcDbEntity
  8
1
  6
CONTINUOUS
 62
     7
100
AcDbCircle
 10
-220.4837183428335
 20
217.0
 30
0.0
 40
1.000000000000001
100
AcDbArc
 50
0.0
 51
90.00000000000006
  0
ARC
  5
83
330
1F
100
AcDbEntity
  8
1
  6
CONTINUOUS
 62
     7
100
AcDbCircle
 10
-220.4837183428335
 20
35.5
 30
0.0
 40
1.000000000000001
100
AcDbArc
 50
269.9999999999998
 51
0.0
  0
LINE
  5
84
330
1F
100
AcDbEntity
  8
1
  6
CONTINUOUS
 62
     7
100
AcDbLine
 10
-308.4837183428335
 20
2.499999999999988
 30
0.0
 11
-308.9189279680539
 21
-3.484132346780271
 31
0.0
  0
LINE
  5
85
330
1F
100
AcDbEntity
  8
1
  6
CONTINUOUS
 62
     7
100
AcDbLine
 10
-309.4863594831216
 20
2.499999999999988
 30
0.0
 11
-308.4837183428335
 21
2.499999999999988
 31
0.0
  0
ARC
  5
86
330
1F
100
AcDbEntity
  8
1
  6
CONTINUOUS
 62
     7
100
AcDbCircle
 10
-347.9837183428335
 20
1.999999999999988
 30
0.0
 40
0.5000000000000004
100
AcDbArc
 50
90.0000000000003
 51
180.0
  0
LINE
  5
87
330
1F
100
AcDbEntity
  8
1
  6
CONTINUOUS
 62
     7
100
AcDbLine
 10
-348.4837183428335
 20
1.999999999999988
 30
0.0
 11
-348.4837183428335
 21
-2.500000000000002
 31
0.0
  0
LINE
  5
88
330
1F
100
AcDbEntity
  8
1
  6
CONTINUOUS
 62
     7
100
AcDbLine
 10
-355.4837183428335
 20
1.999999999999988
 30
0.0
 11
-355.4837183428335
 21
-2.500000000000002
 31
0.0
  0
LINE
  5
89
330
1F
100
AcDbEntity
  8
1
  6
CONTINUOUS
 62
     7
100
AcDbLine
 10
-347.9837183428335
 20
2.499999999999988
 30
0.0
 11
-309.4863594831216
 21
2.499999999999988
 31
0.0
  0
LINE
  5
8A
330
1F
100
AcDbEntity
  8
1
  6
CONTINUOUS
 62
     7
100
AcDbLine
 10
-394.4810772025454
 20
2.499999999999988
 30
0.0
 11
-355.9837183428335
 21
2.499999999999988
 31
0.0
  0
ARC
  5
8B
330
1F
100
AcDbEntity
  8
1
  6
CONTINUOUS
 62
     7
100
AcDbCircle
 10
-355.9837183428335
 20
1.999999999999988
 30
0.0
 40
0.5000000000000004
100
AcDbArc
 50
0.0
 51
90.0000000000003
  0
LINE
  5
8C
330
1F
100
AcDbEntity
  8
1
  6
CONTINUOUS
 62
     7
100
AcDbLine
 10
-355.4837183428335
 20
-2.500000000000002
 30
0.0
 11
-348.4837183428335
 21
-2.500000000000002
 31
0.0
  0
LINE
  5
8D
330
1F
100
AcDbEntity
  8
1
  6
CONTINUOUS
 62
     7
100
AcDbLine
 10
-395.0485087176132
 20
-3.484132346780272
 30
0.0
 11
-395.4837183428336
 21
2.499999999999988
 31
0.0
  0
LINE
  5
8E
330
1F
100
AcDbEntity
  8
1
  6
CONTINUOUS
 62
     7
100
AcDbLine
 10
-395.4837183428335
 20
2.499999999999988
 30
0.0
 11
-394.4810772025454
 21
2.499999999999988
 31
0.0
  0
LINE
  5
8F
330
1F
100
AcDbEntity
  8
1
  6
CONTINUOUS
 62
     7
100
AcDbLine
 10
-394.9082547433765
 20
-5.412624492534296
 30
0.0
 11
-395.0485087176132
 21
-3.484132346780272
 31
0.0
  0
LINE
  5
90
330
1F
100
AcDbEntity
  8
1
  6
CONTINUOUS
 62
     7
100
AcDbLine
 10
-308.9189279680539
 20
-3.484132346780272
 30
0.0
 11
-309.0591819422906
 21
-5.412624492534296
 31
0.0
  0
LINE
  5
91
330
1F
100
AcDbEntity
  8
1
  6
CONTINUOUS
 62
     7
100
AcDbLine
 10
-309.1863320915446
 20
-7.160939044777381
 30
0.0
 11
-309.0591819422905
 21
-5.412624492534296
 31
0.0
  0
LINE
  5
92
330
1F
100
AcDbEntity
  8
1
  6
CONTINUOUS
 62
     7
100
AcDbLine
 10
-394.9082547433765
 20
-5.412624492534296
 30
0.0
 11
-394.7811045941224
 21
-7.160939044777381
 31
0.0
  0
ARC
  5
93
330
1F
100
AcDbEntity
  8
1
  6
CONTINUOUS
 62
     7
100
AcDbCircle
 10
-351.9851734310507
 20
-30.50145508821714
 30
0.0
 40
13.50903903388981
100
AcDbArc
 50
220.7548249421622
 51
229.2451750578376
  0
ARC
  5
94
330
1F
100
AcDbEntity
  8
1
  6
CONTINUOUS
 62
     7
100
AcDbCircle
 10
-351.9822632546164
 20
-30.50145508821714
 30
0.0
 40
13.50903903388981
100
AcDbArc
 50
310.7548249421623
 51
319.2451750578377
  0
ARC
  5
95
330
1F
100
AcDbEntity
  8
1
  6
CONTINUOUS
 62
     7
100
AcDbCircle
 10
-351.9837183428335
 20
-30.49794219450891
 30
0.0
 40
13.5090390338898
100
AcDbArc
 50
85.75482494216226
 51
94.24517505783774
  0
ARC
  5
96
330
1F
100
AcDbEntity
  8
1
  6
CONTINUOUS
 62
     7
100
AcDbCircle
 10
-351.9837183428335
 20
-30.49794325810779
 30
0.0
 40
13.50205674189222
100
AcDbArc
 50
94.2473743859782
 51
220.7588140113336
  0
ARC
  5
97
330
1F
100
AcDbEntity
  8
1
  6
CONTINUOUS
 62
     7
100
AcDbCircle
 10
-351.9837183428335
 20
-30.49794325810779
 30
0.0
 40
13.50205674189222
100
AcDbArc
 50
229.2535628817358
 51
310.7464371182641
  0
ARC
  5
98
330
1F
100
AcDbEntity
  8
1
  6
CONTINUOUS
 62
     7
100
AcDbCircle
 10
-351.9837183428335
 20
-30.49794325810779
 30
0.0
 40
13.50205674189222
100
AcDbArc
 50
319.2411859886663
 51
85.75262561402167
  0
ARC
  5
99
330
1F
100
AcDbEntity
  8
1
  6
CONTINUOUS
 62
     7
100
AcDbCircle
 10
-313.4136322103944
 20
-51.50000000000001
 30
0.0
 40
0.9999999999999833
100
AcDbArc
 50
270.0000000000005
 51
355.8403577062886
  0
ARC
  5
9A
330
1F
100
AcDbEntity
  8
1
  6
CONTINUOUS
 62
     7
100
AcDbCircle
 10
-390.5538044752727
 20
-51.50000000000001
 30
0.0
 40
0.9999999999999977
100
AcDbArc
 50
184.1596422937118
 51
270.0
  0
LINE
  5
9B
330
1F
100
AcDbEntity
  8
1
  6
CONTINUOUS
 62
     7
100
AcDbLine
 10
-391.5511702922314
 20
-51.57253569577882
 30
0.0
 11
-394.7811045941224
 21
-7.160939044777388
 31
0.0
  0
LINE
  5
9C
330
1F
100
AcDbEntity
  8
1
  6
CONTINUOUS
 62
     7
100
AcDbLine
 10
-309.1863320915446
 20
-7.160939044777381
 30
0.0
 11
-312.4162663934356
 21
-51.5725356957788
 31
0.0
  0
LINE
  5
9D
330
1F
100
AcDbEntity
  8
1
  6
CONTINUOUS
 62
     7
100
AcDbLine
 10
-313.4136322103944
 20
-52.50000000000001
 30
0.0
 11
-390.5538044752726
 21
-52.50000000000001
 31
0.0
  0
LINE
  5
9E
330
1F
100
AcDbEntity
  8
1
  6
CONTINUOUS
 62
     7
100
AcDbLine
 10
-361.6015832245735
 20
-38.7036513193668
 30
0.0
 11
-360.1873696622004
 21
-40.11786488173989
 31
0.0
  0
LINE
  5
9F
330
1F
100
AcDbEntity
  8
1
  6
CONTINUOUS
 62
     7
100
AcDbLine
 10
-343.7800670234668
 20
-40.1178648817399
 30
0.0
 11
-342.3658534610937
 21
-38.70365131936682
 31
0.0
  0
LWPOLYLINE
  5
A0
330
1F
100
AcDbEntity
  8
1
  6
CONTINUOUS
 62
     7
100
AcDbPolyline
 90
       12
 70
     0
 43
0.0
 10
-341.9508094711642
 20
-39.11869530929644
 10
-340.4626826022821
 20
-36.95821241014433
 10
-339.4329352573492
 20
-34.54534767188888
 10
-338.9025372856383
 20
-31.97610008411593
 10
-338.8925912664012
 20
-29.35269053327286
 10
-339.4034929150636
 20
-26.7794948105749
 10
-340.4149153391678
 20
-24.35889088419783
 10
-341.8866177704608
 20
-22.18718565748169
 10
-343.7600465966593
 20
-20.35078327241487
 10
-345.960664993745
 20
-18.92274740747231
 10
-348.4009184713085
 20
-17.95989434329889
 10
-350.9837183428334
 20
-17.500532452434
  0
LWPOLYLINE
  5
A1
330
1F
100
AcDbEntity
  8
1
  6
CONTINUOUS
 62
     7
100
AcDbPolyline
 90
        8
 70
     0
 43
0.0
 10
-360.611220044626
 20
-40.54171526416523
 10
-358.4164114630588
 20
-42.08651926083535
 10
-355.9537106987996
 20
-43.15357784073024
 10
-353.3256779503101
 20
-43.69845290511181
 10
-350.6417587353574
 20
-43.69845290511184
 10
-348.0137259868678
 20
-43.15357784073036
 10
-345.5510252226085
 20
-42.08651926083554
 10
-343.3562166410414
 20
-40.54171526416549
  0
LWPOLYLINE
  5
A2
330
1F
100
AcDbEntity
  8
1
  6
CONTINUOUS
 62
     7
100
AcDbPolyline
 90
       12
 70
     0
 43
0.0
 10
-352.9837183428333
 20
-17.50053245243397
 10
-355.5665182143582
 20
-17.95989434329878
 10
-358.0067716919217
 20
-18.92274740747213
 10
-360.2073900890074
 20
-20.35078327241462
 10
-362.0808189152061
 20
-22.1871856574814
 10
-363.5525213464991
 20
-24.3588908841975
 10
-364.5639437706034
 20
-26.77949481057453
 10
-365.0748454192658
 20
-29.35269053327248
 10
-365.0648994000288
 20
-31.97610008411555
 10
-364.534501428318
 20
-34.5453476718885
 10
-363.5047540833851
 20
-36.95821241014398
 10
-362.016627214503
 20
-39.11869530929616
  0
LINE
  5
A3
330
1F
100
AcDbEntity
  8
1
  6
CONTINUOUS
 62
     7
100
AcDbLine
 10
-350.9837183428334
 20
-17.89828504317158
 30
0.0
 11
-352.9837183428334
 21
-17.89828504317155
 31
0.0
  0
LINE
  5
A4
330
1F
100
AcDbEntity
  8
1
  6
CONTINUOUS
 62
     7
100
AcDbLine
 10
-362.2184057519295
 20
-39.32047384672285
 30
0.0
 11
-361.6015832245734
 21
-38.7036513193668
 31
0.0
  0
LINE
  5
A5
330
1F
100
AcDbEntity
  8
1
  6
CONTINUOUS
 62
     7
100
AcDbLine
 10
-360.8041921895564
 20
-40.73468740909595
 30
0.0
 11
-360.1873696622003
 21
-40.1178648817399
 31
0.0
  0
LINE
  5
A6
330
1F
100
AcDbEntity
  8
1
  6
CONTINUOUS
 62
     7
100
AcDbLine
 10
-343.1632444961107
 20
-40.73468740909596
 30
0.0
 11
-343.7800670234668
 21
-40.11786488173991
 31
0.0
  0
LINE
  5
A7
330
1F
100
AcDbEntity
  8
1
  6
CONTINUOUS
 62
     7
100
AcDbLine
 10
-341.7490309337376
 20
-39.32047384672287
 30
0.0
 11
-342.3658534610936
 21
-38.70365131936681
 31
0.0
  0
LINE
  5
A8
330
1F
100
AcDbEntity
  8
1
  6
CONTINUOUS
 62
     7
100
AcDbLine
 10
-350.9837183428335
 20
-17.02596625940738
 30
0.0
 11
-350.9837183428335
 21
-17.89828504317155
 31
0.0
  0
LINE
  5
A9
330
1F
100
AcDbEntity
  8
1
  6
CONTINUOUS
 62
     7
100
AcDbLine
 10
-352.9837183428335
 20
-17.02596625940738
 30
0.0
 11
-352.9837183428335
 21
-17.89828504317155
 31
0.0
  0
LINE
  5
AA
330
1F
100
AcDbEntity
  8
1
  6
CONTINUOUS
 62
     7
100
AcDbLine
 10
-355.9837183428335
 20
2.500000000000002
 30
0.0
 11
-347.9837183428335
 21
2.500000000000002
 31
0.0
  0
CIRCLE
  5
AB
330
1F
100
AcDbEntity
  8
1
  6
CONTINUOUS
 62
   253
100
AcDbCircle
 10
-351.9837183428335
 20
115.4999999999993
 30
0.0
 40
2.000000000000002
  0
CIRCLE
  5
AC
330
1F
100
AcDbEntity
  8
1
  6
CONTINUOUS
 62
     7
100
AcDbCircle
 10
-324.4837183428335
 20
75.99999999999999
 30
0.0
 40
4.000000000000004
  0
ARC
  5
AD
330
1F
100
AcDbEntity
  8
1
  6
CONTINUOUS
 62
     7
100
AcDbCircle
 10
-324.4837183428335
 20
75.99999999999999
 30
0.0
 40
2.249999999999998
100
AcDbArc
 50
77.16041159309587
 51
102.8395884069042
  0
LINE
  5
AE
330
1F
100
AcDbEntity
  8
1
  6
CONTINUOUS
 62
     7
100
AcDbLine
 10
-324.9837183428336
 20
78.19374109684802
 30
0.0
 11
-324.9837183428336
 21
77.29999999999998
 31
0.0
  0
ARC
  5
AF
330
1F
100
AcDbEntity
  8
1
  6
CONTINUOUS
 62
     7
100
AcDbCircle
 10
-325.7837183428335
 20
77.29999999999998
 30
0.0
 40
0.7999999999999952
100
AcDbArc
 50
270.0000000000002
 51
0.0
  0
LINE
  5
B0
330
1F
100
AcDbEntity
  8
1
  6
CONTINUOUS
 62
     7
100
AcDbLine
 10
-325.7837183428335
 20
76.49999999999999
 30
0.0
 11
-326.6774594396816
 21
76.49999999999999
 31
0.0
  0
ARC
  5
B1
330
1F
100
AcDbEntity
  8
1
  6
CONTINUOUS
 62
     7
100
AcDbCircle
 10
-324.4837183428335
 20
75.99999999999999
 30
0.0
 40
2.249999999999998
100
AcDbArc
 50
167.1604115930959
 51
192.8395884069042
  0
LINE
  5
B2
330
1F
100
AcDbEntity
  8
1
  6
CONTINUOUS
 62
     7
100
AcDbLine
 10
-326.6774594396816
 20
75.49999999999999
 30
0.0
 11
-325.7837183428335
 21
75.49999999999999
 31
0.0
  0
ARC
  5
B3
330
1F
100
AcDbEntity
  8
1
  6
CONTINUOUS
 62
     7
100
AcDbCircle
 10
-325.7837183428335
 20
74.69999999999999
 30
0.0
 40
0.7999999999999952
100
AcDbArc
 50
0.0
 51
89.99999999999949
  0
LINE
  5
B4
330
1F
100
AcDbEntity
  8
1
  6
CONTINUOUS
 62
     7
100
AcDbLine
 10
-324.9837183428336
 20
74.69999999999999
 30
0.0
 11
-324.9837183428336
 21
73.80625890315196
 31
0.0
  0
ARC
  5
B5
330
1F
100
AcDbEntity
  8
1
  6
CONTINUOUS
 62
     7
100
AcDbCircle
 10
-324.4837183428335
 20
75.99999999999999
 30
0.0
 40
2.249999999999998
100
AcDbArc
 50
257.1604115930959
 51
282.8395884069043
  0
LINE
  5
B6
330
1F
100
AcDbEntity
  8
1
  6
CONTINUOUS
 62
     7
100
AcDbLine
 10
-323.9837183428336
 20
73.80625890315196
 30
0.0
 11
-323.9837183428336
 21
74.69999999999999
 31
0.0
  0
ARC
  5
B7
330
1F
100
AcDbEntity
  8
1
  6
CONTINUOUS
 62
     7
100
AcDbCircle
 10
-323.1837183428335
 20
74.69999999999999
 30
0.0
 40
0.7999999999999952
100
AcDbArc
 50
89.99999999999977
 51
179.9999999999995
  0
LINE
  5
B8
330
1F
100
AcDbEntity
  8
1
  6
CONTINUOUS
 62
     7
100
AcDbLine
 10
-323.1837183428335
 20
75.49999999999999
 30
0.0
 11
-322.2899772459855
 21
75.49999999999999
 31
0.0
  0
ARC
  5
B9
330
1F
100
AcDbEntity
  8
1
  6
CONTINUOUS
 62
     7
100
AcDbCircle
 10
-324.4837183428335
 20
75.99999999999999
 30
0.0
 40
2.249999999999998
100
AcDbArc
 50
347.1604115930958
 51
12.83958840690411
  0
LINE
  5
BA
330
1F
100
AcDbEntity
  8
1
  6
CONTINUOUS
 62
     7
100
AcDbLine
 10
-322.2899772459855
 20
76.49999999999999
 30
0.0
 11
-323.1837183428335
 21
76.49999999999999
 31
0.0
  0
ARC
  5
BB
330
1F
100
AcDbEntity
  8
1
  6
CONTINUOUS
 62
     7
100
AcDbCircle
 10
-323.1837183428335
 20
77.29999999999998
 30
0.0
 40
0.7999999999999952
100
AcDbArc
 50
180.0
 51
269.9999999999995
  0
LINE
  5
BC
330
1F
100
AcDbEntity
  8
1
  6
CONTINUOUS
 62
     7
100
AcDbLine
 10
-323.9837183428336
 20
77.29999999999998
 30
0.0
 11
-323.9837183428336
 21
78.19374109684802
 31
0.0
  0
CIRCLE
  5
BD
330
1F
100
AcDbEntity
  8
1
  6
CONTINUOUS
 62
     7
100
AcDbCircle
 10
-379.4837183428336
 20
75.99999999999999
 30
0.0
 40
3.999999999999996
  0
ARC
  5
BE
330
1F
100
AcDbEntity
  8
1
  6
CONTINUOUS
 62
     7
100
AcDbCircle
 10
-379.4837183428336
 20
75.99999999999999
 30
0.0
 40
2.249999999999998
100
AcDbArc
 50
77.16041159309587
 51
102.8395884069042
  0
LINE
  5
BF
330
1F
100
AcDbEntity
  8
1
  6
CONTINUOUS
 62
     7
100
AcDbLine
 10
-379.9837183428336
 20
78.19374109684802
 30
0.0
 11
-379.9837183428336
 21
77.29999999999998
 31
0.0
  0
ARC
  5
C0
330
1F
100
AcDbEntity
  8
1
  6
CONTINUOUS
 62
     7
100
AcDbCircle
 10
-380.7837183428335
 20
77.29999999999998
 30
0.0
 40
0.800000000000002
100
AcDbArc
 50
270.0000000000002
 51
0.0
  0
LINE
  5
C1
330
1F
100
AcDbEntity
  8
1
  6
CONTINUOUS
 62
     7
100
AcDbLine
 10
-380.7837183428335
 20
76.49999999999999
 30
0.0
 11
-381.6774594396816
 21
76.49999999999999
 31
0.0
  0
ARC
  5
C2
330
1F
100
AcDbEntity
  8
1
  6
CONTINUOUS
 62
     7
100
AcDbCircle
 10
-379.4837183428336
 20
75.99999999999999
 30
0.0
 40
2.250000000000001
100
AcDbArc
 50
167.1604115930959
 51
192.8395884069042
  0
LINE
  5
C3
330
1F
100
AcDbEntity
  8
1
  6
CONTINUOUS
 62
     7
100
AcDbLine
 10
-381.6774594396816
 20
75.49999999999999
 30
0.0
 11
-380.7837183428335
 21
75.49999999999999
 31
0.0
  0
ARC
  5
C4
330
1F
100
AcDbEntity
  8
1
  6
CONTINUOUS
 62
     7
100
AcDbCircle
 10
-380.7837183428335
 20
74.69999999999999
 30
0.0
 40
0.7999999999999952
100
AcDbArc
 50
0.0
 51
89.99999999999949
  0
LINE
  5
C5
330
1F
100
AcDbEntity
  8
1
  6
CONTINUOUS
 62
     7
100
AcDbLine
 10
-379.9837183428336
 20
74.69999999999999
 30
0.0
 11
-379.9837183428336
 21
73.80625890315196
 31
0.0
  0
ARC
  5
C6
330
1F
100
AcDbEntity
  8
1
  6
CONTINUOUS
 62
     7
100
AcDbCircle
 10
-379.4837183428336
 20
75.99999999999999
 30
0.0
 40
2.249999999999998
100
AcDbArc
 50
257.1604115930959
 51
282.8395884069043
  0
LINE
  5
C7
330
1F
100
AcDbEntity
  8
1
  6
CONTINUOUS
 62
     7
100
AcDbLine
 10
-378.9837183428336
 20
73.80625890315196
 30
0.0
 11
-378.9837183428336
 21
74.69999999999999
 31
0.0
  0
ARC
  5
C8
330
1F
100
AcDbEntity
  8
1
  6
CONTINUOUS
 62
     7
100
AcDbCircle
 10
-378.1837183428335
 20
74.69999999999999
 30
0.0
 40
0.800000000000002
100
AcDbArc
 50
89.99999999999977
 51
179.9999999999995
  0
LINE
  5
C9
330
1F
100
AcDbEntity
  8
1
  6
CONTINUOUS
 62
     7
100
AcDbLine
 10
-378.1837183428335
 20
75.49999999999999
 30
0.0
 11
-377.2899772459855
 21
75.49999999999999
 31
0.0
  0
ARC
  5
CA
330
1F
100
AcDbEntity
  8
1
  6
CONTINUOUS
 62
     7
100
AcDbCircle
 10
-379.4837183428336
 20
75.99999999999999
 30
0.0
 40
2.250000000000005
100
AcDbArc
 50
347.1604115930958
 51
12.83958840690411
  0
LINE
  5
CB
330
1F
100
AcDbEntity
  8
1
  6
CONTINUOUS
 62
     7
100
AcDbLine
 10
-377.2899772459855
 20
76.49999999999999
 30
0.0
 11
-378.1837183428335
 21
76.49999999999999
 31
0.0
  0
ARC
  5
CC
330
1F
100
AcDbEntity
  8
1
  6
CONTINUOUS
 62
     7
100
AcDbCircle
 10
-378.1837183428335
 20
77.29999999999998
 30
0.0
 40
0.7999999999999952
100
AcDbArc
 50
180.0
 51
269.9999999999995
  0
LINE
  5
CD
330
1F
100
AcDbEntity
  8
1
  6
CONTINUOUS
 62
     7
100
AcDbLine
 10
-378.9837183428336
 20
77.29999999999998
 30
0.0
 11
-378.9837183428336
 21
78.19374109684802
 31
0.0
  0
CIRCLE
  5
CE
330
1F
100
AcDbEntity
  8
1
  6
CONTINUOUS
 62
     7
100
AcDbCircle
 10
-351.9837183428335
 20
115.4999999999993
 30
0.0
 40
2.249999999999995
  0
CIRCLE
  5
CF
330
1F
100
AcDbEntity
  8
1
  6
CONTINUOUS
 62
     7
100
AcDbCircle
 10
-351.9837183428335
 20
115.4999999999993
 30
0.0
 40
1.649999999999999
  0
CIRCLE
  5
D0
330
1F
100
AcDbEntity
  8
1
  6
CONTINUOUS
 62
     7
100
AcDbCircle
 10
-351.9837183428335
 20
198.9999999999993
 30
0.0
 40
1.649999999999999
  0
CIRCLE
  5
D1
330
1F
100
AcDbEntity
  8
1
  6
CONTINUOUS
 62
     7
100
AcDbCircle
 10
-351.9837183428335
 20
198.9999999999993
 30
0.0
 40
2.249999999999995
  0
LINE
  5
D2
330
1F
100
AcDbEntity
  8
1
  6
CONTINUOUS
 62
     7
100
AcDbLine
 10
-391.5361176265139
 20
218.0523612067445
 30
0.0
 11
-312.4313190591532
 21
218.0523612067445
 31
0.0
  0
LINE
  5
D3
330
1F
100
AcDbEntity
  8
1
  6
CONTINUOUS
 62
     7
100
AcDbLine
 10
-312.4836802658976
 20
218.0
 30
0.0
 11
-391.4837564197693
 21
218.0
 31
0.0
  0
LINE
  5
D4
330
1F
100
AcDbEntity
  8
1
  6
CONTINUOUS
 62
     7
100
AcDbLine
 10
-392.4837183428335
 20
217.0000380769358
 30
0.0
 11
-392.4837183428335
 21
97.5
 31
0.0
  0
LINE
  5
D5
330
1F
100
AcDbEntity
  8
1
  6
CONTINUOUS
 62
     7
100
AcDbLine
 10
-392.4924452106243
 20
96.5
 30
0.0
 11
-392.4837183428336
 21
97.5
 31
0.0
  0
LINE
  5
D6
330
1F
100
AcDbEntity
  8
1
  6
CONTINUOUS
 62
     7
100
AcDbLine
 10
-392.4924452106243
 20
34.99123505527344
 30
0.0
 11
-392.4924452106243
 21
96.5
 31
0.0
  0
LINE
  5
D7
330
1F
100
AcDbEntity
  8
1
  6
CONTINUOUS
 62
     7
100
AcDbLine
 10
-392.5360795495781
 20
34.94760071631963
 30
0.0
 11
-392.5360795495781
 21
217.0523992836804
 31
0.0
  0
LWPOLYLINE
  5
D8
330
1F
100
AcDbEntity
  8
1
  6
CONTINUOUS
 62
     7
100
AcDbPolyline
 90
        9
 70
     0
 43
0.0
 10
-308.4837183428335
 20
219.0
 10
-308.5029838112004
 20
219.1950903220161
 10
-308.5600398551557
 20
219.3826834323651
 10
-308.6526938429277
 20
219.5555702330196
 10
-308.7773851337274
 20
219.7071067811866
 10
-308.9293219111768
 20
219.8314696123026
 10
-309.1026653301258
 20
219.9238795325113
 10
-309.2907539001963
 20
219.9807852804032
 10
-309.4863594831217
 20
220.0
  0
LINE
  5
D9
330
1F
100
AcDbEntity
  8
1
  6
CONTINUOUS
 62
     7
100
AcDbLine
 10
-311.4837183428335
 20
97.5
 30
0.0
 11
-311.4749914750428
 21
96.5
 31
0.0
  0
LINE
  5
DA
330
1F
100
AcDbEntity
  8
1
  6
CONTINUOUS
 62
     7
100
AcDbLine
 10
-311.4837183428335
 20
97.5
 30
0.0
 11
-311.4837183428335
 21
217.0000380769358
 31
0.0
  0
LINE
  5
DB
330
1F
100
AcDbEntity
  8
1
  6
CONTINUOUS
 62
     7
100
AcDbLine
 10
-311.431357136089
 20
217.0523992836804
 30
0.0
 11
-311.431357136089
 21
34.94760071631961
 31
0.0
  0
LINE
  5
DC
330
1F
100
AcDbEntity
  8
1
  6
CONTINUOUS
 62
     7
100
AcDbLine
 10
-311.4749914750428
 20
96.5
 30
0.0
 11
-311.4749914750428
 21
34.99123505527341
 31
0.0
  0
LWPOLYLINE
  5
DD
330
1F
100
AcDbEntity
  8
1
  6
CONTINUOUS
 62
     7
100
AcDbPolyline
 90
        9
 70
     0
 43
0.0
 10
-395.4837183428335
 20
31.0
 10
-395.4644528744667
 20
30.80490967798387
 10
-395.4073968305113
 20
30.61731656763491
 10
-395.3147428427393
 20
30.4444297669804
 10
-395.1900515519397
 20
30.29289321881345
 10
-395.0381147744903
 20
30.16853038769746
 10
-394.8647713555413
 20
30.07612046748871
 10
-394.6766827854708
 20
30.01921471959677
 10
-394.4810772025454
 20
30.0
  0
LWPOLYLINE
  5
DE
330
1F
100
AcDbEntity
  8
1
  6
CONTINUOUS
 62
     7
100
AcDbPolyline
 90
        9
 70
     0
 43
0.0
 10
-394.4810772025454
 20
220.0
 10
-394.6766827854708
 20
219.9807852804032
 10
-394.8647713555413
 20
219.9238795325113
 10
-395.0381147744903
 20
219.8314696123026
 10
-395.1900515519397
 20
219.7071067811866
 10
-395.3147428427393
 20
219.5555702330196
 10
-395.4073968305113
 20
219.3826834323651
 10
-395.4644528744667
 20
219.1950903220161
 10
-395.4837183428335
 20
219.0
  0
LWPOLYLINE
  5
DF
330
1F
100
AcDbEntity
  8
1
  6
CONTINUOUS
 62
     7
100
AcDbPolyline
 90
        9
 70
     0
 43
0.0
 10
-309.4863594831217
 20
30.0
 10
-309.2907539001963
 20
30.01921471959677
 10
-309.1026653301258
 20
30.07612046748872
 10
-308.9293219111768
 20
30.16853038769746
 10
-308.7773851337273
 20
30.29289321881346
 10
-308.6526938429277
 20
30.4444297669804
 10
-308.5600398551557
 20
30.61731656763492
 10
-308.5029838112004
 20
30.80490967798388
 10
-308.4837183428335
 20
31.0
  0
LINE
  5
E0
330
1F
100
AcDbEntity
  8
1
  6
CONTINUOUS
 62
     7
100
AcDbLine
 10
-355.4837183428335
 20
33.99127313220924
 30
0.0
 11
-391.4924832875602
 21
33.99127313220924
 31
0.0
  0
LINE
  5
E1
330
1F
100
AcDbEntity
  8
1
  6
CONTINUOUS
 62
     7
100
AcDbLine
 10
-355.4837183428335
 20
33.95200222715084
 30
0.0
 11
-355.4837183428335
 21
33.99127313220924
 31
0.0
  0
LINE
  5
E2
330
1F
100
AcDbEntity
  8
1
  6
CONTINUOUS
 62
     7
100
AcDbLine
 10
-355.9837183428335
 20
33.94763879325545
 30
0.0
 11
-355.4837183428335
 21
33.95200222715084
 31
0.0
  0
LINE
  5
E3
330
1F
100
AcDbEntity
  8
1
  6
CONTINUOUS
 62
     7
100
AcDbLine
 10
-355.9837183428335
 20
33.94763879325546
 30
0.0
 11
-391.5361176265139
 21
33.94763879325546
 31
0.0
  0
LWPOLYLINE
  5
E4
330
1F
100
AcDbEntity
  8
1
  6
CONTINUOUS
 62
     7
100
AcDbPolyline
 90
        9
 70
     0
 43
0.0
 10
-392.4924452106243
 20
34.99123505527343
 10
-392.4732316164634
 20
34.79614810477132
 10
-392.4163291302685
 20
34.60856043812955
 10
-392.3239242713338
 20
34.43568024746471
 10
-392.1995677633694
 20
34.2841505794641
 10
-392.0480380953688
 20
34.1597940714997
 10
-391.875157904704
 20
34.06738921256496
 10
-391.6875702380623
 20
34.01048672637019
 10
-391.4924832875602
 20
33.99127313220925
  0
LWPOLYLINE
  5
E5
330
1F
100
AcDbEntity
  8
1
  6
CONTINUOUS
 62
     7
100
AcDbPolyline
 90
        9
 70
     0
 43
0.0
 10
-392.5360795495781
 20
34.94760071631964
 10
-392.5168659554171
 20
34.75251376581753
 10
-392.4599634692223
 20
34.56492609917576
 10
-392.3675586102876
 20
34.39204590851092
 10
-392.2432021023232
 20
34.24051624051032
 10
-392.0916724343226
 20
34.11615973254591
 10
-391.9187922436578
 20
34.02375487361117
 10
-391.731204577016
 20
33.9668523874164
 10
-391.5361176265139
 20
33.94763879325546
  0
LWPOLYLINE
  5
E6
330
1F
100
AcDbEntity
  8
1
  6
CONTINUOUS
 62
     7
100
AcDbPolyline
 90
        9
 70
     0
 43
0.0
 10
-312.4749533981069
 20
33.99127313220924
 10
-312.2798664476048
 20
34.01048672637017
 10
-312.0922787809631
 20
34.06738921256495
 10
-311.9193985902982
 20
34.15979407149968
 10
-311.7678689222977
 20
34.28415057946408
 10
-311.6435124143333
 20
34.43568024746469
 10
-311.5511075553985
 20
34.60856043812952
 10
-311.4942050692038
 20
34.79614810477129
 10
-311.4749914750428
 20
34.9912350552734
  0
LWPOLYLINE
  5
E7
330
1F
100
AcDbEntity
  8
1
  6
CONTINUOUS
 62
     7
100
AcDbPolyline
 90
        9
 70
     0
 43
0.0
 10
-312.4313190591531
 20
33.94763879325545
 10
-312.2362321086511
 20
33.96685238741637
 10
-312.0486444420093
 20
34.02375487361115
 10
-311.8757642513445
 20
34.11615973254589
 10
-311.7242345833438
 20
34.24051624051028
 10
-311.5998780753794
 20
34.39204590851089
 10
-311.5074732164447
 20
34.56492609917573
 10
-311.4505707302499
 20
34.75251376581749
 10
-311.431357136089
 20
34.94760071631961
  0
LINE
  5
E8
330
1F
100
AcDbEntity
  8
1
  6
CONTINUOUS
 62
     7
100
AcDbLine
 10
-348.4837183428335
 20
30.0
 30
0.0
 11
-348.4837183428335
 21
33.95200222715084
 31
0.0
  0
LINE
  5
E9
330
1F
100
AcDbEntity
  8
1
  6
CONTINUOUS
 62
     7
100
AcDbLine
 10
-348.4837183428335
 20
33.95200222715084
 30
0.0
 11
-347.9837183428335
 21
33.94763879325545
 31
0.0
  0
LINE
  5
EA
330
1F
100
AcDbEntity
  8
1
  6
CONTINUOUS
 62
     7
100
AcDbLine
 10
-347.9837183428335
 20
30.0
 30
0.0
 11
-348.4837183428335
 21
30.0
 31
0.0
  0
LINE
  5
EB
330
1F
100
AcDbEntity
  8
1
  6
CONTINUOUS
 62
     7
100
AcDbLine
 10
-355.4837183428335
 20
33.95200222715084
 30
0.0
 11
-355.4837183428335
 21
30.0
 31
0.0
  0
LINE
  5
EC
330
1F
100
AcDbEntity
  8
1
  6
CONTINUOUS
 62
     7
100
AcDbLine
 10
-355.4837183428335
 20
30.0
 30
0.0
 11
-355.9837183428335
 21
30.0
 31
0.0
  0
LINE
  5
ED
330
1F
100
AcDbEntity
  8
1
  6
CONTINUOUS
 62
     7
100
AcDbLine
 10
-312.4313190591532
 20
33.94763879325546
 30
0.0
 11
-347.9837183428335
 21
33.94763879325546
 31
0.0
  0
LWPOLYLINE
  5
EE
330
1F
100
AcDbEntity
  8
1
  6
CONTINUOUS
 62
     7
100
AcDbPolyline
 90
        9
 70
     0
 43
0.0
 10
-311.431357136089
 20
217.0523992836803
 10
-311.4505707302499
 20
217.2474862341824
 10
-311.5074732164447
 20
217.4350739008242
 10
-311.5998780753795
 20
217.6079540914891
 10
-311.7242345833438
 20
217.7594837594897
 10
-311.8757642513444
 20
217.8838402674541
 10
-312.0486444420093
 20
217.9762451263888
 10
-312.2362321086511
 20
218.0331476125836
 10
-312.4313190591531
 20
218.0523612067445
  0
LWPOLYLINE
  5
EF
330
1F
100
AcDbEntity
  8
1
  6
CONTINUOUS
 62
     7
100
AcDbPolyline
 90
        9
 70
     0
 43
0.0
 10
-391.5361176265139
 20
218.0523612067445
 10
-391.731204577016
 20
218.0331476125836
 10
-391.9187922436577
 20
217.9762451263888
 10
-392.0916724343226
 20
217.8838402674541
 10
-392.2432021023232
 20
217.7594837594897
 10
-392.3675586102876
 20
217.6079540914891
 10
-392.4599634692223
 20
217.4350739008242
 10
-392.5168659554171
 20
217.2474862341824
 10
-392.5360795495781
 20
217.0523992836804
  0
LINE
  5
F0
330
1F
100
AcDbEntity
  8
1
  6
CONTINUOUS
 62
     7
100
AcDbLine
 10
-395.4837183428336
 20
219.0
 30
0.0
 11
-395.4837183428336
 21
31.0
 31
0.0
  0
LINE
  5
F1
330
1F
100
AcDbEntity
  8
1
  6
CONTINUOUS
 62
     7
100
AcDbLine
 10
-394.4810772025454
 20
220.0
 30
0.0
 11
-309.4863594831217
 21
220.0
 31
0.0
  0
LINE
  5
F2
330
1F
100
AcDbEntity
  8
1
  6
CONTINUOUS
 62
     7
100
AcDbLine
 10
-347.9837183428335
 20
30.0
 30
0.0
 11
-309.4863594831216
 21
30.0
 31
0.0
  0
LINE
  5
F3
330
1F
100
AcDbEntity
  8
1
  6
CONTINUOUS
 62
     7
100
AcDbLine
 10
-394.4810772025454
 20
30.0
 30
0.0
 11
-355.9837183428335
 21
30.0
 31
0.0
  0
LINE
  5
F4
330
1F
100
AcDbEntity
  8
1
  6
CONTINUOUS
 62
     7
100
AcDbLine
 10
-308.4837183428335
 20
219.0
 30
0.0
 11
-308.4837183428335
 21
31.0
 31
0.0
  0
LWPOLYLINE
  5
F5
330
1F
100
AcDbEntity
  8
1
  6
CONTINUOUS
 62
     7
100
AcDbPolyline
 90
        9
 70
     0
 43
0.0
 10
-391.4837564197694
 20
218.0
 10
-391.6788433702715
 20
217.980786405839
 10
-391.8664310369132
 20
217.9238839196443
 10
-392.039311227578
 20
217.8314790607095
 10
-392.1908408955787
 20
217.7071225527451
 10
-392.315197403543
 20
217.5555928847445
 10
-392.4076022624778
 20
217.3827126940797
 10
-392.4645047486726
 20
217.1951250274379
 10
-392.4837183428335
 20
217.0000380769359
  0
LWPOLYLINE
  5
F6
330
1F
100
AcDbEntity
  8
1
  6
CONTINUOUS
 62
     7
100
AcDbPolyline
 90
        9
 70
     0
 43
0.0
 10
-311.4837183428335
 20
217.0000380769359
 10
-311.5029319369945
 20
217.1951250274379
 10
-311.5598344231893
 20
217.3827126940797
 10
-311.652239282124
 20
217.5555928847445
 10
-311.7765957900884
 20
217.7071225527451
 10
-311.928125458089
 20
217.8314790607095
 10
-312.1010056487538
 20
217.9238839196443
 10
-312.2885933153955
 20
217.980786405839
 10
-312.4836802658976
 20
218.0
  0
LINE
  5
F7
330
1F
100
AcDbEntity
  8
1
  6
CONTINUOUS
 62
     7
100
AcDbLine
 10
-312.4749533981069
 20
33.99127313220924
 30
0.0
 11
-348.4837183428335
 21
33.99127313220924
 31
0.0
  0
LINE
  5
F8
330
1F
100
AcDbEntity
  8
1
  6
CONTINUOUS
 62
     7
100
AcDbLine
 10
-348.4837183428335
 20
33.99127313220924
 30
0.0
 11
-348.4837183428335
 21
33.95200222715084
 31
0.0
  0
LINE
  5
F9
330
1F
100
AcDbEntity
  8
1
  6
CONTINUOUS
 62
     7
100
AcDbLine
 10
-390.2680099808102
 20
96.5
 30
0.0
 11
-388.9837183428335
 21
96.5
 31
0.0
  0
LINE
  5
FA
330
1F
100
AcDbEntity
  8
1
  6
CONTINUOUS
 62
     7
100
AcDbLine
 10
-388.9837183428335
 20
96.5
 30
0.0
 11
-388.9924452106242
 21
95.5
 31
0.0
  0
LINE
  5
FB
330
1F
100
AcDbEntity
  8
1
  6
CONTINUOUS
 62
     7
100
AcDbLine
 10
-390.2592831130194
 20
95.5
 30
0.0
 11
-390.2680099808102
 21
96.5
 31
0.0
  0
LINE
  5
FC
330
1F
100
AcDbEntity
  8
1
  6
CONTINUOUS
 62
     7
100
AcDbLine
 10
-390.2749914750428
 20
96.49999999999999
 30
0.0
 11
-390.2680099808102
 21
96.5
 31
0.0
  0
LINE
  5
FD
330
1F
100
AcDbEntity
  8
1
  6
CONTINUOUS
 62
     7
100
AcDbLine
 10
-390.2592831130194
 20
37.52439715287828
 30
0.0
 11
-390.2592831130194
 21
95.5
 31
0.0
  0
LINE
  5
FE
330
1F
100
AcDbEntity
  8
1
  6
CONTINUOUS
 62
     7
100
AcDbLine
 10
-390.2749914750428
 20
96.49999999999999
 30
0.0
 11
-390.2749914750428
 21
37.50868879085492
 31
0.0
  0
LINE
  5
FF
330
1F
100
AcDbEntity
  8
1
  6
CONTINUOUS
 62
     7
100
AcDbLine
 10
-314.9837183428336
 20
96.5
 30
0.0
 11
-313.6994267048569
 21
96.5
 31
0.0
  0
LINE
  5
100
330
1F
100
AcDbEntity
  8
1
  6
CONTINUOUS
 62
     7
100
AcDbLine
 10
-313.6994267048569
 20
96.5
 30
0.0
 11
-313.7081535726476
 21
95.5
 31
0.0
  0
LINE
  5
101
330
1F
100
AcDbEntity
  8
1
  6
CONTINUOUS
 62
     7
100
AcDbLine
 10
-314.9749914750428
 20
95.5
 30
0.0
 11
-314.9837183428336
 21
96.5
 31
0.0
  0
LINE
  5
102
330
1F
100
AcDbEntity
  8
1
  6
CONTINUOUS
 62
     7
100
AcDbLine
 10
-388.9924452106243
 20
95.5
 30
0.0
 11
-388.9924452106243
 21
38.49123505527342
 31
0.0
  0
LINE
  5
103
330
1F
100
AcDbEntity
  8
1
  6
CONTINUOUS
 62
     7
100
AcDbLine
 10
-388.9767368486009
 20
96.5
 30
0.0
 11
-388.9837183428335
 21
96.5
 31
0.0
  0
LINE
  5
104
330
1F
100
AcDbEntity
  8
1
  6
CONTINUOUS
 62
     7
100
AcDbLine
 10
-388.9680099808102
 20
97.5
 30
0.0
 11
-388.9767368486009
 21
96.5
 31
0.0
  0
LINE
  5
105
330
1F
100
AcDbEntity
  8
1
  6
CONTINUOUS
 62
     7
100
AcDbLine
 10
-388.9680099808102
 20
97.5
 30
0.0
 11
-388.9680099808102
 21
100.0
 31
0.0
  0
LINE
  5
106
330
1F
100
AcDbEntity
  8
1
  6
CONTINUOUS
 62
     7
100
AcDbLine
 10
-388.9749914750428
 20
100.0
 30
0.0
 11
-388.9680099808102
 21
100.0
 31
0.0
  0
LINE
  5
107
330
1F
100
AcDbEntity
  8
1
  6
CONTINUOUS
 62
     7
100
AcDbLine
 10
-388.9837183428335
 20
101.0
 30
0.0
 11
-388.9749914750428
 21
100.0
 31
0.0
  0
LINE
  5
108
330
1F
100
AcDbEntity
  8
1
  6
CONTINUOUS
 62
     7
100
AcDbLine
 10
-388.9837183428335
 20
213.5000380769358
 30
0.0
 11
-388.9837183428335
 21
101.0
 31
0.0
  0
LINE
  5
109
330
1F
100
AcDbEntity
  8
1
  6
CONTINUOUS
 62
     7
100
AcDbLine
 10
-314.9837183428336
 20
101.0
 30
0.0
 11
-314.9837183428336
 21
213.5000380769358
 31
0.0
  0
LINE
  5
10A
330
1F
100
AcDbEntity
  8
1
  6
CONTINUOUS
 62
     7
100
AcDbLine
 10
-314.9924452106243
 20
100.0
 30
0.0
 11
-314.9837183428336
 21
101.0
 31
0.0
  0
LINE
  5
10B
330
1F
100
AcDbEntity
  8
1
  6
CONTINUOUS
 62
     7
100
AcDbLine
 10
-314.9994267048569
 20
100.0
 30
0.0
 11
-314.9924452106243
 21
100.0
 31
0.0
  0
LINE
  5
10C
330
1F
100
AcDbEntity
  8
1
  6
CONTINUOUS
 62
     7
100
AcDbLine
 10
-314.9994267048569
 20
100.0
 30
0.0
 11
-314.9994267048569
 21
97.5
 31
0.0
  0
LINE
  5
10D
330
1F
100
AcDbEntity
  8
1
  6
CONTINUOUS
 62
     7
100
AcDbLine
 10
-314.9906998370662
 20
96.5
 30
0.0
 11
-314.9994267048569
 21
97.5
 31
0.0
  0
LINE
  5
10E
330
1F
100
AcDbEntity
  8
1
  6
CONTINUOUS
 62
     7
100
AcDbLine
 10
-314.9837183428336
 20
96.5
 30
0.0
 11
-314.9906998370662
 21
96.5
 31
0.0
  0
LINE
  5
10F
330
1F
100
AcDbEntity
  8
1
  6
CONTINUOUS
 62
     7
100
AcDbLine
 10
-314.9749914750428
 20
38.49123505527341
 30
0.0
 11
-314.9749914750428
 21
95.5
 31
0.0
  0
LINE
  5
110
330
1F
100
AcDbEntity
  8
1
  6
CONTINUOUS
 62
     7
100
AcDbLine
 10
-313.6924452106243
 20
96.5
 30
0.0
 11
-313.6994267048569
 21
96.5
 31
0.0
  0
LINE
  5
111
330
1F
100
AcDbEntity
  8
1
  6
CONTINUOUS
 62
     7
100
AcDbLine
 10
-313.6924452106243
 20
37.50868879085493
 30
0.0
 11
-313.6924452106243
 21
96.5
 31
0.0
  0
LINE
  5
112
330
1F
100
AcDbEntity
  8
1
  6
CONTINUOUS
 62
     7
100
AcDbLine
 10
-313.7081535726476
 20
95.5
 30
0.0
 11
-313.7081535726476
 21
37.52439715287831
 31
0.0
  0
LWPOLYLINE
  5
113
330
1F
100
AcDbEntity
  8
1
  6
CONTINUOUS
 62
     7
100
AcDbPolyline
 90
        9
 70
     0
 43
0.0
 10
-315.9749533981069
 20
37.49127313220924
 10
-315.7798664476049
 20
37.51048672637017
 10
-315.5922787809631
 20
37.56738921256495
 10
-315.4193985902983
 20
37.65979407149969
 10
-315.2678689222977
 20
37.78415057946408
 10
-315.1435124143333
 20
37.9356802474647
 10
-315.0511075553985
 20
38.10856043812953
 10
-314.9942050692038
 20
38.2961481047713
 10
-314.9749914750428
 20
38.49123505527341
  0
LINE
  5
114
330
1F
100
AcDbEntity
  8
1
  6
CONTINUOUS
 62
     7
100
AcDbLine
 10
-387.9924832875601
 20
37.49127313220925
 30
0.0
 11
-315.974953398107
 21
37.49127313220925
 31
0.0
  0
LWPOLYLINE
  5
115
330
1F
100
AcDbEntity
  8
1
  6
CONTINUOUS
 62
     7
100
AcDbPolyline
 90
        9
 70
     0
 43
0.0
 10
-390.2592831130194
 20
37.52439715287828
 10
-390.2400695188584
 20
37.32931020237617
 10
-390.1831670326637
 20
37.14172253573441
 10
-390.0907621737289
 20
36.96884234506957
 10
-389.9664056657645
 20
36.81731267706896
 10
-389.8148759977639
 20
36.69295616910456
 10
-389.6419958070991
 20
36.60055131016982
 10
-389.4544081404574
 20
36.54364882397505
 10
-389.2593211899552
 20
36.52443522981412
  0
LWPOLYLINE
  5
116
330
1F
100
AcDbEntity
  8
1
  6
CONTINUOUS
 62
     7
100
AcDbPolyline
 90
        9
 70
     0
 43
0.0
 10
-390.2749914750428
 20
37.50868879085492
 10
-390.2557778808819
 20
37.31360184035281
 10
-390.198875394687
 20
37.12601417371104
 10
-390.1064705357523
 20
36.9531339830462
 10
-389.9821140277879
 20
36.80160431504559
 10
-389.8305843597873
 20
36.67724780708119
 10
-389.6577041691225
 20
36.58484294814644
 10
-389.4701165024808
 20
36.52794046195168
 10
-389.2750295519787
 20
36.50872686779075
  0
LWPOLYLINE
  5
117
330
1F
100
AcDbEntity
  8
1
  6
CONTINUOUS
 62
     7
100
AcDbPolyline
 90
        9
 70
     0
 43
0.0
 10
-388.9924452106243
 20
38.49123505527342
 10
-388.9732316164634
 20
38.29614810477131
 10
-388.9163291302686
 20
38.10856043812954
 10
-388.8239242713339
 20
37.9356802474647
 10
-388.6995677633695
 20
37.7841505794641
 10
-388.5480380953689
 20
37.65979407149969
 10
-388.3751579047041
 20
37.56738921256495
 10
-388.1875702380623
 20
37.51048672637018
 10
-387.9924832875602
 20
37.49127313220924
  0
LINE
  5
118
330
1F
100
AcDbEntity
  8
1
  6
CONTINUOUS
 62
     7
100
AcDbLine
 10
-314.7081154957118
 20
36.52443522981413
 30
0.0
 11
-389.2593211899552
 21
36.52443522981413
 31
0.0
  0
LINE
  5
119
330
1F
100
AcDbEntity
  8
1
  6
CONTINUOUS
 62
     7
100
AcDbLine
 10
-389.2750295519786
 20
36.50872686779076
 30
0.0
 11
-314.6924071336885
 21
36.50872686779076
 31
0.0
  0
LWPOLYLINE
  5
11A
330
1F
100
AcDbEntity
  8
1
  6
CONTINUOUS
 62
     7
100
AcDbPolyline
 90
        9
 70
     0
 43
0.0
 10
-314.7081154957118
 20
36.52443522981413
 10
-314.5130285452096
 20
36.54364882397507
 10
-314.3254408785679
 20
36.60055131016984
 10
-314.152560687903
 20
36.69295616910458
 10
-314.0010310199025
 20
36.81731267706898
 10
-313.8766745119381
 20
36.96884234506959
 10
-313.7842696530033
 20
37.14172253573443
 10
-313.7273671668086
 20
37.32931020237619
 10
-313.7081535726476
 20
37.5243971528783
  0
LWPOLYLINE
  5
11B
330
1F
100
AcDbEntity
  8
1
  6
CONTINUOUS
 62
     7
100
AcDbPolyline
 90
        9
 70
     0
 43
0.0
 10
-314.6924071336884
 20
36.50872686779076
 10
-314.4973201831863
 20
36.52794046195169
 10
-314.3097325165446
 20
36.58484294814647
 10
-314.1368523258797
 20
36.67724780708121
 10
-313.9853226578791
 20
36.80160431504561
 10
-313.8609661499148
 20
36.95313398304622
 10
-313.76856129098
 20
37.12601417371106
 10
-313.7116588047852
 20
37.31360184035282
 10
-313.6924452106243
 20
37.50868879085494
  0
LINE
  5
11C
330
1F
100
AcDbEntity
  8
1
  6
CONTINUOUS
 62
     7
100
AcDbLine
 10
-390.2767368486009
 20
100.0
 30
0.0
 11
-390.2680099808102
 21
101.0
 31
0.0
  0
LINE
  5
11D
330
1F
100
AcDbEntity
  8
1
  6
CONTINUOUS
 62
     7
100
AcDbLine
 10
-390.2837183428335
 20
100.0
 30
0.0
 11
-390.2767368486009
 21
100.0
 31
0.0
  0
LINE
  5
11E
330
1F
100
AcDbEntity
  8
1
  6
CONTINUOUS
 62
     7
100
AcDbLine
 10
-390.2837183428335
 20
100.0
 30
0.0
 11
-390.2837183428335
 21
214.5000380769358
 31
0.0
  0
LINE
  5
11F
330
1F
100
AcDbEntity
  8
1
  6
CONTINUOUS
 62
     7
100
AcDbLine
 10
-390.2680099808102
 20
101.0
 30
0.0
 11
-390.2680099808102
 21
214.4843297149124
 31
0.0
  0
LINE
  5
120
330
1F
100
AcDbEntity
  8
1
  6
CONTINUOUS
 62
     7
100
AcDbLine
 10
-313.6837183428335
 20
100.0
 30
0.0
 11
-313.6906998370662
 21
100.0
 31
0.0
  0
LINE
  5
121
330
1F
100
AcDbEntity
  8
1
  6
CONTINUOUS
 62
     7
100
AcDbLine
 10
-313.6994267048569
 20
101.0
 30
0.0
 11
-313.6906998370662
 21
100.0
 31
0.0
  0
LINE
  5
122
330
1F
100
AcDbEntity
  8
1
  6
CONTINUOUS
 62
     7
100
AcDbLine
 10
-313.6994267048569
 20
214.4843297149124
 30
0.0
 11
-313.6994267048569
 21
101.0
 31
0.0
  0
LINE
  5
123
330
1F
100
AcDbEntity
  8
1
  6
CONTINUOUS
 62
     7
100
AcDbLine
 10
-313.6837183428335
 20
214.5000380769358
 30
0.0
 11
-313.6837183428335
 21
100.0
 31
0.0
  0
LINE
  5
124
330
1F
100
AcDbEntity
  8
1
  6
CONTINUOUS
 62
     7
100
AcDbLine
 10
-313.6906998370662
 20
100.0
 30
0.0
 11
-314.9924452106243
 21
100.0
 31
0.0
  0
LINE
  5
125
330
1F
100
AcDbEntity
  8
1
  6
CONTINUOUS
 62
     7
100
AcDbLine
 10
-388.9749914750428
 20
100.0
 30
0.0
 11
-390.2767368486009
 21
100.0
 31
0.0
  0
LWPOLYLINE
  5
126
330
1F
100
AcDbEntity
  8
1
  6
CONTINUOUS
 62
     7
100
AcDbPolyline
 90
        9
 70
     0
 43
0.0
 10
-313.6994267048569
 20
214.4843297149125
 10
-313.7186402990177
 20
214.6794166654146
 10
-313.7755427852126
 20
214.8670043320563
 10
-313.8679476441473
 20
215.0398845227212
 10
-313.9923041521117
 20
215.1914141907218
 10
-314.1438338201123
 20
215.3157706986862
 10
-314.3167140107771
 20
215.4081755576209
 10
-314.5043016774189
 20
215.4650780438157
 10
-314.699388627921
 20
215.4842916379766
  0
LWPOLYLINE
  5
127
330
1F
100
AcDbEntity
  8
1
  6
CONTINUOUS
 62
     7
100
AcDbPolyline
 90
        9
 70
     0
 43
0.0
 10
-314.9837183428335
 20
213.5000380769359
 10
-315.0029319369945
 20
213.6951250274379
 10
-315.0598344231893
 20
213.8827126940797
 10
-315.152239282124
 20
214.0555928847445
 10
-315.2765957900884
 20
214.2071225527451
 10
-315.428125458089
 20
214.3314790607095
 10
-315.6010056487538
 20
214.4238839196443
 10
-315.7885933153955
 20
214.480786405839
 10
-315.9836802658976
 20
214.4999999999999
  0
LINE
  5
128
330
1F
100
AcDbEntity
  8
1
  6
CONTINUOUS
 62
     7
100
AcDbLine
 10
-315.9836802658977
 20
214.5
 30
0.0
 11
-387.9837564197694
 21
214.5
 31
0.0
  0
LWPOLYLINE
  5
129
330
1F
100
AcDbEntity
  8
1
  6
CONTINUOUS
 62
     7
100
AcDbPolyline
 90
        9
 70
     0
 43
0.0
 10
-387.9837564197694
 20
214.5
 10
-388.1788433702715
 20
214.480786405839
 10
-388.3664310369132
 20
214.4238839196443
 10
-388.539311227578
 20
214.3314790607095
 10
-388.6908408955787
 20
214.2071225527451
 10
-388.815197403543
 20
214.0555928847445
 10
-388.9076022624778
 20
213.8827126940797
 10
-388.9645047486726
 20
213.6951250274379
 10
-388.9837183428335
 20
213.5000380769359
  0
LWPOLYLINE
  5
12A
330
1F
100
AcDbEntity
  8
1
  6
CONTINUOUS
 62
     7
100
AcDbPolyline
 90
        9
 70
     0
 43
0.0
 10
-389.268048057746
 20
215.4842916379766
 10
-389.4631350082481
 20
215.4650780438157
 10
-389.6507226748899
 20
215.4081755576209
 10
-389.8236028655547
 20
215.3157706986862
 10
-389.9751325335553
 20
215.1914141907218
 10
-390.0994890415197
 20
215.0398845227212
 10
-390.1918939004544
 20
214.8670043320563
 10
-390.2487963866492
 20
214.6794166654146
 10
-390.2680099808101
 20
214.4843297149125
  0
LINE
  5
12B
330
1F
100
AcDbEntity
  8
1
  6
CONTINUOUS
 62
     7
100
AcDbLine
 10
-389.268048057746
 20
215.4842916379766
 30
0.0
 11
-314.6993886279211
 21
215.4842916379766
 31
0.0
  0
LINE
  5
12C
330
1F
100
AcDbEntity
  8
1
  6
CONTINUOUS
 62
     7
100
AcDbLine
 10
-389.2837564197694
 20
215.5
 30
0.0
 11
-314.6836802658977
 21
215.5
 31
0.0
  0
LINE
  5
12D
330
1F
100
AcDbEntity
  8
1
  6
CONTINUOUS
 62
     7
100
AcDbLine
 10
-335.9837183428336
 20
214.4799282040812
 30
0.0
 11
-349.2336802658977
 21
214.4799282040812
 31
0.0
  0
LINE
  5
12E
330
1F
100
AcDbEntity
  8
1
  6
CONTINUOUS
 62
     7
100
AcDbLine
 10
-354.7337564197693
 20
214.4799282040812
 30
0.0
 11
-367.9837183428335
 21
214.4799282040812
 31
0.0
  0
LWPOLYLINE
  5
12F
330
1F
100
AcDbEntity
  8
1
  6
CONTINUOUS
 62
     7
100
AcDbPolyline
 90
        9
 70
     0
 43
0.0
 10
-389.2837564197694
 20
215.5
 10
-389.4788433702715
 20
215.4807864058391
 10
-389.6664310369133
 20
215.4238839196443
 10
-389.8393112275782
 20
215.3314790607095
 10
-389.9908408955787
 20
215.2071225527451
 10
-390.1151974035431
 20
215.0555928847445
 10
-390.2076022624778
 20
214.8827126940797
 10
-390.2645047486726
 20
214.6951250274379
 10
-390.2837183428335
 20
214.5000380769358
  0
LWPOLYLINE
  5
130
330
1F
100
AcDbEntity
  8
1
  6
CONTINUOUS
 62
     7
100
AcDbPolyline
 90
        9
 70
     0
 43
0.0
 10
-313.6837183428335
 20
214.5000380769358
 10
-313.7029319369944
 20
214.6951250274379
 10
-313.7598344231892
 20
214.8827126940797
 10
-313.8522392821239
 20
215.0555928847445
 10
-313.9765957900884
 20
215.2071225527451
 10
-314.1281254580889
 20
215.3314790607095
 10
-314.3010056487537
 20
215.4238839196443
 10
-314.4885933153955
 20
215.4807864058391
 10
-314.6836802658976
 20
215.5
  0
LINE
  5
131
330
1F
100
AcDbEntity
  8
1
  6
CONTINUOUS
 62
     7
100
AcDbLine
 10
-392.4924452106243
 20
96.5
 30
0.0
 11
-390.2749914750428
 21
96.49999999999999
 31
0.0
  0
LINE
  5
132
330
1F
100
AcDbEntity
  8
1
  6
CONTINUOUS
 62
     7
100
AcDbLine
 10
-392.4837183428335
 20
97.5
 30
0.0
 11
-388.9680099808102
 21
97.5
 31
0.0
  0
LINE
  5
133
330
1F
100
AcDbEntity
  8
1
  6
CONTINUOUS
 62
     7
100
AcDbLine
 10
-314.9994267048569
 20
97.5
 30
0.0
 11
-311.4837183428335
 21
97.5
 31
0.0
  0
LINE
  5
134
330
1F
100
AcDbEntity
  8
1
  6
CONTINUOUS
 62
     7
100
AcDbLine
 10
-313.6924452106243
 20
96.5
 30
0.0
 11
-311.4749914750428
 21
96.5
 31
0.0
  0
LINE
  5
135
330
1F
100
AcDbEntity
  8
1
  6
CONTINUOUS
 62
     7
100
AcDbLine
 10
-355.4837183428335
 20
30.0
 30
0.0
 11
-348.4837183428335
 21
30.0
 31
0.0
  0
ARC
  5
136
330
1F
100
AcDbEntity
  8
1
  6
CONTINUOUS
 62
     7
100
AcDbCircle
 10
-354.4837183428335
 20
115.5
 30
0.0
 40
1.500000000000011
100
AcDbArc
 50
122.1911309182506
 51
237.8088690815337
  0
LINE
  5
137
330
1F
100
AcDbEntity
  8
1
  6
CONTINUOUS
 62
     7
100
AcDbLine
 10
-355.2828362680684
 20
114.2305865364052
 30
0.0
 11
-354.9082163695953
 21
113.54556877193
 31
0.0
  0
ARC
  5
138
330
1F
100
AcDbEntity
  8
1
  6
CONTINUOUS
 62
     7
100
AcDbCircle
 10
-354.4837183428335
 20
115.5
 30
0.0
 40
1.99999999999999
100
AcDbArc
 50
102.2541828215711
 51
257.7458171782803
  0
LINE
  5
139
330
1F
100
AcDbEntity
  8
1
  6
CONTINUOUS
 62
     7
100
AcDbLine
 10
-354.9082163695913
 20
117.454431228076
 30
0.0
 11
-355.2828362680658
 21
116.7694134636014
 31
0.0
  0
ARC
  5
13A
330
1F
100
AcDbEntity
  8
1
  6
CONTINUOUS
 62
     7
100
AcDbCircle
 10
-351.9837183428335
 20
115.5
 30
0.0
 40
3.534910129856438
100
AcDbArc
 50
158.9545927609706
 51
201.0454072389152
  0
LINE
  5
13B
330
1F
100
AcDbEntity
  8
1
  6
CONTINUOUS
 62
     7
100
AcDbLine
 10
-354.8837183428336
 20
117.4595917942265
 30
0.0
 11
-354.9082163695914
 21
117.454431228076
 31
0.0
  0
ARC
  5
13C
330
1F
100
AcDbEntity
  8
1
  6
CONTINUOUS
 62
     7
100
AcDbCircle
 10
-351.9837183428335
 20
115.5
 30
0.0
 40
3.500000000000002
100
AcDbArc
 50
145.9522676300085
 51
214.0477323699918
  0
LINE
  5
13D
330
1F
100
AcDbEntity
  8
1
  6
CONTINUOUS
 62
     7
100
AcDbLine
 10
-354.8837183428336
 20
113.5404082057734
 30
0.0
 11
-354.9082163695954
 21
113.54556877193
 31
0.0
  0
ARC
  5
13E
330
1F
100
AcDbEntity
  8
1
  6
CONTINUOUS
 62
     7
100
AcDbCircle
 10
-349.4837183428335
 20
115.5
 30
0.0
 40
1.500000000000007
100
AcDbArc
 50
302.1911309182503
 51
57.80886908174944
  0
ARC
  5
13F
330
1F
100
AcDbEntity
  8
1
  6
CONTINUOUS
 62
     7
100
AcDbCircle
 10
-351.9837183428335
 20
115.5
 30
0.0
 40
3.534910129856437
100
AcDbArc
 50
338.9545927609705
 51
21.04540723902937
  0
ARC
  5
140
330
1F
100
AcDbEntity
  8
1
  6
CONTINUOUS
 62
     7
100
AcDbCircle
 10
-349.4837183428335
 20
115.5
 30
0.0
 40
1.999999999999998
100
AcDbArc
 50
282.2541828215709
 51
77.74581717842892
  0
LINE
  5
141
330
1F
100
AcDbEntity
  8
1
  6
CONTINUOUS
 62
     7
100
AcDbLine
 10
-349.0592203160757
 20
113.545568771924
 30
0.0
 11
-348.6846004176012
 21
114.2305865363986
 31
0.0
  0
LINE
  5
142
330
1F
100
AcDbEntity
  8
1
  6
CONTINUOUS
 62
     7
100
AcDbLine
 10
-348.6846004176012
 20
116.7694134636014
 30
0.0
 11
-349.0592203160757
 21
117.454431228076
 31
0.0
  0
ARC
  5
143
330
1F
100
AcDbEntity
  8
1
  6
CONTINUOUS
 62
     7
100
AcDbCircle
 10
-351.9837183428335
 20
115.5
 30
0.0
 40
3.499999999999994
100
AcDbArc
 50
325.9522676300084
 51
34.04773236999148
  0
LINE
  5
144
330
1F
100
AcDbEntity
  8
1
  6
CONTINUOUS
 62
     7
100
AcDbLine
 10
-349.0837183428335
 20
117.4595917942265
 30
0.0
 11
-349.0592203160757
 21
117.454431228076
 31
0.0
  0
LINE
  5
145
330
1F
100
AcDbEntity
  8
1
  6
CONTINUOUS
 62
     7
100
AcDbLine
 10
-349.0837183428335
 20
113.5404082057735
 30
0.0
 11
-349.0592203160757
 21
113.545568771924
 31
0.0
  0
LWPOLYLINE
  5
146
330
1F
100
AcDbEntity
  8
1
  6
CONTINUOUS
 62
     7
100
AcDbPolyline
 90
        9
 70
     0
 43
0.0
 10
-366.9837183428335
 20
213.4798901256955
 10
-367.0029330624303
 20
213.6749878764362
 10
-367.0598388103222
 20
213.8625881300279
 10
-367.152248730531
 20
214.0354815139328
 10
-367.276611561647
 20
214.1870238323668
 10
-367.4281481098139
 20
214.3113913990187
 10
-367.6010349104685
 20
214.403804838048
 10
-367.7886280208174
 20
214.460712752819
 10
-367.9837183428335
 20
214.4799282040813
  0
LWPOLYLINE
  5
147
330
1F
100
AcDbEntity
  8
1
  6
CONTINUOUS
 62
     7
100
AcDbPolyline
 90
       31
 70
     0
 43
0.0
 10
367.9837183428335
 20
214.3890164684142
 10
367.9785543706528
 20
214.3890668651691
 10
367.9261230905901
 20
214.388067488557
 10
367.8737363683049
 20
214.3843086211973
 10
367.8213820977961
 20
214.3777592345555
 10
367.7692462439149
 20
214.3684020880724
 10
367.7093483459252
 20
214.3540447432351
 10
367.6500815964746
 20
214.3358680860663
 10
367.5912748607213
 20
214.3136892897863
 10
367.5334386735245
 20
214.2875431699898
 10
367.4756730133973
 20
214.2567378492275
 10
367.4193297174679
 20
214.2216620609619
 10
367.3642374032431
 20
214.1819085862944
 10
367.3111145114088
 20
214.1376343532745
 10
367.2758785953658
 20
214.1045044005124
 10
367.2418353130947
 20
214.0691548726951
 10
367.2089437769907
 20
214.0313539737976
 10
367.1775211637123
 20
213.9912472982632
 10
367.1471847425844
 20
213.9480012153751
 10
367.1187054864398
 20
213.9023119221644
 10
367.0920801126738
 20
213.8537810321085
 10
367.0677535043568
 20
213.8027510161607
 10
367.049857001896
 20
213.7594916580166
 10
367.0337669854522
 20
213.7146103802789
 10
367.0195293342111
 20
213.6677761694311
 10
367.0074288544272
 20
213.6193688226961
 10
366.9973923397858
 20
213.5680379093907
 10
366.9899696195392
 20
213.5151990137204
 10
366.9865356915249
 20
213.478769028912
 10
366.9844324308786
 20
213.4417339145936
 10
366.9837183428335
 20
213.4041693482073
210
0.0
220
0.0
230
-1.0
  0
LWPOLYLINE
  5
148
330
1F
100
AcDbEntity
  8
1
  6
CONTINUOUS
 62
     7
100
AcDbPolyline
 90
        9
 70
     0
 43
0.0
 10
-348.2337183428335
 20
213.4799662810171
 10
-348.2529319369945
 20
213.6750532315192
 10
-348.3098344231893
 20
213.862640898161
 10
-348.402239282124
 20
214.0355210888258
 10
-348.5265957900884
 20
214.1870507568264
 10
-348.678125458089
 20
214.3114072647908
 10
-348.8510056487539
 20
214.4038121237255
 10
-349.0385933153956
 20
214.4607146099203
 10
-349.2336802658976
 20
214.4799282040812
  0
LWPOLYLINE
  5
149
330
1F
100
AcDbEntity
  8
1
  6
CONTINUOUS
 62
     7
100
AcDbPolyline
 90
        9
 70
     0
 43
0.0
 10
-335.9837183428336
 20
214.4799282040813
 10
-336.1788086648497
 20
214.460712752819
 10
-336.3664017751987
 20
214.403804838048
 10
-336.5392885758532
 20
214.3113913990187
 10
-336.6908251240201
 20
214.1870238323668
 10
-336.8151879551361
 20
214.0354815139328
 10
-336.9075978753449
 20
213.8625881300279
 10
-336.9645036232368
 20
213.6749878764361
 10
-336.9837183428336
 20
213.4798901256955
  0
LINE
  5
14A
330
1F
100
AcDbEntity
  8
1
  6
CONTINUOUS
 62
     7
100
AcDbLine
 10
-348.2337183428335
 20
212.1999999999999
 30
0.0
 11
-348.2337183428335
 21
213.4799662810171
 31
0.0
  0
LINE
  5
14B
330
1F
100
AcDbEntity
  8
1
  6
CONTINUOUS
 62
     7
100
AcDbLine
 10
-336.9837183428336
 20
212.1999999999999
 30
0.0
 11
-336.9837183428336
 21
213.4798901256955
 31
0.0
  0
LWPOLYLINE
  5
14C
330
1F
100
AcDbEntity
  8
1
  6
CONTINUOUS
 62
     7
100
AcDbPolyline
 90
        9
 70
     0
 43
0.0
 10
-354.7337564197694
 20
214.4799282040812
 10
-354.9288433702715
 20
214.4607146099203
 10
-355.1164310369132
 20
214.4038121237255
 10
-355.2893112275781
 20
214.3114072647908
 10
-355.4408408955787
 20
214.1870507568264
 10
-355.565197403543
 20
214.0355210888258
 10
-355.6576022624778
 20
213.8626408981609
 10
-355.7145047486726
 20
213.6750532315191
 10
-355.7337183428335
 20
213.4799662810171
  0
LINE
  5
14D
330
1F
100
AcDbEntity
  8
1
  6
CONTINUOUS
 62
     7
100
AcDbLine
 10
-355.7337183428335
 20
213.4799662810171
 30
0.0
 11
-355.7337183428335
 21
212.1999999999999
 31
0.0
  0
LINE
  5
14E
330
1F
100
AcDbEntity
  8
1
  6
CONTINUOUS
 62
     7
100
AcDbLine
 10
-366.9837183428335
 20
213.4798901256955
 30
0.0
 11
-366.9837183428335
 21
212.1999999999999
 31
0.0
  0
LWPOLYLINE
  5
14F
330
1F
100
AcDbEntity
  8
1
  6
CONTINUOUS
 62
     7
100
AcDbPolyline
 90
       31
 70
     0
 43
0.0
 10
336.9837183428336
 20
213.4041693482073
 10
336.9830720786824
 20
213.4399082085527
 10
336.9811667706908
 20
213.4751697990694
 10
336.9780526455518
 20
213.5098884816362
 10
336.9711276600017
 20
213.5614596100914
 10
336.9617059264913
 20
213.6116151293104
 10
336.9495548172562
 20
213.6617554245521
 10
336.9351097670614
 20
213.7102304362326
 10
336.9183919852223
 20
213.7573804283658
 10
336.8996831813103
 20
213.8027510161607
 10
336.8761970562554
 20
213.8521373534653
 10
336.8505545066946
 20
213.8991866738941
 10
336.8227338166929
 20
213.9442337778084
 10
336.7931073466156
 20
213.9869233821391
 10
336.7611836415539
 20
214.0280830398604
 10
336.7277168194878
 20
214.0668380078179
 10
336.6926562817898
 20
214.1034179805245
 10
336.6563221742583
 20
214.1376343532745
 10
336.6050245836948
 20
214.1804896300613
 10
336.5518791821004
 20
214.2191207849686
 10
336.4967217532908
 20
214.2538591493389
 10
336.4401762046145
 20
214.284480503984
 10
336.3812285465138
 20
214.3115756316938
 10
336.3212525853322
 20
214.3345288894782
 10
336.2600610769554
 20
214.3535044354667
 10
336.1981904417523
 20
214.3684020880724
 10
336.146299641846
 20
214.377721928463
 10
336.0940930571382
 20
214.3842699443903
 10
336.0415590854834
 20
214.388056327762
 10
335.9888823150146
 20
214.3890668651691
 10
335.9837183428336
 20
214.3890164684142
210
0.0
220
0.0
230
-1.0
  0
LINE
  5
150
330
1F
100
AcDbEntity
  8
1
  6
CONTINUOUS
 62
     7
100
AcDbLine
 10
-348.2354637163917
 20
212.0
 30
0.0
 11
-348.2337183428336
 21
212.1999999999999
 31
0.0
  0
LINE
  5
151
330
1F
100
AcDbEntity
  8
1
  6
CONTINUOUS
 62
     7
100
AcDbLine
 10
-348.2424452106243
 20
212.0
 30
0.0
 11
-348.2354637163917
 21
212.0
 31
0.0
  0
LINE
  5
152
330
1F
100
AcDbEntity
  8
1
  6
CONTINUOUS
 62
     7
100
AcDbLine
 10
-348.2424452106243
 20
205.3346705287238
 30
0.0
 11
-348.2424452106243
 21
212.0
 31
0.0
  0
LINE
  5
153
330
1F
100
AcDbEntity
  8
1
  6
CONTINUOUS
 62
     7
100
AcDbLine
 10
-336.9837183428335
 20
212.0
 30
0.0
 11
-348.2354637163917
 21
212.0
 31
0.0
  0
LINE
  5
154
330
1F
100
AcDbEntity
  8
1
  6
CONTINUOUS
 62
     7
100
AcDbLine
 10
-336.9837183428336
 20
212.1999999999999
 30
0.0
 11
-336.9837183428336
 21
212.0
 31
0.0
  0
LINE
  5
155
330
1F
100
AcDbEntity
  8
1
  6
CONTINUOUS
 62
     7
100
AcDbLine
 10
-355.7249914750428
 20
212.0
 30
0.0
 11
-355.7249914750428
 21
205.3346705287238
 31
0.0
  0
LINE
  5
156
330
1F
100
AcDbEntity
  8
1
  6
CONTINUOUS
 62
     7
100
AcDbLine
 10
-355.7319729692754
 20
212.0
 30
0.0
 11
-355.7249914750428
 21
212.0
 31
0.0
  0
LINE
  5
157
330
1F
100
AcDbEntity
  8
1
  6
CONTINUOUS
 62
     7
100
AcDbLine
 10
-355.7337183428335
 20
212.1999999999999
 30
0.0
 11
-355.7319729692754
 21
212.0
 31
0.0
  0
LINE
  5
158
330
1F
100
AcDbEntity
  8
1
  6
CONTINUOUS
 62
     7
100
AcDbLine
 10
-355.7319729692754
 20
212.0
 30
0.0
 11
-366.9837183428335
 21
212.0
 31
0.0
  0
LINE
  5
159
330
1F
100
AcDbEntity
  8
1
  6
CONTINUOUS
 62
     7
100
AcDbLine
 10
-366.9837183428335
 20
212.0
 30
0.0
 11
-366.9837183428335
 21
212.1999999999999
 31
0.0
  0
ARC
  5
15A
330
1F
100
AcDbEntity
  8
1
  6
CONTINUOUS
 62
     7
100
AcDbCircle
 10
-351.9837183428335
 20
115.5
 30
0.0
 40
3.5
100
AcDbArc
 50
34.04773236999142
 51
145.9522676300085
  0
ARC
  5
15B
330
1F
100
AcDbEntity
  8
1
  6
CONTINUOUS
 62
     7
100
AcDbCircle
 10
-351.9837183428335
 20
115.5
 30
0.0
 40
3.499999999999994
100
AcDbArc
 50
214.0477323699918
 51
325.9522676300084
  0
LWPOLYLINE
  5
15C
330
1F
100
AcDbEntity
  8
1
  6
CONTINUOUS
 62
     7
100
AcDbPolyline
 90
        9
 70
     0
 43
0.0
 10
-356.2364592733243
 20
121.75
 10
-356.6263963275151
 20
121.7116514813355
 10
-357.0011902893712
 20
121.5980745188073
 10
-357.3464880630643
 20
121.4136186516101
 10
-357.6490661377078
 20
121.1653477948743
 10
-357.8973369944436
 20
120.8627697202309
 10
-358.0817928616408
 20
120.5174719465376
 10
-358.1953698241689
 20
120.1426779846816
 10
-358.2337183428335
 20
119.7527409304909
  0
LINE
  5
15D
330
1F
100
AcDbEntity
  8
1
  6
CONTINUOUS
 62
     7
100
AcDbLine
 10
-356.2364592733244
 20
121.75
 30
0.0
 11
-347.7309774123427
 21
121.75
 31
0.0
  0
LWPOLYLINE
  5
15E
330
1F
100
AcDbEntity
  8
1
  6
CONTINUOUS
 62
     7
100
AcDbPolyline
 90
        9
 70
     0
 43
0.0
 10
-345.7337183428336
 20
119.7527409304909
 10
-345.7720668614981
 20
120.1426779846816
 10
-345.8856438240263
 20
120.5174719465376
 10
-346.0700996912234
 20
120.8627697202308
 10
-346.3183705479593
 20
121.1653477948743
 10
-346.6209486226027
 20
121.4136186516101
 10
-346.9662463962959
 20
121.5980745188073
 10
-347.3410403581519
 20
121.7116514813355
 10
-347.7309774123427
 20
121.75
  0
LINE
  5
15F
330
1F
100
AcDbEntity
  8
1
  6
CONTINUOUS
 62
     7
100
AcDbLine
 10
-345.7337183428335
 20
119.7527409304908
 30
0.0
 11
-345.7337183428335
 21
111.2472590695091
 31
0.0
  0
LWPOLYLINE
  5
160
330
1F
100
AcDbEntity
  8
1
  6
CONTINUOUS
 62
     7
100
AcDbPolyline
 90
        9
 70
     0
 43
0.0
 10
-347.7309774123427
 20
109.25
 10
-347.3410403581519
 20
109.2883485186645
 10
-346.9662463962959
 20
109.4019254811927
 10
-346.6209486226027
 20
109.5863813483899
 10
-346.3183705479593
 20
109.8346522051257
 10
-346.0700996912234
 20
110.1372302797691
 10
-345.8856438240263
 20
110.4825280534624
 10
-345.7720668614981
 20
110.8573220153184
 10
-345.7337183428336
 20
111.2472590695091
  0
LINE
  5
161
330
1F
100
AcDbEntity
  8
1
  6
CONTINUOUS
 62
     7
100
AcDbLine
 10
-347.7309774123427
 20
109.25
 30
0.0
 11
-356.2364592733244
 21
109.25
 31
0.0
  0
LWPOLYLINE
  5
162
330
1F
100
AcDbEntity
  8
1
  6
CONTINUOUS
 62
     7
100
AcDbPolyline
 90
        9
 70
     0
 43
0.0
 10
-358.2337183428335
 20
111.2472590695091
 10
-358.195369824169
 20
110.8573220153184
 10
-358.0817928616408
 20
110.4825280534624
 10
-357.8973369944437
 20
110.1372302797691
 10
-357.6490661377078
 20
109.8346522051257
 10
-357.3464880630644
 20
109.5863813483899
 10
-357.0011902893712
 20
109.4019254811927
 10
-356.6263963275152
 20
109.2883485186645
 10
-356.2364592733244
 20
109.25
  0
LINE
  5
163
330
1F
100
AcDbEntity
  8
1
  6
CONTINUOUS
 62
     7
100
AcDbLine
 10
-358.2337183428335
 20
111.2472590695091
 30
0.0
 11
-358.2337183428335
 21
119.7527409304908
 31
0.0
  0
CIRCLE
  5
164
330
1F
100
AcDbEntity
  8
1
  6
CONTINUOUS
 62
     7
100
AcDbCircle
 10
-351.9837183428335
 20
115.5
 30
0.0
 40
2.750000000000002
  0
LWPOLYLINE
  5
165
330
1F
100
AcDbEntity
  8
1
  6
CONTINUOUS
 62
     7
100
AcDbPolyline
 90
        5
 70
     0
 43
0.0
 10
-351.5611161731013
 20
205.3125664051229
 10
-351.7672873962126
 20
205.3825522872707
 10
-351.9837183428335
 20
205.4062554574754
 10
-352.2001492894545
 20
205.3825522872707
 10
-352.4063205125658
 20
205.3125664051229
  0
LINE
  5
166
330
1F
100
AcDbEntity
  8
1
  6
CONTINUOUS
 62
     7
100
AcDbLine
 10
-351.5611161731013
 20
205.3125664051229
 30
0.0
 11
-349.6650093034207
 21
204.4283972511106
 31
0.0
  0
LINE
  5
167
330
1F
100
AcDbEntity
  8
1
  6
CONTINUOUS
 62
     7
100
AcDbLine
 10
-354.3024273822463
 20
204.4283972511106
 30
0.0
 11
-352.4063205125657
 21
205.3125664051229
 31
0.0
  0
CIRCLE
  5
168
330
1F
100
AcDbEntity
  8
1
  6
CONTINUOUS
 62
     7
100
AcDbCircle
 10
-351.9837183428335
 20
199.0
 30
0.0
 40
2.750000000000002
  0
CIRCLE
  5
169
330
1F
100
AcDbEntity
  8
1
  6
CONTINUOUS
 62
     7
100
AcDbCircle
 10
-351.9837183428335
 20
199.0
 30
0.0
 40
3.500000000000003
  0
LWPOLYLINE
  5
16A
330
1F
100
AcDbEntity
  8
1
  6
CONTINUOUS
 62
     7
100
AcDbPolyline
 90
       11
 70
     0
 43
0.0
 10
-355.7249914750428
 20
205.3346705287238
 10
-355.7049177983349
 20
205.1352980050551
 10
-355.6455026425178
 20
204.9439342548054
 10
-355.5491312780232
 20
204.7682617335515
 10
-355.4196726127589
 20
204.6153329595411
 10
-355.2623238716099
 20
204.4912873845313
 10
-355.0834019495597
 20
204.4011049204349
 10
-354.8900898147308
 20
204.3484060166489
 10
-354.6901481422057
 20
204.335306314128
 10
-354.4916037553255
 20
204.3623317112337
 10
-354.3024273822464
 20
204.4283972511106
  0
LWPOLYLINE
  5
16B
330
1F
100
AcDbEntity
  8
1
  6
CONTINUOUS
 62
     7
100
AcDbPolyline
 90
       11
 70
     0
 43
0.0
 10
-349.6650093034207
 20
204.4283972511106
 10
-349.4758329303416
 20
204.3623317112337
 10
-349.2772885434613
 20
204.335306314128
 10
-349.0773468709363
 20
204.3484060166489
 10
-348.8840347361073
 20
204.4011049204349
 10
-348.7051128140571
 20
204.4912873845313
 10
-348.5477640729082
 20
204.6153329595411
 10
-348.4183054076439
 20
204.7682617335515
 10
-348.3219340431493
 20
204.9439342548055
 10
-348.2625188873322
 20
205.1352980050551
 10
-348.2424452106243
 20
205.3346705287238
  0
LINE
  5
16C
330
1F
100
AcDbEntity
  8
1
  6
CONTINUOUS
 62
     7
100
AcDbLine
 10
-341.9837183428336
 20
193.4999999999999
 30
0.0
 11
-361.9837183428336
 21
193.4999999999999
 31
0.0
  0
ARC
  5
16D
330
1F
100
AcDbEntity
  8
1
  6
CONTINUOUS
 62
     7
100
AcDbCircle
 10
-341.9837183428336
 20
198.5000000000001
 30
0.0
 40
5.000000000000004
100
AcDbArc
 50
270.0
 51
359.9999999999998
  0
ARC
  5
16E
330
1F
100
AcDbEntity
  8
1
  6
CONTINUOUS
 62
     7
100
AcDbCircle
 10
-361.9837183428335
 20
198.5000000000001
 30
0.0
 40
4.999999999999997
100
AcDbArc
 50
180.0
 51
269.9999999999999
  0
LINE
  5
16F
330
1F
100
AcDbEntity
  8
1
  6
CONTINUOUS
 62
     7
100
AcDbLine
 10
-366.9837183428335
 20
198.5000000000001
 30
0.0
 11
-366.9837183428335
 21
212.0
 31
0.0
  0
LINE
  5
170
330
1F
100
AcDbEntity
  8
1
  6
CONTINUOUS
 62
     7
100
AcDbLine
 10
-336.9837183428335
 20
212.0
 30
0.0
 11
-336.9837183428335
 21
198.5000000000001
 31
0.0
  0
CIRCLE
  5
171
330
1F
100
AcDbEntity
  8
1
  6
CONTINUOUS
 62
     7
100
AcDbCircle
 10
-379.4837183428336
 20
196.0
 30
0.0
 40
2.500000000000002
  0
CIRCLE
  5
172
330
1F
100
AcDbEntity
  8
1
  6
CONTINUOUS
 62
     7
100
AcDbCircle
 10
-324.4837183428335
 20
196.0
 30
0.0
 40
2.500000000000002
  0
CIRCLE
  5
173
330
1F
100
AcDbEntity
  8
1
  6
CONTINUOUS
 62
     7
100
AcDbCircle
 10
-379.4837183428336
 20
55.99999999999999
 30
0.0
 40
2.500000000000002
  0
CIRCLE
  5
174
330
1F
100
AcDbEntity
  8
1
  6
CONTINUOUS
 62
     7
100
AcDbCircle
 10
-324.4837183428335
 20
55.99999999999999
 30
0.0
 40
2.500000000000002
  0
CIRCLE
  5
175
330
1F
100
AcDbEntity
  8
1
  6
CONTINUOUS
 62
     7
100
AcDbCircle
 10
-324.4837183428335
 20
55.99999999999999
 30
0.0
 40
5.02618259739232
  0
CIRCLE
  5
176
330
1F
100
AcDbEntity
  8
1
  6
CONTINUOUS
 62
     7
100
AcDbCircle
 10
-379.4837183428336
 20
55.99999999999999
 30
0.0
 40
5.02618259739232
  0
CIRCLE
  5
177
330
1F
100
AcDbEntity
  8
1
  6
CONTINUOUS
 62
     7
100
AcDbCircle
 10
-324.4837183428335
 20
196.0
 30
0.0
 40
5.02618259739232
  0
CIRCLE
  5
178
330
1F
100
AcDbEntity
  8
1
  6
CONTINUOUS
 62
     7
100
AcDbCircle
 10
-379.4837183428336
 20
196.0
 30
0.0
 40
5.02618259739232
  0
CIRCLE
  5
179
330
1F
100
AcDbEntity
  8
1
  6
CONTINUOUS
 62
     7
100
AcDbCircle
 10
-351.9837183428335
 20
157.25
 30
0.0
 40
13.55000000000001
  0
CIRCLE
  5
17A
330
1F
100
AcDbEntity
  8
1
  6
CONTINUOUS
 62
     7
100
AcDbCircle
 10
-379.4837183428336
 20
157.25
 30
0.0
 40
2.466835376636389
  0
CIRCLE
  5
17B
330
1F
100
AcDbEntity
  8
1
  6
CONTINUOUS
 62
     7
100
AcDbCircle
 10
-324.4837183428335
 20
157.25
 30
0.0
 40
2.500000000000002
  0
CIRCLE
  5
17C
330
1F
100
AcDbEntity
  8
1
  6
CONTINUOUS
 62
     7
100
AcDbCircle
 10
-351.9837183428335
 20
157.25
 30
0.0
 40
13.15
  0
CIRCLE
  5
17D
330
1F
100
AcDbEntity
  8
1
  6
CONTINUOUS
 62
     7
100
AcDbCircle
 10
-351.9837183428335
 20
157.25
 30
0.0
 40
12.39999999999999
  0
LINE
  5
17E
330
1F
100
AcDbEntity
  8
0
  6
CENTER
 62
     1
100
AcDbLine
 10
-367.4857750847257
 20
-30.49794325810779
 30
0.0
 11
-336.4816616009413
 21
-30.49794325810779
 31
0.0
  0
LINE
  5
17F
330
1F
100
AcDbEntity
  8
0
  6
CENTER
 62
     1
100
AcDbLine
 10
-367.5337183428335
 20
157.25
 30
0.0
 11
-336.4337183428335
 21
157.25
 31
0.0
  0
ENDSEC
  0
SECTION
  2
OBJECTS
  0
DICTIONARY
  5
C
330
0
100
AcDbDictionary
  3
ACAD_GROUP
350
D
  3
ACAD_LAYOUT
350
1A
  3
ACAD_MATERIAL
350
43
  3
ACAD_MLEADERSTYLE
350
6B
  3
ACAD_MLINESTYLE
350
17
  3
ACAD_PLOTSETTINGS
350
19
  3
ACAD_SCALELIST
350
47
  3
ACAD_VISUALSTYLE
350
2A
  3
ACDBHEADERROUNDTRIPXREC
350
180
  3
ACDBVARIABLEDICTIONARY
350
1A1
  0
DICTIONARY
  5
1A8
330
8
100
AcDbDictionary
280
     1
  3
ACAD_XREC_ROUNDTRIP
360
1A9
  0
DICTIONARY
  5
D
102
{ACAD_REACTORS
330
C
102
}
330
C
100
AcDbDictionary
  0
DICTIONARY
  5
1A
102
{ACAD_REACTORS
330
C
102
}
330
C
100
AcDbDictionary
  0
DICTIONARY
  5
43
102
{ACAD_REACTORS
330
C
102
}
330
C
100
AcDbDictionary
  3
BYBLOCK
350
45
  3
BYLAYER
350
44
  3
GLOBAL
350
46
  0
DICTIONARY
  5
6B
102
{ACAD_REACTORS
330
C
102
}
330
C
100
AcDbDictionary
  3
STANDARD
350
6C
  0
DICTIONARY
  5
17
102
{ACAD_REACTORS
330
C
102
}
330
C
100
AcDbDictionary
  3
STANDARD
350
18
  0
DICTIONARY
  5
19
102
{ACAD_REACTORS
330
C
102
}
330
C
100
AcDbDictionary
  0
DICTIONARY
  5
47
102
{ACAD_REACTORS
330
C
102
}
330
C
100
AcDbDictionary
  3
A0
350
48
  3
A1
350
49
  3
A2
350
4A
  3
A3
350
4B
  3
A4
350
4C
  3
A5
350
4D
  3
A6
350
4E
  3
A7
350
4F
  3
A8
350
50
  3
A9
350
51
  3
B0
350
52
  3
B1
350
53
  3
B2
350
54
  3
B3
350
55
  3
B4
350
56
  3
B5
350
57
  3
B6
350
58
  3
B7
350
59
  3
B8
350
5A
  3
B9
350
5B
  3
C0
350
5C
  3
C1
350
5D
  3
C2
350
5E
  3
C3
350
5F
  3
C4
350
60
  3
C5
350
61
  3
C6
350
62
  3
C7
350
63
  3
C8
350
64
  3
C9
350
65
  3
D0
350
66
  3
D1
350
67
  3
D2
350
68
  0
DICTIONARY
  5
2A
102
{ACAD_REACTORS
330
C
102
}
330
C
100
AcDbDictionary
  3
2DWIREFRAME
350
2F
  3
BASIC
350
32
  3
BRIGHTEN
350
36
  3
COLORCHANGE
350
3A
  3
CONCEPTUAL
350
34
  3
DIM
350
35
  3
EDGECOLOROFF
350
3D
  3
FACEPATTERN
350
39
  3
FLAT
350
2B
  3
FLATWITHEDGES
350
2C
  3
GOURAUD
350
2D
  3
GOURAUDWITHEDGES
350
2E
  3
HIDDEN
350
31
  3
JITTEROFF
350
3B
  3
LINEPATTERN
350
38
  3
OVERHANGOFF
350
3C
  3
REALISTIC
350
33
  3
SHADED
350
42
  3
SHADED_WITH_EDGES
350
41
  3
SHADES_OF_GRAY
350
3E
  3
SKETCHY
350
3F
  3
THICKEN
350
37
  3
WIREFRAME
350
30
  3
X-RAY
350
40
  0
DICTIONARY
  5
180
102
{ACAD_REACTORS
330
C
102
}
330
C
100
AcDbDictionary
  3
CEPSNID
350
18A
  3
CEPSNTYPE
350
189
  3
DIMSTYLEDATA
350
1A0
  3
FINGERPRINTGUID
350
18B
  3
HYPERLINKBASE
350
183
  3
INSUNITS
350
188
  3
LAYOUTDICT
350
185
  3
LWETCUNION
350
187
  3
PLOTSETDICT
350
186
  3
PSVPSCALE
350
18D
  3
PUCSBASE
350
190
  3
PUCSORGBACK
350
196
  3
PUCSORGBOTTOM
350
192
  3
PUCSORGFRONT
350
195
  3
PUCSORGLEFT
350
193
  3
PUCSORGRIGHT
350
194
  3
PUCSORGTOP
350
191
  3
PUCSORTHOREF
350
18E
  3
PUCSORTHOVIEW
350
18F
  3
STYLESHEET
350
184
  3
TSTACKALIGN
350
181
  3
TSTACKSIZE
350
182
  3
UCSBASE
350
199
  3
UCSORGBACK
350
19F
  3
UCSORGBOTTOM
350
19B
  3
UCSORGFRONT
350
19E
  3
UCSORGLEFT
350
19C
  3
UCSORGRIGHT
350
19D
  3
UCSORGTOP
350
19A
  3
UCSORTHOREF
350
197
  3
UCSORTHOVIEW
350
198
  3
VERSIONGUID
350
18C
  0
DICTIONARY
  5
1A1
102
{ACAD_REACTORS
330
C
102
}
330
C
100
AcDbDictionary
  3
CANNOSCALE
350
1AA
  3
CMLEADERSTYLE
350
1A3
  3
CTABLESTYLE
350
1A2
  3
DIMASSOC
350
1A6
  3
HIDETEXT
350
1A7
  3
MSLTSCALE
350
1AB
  0
XRECORD
  5
1A9
102
{ACAD_REACTORS
330
1A8
102
}
330
1A8
100
AcDbXrecord
102
VTR_0.000_0.000_1.000_1.000_VISUALSTYLE
340
2F
102
VTR_0.000_0.000_1.000_1.000_GRIDDISPLAY
 70
     3
102
VTR_0.000_0.000_1.000_1.000_GRIDMAJOR
 70
     5
102
VTR_0.000_0.000_1.000_1.000_DEFAULTLIGHTING
280
     1
102
VTR_0.000_0.000_1.000_1.000_DEFAULTLIGHTINGTYPE
 70
     1
102
VTR_0.000_0.000_1.000_1.000_BRIGHTNESS
141
0.0
102
VTR_0.000_0.000_1.000_1.000_CONTRAST
142
0.0
  0
MATERIAL
  5
45
102
{ACAD_REACTORS
330
43
102
}
102
{ACAD_XDICTIONARY
360
1AE
102
}
330
43
100
AcDbMaterial
  1
BYBLOCK
  0
MATERIAL
  5
44
102
{ACAD_REACTORS
330
43
102
}
102
{ACAD_XDICTIONARY
360
1AC
102
}
330
43
100
AcDbMaterial
  1
BYLAYER
  0
MATERIAL
  5
46
102
{ACAD_REACTORS
330
43
102
}
102
{ACAD_XDICTIONARY
360
1B0
102
}
330
43
100
AcDbMaterial
  1
GLOBAL
  0
ACAD_PROXY_OBJECT
  5
6C
102
{ACAD_REACTORS
330
6B
102
}
330
6B
100
AcDbProxyObject
 90
      499
 91
      505
 93
      610
310
40901902A4063FBFFFFFE056BD1B81E855B9FC0AD7A3703D0AD73F4214DD185B99185C9900AD7A3703D0AC73F90141901A02B5E8DC0F42B1CFC02B5E8DC0F42B1CFE5764000000000000300FC0
340
14
340
0
340
11
340
0
 94
        0
1001
ACAD_MLEADERVER
1070
     2
  0
MLINESTYLE
  5
18
102
{ACAD_REACTORS
330
17
102
}
330
17
100
AcDbMlineStyle
  2
Standard
 70
     0
  3

 62
   256
 51
90.0
 52
90.0
 71
     2
 49
0.5
 62
   256
  6
BYLAYER
 49
-0.5
 62
   256
  6
BYLAYER
  0
ACAD_PROXY_OBJECT
  5
48
102
{ACAD_REACTORS
330
47
102
}
330
47
100
AcDbProxyObject
 90
      499
 91
      503
 93
       41
310
903313A31580
  0
ACAD_PROXY_OBJECT
  5
49
102
{ACAD_REACTORS
330
47
102
}
330
47
100
AcDbProxyObject
 90
      499
 91
      503
 93
      105
310
903313A324000000000000004000
  0
ACAD_PROXY_OBJECT
  5
4A
102
{ACAD_REACTORS
330
47
102
}
330
47
100
AcDbProxyObject
 90
      499
 91
      503
 93
      105
310
903313A344000000000000104000
  0
ACAD_PROXY_OBJECT
  5
4B
102
{ACAD_REACTORS
330
47
102
}
330
47
100
AcDbProxyObject
 90
      499
 91
      503
 93
      105
310
903313A354000000000000144000
  0
ACAD_PROXY_OBJECT
  5
4C
102
{ACAD_REACTORS
330
47
102
}
330
47
100
AcDbProxyObject
 90
      499
 91
      503
 93
      105
310
903313A384000000000000204000
  0
ACAD_PROXY_OBJECT
  5
4D
102
{ACAD_REACTORS
330
47
102
}
330
47
100
AcDbProxyObject
 90
      499
 91
      503
 93
      113
310
904313A31304000000000000244000
  0
ACAD_PROXY_OBJECT
  5
4E
102
{ACAD_REACTORS
330
47
102
}
330
47
100
AcDbProxyObject
 90
      499
 91
      503
 93
      113
310
904313A31364000000000000304000
  0
ACAD_PROXY_OBJECT
  5
4F
102
{ACAD_REACTORS
330
47
102
}
330
47
100
AcDbProxyObject
 90
      499
 91
      503
 93
      113
310
904313A32304000000000000344000
  0
ACAD_PROXY_OBJECT
  5
50
102
{ACAD_REACTORS
330
47
102
}
330
47
100
AcDbProxyObject
 90
      499
 91
      503
 93
      113
310
904313A333040000000000003E4000
  0
ACAD_PROXY_OBJECT
  5
51
102
{ACAD_REACTORS
330
47
102
}
330
47
100
AcDbProxyObject
 90
      499
 91
      503
 93
      113
310
904313A34304000000000000444000
  0
ACAD_PROXY_OBJECT
  5
52
102
{ACAD_REACTORS
330
47
102
}
330
47
100
AcDbProxyObject
 90
      499
 91
      503
 93
      113
310
904313A35304000000000000494000
  0
ACAD_PROXY_OBJECT
  5
53
102
{ACAD_REACTORS
330
47
102
}
330
47
100
AcDbProxyObject
 90
      499
 91
      503
 93
      121
310
905313A3130304000000000000594000
  0
ACAD_PROXY_OBJECT
  5
54
102
{ACAD_REACTORS
330
47
102
}
330
47
100
AcDbProxyObject
 90
      499
 91
      503
 93
      105
310
903323A310000000000000010100
  0
ACAD_PROXY_OBJECT
  5
55
102
{ACAD_REACTORS
330
47
102
}
330
47
100
AcDbProxyObject
 90
      499
 91
      503
 93
      105
310
903343A310000000000000410100
  0
ACAD_PROXY_OBJECT
  5
56
102
{ACAD_REACTORS
330
47
102
}
330
47
100
AcDbProxyObject
 90
      499
 91
      503
 93
      105
310
903383A310000000000000810100
  0
ACAD_PROXY_OBJECT
  5
57
102
{ACAD_REACTORS
330
47
102
}
330
47
100
AcDbProxyObject
 90
      499
 91
      503
 93
      113
310
90431303A310000000000000910100
  0
ACAD_PROXY_OBJECT
  5
58
102
{ACAD_REACTORS
330
47
102
}
330
47
100
AcDbProxyObject
 90
      499
 91
      503
 93
      121
310
9053130303A310000000000001650100
  0
ACAD_PROXY_OBJECT
  5
59
102
{ACAD_REACTORS
330
47
102
}
330
47
100
AcDbProxyObject
 90
      499
 91
      503
 93
      257
310
90E312F31323822203D2031272D3022000000000000200FC000000000000284000
  0
ACAD_PROXY_OBJECT
  5
5A
102
{ACAD_REACTORS
330
47
102
}
330
47
100
AcDbProxyObject
 90
      499
 91
      503
 93
      249
310
90D312F363422203D2031272D3022000000000000240FC000000000000284000
  0
ACAD_PROXY_OBJECT
  5
5B
102
{ACAD_REACTORS
330
47
102
}
330
47
100
AcDbProxyObject
 90
      499
 91
      503
 93
      249
310
90D312F333222203D2031272D3022000000000000280FC000000000000284000
  0
ACAD_PROXY_OBJECT
  5
5C
102
{ACAD_REACTORS
330
47
102
}
330
47
100
AcDbProxyObject
 90
      499
 91
      503
 93
      249
310
90D312F313622203D2031272D30220000000000002C0FC000000000000284000
  0
ACAD_PROXY_OBJECT
  5
5D
102
{ACAD_REACTORS
330
47
102
}
330
47
100
AcDbProxyObject
 90
      499
 91
      503
 93
      249
310
90D332F333222203D2031272D30220000000000002E0FC000000000000284000
  0
ACAD_PROXY_OBJECT
  5
5E
102
{ACAD_REACTORS
330
47
102
}
330
47
100
AcDbProxyObject
 90
      499
 91
      503
 93
      241
310
90C312F3822203D2031272D3022000000000000300FC000000000000284000
  0
ACAD_PROXY_OBJECT
  5
5F
102
{ACAD_REACTORS
330
47
102
}
330
47
100
AcDbProxyObject
 90
      499
 91
      503
 93
      249
310
90D332F313622203D2031272D3022000000000000320FC000000000000284000
  0
ACAD_PROXY_OBJECT
  5
60
102
{ACAD_REACTORS
330
47
102
}
330
47
100
AcDbProxyObject
 90
      499
 91
      503
 93
      241
310
90C312F3422203D2031272D3022000000000000340FC000000000000284000
  0
ACAD_PROXY_OBJECT
  5
61
102
{ACAD_REACTORS
330
47
102
}
330
47
100
AcDbProxyObject
 90
      499
 91
      503
 93
      241
310
90C332F3822203D2031272D3022000000000000360FC000000000000284000
  0
ACAD_PROXY_OBJECT
  5
62
102
{ACAD_REACTORS
330
47
102
}
330
47
100
AcDbProxyObject
 90
      499
 91
      503
 93
      241
310
90C312F3222203D2031272D3022000000000000380FC000000000000284000
  0
ACAD_PROXY_OBJECT
  5
63
102
{ACAD_REACTORS
330
47
102
}
330
47
100
AcDbProxyObject
 90
      499
 91
      503
 93
      241
310
90C332F3422203D2031272D30220000000000003A0FC000000000000284000
  0
ACAD_PROXY_OBJECT
  5
64
102
{ACAD_REACTORS
330
47
102
}
330
47
100
AcDbProxyObject
 90
      499
 91
      503
 93
      161
310
90A3122203D2031272D30224000000000000284000
  0
ACAD_PROXY_OBJECT
  5
65
102
{ACAD_REACTORS
330
47
102
}
330
47
100
AcDbProxyObject
 90
      499
 91
      503
 93
      257
310
90E312D312F3222203D2031272D30220000000000003E0FC000000000000284000
  0
ACAD_PROXY_OBJECT
  5
66
102
{ACAD_REACTORS
330
47
102
}
330
47
100
AcDbProxyObject
 90
      499
 91
      503
 93
      225
310
90A3322203D2031272D302200000000000002100000000000000284000
  0
ACAD_PROXY_OBJECT
  5
67
102
{ACAD_REACTORS
330
47
102
}
330
47
100
AcDbProxyObject
 90
      499
 91
      503
 93
      225
310
90A3622203D2031272D302200000000000006100000000000000284000
  0
ACAD_PROXY_OBJECT
  5
68
102
{ACAD_REACTORS
330
47
102
}
330
47
100
AcDbProxyObject
 90
      499
 91
      503
 93
      249
310
90D31272D3022203D2031272D30220000000000000A100000000000000284000
  0
ACAD_PROXY_OBJECT
  5
2F
102
{ACAD_REACTORS
330
2A
102
}
330
2A
100
AcDbProxyObject
 90
      499
 91
      501
 93
      436
310
42CC9915DA5C99599C985B595049028333333333333E33F0000000000000F90107901411070040501600405405064090741402480A0340
1001
ACAD
1000
AcDbSavedByObjectVersion
1070
     0
  0
ACAD_PROXY_OBJECT
  5
32
102
{ACAD_REACTORS
330
2A
102
}
330
2A
100
AcDbProxyObject
 90
      499
 91
      501
 93
      388
310
4150985CDA58D07406404333333333333E33F0000000000000F90107A41107004050150841D405064090741402480A0350
1001
ACAD
1000
AcDbSavedByObjectVersion
1070
     0
  0
ACAD_PROXY_OBJECT
  5
36
102
{ACAD_REACTORS
330
2A
102
}
330
2A
100
AcDbProxyObject
 90
      499
 91
      501
 93
      428
310
42109C9A59DA1D195B90C409028333333333333E33F0000000000000F9010790141107004050150841D405064090741402480A029950
1001
ACAD
1000
AcDbSavedByObjectVersion
1070
     0
  0
ACAD_PROXY_OBJECT
  5
3A
102
{ACAD_REACTORS
330
2A
102
}
330
2A
100
AcDbProxyObject
 90
      499
 91
      501
 93
      452
310
42D0DBDB1BDC90DA185B99D95104090240C333333333333E33F0000000000000F90108901411070040501508421405064090741402480A0350
1001
ACAD
1000
AcDbSavedByObjectVersion
1070
     0
  0
ACAD_PROXY_OBJECT
  5
34
102
{ACAD_REACTORS
330
2A
102
}
330
2A
100
AcDbProxyObject
 90
      499
 91
      501
 93
      500
310
4290DBDB98D95C1D1D585B10940D028333333333333E33F0000000000000F90107902409070040501000000000018199010841D405064090740C02480A0340
1001
ACAD
1000
AcDbSavedByObjectVersion
1070
     0
  0
ACAD_PROXY_OBJECT
  5
35
102
{ACAD_REACTORS
330
2A
102
}
330
2A
100
AcDbProxyObject
 90
      499
 91
      501
 93
      412
310
40D11A5B50B409028333333333333E33F0000000000000F9010790141107004050150841D405064090741402480A02677FFFFFD0
1001
ACAD
1000
AcDbSavedByObjectVersion
1070
     0
  0
ACAD_PROXY_OBJECT
  5
3D
102
{ACAD_REACTORS
330
2A
102
}
330
2A
100
AcDbProxyObject
 90
      499
 91
      501
 93
      452
310
43115919D950DBDB1BDC93D999916409028333333333333E33F0000000000000F9010790141107004050150841D405064090741402480A0350
1001
ACAD
1000
AcDbSavedByObjectVersion
1070
     0
  0
ACAD_PROXY_OBJECT
  5
39
102
{ACAD_REACTORS
330
2A
102
}
330
2A
100
AcDbProxyObject
 90
      499
 91
      501
 93
      444
310
42D19858D95C185D1D195C9B90F409028333333333333E33F0000000000000F9010790141107004050150841D405064090741402480A0350
1001
ACAD
1000
AcDbSavedByObjectVersion
1070
     0
  0
ACAD_PROXY_OBJECT
  5
2B
102
{ACAD_REACTORS
330
2A
102
}
330
2A
100
AcDbProxyObject
 90
      499
 91
      501
 93
      380
310
41119B185D240901404333333333333E33F0000000000000F9010740A907004050150841D405064090741402480A1B50
1001
ACAD
1000
AcDbSavedByObjectVersion
1070
     0
  0
ACAD_PROXY_OBJECT
  5
2C
102
{ACAD_REACTORS
330
2A
102
}
330
2A
100
AcDbProxyObject
 90
      499
 91
      501
 93
      468
310
43519B185D15DA5D1A115919D95CD0140901404333333333333E33F0000000000000F90107409019070040501600405405064090741402480A1B50
1001
ACAD
1000
AcDbSavedByObjectVersion
1070
     0
  0
ACAD_PROXY_OBJECT
  5
2D
102
{ACAD_REACTORS
330
2A
102
}
330
2A
100
AcDbProxyObject
 90
      499
 91
      501
 93
      404
310
41D1DBDD5C985D5910240902404333333333333E33F0000000000000F9010740A9070040501641D405064090741402480A1B50
1001
ACAD
1000
AcDbSavedByObjectVersion
1070
     0
  0
ACAD_PROXY_OBJECT
  5
2E
102
{ACAD_REACTORS
330
2A
102
}
330
2A
100
AcDbProxyObject
 90
      499
 91
      501
 93
      492
310
4411DBDD5C985D5915DA5D1A115919D95CD0340902404333333333333E33F0000000000000F90107409019070040501600405405064090741402480A1B50
1001
ACAD
1000
AcDbSavedByObjectVersion
1070
     0
  0
ACAD_PROXY_OBJECT
  5
31
102
{ACAD_REACTORS
330
2A
102
}
330
2A
100
AcDbProxyObject
 90
      499
 91
      501
 93
      476
310
41921A5919195B90640502408333333333333E33F0000000000000F901079024090700405020000000000001110200405405064090740C02480A0340
1001
ACAD
1000
AcDbSavedByObjectVersion
1070
     0
  0
ACAD_PROXY_OBJECT
  5
3B
102
{ACAD_REACTORS
330
2A
102
}
330
2A
100
AcDbProxyObject
 90
      499
 91
      501
 93
      428
310
42529A5D1D195C93D999914409028333333333333E33F0000000000000F9010790141107004050150A41D405064090741402480A0350
1001
ACAD
1000
AcDbSavedByObjectVersion
1070
     0
  0
ACAD_PROXY_OBJECT
  5
38
102
{ACAD_REACTORS
330
2A
102
}
330
2A
100
AcDbProxyObject
 90
      499
 91
      501
 93
      444
310
42D31A5B995C185D1D195C9B90E409028333333333333E33F0000000000000F9010790141107004050750841D405064090741402483A0350
1001
ACAD
1000
AcDbSavedByObjectVersion
1070
     0
  0
ACAD_PROXY_OBJECT
  5
3C
102
{ACAD_REACTORS
330
2A
102
}
330
2A
100
AcDbProxyObject
 90
      499
 91
      501
 93
      444
310
42D3DD995C9A185B99D3D999915409028333333333333E33F0000000000000F9010790141107004050150941D405064090741402480A0350
1001
ACAD
1000
AcDbSavedByObjectVersion
1070
     0
  0
ACAD_PROXY_OBJECT
  5
33
102
{ACAD_REACTORS
330
2A
102
}
330
2A
100
AcDbProxyObject
 90
      499
 91
      501
 93
      428
310
425499585B1A5CDD1A58D08409038333333333333E33F0000000000000F9010740A907004050150800405405064090740C02480A1B40
1001
ACAD
1000
AcDbSavedByObjectVersion
1070
     0
  0
ACAD_PROXY_OBJECT
  5
42
102
{ACAD_REACTORS
330
2A
102
}
330
2A
100
AcDbProxyObject
 90
      499
 91
      501
 93
      420
310
4194DA1859195911B40902404333333333333E33F0000000000000F9010740A41107004050150800405405064090840C02480A0B40
1001
ACAD
1000
AcDbSavedByObjectVersion
1070
     0
  0
ACAD_PROXY_OBJECT
  5
41
102
{ACAD_REACTORS
330
2A
102
}
330
2A
100
AcDbProxyObject
 90
      499
 91
      501
 93
      516
310
4454DA18591959081DDA5D1A08195919D95CD1A40902404333333333333E33F0000000000000F901074090142907004050250800405405064090740C02480A0B40
1001
ACAD
1000
AcDbSavedByObjectVersion
1070
     0
  0
ACAD_PROXY_OBJECT
  5
3E
102
{ACAD_REACTORS
330
2A
102
}
330
2A
100
AcDbProxyObject
 90
      499
 91
      501
 93
      532
310
4394DA1859195CC81BD98811DC985E5174090240C333333333333E33F0000000000000F901079024090741D01000000000000111010841D405064090740C02480A0340
1001
ACAD
1000
AcDbSavedByObjectVersion
1070
     0
  0
ACAD_PROXY_OBJECT
  5
3F
102
{ACAD_REACTORS
330
2A
102
}
330
2A
100
AcDbProxyObject
 90
      499
 91
      501
 93
      476
310
41D4DAD95D18DA1E51840502408333333333333E33F0000000000000F901079024090741D01000000000000111010B41D405064090741802480A0340
1001
ACAD
1000
AcDbSavedByObjectVersion
1070
     0
  0
ACAD_PROXY_OBJECT
  5
37
102
{ACAD_REACTORS
330
2A
102
}
330
2A
100
AcDbProxyObject
 90
      499
 91
      501
 93
      412
310
41D51A1A58DAD95B90D409028333333333333E33F0000000000000F9010790141107004050150C41D405064090741402480A0350
1001
ACAD
1000
AcDbSavedByObjectVersion
1070
     0
  0
ACAD_PROXY_OBJECT
  5
30
102
{ACAD_REACTORS
330
2A
102
}
330
2A
100
AcDbProxyObject
 90
      499
 91
      501
 93
      420
310
4255DA5C99599C985B595059028333333333333E33F0000000000000F90107901411070040501600405405064090740C02480A0340
1001
ACAD
1000
AcDbSavedByObjectVersion
1070
     0
  0
ACAD_PROXY_OBJECT
  5
40
102
{ACAD_REACTORS
330
2A
102
}
330
2A
100
AcDbProxyObject
 90
      499
 91
      501
 93
      404
310
41560B54985E51940902404000000000000E03F0000000000000F9010740501907004050150841D405064090740C02480A1B40
1001
ACAD
1000
AcDbSavedByObjectVersion
1070
     0
  0
XRECORD
  5
18A
102
{ACAD_REACTORS
330
180
102
}
330
180
100
AcDbXrecord
340
0
  0
XRECORD
  5
189
102
{ACAD_REACTORS
330
180
102
}
330
180
100
AcDbXrecord
 90
        0
  0
XRECORD
  5
1A0
102
{ACAD_REACTORS
330
180
102
}
330
180
100
AcDbXrecord
1000
DSTYLE
1002
{
1070
   179
 70
     2
1070
   171
 70
     2
1070
   143
 40
25.4
1070
   274
 70
     2
1070
    41
 40
3.0
1070
   141
 40
0.09
1070
    43
 40
0.38
1070
   278
 70
    46
1070
    44
 40
1.5
1070
    42
 40
0.0625
1070
   147
 40
1.5
1070
   272
 70
     4
1070
    73
 70
     1
1070
   172
 70
     0
1070
    74
 70
     1
1070
   283
 70
     1
1070
   340
340
6F
1070
   140
 40
3.0
1070
   284
 70
     0
1070
    78
 70
     0
1002
}
  0
XRECORD
  5
18B
102
{ACAD_REACTORS
330
180
102
}
330
180
100
AcDbXrecord
  1
{381776CB-E29A-4AED-B1DB-64A7EC42414A}
  0
XRECORD
  5
183
102
{ACAD_REACTORS
330
180
102
}
330
180
100
AcDbXrecord
  1

  0
XRECORD
  5
188
102
{ACAD_REACTORS
330
180
102
}
330
180
100
AcDbXrecord
 90
        4
  0
XRECORD
  5
185
102
{ACAD_REACTORS
330
180
102
}
330
180
100
AcDbXrecord
340
1A
  0
XRECORD
  5
187
102
{ACAD_REACTORS
330
180
102
}
330
180
100
AcDbXrecord
 90
    10269
  0
XRECORD
  5
186
102
{ACAD_REACTORS
330
180
102
}
330
180
100
AcDbXrecord
340
19
  0
XRECORD
  5
18D
102
{ACAD_REACTORS
330
180
102
}
330
180
100
AcDbXrecord
 40
0.0
  0
XRECORD
  5
190
102
{ACAD_REACTORS
330
180
102
}
330
180
100
AcDbXrecord
340
0
  0
XRECORD
  5
196
102
{ACAD_REACTORS
330
180
102
}
330
180
100
AcDbXrecord
 10
0.0
 20
0.0
 30
0.0
  0
XRECORD
  5
192
102
{ACAD_REACTORS
330
180
102
}
330
180
100
AcDbXrecord
 10
0.0
 20
0.0
 30
0.0
  0
XRECORD
  5
195
102
{ACAD_REACTORS
330
180
102
}
330
180
100
AcDbXrecord
 10
0.0
 20
0.0
 30
0.0
  0
XRECORD
  5
193
102
{ACAD_REACTORS
330
180
102
}
330
180
100
AcDbXrecord
 10
0.0
 20
0.0
 30
0.0
  0
XRECORD
  5
194
102
{ACAD_REACTORS
330
180
102
}
330
180
100
AcDbXrecord
 10
0.0
 20
0.0
 30
0.0
  0
XRECORD
  5
191
102
{ACAD_REACTORS
330
180
102
}
330
180
100
AcDbXrecord
 10
0.0
 20
0.0
 30
0.0
  0
XRECORD
  5
18E
102
{ACAD_REACTORS
330
180
102
}
330
180
100
AcDbXrecord
340
0
  0
XRECORD
  5
18F
102
{ACAD_REACTORS
330
180
102
}
330
180
100
AcDbXrecord
 70
     0
  0
XRECORD
  5
184
102
{ACAD_REACTORS
330
180
102
}
330
180
100
AcDbXrecord
  1

  0
XRECORD
  5
181
102
{ACAD_REACTORS
330
180
102
}
330
180
100
AcDbXrecord
 90
        1
  0
XRECORD
  5
182
102
{ACAD_REACTORS
330
180
102
}
330
180
100
AcDbXrecord
 90
       70
  0
XRECORD
  5
199
102
{ACAD_REACTORS
330
180
102
}
330
180
100
AcDbXrecord
340
0
  0
XRECORD
  5
19F
102
{ACAD_REACTORS
330
180
102
}
330
180
100
AcDbXrecord
 10
0.0
 20
0.0
 30
0.0
  0
XRECORD
  5
19B
102
{ACAD_REACTORS
330
180
102
}
330
180
100
AcDbXrecord
 10
0.0
 20
0.0
 30
0.0
  0
XRECORD
  5
19E
102
{ACAD_REACTORS
330
180
102
}
330
180
100
AcDbXrecord
 10
0.0
 20
0.0
 30
0.0
  0
XRECORD
  5
19C
102
{ACAD_REACTORS
330
180
102
}
330
180
100
AcDbXrecord
 10
0.0
 20
0.0
 30
0.0
  0
XRECORD
  5
19D
102
{ACAD_REACTORS
330
180
102
}
330
180
100
AcDbXrecord
 10
0.0
 20
0.0
 30
0.0
  0
XRECORD
  5
19A
102
{ACAD_REACTORS
330
180
102
}
330
180
100
AcDbXrecord
 10
0.0
 20
0.0
 30
0.0
  0
XRECORD
  5
197
102
{ACAD_REACTORS
330
180
102
}
330
180
100
AcDbXrecord
340
0
  0
XRECORD
  5
198
102
{ACAD_REACTORS
330
180
102
}
330
180
100
AcDbXrecord
 70
     0
  0
XRECORD
  5
18C
102
{ACAD_REACTORS
330
180
102
}
330
180
100
AcDbXrecord
  1
{FAEB1C32-E019-11D5-929B-00C0DF256EC4}
  0
DICTIONARYVAR
  5
1AA
102
{ACAD_REACTORS
330
1A1
102
}
330
1A1
100
DictionaryVariables
280
     0
  1
1:1
  0
DICTIONARYVAR
  5
1A3
102
{ACAD_REACTORS
330
1A1
102
}
330
1A1
100
DictionaryVariables
280
     0
  1
Standard
  0
DICTIONARYVAR
  5
1A2
102
{ACAD_REACTORS
330
1A1
102
}
330
1A1
100
DictionaryVariables
280
     0
  1
Standard
  0
DICTIONARYVAR
  5
1A6
102
{ACAD_REACTORS
330
1A1
102
}
330
1A1
100
DictionaryVariables
280
     0
  1
2
  0
DICTIONARYVAR
  5
1A7
102
{ACAD_REACTORS
330
1A1
102
}
330
1A1
100
DictionaryVariables
280
     0
  1
1
  0
DICTIONARYVAR
  5
1AB
102
{ACAD_REACTORS
330
1A1
102
}
330
1A1
100
DictionaryVariables
280
     0
  1
1
  0
DICTIONARY
  5
1AE
330
45
100
AcDbDictionary
280
     1
  3
ACAD_XREC_ROUNDTRIP
360
1AF
  0
DICTIONARY
  5
1AC
330
44
100
AcDbDictionary
280
     1
  3
ACAD_XREC_ROUNDTRIP
360
1AD
  0
DICTIONARY
  5
1B0
330
46
100
AcDbDictionary
280
     1
  3
ACAD_XREC_ROUNDTRIP
360
1B1
  0
XRECORD
  5
1AF
102
{ACAD_REACTORS
330
1AE
102
}
330
1AE
100
AcDbXrecord
102
MATERIAL
148
0.0
149
0.0
149
0.0
 93
        0
 94
      127
282
     0
 72
     1
 77
     1
171
     1
175
     1
179
     1
273
     0
  0
XRECORD
  5
1AD
102
{ACAD_REACTORS
330
1AC
102
}
330
1AC
100
AcDbXrecord
102
MATERIAL
148
0.0
149
0.0
149
0.0
 93
        0
 94
      127
282
     0
 72
     1
 77
     1
171
     1
175
     1
179
     1
273
     0
  0
XRECORD
  5
1B1
102
{ACAD_REACTORS
330
1B0
102
}
330
1B0
100
AcDbXrecord
102
MATERIAL
148
0.0
149
0.0
149
0.0
 93
        0
 94
      127
282
     0
 72
     1
 77
     1
171
     1
175
     1
179
     1
273
     0
  0
ENDSEC
  0
EOF
