  0
SECTION
  2
HEADER
  9
$ACADVER
  1
AC1014
  9
$ACADMAINTVER
 70
     9
  9
$DWGCODEPAGE
  3
ANSI_932
  9
$INSBASE
 10
0.0
 20
0.0
 30
0.0
  9
$EXTMIN
 10
-323.5
 20
-68.25000000000003
 30
0.0
  9
$EXTMAX
 10
-152.5
 20
230.7999999999999
 30
0.0
  9
$LIMMIN
 10
0.0
 20
0.0
  9
$LIMMAX
 10
12.0
 20
9.0
  9
$ORTHOMODE
 70
     0
  9
$REGENMODE
 70
     1
  9
$FILLMODE
 70
     1
  9
$QTEXTMODE
 70
     0
  9
$MIRRTEXT
 70
     1
  9
$DRAGMODE
 70
     2
  9
$LTSCALE
 40
1.0
  9
$OSMODE
 70
    37
  9
$ATTMODE
 70
     1
  9
$TEXTSIZE
 40
0.2
  9
$TRACEWID
 40
0.05
  9
$TEXTSTYLE
  7
STANDARD
  9
$CLAYER
  8
0
  9
$CELTYPE
  6
BYLAYER
  9
$CECOLOR
 62
   256
  9
$CELTSCALE
 40
1.0
  9
$DELOBJ
 70
     1
  9
$DISPSILH
 70
     0
  9
$DIMSCALE
 40
1.0
  9
$DIMASZ
 40
3.0
  9
$DIMEXO
 40
0.0625
  9
$DIMDLI
 40
0.38
  9
$DIMRND
 40
0.0
  9
$DIMDLE
 40
0.0
  9
$DIMEXE
 40
1.5
  9
$DIMTP
 40
0.0
  9
$DIMTM
 40
0.0
  9
$DIMTXT
 40
3.0
  9
$DIMCEN
 40
0.09
  9
$DIMTSZ
 40
0.0
  9
$DIMTOL
 70
     0
  9
$DIMLIM
 70
     0
  9
$DIMTIH
 70
     1
  9
$DIMTOH
 70
     1
  9
$DIMSE1
 70
     0
  9
$DIMSE2
 70
     0
  9
$DIMTAD
 70
     1
  9
$DIMZIN
 70
     0
  9
$DIMBLK
  1

  9
$DIMASO
 70
     1
  9
$DIMSHO
 70
     1
  9
$DIMPOST
  1

  9
$DIMAPOST
  1

  9
$DIMALT
 70
     0
  9
$DIMALTD
 70
     2
  9
$DIMALTF
 40
25.4
  9
$DIMLFAC
 40
1.0
  9
$DIMTOFL
 70
     0
  9
$DIMTVP
 40
0.0
  9
$DIMTIX
 70
     0
  9
$DIMSOXD
 70
     0
  9
$DIMSAH
 70
     0
  9
$DIMBLK1
  1

  9
$DIMBLK2
  1

  9
$DIMSTYLE
  2
STANDARD
  9
$DIMCLRD
 70
     0
  9
$DIMCLRE
 70
     0
  9
$DIMCLRT
 70
     0
  9
$DIMTFAC
 40
1.0
  9
$DIMGAP
 40
1.5
  9
$DIMJUST
 70
     0
  9
$DIMSD1
 70
     0
  9
$DIMSD2
 70
     0
  9
$DIMTOLJ
 70
     1
  9
$DIMTZIN
 70
     0
  9
$DIMALTZ
 70
     0
  9
$DIMALTTZ
 70
     0
  9
$DIMFIT
 70
     3
  9
$DIMUPT
 70
     0
  9
$DIMUNIT
 70
     2
  9
$DIMDEC
 70
     2
  9
$DIMTDEC
 70
     4
  9
$DIMALTU
 70
     2
  9
$DIMALTTD
 70
     2
  9
$DIMTXSTY
  7
ＭＳ_ゴシック
  9
$DIMAUNIT
 70
     0
  9
$LUNITS
 70
     2
  9
$LUPREC
 70
     4
  9
$SKETCHINC
 40
0.1
  9
$FILLETRAD
 40
0.5
  9
$AUNITS
 70
     0
  9
$AUPREC
 70
     0
  9
$MENU
  1
.
  9
$ELEVATION
 40
0.0
  9
$PELEVATION
 40
0.0
  9
$THICKNESS
 40
0.0
  9
$LIMCHECK
 70
     0
  9
$CHAMFERA
 40
0.0
  9
$CHAMFERB
 40
0.0
  9
$CHAMFERC
 40
0.0
  9
$CHAMFERD
 40
0.0
  9
$SKPOLY
 70
     0
  9
$TDCREATE
 40
2460095.436381747
  9
$TDUPDATE
 40
2460095.436381933
  9
$TDINDWG
 40
0.0000000116
  9
$TDUSRTIMER
 40
0.0000000116
  9
$USRTIMER
 70
     1
  9
$ANGBASE
 50
0.0
  9
$ANGDIR
 70
     0
  9
$PDMODE
 70
     0
  9
$PDSIZE
 40
0.0
  9
$PLINEWID
 40
0.0
  9
$COORDS
 70
     1
  9
$SPLFRAME
 70
     0
  9
$SPLINETYPE
 70
     6
  9
$SPLINESEGS
 70
     8
  9
$ATTDIA
 70
     0
  9
$ATTREQ
 70
     1
  9
$HANDLING
 70
     1
  9
$HANDSEED
  5
1BE
  9
$SURFTAB1
 70
     6
  9
$SURFTAB2
 70
     6
  9
$SURFTYPE
 70
     6
  9
$SURFU
 70
     6
  9
$SURFV
 70
     6
  9
$UCSNAME
  2

  9
$UCSORG
 10
0.0
 20
0.0
 30
0.0
  9
$UCSXDIR
 10
1.0
 20
0.0
 30
0.0
  9
$UCSYDIR
 10
0.0
 20
1.0
 30
0.0
  9
$PUCSNAME
  2

  9
$PUCSORG
 10
0.0
 20
0.0
 30
0.0
  9
$PUCSXDIR
 10
1.0
 20
0.0
 30
0.0
  9
$PUCSYDIR
 10
0.0
 20
1.0
 30
0.0
  9
$USERI1
 70
     0
  9
$USERI2
 70
     0
  9
$USERI3
 70
     0
  9
$USERI4
 70
     0
  9
$USERI5
 70
     0
  9
$USERR1
 40
0.0
  9
$USERR2
 40
0.0
  9
$USERR3
 40
0.0
  9
$USERR4
 40
0.0
  9
$USERR5
 40
0.0
  9
$WORLDVIEW
 70
     1
  9
$SHADEDGE
 70
     3
  9
$SHADEDIF
 70
    70
  9
$TILEMODE
 70
     1
  9
$MAXACTVP
 70
    64
  9
$PINSBASE
 10
0.0
 20
0.0
 30
0.0
  9
$PLIMCHECK
 70
     0
  9
$PEXTMIN
 10
1.000000000000000E+20
 20
1.000000000000000E+20
 30
1.000000000000000E+20
  9
$PEXTMAX
 10
-1.000000000000000E+20
 20
-1.000000000000000E+20
 30
-1.000000000000000E+20
  9
$PLIMMIN
 10
0.0
 20
0.0
  9
$PLIMMAX
 10
12.0
 20
9.0
  9
$UNITMODE
 70
     0
  9
$VISRETAIN
 70
     1
  9
$PLINEGEN
 70
     0
  9
$PSLTSCALE
 70
     1
  9
$TREEDEPTH
 70
  3020
  9
$PICKSTYLE
 70
     1
  9
$CMLSTYLE
  2
STANDARD
  9
$CMLJUST
 70
     0
  9
$CMLSCALE
 40
1.0
  9
$PROXYGRAPHICS
 70
     1
  9
$MEASUREMENT
 70
     1
  0
ENDSEC
  0
SECTION
  2
CLASSES
  0
CLASS
  1
ACDBDICTIONARYWDFLT
  2
AcDbDictionaryWithDefault
  3
ObjectDBX Classes
 90
        0
280
     0
281
     0
  0
CLASS
  1
VISUALSTYLE
  2
AcDbVisualStyle
  3
ObjectDBX Classes
 90
     4095
280
     0
281
     0
  0
CLASS
  1
MATERIAL
  2
AcDbMaterial
  3
ObjectDBX Classes
 90
     1153
280
     0
281
     0
  0
CLASS
  1
SCALE
  2
AcDbScale
  3
ObjectDBX Classes
 90
     1153
280
     0
281
     0
  0
CLASS
  1
TABLESTYLE
  2
AcDbTableStyle
  3
ObjectDBX Classes
 90
     4095
280
     0
281
     0
  0
CLASS
  1
MLEADERSTYLE
  2
AcDbMLeaderStyle
  3
ACDB_MLEADERSTYLE_CLASS
 90
     4095
280
     0
281
     0
  0
CLASS
  1
SUN
  2
AcDbSun
  3
SCENEOE
 90
     1153
280
     0
281
     0
  0
CLASS
  1
DICTIONARYVAR
  2
AcDbDictionaryVar
  3
ObjectDBX Classes
 90
        0
280
     0
281
     0
  0
CLASS
  1
XRECORD
  2
AcDbXrecord
  3
ObjectDBX Classes
 90
        0
280
     0
281
     0
  0
CLASS
  1
LWPOLYLINE
  2
AcDbPolyline
  3
ObjectDBX Classes
 90
        0
280
     0
281
     1
  0
CLASS
  1
HATCH
  2
AcDbHatch
  3
ObjectDBX Classes
 90
        0
280
     0
281
     1
  0
CLASS
  1
ACDBPLACEHOLDER
  2
AcDbPlaceHolder
  3
ObjectDBX Classes
 90
        0
280
     0
281
     0
  0
CLASS
  1
LAYOUT
  2
AcDbLayout
  3
ObjectDBX Classes
 90
        0
280
     0
281
     0
  0
ENDSEC
  0
SECTION
  2
TABLES
  0
TABLE
  2
VPORT
  5
8
102
{ACAD_XDICTIONARY
360
1B3
102
}
330
0
100
AcDbSymbolTable
 70
     1
  0
VPORT
  5
29
330
8
100
AcDbSymbolTableRecord
100
AcDbViewportTableRecord
  2
*ACTIVE
 70
     0
 10
0.0
 20
0.0
 11
1.0
 21
1.0
 12
-238.0
 22
81.27499999999993
 13
0.0
 23
0.0
 14
0.5
 24
0.5
 15
0.5
 25
0.5
 16
0.0
 26
0.0
 36
1.0
 17
0.0
 27
0.0
 37
0.0
 40
299.05
 41
1.6
 42
50.0
 43
0.0
 44
0.0
 50
0.0
 51
0.0
 71
     0
 72
   100
 73
     1
 74
     3
 75
     0
 76
     0
 77
     0
 78
     0
  0
ENDTAB
  0
TABLE
  2
LTYPE
  5
5
330
0
100
AcDbSymbolTable
 70
     2
  0
LTYPE
  5
14
330
5
100
AcDbSymbolTableRecord
100
AcDbLinetypeTableRecord
  2
BYBLOCK
 70
     0
  3

 72
    65
 73
     0
 40
0.0
  0
LTYPE
  5
15
330
5
100
AcDbSymbolTableRecord
100
AcDbLinetypeTableRecord
  2
BYLAYER
 70
     0
  3

 72
    65
 73
     0
 40
0.0
  0
LTYPE
  5
16
330
5
100
AcDbSymbolTableRecord
100
AcDbLinetypeTableRecord
  2
CONTINUOUS
 70
     0
  3
Solid line
 72
    65
 73
     0
 40
0.0
  0
LTYPE
  5
187
330
5
100
AcDbSymbolTableRecord
100
AcDbLinetypeTableRecord
  2
CENTER
 70
     0
  3

 72
    65
 73
     0
 40
0.0
  0
ENDTAB
  0
TABLE
  2
LAYER
  5
2
330
0
100
AcDbSymbolTable
 70
     2
  0
LAYER
  5
10
330
2
100
AcDbSymbolTableRecord
100
AcDbLayerTableRecord
  2
0
 70
     0
 62
     7
  6
CONTINUOUS
  0
LAYER
  5
6E
330
2
100
AcDbSymbolTableRecord
100
AcDbLayerTableRecord
  2
1
 70
     0
 62
     7
  6
CONTINUOUS
  0
ENDTAB
  0
TABLE
  2
STYLE
  5
3
330
0
100
AcDbSymbolTable
 70
     2
  0
STYLE
  5
11
330
3
100
AcDbSymbolTableRecord
100
AcDbTextStyleTableRecord
  2
STANDARD
 70
     0
 40
0.0
 41
1.0
 50
0.0
 71
     0
 42
0.2
  3
txt
  4

  0
STYLE
  5
6F
330
3
100
AcDbSymbolTableRecord
100
AcDbTextStyleTableRecord
  2
ＭＳ_ゴシック
 70
     0
 40
0.0
 41
1.0
 50
0.0
 71
     0
 42
0.2
  3
ＭＳ ゴシック.shx
  4

  0
ENDTAB
  0
TABLE
  2
VIEW
  5
6
330
0
100
AcDbSymbolTable
 70
     0
  0
ENDTAB
  0
TABLE
  2
UCS
  5
7
330
0
100
AcDbSymbolTable
 70
     0
  0
ENDTAB
  0
TABLE
  2
APPID
  5
9
330
0
100
AcDbSymbolTable
 70
     2
  0
APPID
  5
12
330
9
100
AcDbSymbolTableRecord
100
AcDbRegAppTableRecord
  2
ACAD
 70
     0
  0
APPID
  5
1BD
330
9
100
AcDbSymbolTableRecord
100
AcDbRegAppTableRecord
  2
ACAD_MLEADERVER
 70
     0
  0
ENDTAB
  0
TABLE
  2
DIMSTYLE
  5
A
330
0
100
AcDbSymbolTable
 70
     1
  0
DIMSTYLE
105
27
330
A
100
AcDbSymbolTableRecord
100
AcDbDimStyleTableRecord
  2
STANDARD
 70
     0
  3

  4

  5

  6

  7

 40
1.0
 41
0.18
 42
0.0625
 43
0.38
 44
0.18
 45
0.0
 46
0.0
 47
0.0
 48
0.0
140
0.18
141
0.09
142
0.0
143
25.4
144
1.0
145
0.0
146
1.0
147
0.09
 71
     0
 72
     0
 73
     1
 74
     1
 75
     0
 76
     0
 77
     0
 78
     0
170
     0
171
     2
172
     0
173
     0
174
     0
175
     0
176
     0
177
     0
178
     0
270
     2
271
     4
272
     4
273
     2
274
     2
340
11
275
     0
280
     0
281
     0
282
     0
283
     1
284
     0
285
     0
286
     0
287
     3
288
     0
  0
ENDTAB
  0
TABLE
  2
BLOCK_RECORD
  5
1
330
0
100
AcDbSymbolTable
 70
     0
  0
BLOCK_RECORD
  5
1F
330
1
100
AcDbSymbolTableRecord
100
AcDbBlockTableRecord
  2
*MODEL_SPACE
  0
BLOCK_RECORD
  5
1B
330
1
100
AcDbSymbolTableRecord
100
AcDbBlockTableRecord
  2
*PAPER_SPACE
  0
ENDTAB
  0
ENDSEC
  0
SECTION
  2
BLOCKS
  0
BLOCK
  5
20
330
1F
100
AcDbEntity
  8
0
100
AcDbBlockBegin
  2
*MODEL_SPACE
 70
     0
 10
0.0
 20
0.0
 30
0.0
  3
*MODEL_SPACE
  1

  0
ENDBLK
  5
21
330
1F
100
AcDbEntity
  8
0
100
AcDbBlockEnd
  0
BLOCK
  5
1C
330
1B
100
AcDbEntity
 67
     1
  8
0
100
AcDbBlockBegin
  2
*PAPER_SPACE
 70
     0
 10
0.0
 20
0.0
 30
0.0
  3
*PAPER_SPACE
  1

  0
ENDBLK
  5
1D
330
1B
100
AcDbEntity
 67
     1
  8
0
100
AcDbBlockEnd
  0
ENDSEC
  0
SECTION
  2
ENTITIES
  0
MTEXT
  5
70
330
1F
100
AcDbEntity
  8
1
 62
     7
100
AcDbMText
 10
-199.4927660372639
 20
6.198874577966742
 30
0.0
 40
3.0
 41
0.0
 71
     1
 72
     1
  1
{\fＭＳ ゴシック;PVR22-LBC1}
  0
LINE
  5
71
330
1F
100
AcDbEntity
  8
1
  6
CONTINUOUS
 62
     7
100
AcDbLine
 10
-295.0
 20
57.33180081414121
 30
0.0
 11
-295.0
 21
57.9606941655377
 31
0.0
  0
LINE
  5
72
330
1F
100
AcDbEntity
  8
1
  6
CONTINUOUS
 62
     7
100
AcDbLine
 10
-264.9999999999999
 20
57.9606941655377
 30
0.0
 11
-275.6891037816573
 21
57.9606941655377
 31
0.0
  0
LINE
  5
73
330
1F
100
AcDbEntity
  8
1
  6
CONTINUOUS
 62
     7
100
AcDbLine
 10
-264.9999999999999
 20
57.33180081414121
 30
0.0
 11
-264.9999999999999
 21
37.49127313220925
 31
0.0
  0
LINE
  5
74
330
1F
100
AcDbEntity
  8
1
  6
CONTINUOUS
 62
     7
100
AcDbLine
 10
-284.3108962183426
 20
57.9606941655377
 30
0.0
 11
-295.0
 21
57.9606941655377
 31
0.0
  0
LINE
  5
75
330
1F
100
AcDbEntity
  8
1
  6
CONTINUOUS
 62
     7
100
AcDbLine
 10
-264.9999999999999
 20
57.9606941655377
 30
0.0
 11
-264.9999999999999
 21
57.33180081414121
 31
0.0
  0
LINE
  5
76
330
1F
100
AcDbEntity
  8
1
  6
CONTINUOUS
 62
     7
100
AcDbLine
 10
-295.0
 20
57.33180081414121
 30
0.0
 11
-295.0
 21
37.49127313220925
 31
0.0
  0
LINE
  5
77
330
1F
100
AcDbEntity
  8
1
  6
CONTINUOUS
 62
     7
100
AcDbLine
 10
-278.9999999999999
 20
-30.5
 30
0.0
 11
-278.9999999999999
 21
-53.93041045127941
 31
0.0
  0
LINE
  5
78
330
1F
100
AcDbEntity
  8
1
  6
CONTINUOUS
 62
     7
100
AcDbLine
 10
-280.9999999999999
 20
-53.9304104512794
 30
0.0
 11
-280.9999999999999
 21
-30.5
 31
0.0
  0
LINE
  5
79
330
1F
100
AcDbEntity
  8
1
  6
CONTINUOUS
 62
     7
100
AcDbLine
 10
-201.5884033489985
 20
30.0
 30
0.0
 11
-207.5
 21
30.0
 31
0.0
  0
LINE
  5
7A
330
1F
100
AcDbEntity
  8
1
  6
CONTINUOUS
 62
     7
100
AcDbLine
 10
-207.5
 20
30.0
 30
0.0
 11
-207.5
 21
31.0
 31
0.0
  0
LINE
  5
7B
330
1F
100
AcDbEntity
  8
1
  6
CONTINUOUS
 62
     7
100
AcDbLine
 10
-207.5
 20
220.0
 30
0.0
 11
-201.3507810593582
 21
220.0
 31
0.0
  0
LINE
  5
7C
330
1F
100
AcDbEntity
  8
1
  6
CONTINUOUS
 62
     7
100
AcDbLine
 10
-207.5
 20
219.0
 30
0.0
 11
-207.5
 21
220.0
 31
0.0
  0
LINE
  5
7D
330
1F
100
AcDbEntity
  8
1
  6
CONTINUOUS
 62
     7
100
AcDbLine
 10
-207.5
 20
219.0
 30
0.0
 11
-207.5
 21
31.0
 31
0.0
  0
LINE
  5
7E
330
1F
100
AcDbEntity
  8
1
  6
CONTINUOUS
 62
     7
100
AcDbLine
 10
-198.785753927123
 20
33.98564293117863
 30
0.0
 11
-200.714246072877
 21
30.51435706882137
 31
0.0
  0
ARC
  5
7F
330
1F
100
AcDbEntity
  8
1
  6
CONTINUOUS
 62
     7
100
AcDbCircle
 10
-201.5884033489985
 20
31.0
 30
0.0
 40
0.9999999999999905
100
AcDbArc
 50
270.0
 51
330.9453959009228
  0
ARC
  5
80
330
1F
100
AcDbEntity
  8
1
  6
CONTINUOUS
 62
     7
100
AcDbCircle
 10
-201.3507810593582
 20
219.0
 30
0.0
 40
1.000000000000001
100
AcDbArc
 50
51.34019174591009
 51
90.0
  0
LINE
  5
81
330
1F
100
AcDbEntity
  8
1
  6
CONTINUOUS
 62
     7
100
AcDbLine
 10
-200.7260860118038
 20
219.780868809443
 30
0.0
 11
-198.7739139881962
 21
218.219131190557
 31
0.0
  0
ARC
  5
82
330
1F
100
AcDbEntity
  8
1
  6
CONTINUOUS
 62
     7
100
AcDbCircle
 10
-197.9115966510014
 20
33.5
 30
0.0
 40
1.000000000000001
100
AcDbArc
 50
90.0
 51
150.9453959009228
  0
ARC
  5
83
330
1F
100
AcDbEntity
  8
1
  6
CONTINUOUS
 62
     7
100
AcDbCircle
 10
-198.1492189406417
 20
219.0
 30
0.0
 40
1.000000000000001
100
AcDbArc
 50
231.3401917459092
 51
270.0
  0
LINE
  5
84
330
1F
100
AcDbEntity
  8
1
  6
CONTINUOUS
 62
     7
100
AcDbLine
 10
-198.1492189406417
 20
218.0
 30
0.0
 11
-153.5
 21
218.0
 31
0.0
  0
LINE
  5
85
330
1F
100
AcDbEntity
  8
1
  6
CONTINUOUS
 62
     7
100
AcDbLine
 10
-153.5
 20
34.5
 30
0.0
 11
-197.9115966510014
 21
34.5
 31
0.0
  0
LINE
  5
86
330
1F
100
AcDbEntity
  8
1
  6
CONTINUOUS
 62
     7
100
AcDbLine
 10
-152.5
 20
217.0
 30
0.0
 11
-152.5
 21
35.5
 31
0.0
  0
ARC
  5
87
330
1F
100
AcDbEntity
  8
1
  6
CONTINUOUS
 62
     7
100
AcDbCircle
 10
-153.5
 20
35.5
 30
0.0
 40
1.000000000000001
100
AcDbArc
 50
269.9999999999999
 51
0.0
  0
ARC
  5
88
330
1F
100
AcDbEntity
  8
1
  6
CONTINUOUS
 62
     7
100
AcDbCircle
 10
-153.5
 20
217.0
 30
0.0
 40
1.000000000000001
100
AcDbArc
 50
0.0
 51
90.00000000000006
  0
LINE
  5
89
330
1F
100
AcDbEntity
  8
1
  6
CONTINUOUS
 62
     7
100
AcDbLine
 10
-322.4973588597118
 20
-2.500000000000002
 30
0.0
 11
-283.9999999999999
 21
-2.500000000000002
 31
0.0
  0
ARC
  5
8A
330
1F
100
AcDbEntity
  8
1
  6
CONTINUOUS
 62
     7
100
AcDbCircle
 10
-283.9999999999999
 20
-3.000000000000003
 30
0.0
 40
0.5000000000000004
100
AcDbArc
 50
0.0
 51
90.0000000000003
  0
LINE
  5
8B
330
1F
100
AcDbEntity
  8
1
  6
CONTINUOUS
 62
     7
100
AcDbLine
 10
-283.4999999999999
 20
-7.500000000000006
 30
0.0
 11
-276.4999999999999
 21
-7.500000000000006
 31
0.0
  0
LINE
  5
8C
330
1F
100
AcDbEntity
  8
1
  6
CONTINUOUS
 62
     7
100
AcDbLine
 10
-276.4999999999999
 20
-3.000000000000003
 30
0.0
 11
-276.4999999999999
 21
-7.500000000000006
 31
0.0
  0
ARC
  5
8D
330
1F
100
AcDbEntity
  8
1
  6
CONTINUOUS
 62
     7
100
AcDbCircle
 10
-275.9999999999999
 20
-3.000000000000003
 30
0.0
 40
0.5000000000000004
100
AcDbArc
 50
90.0000000000003
 51
180.0
  0
LINE
  5
8E
330
1F
100
AcDbEntity
  8
1
  6
CONTINUOUS
 62
     7
100
AcDbLine
 10
-275.9999999999999
 20
-2.500000000000002
 30
0.0
 11
-237.5026411402881
 21
-2.500000000000002
 31
0.0
  0
LINE
  5
8F
330
1F
100
AcDbEntity
  8
1
  6
CONTINUOUS
 62
     7
100
AcDbLine
 10
-283.4999999999999
 20
-3.000000000000003
 30
0.0
 11
-283.4999999999999
 21
-7.500000000000006
 31
0.0
  0
LINE
  5
90
330
1F
100
AcDbEntity
  8
1
  6
CONTINUOUS
 62
     7
100
AcDbLine
 10
-236.5
 20
-2.500000000000002
 30
0.0
 11
-236.9352096252204
 21
-8.484132346780262
 31
0.0
  0
LINE
  5
91
330
1F
100
AcDbEntity
  8
1
  6
CONTINUOUS
 62
     7
100
AcDbLine
 10
-237.5026411402881
 20
-2.500000000000002
 30
0.0
 11
-236.4999999999999
 21
-2.500000000000002
 31
0.0
  0
LINE
  5
92
330
1F
100
AcDbEntity
  8
1
  6
CONTINUOUS
 62
     7
100
AcDbLine
 10
-323.0647903747796
 20
-8.484132346780262
 30
0.0
 11
-323.5
 21
-2.500000000000002
 31
0.0
  0
LINE
  5
93
330
1F
100
AcDbEntity
  8
1
  6
CONTINUOUS
 62
     7
100
AcDbLine
 10
-323.4999999999999
 20
-2.500000000000002
 30
0.0
 11
-322.4973588597118
 21
-2.500000000000002
 31
0.0
  0
LINE
  5
94
330
1F
100
AcDbEntity
  8
1
  6
CONTINUOUS
 62
     7
100
AcDbLine
 10
-236.9352096252204
 20
-8.484132346780262
 30
0.0
 11
-237.075463599457
 21
-10.4126244925343
 31
0.0
  0
LINE
  5
95
330
1F
100
AcDbEntity
  8
1
  6
CONTINUOUS
 62
     7
100
AcDbLine
 10
-322.9245364005429
 20
-10.41262449253429
 30
0.0
 11
-323.0647903747796
 21
-8.484132346780262
 31
0.0
  0
LINE
  5
96
330
1F
100
AcDbEntity
  8
1
  6
CONTINUOUS
 62
     7
100
AcDbLine
 10
-322.9245364005429
 20
-10.41262449253429
 30
0.0
 11
-322.7973862512889
 21
-12.16093904477737
 31
0.0
  0
LINE
  5
97
330
1F
100
AcDbEntity
  8
1
  6
CONTINUOUS
 62
     7
100
AcDbLine
 10
-237.202613748711
 20
-12.16093904477737
 30
0.0
 11
-237.075463599457
 21
-10.41262449253429
 31
0.0
  0
CIRCLE
  5
98
330
1F
100
AcDbEntity
  8
1
  6
CONTINUOUS
 62
     7
100
AcDbCircle
 10
-279.9999999999999
 20
-42.5
 30
0.0
 40
13.75000000000003
  0
ARC
  5
99
330
1F
100
AcDbEntity
  8
1
  6
CONTINUOUS
 62
     7
100
AcDbCircle
 10
-318.5700861324391
 20
-56.50000000000001
 30
0.0
 40
0.9999999999999977
100
AcDbArc
 50
184.1596422937118
 51
270.0
  0
LINE
  5
9A
330
1F
100
AcDbEntity
  8
1
  6
CONTINUOUS
 62
     7
100
AcDbLine
 10
-241.4299138675609
 20
-57.50000000000001
 30
0.0
 11
-318.570086132439
 21
-57.50000000000001
 31
0.0
  0
LINE
  5
9B
330
1F
100
AcDbEntity
  8
1
  6
CONTINUOUS
 62
     7
100
AcDbLine
 10
-319.5674519493978
 20
-56.57253569577882
 30
0.0
 11
-322.7973862512889
 21
-12.16093904477739
 31
0.0
  0
ARC
  5
9C
330
1F
100
AcDbEntity
  8
1
  6
CONTINUOUS
 62
     7
100
AcDbCircle
 10
-241.4299138675609
 20
-56.50000000000001
 30
0.0
 40
0.9999999999999974
100
AcDbArc
 50
270.0
 51
355.8403577062883
  0
LINE
  5
9D
330
1F
100
AcDbEntity
  8
1
  6
CONTINUOUS
 62
     7
100
AcDbLine
 10
-237.202613748711
 20
-12.16093904477737
 30
0.0
 11
-240.4325480506021
 21
-56.57253569577879
 31
0.0
  0
LINE
  5
9E
330
1F
100
AcDbEntity
  8
1
  6
CONTINUOUS
 62
     7
100
AcDbLine
 10
-284.3108962183426
 20
-54.49999999999999
 30
0.0
 11
-284.3084219849036
 21
-54.49999999999999
 31
0.0
  0
ARC
  5
9F
330
1F
100
AcDbEntity
  8
1
  6
CONTINUOUS
 62
     7
100
AcDbCircle
 10
-279.9999999999999
 20
-42.5
 30
0.0
 40
12.75000000000003
100
AcDbArc
 50
250.250077204357
 51
289.749922795643
  0
LINE
  5
A0
330
1F
100
AcDbEntity
  8
1
  6
CONTINUOUS
 62
     7
100
AcDbLine
 10
-275.6915780150964
 20
-54.49999999999999
 30
0.0
 11
-275.6891037816573
 21
-54.49999999999999
 31
0.0
  0
ARC
  5
A1
330
1F
100
AcDbEntity
  8
1
  6
CONTINUOUS
 62
     7
100
AcDbCircle
 10
-279.9999999999999
 20
-42.4857671255489
 30
0.0
 40
12.76423287445112
100
AcDbArc
 50
289.7387869595582
 51
250.2612130404418
  0
LINE
  5
A2
330
1F
100
AcDbEntity
  8
1
  6
CONTINUOUS
 62
     7
100
AcDbLine
 10
-276.4999999999999
 20
-5.700000000000011
 30
0.0
 11
-283.4999999999999
 21
-5.699999999999997
 31
0.0
  0
LINE
  5
A3
330
1F
100
AcDbEntity
  8
1
  6
CONTINUOUS
 62
     7
100
AcDbLine
 10
-284.3084219849036
 20
-54.49999999999999
 30
0.0
 11
-284.2584119849036
 21
-54.49999999999999
 31
0.0
  0
LINE
  5
A4
330
1F
100
AcDbEntity
  8
1
  6
CONTINUOUS
 62
     7
100
AcDbLine
 10
-284.2584119849036
 20
-54.49999999999999
 30
0.0
 11
-275.7415880150963
 21
-54.49999999999999
 31
0.0
  0
LINE
  5
A5
330
1F
100
AcDbEntity
  8
1
  6
CONTINUOUS
 62
     7
100
AcDbLine
 10
-275.7415880150963
 20
-54.49999999999999
 30
0.0
 11
-275.6915780150964
 21
-54.49999999999999
 31
0.0
  0
ARC
  5
A6
330
1F
100
AcDbEntity
  8
1
  6
CONTINUOUS
 62
     7
100
AcDbCircle
 10
-279.9999999999999
 20
-30.5
 30
0.0
 40
0.999999999999998
100
AcDbArc
 50
130.3565189570763
 51
180.0
  0
ARC
  5
A7
330
1F
100
AcDbEntity
  8
1
  6
CONTINUOUS
 62
     7
100
AcDbCircle
 10
-279.9999999999999
 20
-30.5
 30
0.0
 40
1.000000000000001
100
AcDbArc
 50
0.0
 51
49.64348104292375
  0
LINE
  5
A8
330
1F
100
AcDbEntity
  8
1
  6
CONTINUOUS
 62
     7
100
AcDbLine
 10
-272.5922591544839
 20
-32.09101132225722
 30
0.0
 11
-271.5462917377779
 21
-52.04925857133481
 31
0.0
  0
LINE
  5
A9
330
1F
100
AcDbEntity
  8
1
  6
CONTINUOUS
 62
     7
100
AcDbLine
 10
-288.453708262222
 20
-52.04925857133481
 30
0.0
 11
-287.4077408455159
 21
-32.09101132225721
 31
0.0
  0
LINE
  5
AA
330
1F
100
AcDbEntity
  8
1
  6
CONTINUOUS
 62
     7
100
AcDbLine
 10
-289.2626885937949
 20
-33.70350464879035
 30
0.0
 11
-290.6469912277477
 21
-49.52615615772131
 31
0.0
  0
LINE
  5
AB
330
1F
100
AcDbEntity
  8
1
  6
CONTINUOUS
 62
     7
100
AcDbLine
 10
-270.737311406205
 20
-33.70350464879036
 30
0.0
 11
-269.3530087722522
 21
-49.52615615772131
 31
0.0
  0
ARC
  5
AC
330
1F
100
AcDbEntity
  8
1
  6
CONTINUOUS
 62
     7
100
AcDbCircle
 10
-279.9999999999999
 20
-35.49999999999999
 30
0.0
 40
14.00000000000001
100
AcDbArc
 50
204.7451742337305
 51
220.9039562418477
  0
ARC
  5
AD
330
1F
100
AcDbEntity
  8
1
  6
CONTINUOUS
 62
     7
100
AcDbCircle
 10
-279.9999999999999
 20
-35.49999999999999
 30
0.0
 40
14.0069820259713
100
AcDbArc
 50
220.9060014695207
 51
222.9365817246362
  0
ARC
  5
AE
330
1F
100
AcDbEntity
  8
1
  6
CONTINUOUS
 62
     7
100
AcDbCircle
 10
-279.9999999999999
 20
-35.49999999999999
 30
0.0
 40
14.00698202597129
100
AcDbArc
 50
317.0634182753638
 51
319.0939985304793
  0
ARC
  5
AF
330
1F
100
AcDbEntity
  8
1
  6
CONTINUOUS
 62
     7
100
AcDbCircle
 10
-279.9999999999999
 20
-35.49999999999999
 30
0.0
 40
14.00000000000001
100
AcDbArc
 50
319.0960437581523
 51
335.2548257662693
  0
ARC
  5
B0
330
1F
100
AcDbEntity
  8
1
  6
CONTINUOUS
 62
     7
100
AcDbCircle
 10
-279.9999999999999
 20
-35.49999999999999
 30
0.0
 40
11.5
100
AcDbArc
 50
186.47731910428
 51
210.3135008172999
  0
ARC
  5
B1
330
1F
100
AcDbEntity
  8
1
  6
CONTINUOUS
 62
     7
100
AcDbCircle
 10
-279.9999999999999
 20
-35.49999999999999
 30
0.0
 40
11.5
100
AcDbArc
 50
329.6864991826999
 51
353.5226808957197
  0
ARC
  5
B2
330
1F
100
AcDbEntity
  8
1
  6
CONTINUOUS
 62
     7
100
AcDbCircle
 10
-279.9999999999999
 20
-35.49999999999999
 30
0.0
 40
13.19999999999999
100
AcDbArc
 50
320.3090293780412
 51
340.9760676062285
  0
LINE
  5
B3
330
1F
100
AcDbEntity
  8
1
  6
CONTINUOUS
 62
     7
100
AcDbLine
 10
-283.9999999999999
 20
-2.499999999999988
 30
0.0
 11
-275.9999999999999
 21
-2.499999999999988
 31
0.0
  0
CIRCLE
  5
B4
330
1F
100
AcDbEntity
  8
1
  6
CONTINUOUS
 62
     7
100
AcDbCircle
 10
-279.9999999999999
 20
115.4999999999993
 30
0.0
 40
2.249999999999995
  0
CIRCLE
  5
B5
330
1F
100
AcDbEntity
  8
1
  6
CONTINUOUS
 62
     7
100
AcDbCircle
 10
-279.9999999999999
 20
115.4999999999993
 30
0.0
 40
1.649999999999999
  0
CIRCLE
  5
B6
330
1F
100
AcDbEntity
  8
1
  6
CONTINUOUS
 62
     7
100
AcDbCircle
 10
-279.9999999999999
 20
198.9999999999993
 30
0.0
 40
2.249999999999995
  0
CIRCLE
  5
B7
330
1F
100
AcDbEntity
  8
1
  6
CONTINUOUS
 62
     7
100
AcDbCircle
 10
-279.9999999999999
 20
198.9999999999993
 30
0.0
 40
1.649999999999999
  0
ARC
  5
B8
330
1F
100
AcDbEntity
  8
1
  6
CONTINUOUS
 62
     7
100
AcDbCircle
 10
-252.5
 20
75.99999999999999
 30
0.0
 40
2.250000000000012
100
AcDbArc
 50
167.1604115930959
 51
192.8395884069042
  0
ARC
  5
B9
330
1F
100
AcDbEntity
  8
1
  6
CONTINUOUS
 62
     7
100
AcDbCircle
 10
-252.5
 20
75.99999999999999
 30
0.0
 40
2.249999999999998
100
AcDbArc
 50
257.1604115930959
 51
282.8395884069043
  0
ARC
  5
BA
330
1F
100
AcDbEntity
  8
1
  6
CONTINUOUS
 62
     7
100
AcDbCircle
 10
-252.5
 20
75.99999999999999
 30
0.0
 40
2.249999999999998
100
AcDbArc
 50
347.1604115930958
 51
12.83958840690411
  0
ARC
  5
BB
330
1F
100
AcDbEntity
  8
1
  6
CONTINUOUS
 62
     7
100
AcDbCircle
 10
-252.5
 20
75.99999999999999
 30
0.0
 40
2.249999999999998
100
AcDbArc
 50
77.16041159309587
 51
102.8395884069042
  0
ARC
  5
BC
330
1F
100
AcDbEntity
  8
1
  6
CONTINUOUS
 62
     7
100
AcDbCircle
 10
-251.2
 20
74.69999999999999
 30
0.0
 40
0.800000000000009
100
AcDbArc
 50
89.99999999999977
 51
179.9999999999995
  0
LINE
  5
BD
330
1F
100
AcDbEntity
  8
1
  6
CONTINUOUS
 62
     7
100
AcDbLine
 10
-251.2
 20
75.49999999999999
 30
0.0
 11
-250.3062589031519
 21
75.49999999999999
 31
0.0
  0
ARC
  5
BE
330
1F
100
AcDbEntity
  8
1
  6
CONTINUOUS
 62
     7
100
AcDbCircle
 10
-251.2
 20
77.29999999999998
 30
0.0
 40
0.7999999999999952
100
AcDbArc
 50
180.0
 51
269.9999999999995
  0
LINE
  5
BF
330
1F
100
AcDbEntity
  8
1
  6
CONTINUOUS
 62
     7
100
AcDbLine
 10
-252.0
 20
77.29999999999998
 30
0.0
 11
-252.0
 21
78.19374109684802
 31
0.0
  0
LINE
  5
C0
330
1F
100
AcDbEntity
  8
1
  6
CONTINUOUS
 62
     7
100
AcDbLine
 10
-253.0
 20
78.19374109684802
 30
0.0
 11
-253.0
 21
77.29999999999998
 31
0.0
  0
CIRCLE
  5
C1
330
1F
100
AcDbEntity
  8
1
  6
CONTINUOUS
 62
     7
100
AcDbCircle
 10
-252.5
 20
75.99999999999999
 30
0.0
 40
3.99999999999999
  0
LINE
  5
C2
330
1F
100
AcDbEntity
  8
1
  6
CONTINUOUS
 62
     7
100
AcDbLine
 10
-250.3062589031519
 20
76.49999999999999
 30
0.0
 11
-251.2
 21
76.49999999999999
 31
0.0
  0
LINE
  5
C3
330
1F
100
AcDbEntity
  8
1
  6
CONTINUOUS
 62
     7
100
AcDbLine
 10
-253.8
 20
76.49999999999999
 30
0.0
 11
-254.693741096848
 21
76.49999999999999
 31
0.0
  0
ARC
  5
C4
330
1F
100
AcDbEntity
  8
1
  6
CONTINUOUS
 62
     7
100
AcDbCircle
 10
-253.8
 20
77.29999999999998
 30
0.0
 40
0.800000000000009
100
AcDbArc
 50
270.0000000000002
 51
0.0
  0
ARC
  5
C5
330
1F
100
AcDbEntity
  8
1
  6
CONTINUOUS
 62
     7
100
AcDbCircle
 10
-253.8
 20
74.69999999999999
 30
0.0
 40
0.7999999999999952
100
AcDbArc
 50
0.0
 51
89.99999999999949
  0
LINE
  5
C6
330
1F
100
AcDbEntity
  8
1
  6
CONTINUOUS
 62
     7
100
AcDbLine
 10
-254.693741096848
 20
75.49999999999999
 30
0.0
 11
-253.8
 21
75.49999999999999
 31
0.0
  0
LINE
  5
C7
330
1F
100
AcDbEntity
  8
1
  6
CONTINUOUS
 62
     7
100
AcDbLine
 10
-252.0
 20
73.80625890315196
 30
0.0
 11
-252.0
 21
74.69999999999999
 31
0.0
  0
LINE
  5
C8
330
1F
100
AcDbEntity
  8
1
  6
CONTINUOUS
 62
     7
100
AcDbLine
 10
-253.0
 20
74.69999999999999
 30
0.0
 11
-253.0
 21
73.80625890315196
 31
0.0
  0
ARC
  5
C9
330
1F
100
AcDbEntity
  8
1
  6
CONTINUOUS
 62
     7
100
AcDbCircle
 10
-307.5
 20
75.99999999999999
 30
0.0
 40
2.249999999999998
100
AcDbArc
 50
347.1604115930958
 51
12.83958840690411
  0
ARC
  5
CA
330
1F
100
AcDbEntity
  8
1
  6
CONTINUOUS
 62
     7
100
AcDbCircle
 10
-307.5
 20
75.99999999999999
 30
0.0
 40
2.250000000000001
100
AcDbArc
 50
167.1604115930959
 51
192.8395884069042
  0
ARC
  5
CB
330
1F
100
AcDbEntity
  8
1
  6
CONTINUOUS
 62
     7
100
AcDbCircle
 10
-307.5
 20
75.99999999999999
 30
0.0
 40
2.249999999999998
100
AcDbArc
 50
77.16041159309587
 51
102.8395884069042
  0
ARC
  5
CC
330
1F
100
AcDbEntity
  8
1
  6
CONTINUOUS
 62
     7
100
AcDbCircle
 10
-307.5
 20
75.99999999999999
 30
0.0
 40
2.249999999999998
100
AcDbArc
 50
257.1604115930959
 51
282.8395884069043
  0
ARC
  5
CD
330
1F
100
AcDbEntity
  8
1
  6
CONTINUOUS
 62
     7
100
AcDbCircle
 10
-306.2
 20
74.69999999999999
 30
0.0
 40
0.800000000000002
100
AcDbArc
 50
89.99999999999977
 51
179.9999999999995
  0
LINE
  5
CE
330
1F
100
AcDbEntity
  8
1
  6
CONTINUOUS
 62
     7
100
AcDbLine
 10
-306.2
 20
75.49999999999999
 30
0.0
 11
-305.306258903152
 21
75.49999999999999
 31
0.0
  0
ARC
  5
CF
330
1F
100
AcDbEntity
  8
1
  6
CONTINUOUS
 62
     7
100
AcDbCircle
 10
-306.2
 20
77.29999999999998
 30
0.0
 40
0.7999999999999952
100
AcDbArc
 50
180.0
 51
269.9999999999995
  0
ARC
  5
D0
330
1F
100
AcDbEntity
  8
1
  6
CONTINUOUS
 62
     7
100
AcDbCircle
 10
-308.8
 20
77.29999999999998
 30
0.0
 40
0.7999999999999986
100
AcDbArc
 50
270.0000000000002
 51
0.0
  0
LINE
  5
D1
330
1F
100
AcDbEntity
  8
1
  6
CONTINUOUS
 62
     7
100
AcDbLine
 10
-307.9999999999999
 20
78.19374109684802
 30
0.0
 11
-307.9999999999999
 21
77.29999999999998
 31
0.0
  0
LINE
  5
D2
330
1F
100
AcDbEntity
  8
1
  6
CONTINUOUS
 62
     7
100
AcDbLine
 10
-308.8
 20
76.49999999999999
 30
0.0
 11
-309.693741096848
 21
76.49999999999999
 31
0.0
  0
CIRCLE
  5
D3
330
1F
100
AcDbEntity
  8
1
  6
CONTINUOUS
 62
     7
100
AcDbCircle
 10
-307.5
 20
75.99999999999999
 30
0.0
 40
4.000000000000004
  0
ARC
  5
D4
330
1F
100
AcDbEntity
  8
1
  6
CONTINUOUS
 62
     7
100
AcDbCircle
 10
-308.8
 20
74.69999999999999
 30
0.0
 40
0.7999999999999952
100
AcDbArc
 50
0.0
 51
89.99999999999949
  0
LINE
  5
D5
330
1F
100
AcDbEntity
  8
1
  6
CONTINUOUS
 62
     7
100
AcDbLine
 10
-309.693741096848
 20
75.49999999999999
 30
0.0
 11
-308.8
 21
75.49999999999999
 31
0.0
  0
LINE
  5
D6
330
1F
100
AcDbEntity
  8
1
  6
CONTINUOUS
 62
     7
100
AcDbLine
 10
-307.9999999999999
 20
74.69999999999999
 30
0.0
 11
-307.9999999999999
 21
73.80625890315196
 31
0.0
  0
LINE
  5
D7
330
1F
100
AcDbEntity
  8
1
  6
CONTINUOUS
 62
     7
100
AcDbLine
 10
-306.9999999999999
 20
77.29999999999998
 30
0.0
 11
-306.9999999999999
 21
78.19374109684802
 31
0.0
  0
LINE
  5
D8
330
1F
100
AcDbEntity
  8
1
  6
CONTINUOUS
 62
     7
100
AcDbLine
 10
-306.9999999999999
 20
73.80625890315196
 30
0.0
 11
-306.9999999999999
 21
74.69999999999999
 31
0.0
  0
LINE
  5
D9
330
1F
100
AcDbEntity
  8
1
  6
CONTINUOUS
 62
     7
100
AcDbLine
 10
-305.306258903152
 20
76.49999999999999
 30
0.0
 11
-306.2
 21
76.49999999999999
 31
0.0
  0
LINE
  5
DA
330
1F
100
AcDbEntity
  8
1
  6
CONTINUOUS
 62
     7
100
AcDbLine
 10
-320.4999999999999
 20
217.0000380769358
 30
0.0
 11
-320.4999999999999
 21
97.5
 31
0.0
  0
LINE
  5
DB
330
1F
100
AcDbEntity
  8
1
  6
CONTINUOUS
 62
     7
100
AcDbLine
 10
-320.5087268677908
 20
96.5
 30
0.0
 11
-320.5
 21
97.5
 31
0.0
  0
LINE
  5
DC
330
1F
100
AcDbEntity
  8
1
  6
CONTINUOUS
 62
     7
100
AcDbLine
 10
-320.5087268677908
 20
34.99123505527344
 30
0.0
 11
-320.5087268677908
 21
96.5
 31
0.0
  0
LINE
  5
DD
330
1F
100
AcDbEntity
  8
1
  6
CONTINUOUS
 62
     7
100
AcDbLine
 10
-320.5523612067445
 20
34.94760071631963
 30
0.0
 11
-320.5523612067445
 21
217.0523992836804
 31
0.0
  0
LWPOLYLINE
  5
DE
330
1F
100
AcDbEntity
  8
1
  6
CONTINUOUS
 62
     7
100
AcDbPolyline
 90
        9
 70
     0
 43
0.0
 10
-239.5
 20
217.0000380769359
 10
-239.5192135941609
 20
217.1951250274379
 10
-239.5761160803557
 20
217.3827126940797
 10
-239.6685209392904
 20
217.5555928847445
 10
-239.7928774472548
 20
217.7071225527451
 10
-239.9444071152554
 20
217.8314790607095
 10
-240.1172873059203
 20
217.9238839196443
 10
-240.304874972562
 20
217.980786405839
 10
-240.4999619230641
 20
218.0
  0
LWPOLYLINE
  5
DF
330
1F
100
AcDbEntity
  8
1
  6
CONTINUOUS
 62
     7
100
AcDbPolyline
 90
        9
 70
     0
 43
0.0
 10
-239.4476387932554
 20
217.0523992836803
 10
-239.4668523874163
 20
217.2474862341824
 10
-239.5237548736111
 20
217.4350739008242
 10
-239.6161597325458
 20
217.6079540914891
 10
-239.7405162405103
 20
217.7594837594897
 10
-239.8920459085109
 20
217.8838402674541
 10
-240.0649260991757
 20
217.9762451263888
 10
-240.2525137658175
 20
218.0331476125836
 10
-240.4476007163196
 20
218.0523612067445
  0
LWPOLYLINE
  5
E0
330
1F
100
AcDbEntity
  8
1
  6
CONTINUOUS
 62
     7
100
AcDbPolyline
 90
        9
 70
     0
 43
0.0
 10
-237.5026411402881
 20
30.0
 10
-237.3070355573627
 20
30.01921471959677
 10
-237.1189469872922
 20
30.07612046748872
 10
-236.9456035683432
 20
30.16853038769746
 10
-236.7936667908938
 20
30.29289321881346
 10
-236.6689755000941
 20
30.4444297669804
 10
-236.5763215123221
 20
30.61731656763492
 10
-236.5192654683668
 20
30.80490967798388
 10
-236.5
 20
31.0
  0
LINE
  5
E1
330
1F
100
AcDbEntity
  8
1
  6
CONTINUOUS
 62
     7
100
AcDbLine
 10
-239.5
 20
97.5
 30
0.0
 11
-239.4912731322092
 21
96.5
 31
0.0
  0
LINE
  5
E2
330
1F
100
AcDbEntity
  8
1
  6
CONTINUOUS
 62
     7
100
AcDbLine
 10
-239.5
 20
97.5
 30
0.0
 11
-239.5
 21
217.0000380769358
 31
0.0
  0
LINE
  5
E3
330
1F
100
AcDbEntity
  8
1
  6
CONTINUOUS
 62
     7
100
AcDbLine
 10
-239.4476387932554
 20
217.0523992836804
 30
0.0
 11
-239.4476387932554
 21
34.94760071631961
 31
0.0
  0
LINE
  5
E4
330
1F
100
AcDbEntity
  8
1
  6
CONTINUOUS
 62
     7
100
AcDbLine
 10
-239.4912731322092
 20
96.5
 30
0.0
 11
-239.4912731322092
 21
34.99123505527341
 31
0.0
  0
LINE
  5
E5
330
1F
100
AcDbEntity
  8
1
  6
CONTINUOUS
 62
     7
100
AcDbLine
 10
-275.9999999999999
 20
30.0
 30
0.0
 11
-276.4999999999999
 21
30.0
 31
0.0
  0
LINE
  5
E6
330
1F
100
AcDbEntity
  8
1
  6
CONTINUOUS
 62
     7
100
AcDbLine
 10
-276.4999999999999
 20
30.0
 30
0.0
 11
-276.4999999999999
 21
33.95200222715084
 31
0.0
  0
LINE
  5
E7
330
1F
100
AcDbEntity
  8
1
  6
CONTINUOUS
 62
     7
100
AcDbLine
 10
-276.4999999999999
 20
33.95200222715084
 30
0.0
 11
-275.9999999999999
 21
33.94763879325545
 31
0.0
  0
LINE
  5
E8
330
1F
100
AcDbEntity
  8
1
  6
CONTINUOUS
 62
     7
100
AcDbLine
 10
-283.9999999999999
 20
33.94763879325545
 30
0.0
 11
-283.4999999999999
 21
33.95200222715084
 31
0.0
  0
LINE
  5
E9
330
1F
100
AcDbEntity
  8
1
  6
CONTINUOUS
 62
     7
100
AcDbLine
 10
-283.4999999999999
 20
33.95200222715084
 30
0.0
 11
-283.4999999999999
 21
30.0
 31
0.0
  0
LINE
  5
EA
330
1F
100
AcDbEntity
  8
1
  6
CONTINUOUS
 62
     7
100
AcDbLine
 10
-283.4999999999999
 20
30.0
 30
0.0
 11
-283.9999999999999
 21
30.0
 31
0.0
  0
LWPOLYLINE
  5
EB
330
1F
100
AcDbEntity
  8
1
  6
CONTINUOUS
 62
     7
100
AcDbPolyline
 90
        9
 70
     0
 43
0.0
 10
-240.4912350552734
 20
33.99127313220924
 10
-240.2961481047713
 20
34.01048672637017
 10
-240.1085604381295
 20
34.06738921256495
 10
-239.9356802474647
 20
34.15979407149968
 10
-239.7841505794641
 20
34.28415057946408
 10
-239.6597940714997
 20
34.43568024746469
 10
-239.5673892125649
 20
34.60856043812952
 10
-239.5104867263701
 20
34.79614810477129
 10
-239.4912731322092
 20
34.9912350552734
  0
LWPOLYLINE
  5
EC
330
1F
100
AcDbEntity
  8
1
  6
CONTINUOUS
 62
     7
100
AcDbPolyline
 90
        9
 70
     0
 43
0.0
 10
-240.4476007163196
 20
33.94763879325545
 10
-240.2525137658175
 20
33.96685238741637
 10
-240.0649260991757
 20
34.02375487361115
 10
-239.8920459085109
 20
34.11615973254589
 10
-239.7405162405102
 20
34.24051624051028
 10
-239.6161597325458
 20
34.39204590851089
 10
-239.5237548736111
 20
34.56492609917573
 10
-239.4668523874163
 20
34.75251376581749
 10
-239.4476387932554
 20
34.94760071631961
  0
LINE
  5
ED
330
1F
100
AcDbEntity
  8
1
  6
CONTINUOUS
 62
     7
100
AcDbLine
 10
-240.4912350552734
 20
33.99127313220924
 30
0.0
 11
-276.4999999999999
 21
33.99127313220924
 31
0.0
  0
LINE
  5
EE
330
1F
100
AcDbEntity
  8
1
  6
CONTINUOUS
 62
     7
100
AcDbLine
 10
-240.4476007163196
 20
33.94763879325546
 30
0.0
 11
-275.9999999999999
 21
33.94763879325546
 31
0.0
  0
LINE
  5
EF
330
1F
100
AcDbEntity
  8
1
  6
CONTINUOUS
 62
     7
100
AcDbLine
 10
-276.4999999999999
 20
33.99127313220924
 30
0.0
 11
-276.4999999999999
 21
33.95200222715084
 31
0.0
  0
LWPOLYLINE
  5
F0
330
1F
100
AcDbEntity
  8
1
  6
CONTINUOUS
 62
     7
100
AcDbPolyline
 90
        9
 70
     0
 43
0.0
 10
-319.5000380769358
 20
218.0
 10
-319.6951250274379
 20
217.980786405839
 10
-319.8827126940797
 20
217.9238839196443
 10
-320.0555928847444
 20
217.8314790607095
 10
-320.2071225527451
 20
217.7071225527451
 10
-320.3314790607095
 20
217.5555928847445
 10
-320.4238839196442
 20
217.3827126940797
 10
-320.480786405839
 20
217.1951250274379
 10
-320.4999999999999
 20
217.0000380769359
  0
LWPOLYLINE
  5
F1
330
1F
100
AcDbEntity
  8
1
  6
CONTINUOUS
 62
     7
100
AcDbPolyline
 90
        9
 70
     0
 43
0.0
 10
-319.5523992836804
 20
218.0523612067445
 10
-319.7474862341825
 20
218.0331476125836
 10
-319.9350739008242
 20
217.9762451263888
 10
-320.107954091489
 20
217.8838402674541
 10
-320.2594837594897
 20
217.7594837594897
 10
-320.383840267454
 20
217.6079540914891
 10
-320.4762451263888
 20
217.4350739008242
 10
-320.5331476125836
 20
217.2474862341824
 10
-320.5523612067445
 20
217.0523992836804
  0
LWPOLYLINE
  5
F2
330
1F
100
AcDbEntity
  8
1
  6
CONTINUOUS
 62
     7
100
AcDbPolyline
 90
        9
 70
     0
 43
0.0
 10
-323.5
 20
31.0
 10
-323.4807345316332
 20
30.80490967798387
 10
-323.4236784876778
 20
30.61731656763491
 10
-323.3310244999058
 20
30.4444297669804
 10
-323.2063332091062
 20
30.29289321881345
 10
-323.0543964316568
 20
30.16853038769746
 10
-322.8810530127078
 20
30.07612046748871
 10
-322.6929644426373
 20
30.01921471959677
 10
-322.4973588597118
 20
30.0
  0
LINE
  5
F3
330
1F
100
AcDbEntity
  8
1
  6
CONTINUOUS
 62
     7
100
AcDbLine
 10
-319.5523992836804
 20
218.0523612067445
 30
0.0
 11
-240.4476007163196
 21
218.0523612067445
 31
0.0
  0
LINE
  5
F4
330
1F
100
AcDbEntity
  8
1
  6
CONTINUOUS
 62
     7
100
AcDbLine
 10
-240.4999619230641
 20
218.0
 30
0.0
 11
-319.5000380769358
 21
218.0
 31
0.0
  0
LWPOLYLINE
  5
F5
330
1F
100
AcDbEntity
  8
1
  6
CONTINUOUS
 62
     7
100
AcDbPolyline
 90
        9
 70
     0
 43
0.0
 10
-322.4973588597118
 20
220.0
 10
-322.6929644426373
 20
219.9807852804032
 10
-322.8810530127078
 20
219.9238795325113
 10
-323.0543964316568
 20
219.8314696123026
 10
-323.2063332091062
 20
219.7071067811866
 10
-323.3310244999058
 20
219.5555702330196
 10
-323.4236784876778
 20
219.3826834323651
 10
-323.4807345316332
 20
219.1950903220161
 10
-323.5
 20
219.0
  0
LWPOLYLINE
  5
F6
330
1F
100
AcDbEntity
  8
1
  6
CONTINUOUS
 62
     7
100
AcDbPolyline
 90
        9
 70
     0
 43
0.0
 10
-320.5523612067445
 20
34.94760071631964
 10
-320.5331476125836
 20
34.75251376581753
 10
-320.4762451263888
 20
34.56492609917576
 10
-320.383840267454
 20
34.39204590851092
 10
-320.2594837594897
 20
34.24051624051032
 10
-320.1079540914891
 20
34.11615973254591
 10
-319.9350739008242
 20
34.02375487361117
 10
-319.7474862341825
 20
33.9668523874164
 10
-319.5523992836804
 20
33.94763879325546
  0
LINE
  5
F7
330
1F
100
AcDbEntity
  8
1
  6
CONTINUOUS
 62
     7
100
AcDbLine
 10
-283.9999999999999
 20
33.94763879325546
 30
0.0
 11
-319.5523992836804
 21
33.94763879325546
 31
0.0
  0
LINE
  5
F8
330
1F
100
AcDbEntity
  8
1
  6
CONTINUOUS
 62
     7
100
AcDbLine
 10
-322.4973588597118
 20
30.0
 30
0.0
 11
-283.9999999999999
 21
30.0
 31
0.0
  0
LINE
  5
F9
330
1F
100
AcDbEntity
  8
1
  6
CONTINUOUS
 62
     7
100
AcDbLine
 10
-322.4973588597118
 20
220.0
 30
0.0
 11
-237.5026411402881
 21
220.0
 31
0.0
  0
LWPOLYLINE
  5
FA
330
1F
100
AcDbEntity
  8
1
  6
CONTINUOUS
 62
     7
100
AcDbPolyline
 90
        9
 70
     0
 43
0.0
 10
-236.5
 20
219.0
 10
-236.5192654683668
 20
219.1950903220161
 10
-236.5763215123221
 20
219.3826834323651
 10
-236.6689755000941
 20
219.5555702330196
 10
-236.7936667908938
 20
219.7071067811866
 10
-236.9456035683432
 20
219.8314696123026
 10
-237.1189469872922
 20
219.9238795325113
 10
-237.3070355573627
 20
219.9807852804032
 10
-237.5026411402881
 20
220.0
  0
LINE
  5
FB
330
1F
100
AcDbEntity
  8
1
  6
CONTINUOUS
 62
     7
100
AcDbLine
 10
-275.9999999999999
 20
30.0
 30
0.0
 11
-237.5026411402881
 21
30.0
 31
0.0
  0
LINE
  5
FC
330
1F
100
AcDbEntity
  8
1
  6
CONTINUOUS
 62
     7
100
AcDbLine
 10
-236.4999999999999
 20
219.0
 30
0.0
 11
-236.5
 21
31.0
 31
0.0
  0
LINE
  5
FD
330
1F
100
AcDbEntity
  8
1
  6
CONTINUOUS
 62
     7
100
AcDbLine
 10
-323.5
 20
219.0
 30
0.0
 11
-323.5
 21
31.0
 31
0.0
  0
LINE
  5
FE
330
1F
100
AcDbEntity
  8
1
  6
CONTINUOUS
 62
     7
100
AcDbLine
 10
-283.4999999999999
 20
33.99127313220924
 30
0.0
 11
-319.5087649447266
 21
33.99127313220924
 31
0.0
  0
LINE
  5
FF
330
1F
100
AcDbEntity
  8
1
  6
CONTINUOUS
 62
     7
100
AcDbLine
 10
-283.4999999999999
 20
33.95200222715084
 30
0.0
 11
-283.4999999999999
 21
33.99127313220924
 31
0.0
  0
LWPOLYLINE
  5
100
330
1F
100
AcDbEntity
  8
1
  6
CONTINUOUS
 62
     7
100
AcDbPolyline
 90
        9
 70
     0
 43
0.0
 10
-320.5087268677907
 20
34.99123505527343
 10
-320.4895132736298
 20
34.79614810477132
 10
-320.432610787435
 20
34.60856043812955
 10
-320.3402059285002
 20
34.43568024746471
 10
-320.2158494205358
 20
34.2841505794641
 10
-320.0643197525353
 20
34.1597940714997
 10
-319.8914395618704
 20
34.06738921256496
 10
-319.7038518952287
 20
34.01048672637019
 10
-319.5087649447266
 20
33.99127313220925
  0
LINE
  5
101
330
1F
100
AcDbEntity
  8
1
  6
CONTINUOUS
 62
     7
100
AcDbLine
 10
-318.2842916379766
 20
96.5
 30
0.0
 11
-316.9999999999999
 21
96.5
 31
0.0
  0
LINE
  5
102
330
1F
100
AcDbEntity
  8
1
  6
CONTINUOUS
 62
     7
100
AcDbLine
 10
-316.9999999999999
 20
96.5
 30
0.0
 11
-317.0087268677907
 21
95.5
 31
0.0
  0
LINE
  5
103
330
1F
100
AcDbEntity
  8
1
  6
CONTINUOUS
 62
     7
100
AcDbLine
 10
-318.2755647701858
 20
95.5
 30
0.0
 11
-318.2842916379766
 21
96.5
 31
0.0
  0
LINE
  5
104
330
1F
100
AcDbEntity
  8
1
  6
CONTINUOUS
 62
     7
100
AcDbLine
 10
-241.7157083620233
 20
96.5
 30
0.0
 11
-241.7244352298141
 21
95.5
 31
0.0
  0
LINE
  5
105
330
1F
100
AcDbEntity
  8
1
  6
CONTINUOUS
 62
     7
100
AcDbLine
 10
-241.7087268677907
 20
96.5
 30
0.0
 11
-241.7157083620233
 21
96.5
 31
0.0
  0
LINE
  5
106
330
1F
100
AcDbEntity
  8
1
  6
CONTINUOUS
 62
     7
100
AcDbLine
 10
-241.7087268677907
 20
37.50868879085493
 30
0.0
 11
-241.7087268677907
 21
96.5
 31
0.0
  0
LINE
  5
107
330
1F
100
AcDbEntity
  8
1
  6
CONTINUOUS
 62
     7
100
AcDbLine
 10
-241.7244352298141
 20
95.5
 30
0.0
 11
-241.7244352298141
 21
37.52439715287831
 31
0.0
  0
LINE
  5
108
330
1F
100
AcDbEntity
  8
1
  6
CONTINUOUS
 62
     7
100
AcDbLine
 10
-243.0
 20
101.0
 30
0.0
 11
-243.0
 21
213.5000380769358
 31
0.0
  0
LINE
  5
109
330
1F
100
AcDbEntity
  8
1
  6
CONTINUOUS
 62
     7
100
AcDbLine
 10
-243.0087268677907
 20
100.0
 30
0.0
 11
-243.0
 21
101.0
 31
0.0
  0
LINE
  5
10A
330
1F
100
AcDbEntity
  8
1
  6
CONTINUOUS
 62
     7
100
AcDbLine
 10
-243.0157083620234
 20
100.0
 30
0.0
 11
-243.0087268677907
 21
100.0
 31
0.0
  0
LINE
  5
10B
330
1F
100
AcDbEntity
  8
1
  6
CONTINUOUS
 62
     7
100
AcDbLine
 10
-243.0157083620234
 20
100.0
 30
0.0
 11
-243.0157083620234
 21
97.5
 31
0.0
  0
LINE
  5
10C
330
1F
100
AcDbEntity
  8
1
  6
CONTINUOUS
 62
     7
100
AcDbLine
 10
-243.0069814942326
 20
96.5
 30
0.0
 11
-243.0157083620234
 21
97.5
 31
0.0
  0
LINE
  5
10D
330
1F
100
AcDbEntity
  8
1
  6
CONTINUOUS
 62
     7
100
AcDbLine
 10
-243.0
 20
96.5
 30
0.0
 11
-243.0069814942326
 21
96.5
 31
0.0
  0
LINE
  5
10E
330
1F
100
AcDbEntity
  8
1
  6
CONTINUOUS
 62
     7
100
AcDbLine
 10
-242.9912731322092
 20
95.5
 30
0.0
 11
-243.0
 21
96.5
 31
0.0
  0
LINE
  5
10F
330
1F
100
AcDbEntity
  8
1
  6
CONTINUOUS
 62
     7
100
AcDbLine
 10
-242.9912731322092
 20
38.49123505527341
 30
0.0
 11
-242.9912731322092
 21
95.5
 31
0.0
  0
LINE
  5
110
330
1F
100
AcDbEntity
  8
1
  6
CONTINUOUS
 62
     7
100
AcDbLine
 10
-243.0
 20
96.5
 30
0.0
 11
-241.7157083620233
 21
96.5
 31
0.0
  0
LINE
  5
111
330
1F
100
AcDbEntity
  8
1
  6
CONTINUOUS
 62
     7
100
AcDbLine
 10
-317.0087268677908
 20
95.5
 30
0.0
 11
-317.0087268677908
 21
38.49123505527342
 31
0.0
  0
LINE
  5
112
330
1F
100
AcDbEntity
  8
1
  6
CONTINUOUS
 62
     7
100
AcDbLine
 10
-316.9930185057673
 20
96.5
 30
0.0
 11
-316.9999999999999
 21
96.5
 31
0.0
  0
LINE
  5
113
330
1F
100
AcDbEntity
  8
1
  6
CONTINUOUS
 62
     7
100
AcDbLine
 10
-316.9842916379766
 20
97.5
 30
0.0
 11
-316.9930185057673
 21
96.5
 31
0.0
  0
LINE
  5
114
330
1F
100
AcDbEntity
  8
1
  6
CONTINUOUS
 62
     7
100
AcDbLine
 10
-316.9842916379766
 20
97.5
 30
0.0
 11
-316.9842916379766
 21
100.0
 31
0.0
  0
LINE
  5
115
330
1F
100
AcDbEntity
  8
1
  6
CONTINUOUS
 62
     7
100
AcDbLine
 10
-316.9912731322092
 20
100.0
 30
0.0
 11
-316.9842916379766
 21
100.0
 31
0.0
  0
LINE
  5
116
330
1F
100
AcDbEntity
  8
1
  6
CONTINUOUS
 62
     7
100
AcDbLine
 10
-316.9999999999999
 20
101.0
 30
0.0
 11
-316.9912731322092
 21
100.0
 31
0.0
  0
LINE
  5
117
330
1F
100
AcDbEntity
  8
1
  6
CONTINUOUS
 62
     7
100
AcDbLine
 10
-316.9999999999999
 20
213.5000380769358
 30
0.0
 11
-316.9999999999999
 21
101.0
 31
0.0
  0
LINE
  5
118
330
1F
100
AcDbEntity
  8
1
  6
CONTINUOUS
 62
     7
100
AcDbLine
 10
-318.2912731322092
 20
96.49999999999999
 30
0.0
 11
-318.2842916379766
 21
96.5
 31
0.0
  0
LINE
  5
119
330
1F
100
AcDbEntity
  8
1
  6
CONTINUOUS
 62
     7
100
AcDbLine
 10
-318.2755647701858
 20
37.52439715287828
 30
0.0
 11
-318.2755647701858
 21
95.5
 31
0.0
  0
LINE
  5
11A
330
1F
100
AcDbEntity
  8
1
  6
CONTINUOUS
 62
     7
100
AcDbLine
 10
-318.2912731322092
 20
96.49999999999999
 30
0.0
 11
-318.2912731322092
 21
37.50868879085492
 31
0.0
  0
LWPOLYLINE
  5
11B
330
1F
100
AcDbEntity
  8
1
  6
CONTINUOUS
 62
     7
100
AcDbPolyline
 90
        9
 70
     0
 43
0.0
 10
-317.0087268677908
 20
38.49123505527342
 10
-316.9895132736298
 20
38.29614810477131
 10
-316.932610787435
 20
38.10856043812954
 10
-316.8402059285003
 20
37.9356802474647
 10
-316.7158494205359
 20
37.7841505794641
 10
-316.5643197525353
 20
37.65979407149969
 10
-316.3914395618705
 20
37.56738921256495
 10
-316.2038518952288
 20
37.51048672637018
 10
-316.0087649447266
 20
37.49127313220924
  0
LINE
  5
11C
330
1F
100
AcDbEntity
  8
1
  6
CONTINUOUS
 62
     7
100
AcDbLine
 10
-316.0087649447266
 20
37.49127313220925
 30
0.0
 11
-243.9912350552734
 21
37.49127313220925
 31
0.0
  0
LWPOLYLINE
  5
11D
330
1F
100
AcDbEntity
  8
1
  6
CONTINUOUS
 62
     7
100
AcDbPolyline
 90
        9
 70
     0
 43
0.0
 10
-242.7243971528782
 20
36.52443522981413
 10
-242.5293102023761
 20
36.54364882397507
 10
-242.3417225357344
 20
36.60055131016984
 10
-242.1688423450695
 20
36.69295616910458
 10
-242.0173126770689
 20
36.81731267706898
 10
-241.8929561691045
 20
36.96884234506959
 10
-241.8005513101698
 20
37.14172253573443
 10
-241.743648823975
 20
37.32931020237619
 10
-241.724435229814
 20
37.5243971528783
  0
LWPOLYLINE
  5
11E
330
1F
100
AcDbEntity
  8
1
  6
CONTINUOUS
 62
     7
100
AcDbPolyline
 90
        9
 70
     0
 43
0.0
 10
-242.7086887908549
 20
36.50872686779076
 10
-242.5136018403528
 20
36.52794046195169
 10
-242.326014173711
 20
36.58484294814647
 10
-242.1531339830462
 20
36.67724780708121
 10
-242.0016043150456
 20
36.80160431504561
 10
-241.8772478070812
 20
36.95313398304622
 10
-241.7848429481464
 20
37.12601417371106
 10
-241.7279404619517
 20
37.31360184035282
 10
-241.7087268677907
 20
37.50868879085494
  0
LWPOLYLINE
  5
11F
330
1F
100
AcDbEntity
  8
1
  6
CONTINUOUS
 62
     7
100
AcDbPolyline
 90
        9
 70
     0
 43
0.0
 10
-318.2755647701858
 20
37.52439715287828
 10
-318.2563511760249
 20
37.32931020237617
 10
-318.1994486898301
 20
37.14172253573441
 10
-318.1070438308953
 20
36.96884234506957
 10
-317.982687322931
 20
36.81731267706896
 10
-317.8311576549303
 20
36.69295616910456
 10
-317.6582774642656
 20
36.60055131016982
 10
-317.4706897976238
 20
36.54364882397505
 10
-317.2756028471217
 20
36.52443522981412
  0
LWPOLYLINE
  5
120
330
1F
100
AcDbEntity
  8
1
  6
CONTINUOUS
 62
     7
100
AcDbPolyline
 90
        9
 70
     0
 43
0.0
 10
-243.9912350552734
 20
37.49127313220924
 10
-243.7961481047713
 20
37.51048672637017
 10
-243.6085604381295
 20
37.56738921256495
 10
-243.4356802474647
 20
37.65979407149969
 10
-243.2841505794641
 20
37.78415057946408
 10
-243.1597940714997
 20
37.9356802474647
 10
-243.0673892125649
 20
38.10856043812953
 10
-243.0104867263701
 20
38.2961481047713
 10
-242.9912731322092
 20
38.49123505527341
  0
LINE
  5
121
330
1F
100
AcDbEntity
  8
1
  6
CONTINUOUS
 62
     7
100
AcDbLine
 10
-242.7243971528783
 20
36.52443522981413
 30
0.0
 11
-317.2756028471217
 21
36.52443522981413
 31
0.0
  0
LINE
  5
122
330
1F
100
AcDbEntity
  8
1
  6
CONTINUOUS
 62
     7
100
AcDbLine
 10
-317.291311209145
 20
36.50872686779076
 30
0.0
 11
-242.7086887908549
 21
36.50872686779076
 31
0.0
  0
LWPOLYLINE
  5
123
330
1F
100
AcDbEntity
  8
1
  6
CONTINUOUS
 62
     7
100
AcDbPolyline
 90
        9
 70
     0
 43
0.0
 10
-318.2912731322093
 20
37.50868879085492
 10
-318.2720595380483
 20
37.31360184035281
 10
-318.2151570518535
 20
37.12601417371104
 10
-318.1227521929188
 20
36.9531339830462
 10
-317.9983956849544
 20
36.80160431504559
 10
-317.8468660169538
 20
36.67724780708119
 10
-317.673985826289
 20
36.58484294814644
 10
-317.4863981596473
 20
36.52794046195168
 10
-317.2913112091451
 20
36.50872686779075
  0
LINE
  5
124
330
1F
100
AcDbEntity
  8
1
  6
CONTINUOUS
 62
     7
100
AcDbLine
 10
-318.2930185057673
 20
100.0
 30
0.0
 11
-318.2842916379766
 21
101.0
 31
0.0
  0
LINE
  5
125
330
1F
100
AcDbEntity
  8
1
  6
CONTINUOUS
 62
     7
100
AcDbLine
 10
-318.3
 20
100.0
 30
0.0
 11
-318.2930185057673
 21
100.0
 31
0.0
  0
LINE
  5
126
330
1F
100
AcDbEntity
  8
1
  6
CONTINUOUS
 62
     7
100
AcDbLine
 10
-318.3
 20
100.0
 30
0.0
 11
-318.3
 21
214.5000380769358
 31
0.0
  0
LINE
  5
127
330
1F
100
AcDbEntity
  8
1
  6
CONTINUOUS
 62
     7
100
AcDbLine
 10
-318.2842916379766
 20
101.0
 30
0.0
 11
-318.2842916379766
 21
214.4843297149124
 31
0.0
  0
LINE
  5
128
330
1F
100
AcDbEntity
  8
1
  6
CONTINUOUS
 62
     7
100
AcDbLine
 10
-241.7
 20
100.0
 30
0.0
 11
-241.7069814942326
 21
100.0
 31
0.0
  0
LINE
  5
129
330
1F
100
AcDbEntity
  8
1
  6
CONTINUOUS
 62
     7
100
AcDbLine
 10
-241.7157083620233
 20
101.0
 30
0.0
 11
-241.7069814942326
 21
100.0
 31
0.0
  0
LINE
  5
12A
330
1F
100
AcDbEntity
  8
1
  6
CONTINUOUS
 62
     7
100
AcDbLine
 10
-241.7157083620233
 20
214.4843297149124
 30
0.0
 11
-241.7157083620233
 21
101.0
 31
0.0
  0
LINE
  5
12B
330
1F
100
AcDbEntity
  8
1
  6
CONTINUOUS
 62
     7
100
AcDbLine
 10
-241.7
 20
214.5000380769358
 30
0.0
 11
-241.7
 21
100.0
 31
0.0
  0
LINE
  5
12C
330
1F
100
AcDbEntity
  8
1
  6
CONTINUOUS
 62
     7
100
AcDbLine
 10
-316.9912731322092
 20
100.0
 30
0.0
 11
-318.2930185057673
 21
100.0
 31
0.0
  0
LINE
  5
12D
330
1F
100
AcDbEntity
  8
1
  6
CONTINUOUS
 62
     7
100
AcDbLine
 10
-241.7069814942326
 20
100.0
 30
0.0
 11
-243.0087268677907
 21
100.0
 31
0.0
  0
LWPOLYLINE
  5
12E
330
1F
100
AcDbEntity
  8
1
  6
CONTINUOUS
 62
     7
100
AcDbPolyline
 90
        9
 70
     0
 43
0.0
 10
-317.2843297149124
 20
215.4842916379766
 10
-317.4794166654145
 20
215.4650780438157
 10
-317.6670043320563
 20
215.4081755576209
 10
-317.8398845227211
 20
215.3157706986862
 10
-317.9914141907217
 20
215.1914141907218
 10
-318.1157706986861
 20
215.0398845227212
 10
-318.2081755576208
 20
214.8670043320563
 10
-318.2650780438156
 20
214.6794166654146
 10
-318.2842916379765
 20
214.4843297149125
  0
LWPOLYLINE
  5
12F
330
1F
100
AcDbEntity
  8
1
  6
CONTINUOUS
 62
     7
100
AcDbPolyline
 90
        9
 70
     0
 43
0.0
 10
-317.3000380769358
 20
215.5
 10
-317.495125027438
 20
215.4807864058391
 10
-317.6827126940797
 20
215.4238839196443
 10
-317.8555928847446
 20
215.3314790607095
 10
-318.0071225527451
 20
215.2071225527451
 10
-318.1314790607095
 20
215.0555928847445
 10
-318.2238839196443
 20
214.8827126940797
 10
-318.280786405839
 20
214.6951250274379
 10
-318.3
 20
214.5000380769358
  0
LWPOLYLINE
  5
130
330
1F
100
AcDbEntity
  8
1
  6
CONTINUOUS
 62
     7
100
AcDbPolyline
 90
        9
 70
     0
 43
0.0
 10
-316.0000380769358
 20
214.5
 10
-316.1951250274379
 20
214.480786405839
 10
-316.3827126940797
 20
214.4238839196443
 10
-316.5555928847444
 20
214.3314790607095
 10
-316.7071225527451
 20
214.2071225527451
 10
-316.8314790607095
 20
214.0555928847445
 10
-316.9238839196442
 20
213.8827126940797
 10
-316.980786405839
 20
213.6951250274379
 10
-316.9999999999999
 20
213.5000380769359
  0
LINE
  5
131
330
1F
100
AcDbEntity
  8
1
  6
CONTINUOUS
 62
     7
100
AcDbLine
 10
-264.0
 20
214.4799282040812
 30
0.0
 11
-277.2499619230642
 21
214.4799282040812
 31
0.0
  0
LINE
  5
132
330
1F
100
AcDbEntity
  8
1
  6
CONTINUOUS
 62
     7
100
AcDbLine
 10
-282.7500380769358
 20
214.4799282040812
 30
0.0
 11
-295.9999999999999
 21
214.4799282040812
 31
0.0
  0
LINE
  5
133
330
1F
100
AcDbEntity
  8
1
  6
CONTINUOUS
 62
     7
100
AcDbLine
 10
-243.9999619230641
 20
214.5
 30
0.0
 11
-316.0000380769358
 21
214.5
 31
0.0
  0
LINE
  5
134
330
1F
100
AcDbEntity
  8
1
  6
CONTINUOUS
 62
     7
100
AcDbLine
 10
-317.2843297149124
 20
215.4842916379766
 30
0.0
 11
-242.7156702850875
 21
215.4842916379766
 31
0.0
  0
LINE
  5
135
330
1F
100
AcDbEntity
  8
1
  6
CONTINUOUS
 62
     7
100
AcDbLine
 10
-317.3000380769358
 20
215.5
 30
0.0
 11
-242.6999619230641
 21
215.5
 31
0.0
  0
LWPOLYLINE
  5
136
330
1F
100
AcDbEntity
  8
1
  6
CONTINUOUS
 62
     7
100
AcDbPolyline
 90
        9
 70
     0
 43
0.0
 10
-243.0
 20
213.5000380769359
 10
-243.0192135941609
 20
213.6951250274379
 10
-243.0761160803557
 20
213.8827126940797
 10
-243.1685209392904
 20
214.0555928847445
 10
-243.2928774472548
 20
214.2071225527451
 10
-243.4444071152554
 20
214.3314790607095
 10
-243.6172873059203
 20
214.4238839196443
 10
-243.804874972562
 20
214.480786405839
 10
-243.9999619230641
 20
214.4999999999999
  0
LWPOLYLINE
  5
137
330
1F
100
AcDbEntity
  8
1
  6
CONTINUOUS
 62
     7
100
AcDbPolyline
 90
        9
 70
     0
 43
0.0
 10
-241.7157083620233
 20
214.4843297149125
 10
-241.7349219561842
 20
214.6794166654146
 10
-241.791824442379
 20
214.8670043320563
 10
-241.8842293013138
 20
215.0398845227212
 10
-242.0085858092781
 20
215.1914141907218
 10
-242.1601154772788
 20
215.3157706986862
 10
-242.3329956679436
 20
215.4081755576209
 10
-242.5205833345854
 20
215.4650780438157
 10
-242.7156702850875
 20
215.4842916379766
  0
LWPOLYLINE
  5
138
330
1F
100
AcDbEntity
  8
1
  6
CONTINUOUS
 62
     7
100
AcDbPolyline
 90
        9
 70
     0
 43
0.0
 10
-241.6999999999999
 20
214.5000380769358
 10
-241.7192135941609
 20
214.6951250274379
 10
-241.7761160803556
 20
214.8827126940797
 10
-241.8685209392904
 20
215.0555928847445
 10
-241.9928774472548
 20
215.2071225527451
 10
-242.1444071152554
 20
215.3314790607095
 10
-242.3172873059202
 20
215.4238839196443
 10
-242.504874972562
 20
215.4807864058391
 10
-242.6999619230641
 20
215.5
  0
LINE
  5
139
330
1F
100
AcDbEntity
  8
1
  6
CONTINUOUS
 62
     7
100
AcDbLine
 10
-320.5087268677908
 20
96.5
 30
0.0
 11
-318.2912731322092
 21
96.49999999999999
 31
0.0
  0
LINE
  5
13A
330
1F
100
AcDbEntity
  8
1
  6
CONTINUOUS
 62
     7
100
AcDbLine
 10
-241.7087268677907
 20
96.5
 30
0.0
 11
-239.4912731322092
 21
96.5
 31
0.0
  0
LINE
  5
13B
330
1F
100
AcDbEntity
  8
1
  6
CONTINUOUS
 62
     7
100
AcDbLine
 10
-283.4999999999999
 20
30.0
 30
0.0
 11
-276.4999999999999
 21
30.0
 31
0.0
  0
LINE
  5
13C
330
1F
100
AcDbEntity
  8
1
  6
CONTINUOUS
 62
     7
100
AcDbLine
 10
-320.4999999999999
 20
97.5
 30
0.0
 11
-316.9842916379766
 21
97.5
 31
0.0
  0
LINE
  5
13D
330
1F
100
AcDbEntity
  8
1
  6
CONTINUOUS
 62
     7
100
AcDbLine
 10
-243.0157083620234
 20
97.5
 30
0.0
 11
-239.5
 21
97.5
 31
0.0
  0
ARC
  5
13E
330
1F
100
AcDbEntity
  8
1
  6
CONTINUOUS
 62
     7
100
AcDbCircle
 10
-282.4999999999999
 20
115.5
 30
0.0
 40
1.500000000000011
100
AcDbArc
 50
122.1911309182506
 51
237.8088690815337
  0
ARC
  5
13F
330
1F
100
AcDbEntity
  8
1
  6
CONTINUOUS
 62
     7
100
AcDbCircle
 10
-282.4999999999999
 20
115.5
 30
0.0
 40
1.99999999999999
100
AcDbArc
 50
102.2541828215711
 51
257.7458171782803
  0
LINE
  5
140
330
1F
100
AcDbEntity
  8
1
  6
CONTINUOUS
 62
     7
100
AcDbLine
 10
-282.9
 20
117.4595917942265
 30
0.0
 11
-282.9244980267578
 21
117.454431228076
 31
0.0
  0
ARC
  5
141
330
1F
100
AcDbEntity
  8
1
  6
CONTINUOUS
 62
     7
100
AcDbCircle
 10
-279.9999999999999
 20
115.5
 30
0.0
 40
3.500000000000002
100
AcDbArc
 50
145.9522676300085
 51
214.0477323699918
  0
LINE
  5
142
330
1F
100
AcDbEntity
  8
1
  6
CONTINUOUS
 62
     7
100
AcDbLine
 10
-282.9
 20
113.5404082057734
 30
0.0
 11
-282.9244980267619
 21
113.54556877193
 31
0.0
  0
ARC
  5
143
330
1F
100
AcDbEntity
  8
1
  6
CONTINUOUS
 62
     7
100
AcDbCircle
 10
-279.9999999999999
 20
115.5
 30
0.0
 40
3.534910129856438
100
AcDbArc
 50
158.9545927609706
 51
201.0454072389152
  0
ARC
  5
144
330
1F
100
AcDbEntity
  8
1
  6
CONTINUOUS
 62
     7
100
AcDbCircle
 10
-277.4999999999999
 20
115.5
 30
0.0
 40
1.999999999999996
100
AcDbArc
 50
282.2541828215709
 51
77.74581717842892
  0
ARC
  5
145
330
1F
100
AcDbEntity
  8
1
  6
CONTINUOUS
 62
     7
100
AcDbCircle
 10
-277.4999999999999
 20
115.5
 30
0.0
 40
1.500000000000007
100
AcDbArc
 50
302.1911309182503
 51
57.80886908174944
  0
ARC
  5
146
330
1F
100
AcDbEntity
  8
1
  6
CONTINUOUS
 62
     7
100
AcDbCircle
 10
-279.9999999999999
 20
115.5
 30
0.0
 40
3.534910129856437
100
AcDbArc
 50
338.9545927609705
 51
21.04540723902937
  0
ARC
  5
147
330
1F
100
AcDbEntity
  8
1
  6
CONTINUOUS
 62
     7
100
AcDbCircle
 10
-279.9999999999999
 20
115.5
 30
0.0
 40
3.5
100
AcDbArc
 50
325.9522676300084
 51
34.04773236999148
  0
LINE
  5
148
330
1F
100
AcDbEntity
  8
1
  6
CONTINUOUS
 62
     7
100
AcDbLine
 10
-277.1
 20
117.4595917942265
 30
0.0
 11
-277.0755019732421
 21
117.454431228076
 31
0.0
  0
LINE
  5
149
330
1F
100
AcDbEntity
  8
1
  6
CONTINUOUS
 62
     7
100
AcDbLine
 10
-277.1
 20
113.5404082057735
 30
0.0
 11
-277.0755019732421
 21
113.545568771924
 31
0.0
  0
LINE
  5
14A
330
1F
100
AcDbEntity
  8
1
  6
CONTINUOUS
 62
     7
100
AcDbLine
 10
-276.2499999999999
 20
212.1999999999999
 30
0.0
 11
-276.2499999999999
 21
213.4799662810171
 31
0.0
  0
LINE
  5
14B
330
1F
100
AcDbEntity
  8
1
  6
CONTINUOUS
 62
     7
100
AcDbLine
 10
-276.2517453735581
 20
212.0
 30
0.0
 11
-276.25
 21
212.1999999999999
 31
0.0
  0
LINE
  5
14C
330
1F
100
AcDbEntity
  8
1
  6
CONTINUOUS
 62
     7
100
AcDbLine
 10
-276.2587268677908
 20
212.0
 30
0.0
 11
-276.2517453735581
 21
212.0
 31
0.0
  0
LINE
  5
14D
330
1F
100
AcDbEntity
  8
1
  6
CONTINUOUS
 62
     7
100
AcDbLine
 10
-276.2587268677908
 20
205.3346705287238
 30
0.0
 11
-276.2587268677908
 21
212.0
 31
0.0
  0
LWPOLYLINE
  5
14E
330
1F
100
AcDbEntity
  8
1
  6
CONTINUOUS
 62
     7
100
AcDbPolyline
 90
        9
 70
     0
 43
0.0
 10
-295.0
 20
213.4798901256955
 10
-295.0192147195968
 20
213.6749878764362
 10
-295.0761204674887
 20
213.8625881300279
 10
-295.1685303876974
 20
214.0354815139328
 10
-295.2928932188134
 20
214.1870238323668
 10
-295.4444297669804
 20
214.3113913990187
 10
-295.6173165676349
 20
214.403804838048
 10
-295.8049096779839
 20
214.460712752819
 10
-296.0
 20
214.4799282040813
  0
LINE
  5
14F
330
1F
100
AcDbEntity
  8
1
  6
CONTINUOUS
 62
     7
100
AcDbLine
 10
-265.0
 20
212.1999999999999
 30
0.0
 11
-265.0
 21
212.0
 31
0.0
  0
LINE
  5
150
330
1F
100
AcDbEntity
  8
1
  6
CONTINUOUS
 62
     7
100
AcDbLine
 10
-264.9999999999999
 20
212.0
 30
0.0
 11
-276.2517453735581
 21
212.0
 31
0.0
  0
LINE
  5
151
330
1F
100
AcDbEntity
  8
1
  6
CONTINUOUS
 62
     7
100
AcDbLine
 10
-283.7499999999999
 20
212.1999999999999
 30
0.0
 11
-283.7482546264418
 21
212.0
 31
0.0
  0
LINE
  5
152
330
1F
100
AcDbEntity
  8
1
  6
CONTINUOUS
 62
     7
100
AcDbLine
 10
-283.7482546264418
 20
212.0
 30
0.0
 11
-295.0
 21
212.0
 31
0.0
  0
LINE
  5
153
330
1F
100
AcDbEntity
  8
1
  6
CONTINUOUS
 62
     7
100
AcDbLine
 10
-295.0
 20
212.0
 30
0.0
 11
-295.0
 21
212.1999999999999
 31
0.0
  0
LWPOLYLINE
  5
154
330
1F
100
AcDbEntity
  8
1
  6
CONTINUOUS
 62
     7
100
AcDbPolyline
 90
        9
 70
     0
 43
0.0
 10
-264.0
 20
214.4799282040813
 10
-264.1950903220161
 20
214.460712752819
 10
-264.3826834323651
 20
214.403804838048
 10
-264.5555702330196
 20
214.3113913990187
 10
-264.7071067811866
 20
214.1870238323668
 10
-264.8314696123026
 20
214.0354815139328
 10
-264.9238795325113
 20
213.8625881300279
 10
-264.9807852804032
 20
213.6749878764361
 10
-265.0
 20
213.4798901256955
  0
LWPOLYLINE
  5
155
330
1F
100
AcDbEntity
  8
1
  6
CONTINUOUS
 62
     7
100
AcDbPolyline
 90
        9
 70
     0
 43
0.0
 10
-276.2499999999999
 20
213.4799662810171
 10
-276.2692135941609
 20
213.6750532315192
 10
-276.3261160803557
 20
213.862640898161
 10
-276.4185209392904
 20
214.0355210888258
 10
-276.5428774472548
 20
214.1870507568264
 10
-276.6944071152554
 20
214.3114072647908
 10
-276.8672873059203
 20
214.4038121237255
 10
-277.054874972562
 20
214.4607146099203
 10
-277.2499619230641
 20
214.4799282040812
  0
LINE
  5
156
330
1F
100
AcDbEntity
  8
1
  6
CONTINUOUS
 62
     7
100
AcDbLine
 10
-265.0
 20
212.1999999999999
 30
0.0
 11
-265.0
 21
213.4798901256955
 31
0.0
  0
LINE
  5
157
330
1F
100
AcDbEntity
  8
1
  6
CONTINUOUS
 62
     7
100
AcDbLine
 10
-283.7412731322092
 20
212.0
 30
0.0
 11
-283.7412731322092
 21
205.3346705287238
 31
0.0
  0
LINE
  5
158
330
1F
100
AcDbEntity
  8
1
  6
CONTINUOUS
 62
     7
100
AcDbLine
 10
-283.7482546264418
 20
212.0
 30
0.0
 11
-283.7412731322092
 21
212.0
 31
0.0
  0
LINE
  5
159
330
1F
100
AcDbEntity
  8
1
  6
CONTINUOUS
 62
     7
100
AcDbLine
 10
-283.7499999999999
 20
213.4799662810171
 30
0.0
 11
-283.7499999999999
 21
212.1999999999999
 31
0.0
  0
LWPOLYLINE
  5
15A
330
1F
100
AcDbEntity
  8
1
  6
CONTINUOUS
 62
     7
100
AcDbPolyline
 90
        9
 70
     0
 43
0.0
 10
-282.7500380769358
 20
214.4799282040812
 10
-282.9451250274379
 20
214.4607146099203
 10
-283.1327126940797
 20
214.4038121237255
 10
-283.3055928847445
 20
214.3114072647908
 10
-283.4571225527451
 20
214.1870507568264
 10
-283.5814790607095
 20
214.0355210888258
 10
-283.6738839196442
 20
213.8626408981609
 10
-283.730786405839
 20
213.6750532315191
 10
-283.7499999999999
 20
213.4799662810171
  0
LINE
  5
15B
330
1F
100
AcDbEntity
  8
1
  6
CONTINUOUS
 62
     7
100
AcDbLine
 10
-295.0
 20
213.4798901256955
 30
0.0
 11
-295.0
 21
212.1999999999999
 31
0.0
  0
CIRCLE
  5
15C
330
1F
100
AcDbEntity
  8
1
  6
CONTINUOUS
 62
     7
100
AcDbCircle
 10
-279.9999999999999
 20
115.5
 30
0.0
 40
2.750000000000002
  0
ARC
  5
15D
330
1F
100
AcDbEntity
  8
1
  6
CONTINUOUS
 62
     7
100
AcDbCircle
 10
-279.9999999999999
 20
115.5
 30
0.0
 40
3.5
100
AcDbArc
 50
214.0477323699918
 51
325.9522676300084
  0
ARC
  5
15E
330
1F
100
AcDbEntity
  8
1
  6
CONTINUOUS
 62
     7
100
AcDbCircle
 10
-279.9999999999999
 20
115.5
 30
0.0
 40
3.5
100
AcDbArc
 50
34.04773236999142
 51
145.9522676300085
  0
LWPOLYLINE
  5
15F
330
1F
100
AcDbEntity
  8
1
  6
CONTINUOUS
 62
     7
100
AcDbPolyline
 90
        9
 70
     0
 43
0.0
 10
-284.2527409304907
 20
121.75
 10
-284.6426779846815
 20
121.7116514813355
 10
-285.0174719465376
 20
121.5980745188073
 10
-285.3627697202307
 20
121.4136186516101
 10
-285.6653477948742
 20
121.1653477948743
 10
-285.91361865161
 20
120.8627697202309
 10
-286.0980745188072
 20
120.5174719465376
 10
-286.2116514813354
 20
120.1426779846816
 10
-286.2499999999999
 20
119.7527409304909
  0
LINE
  5
160
330
1F
100
AcDbEntity
  8
1
  6
CONTINUOUS
 62
     7
100
AcDbLine
 10
-284.2527409304908
 20
121.75
 30
0.0
 11
-275.7472590695091
 21
121.75
 31
0.0
  0
LWPOLYLINE
  5
161
330
1F
100
AcDbEntity
  8
1
  6
CONTINUOUS
 62
     7
100
AcDbPolyline
 90
        9
 70
     0
 43
0.0
 10
-273.75
 20
119.7527409304909
 10
-273.7883485186645
 20
120.1426779846816
 10
-273.9019254811927
 20
120.5174719465376
 10
-274.0863813483899
 20
120.8627697202308
 10
-274.3346522051257
 20
121.1653477948743
 10
-274.6372302797691
 20
121.4136186516101
 10
-274.9825280534623
 20
121.5980745188073
 10
-275.3573220153183
 20
121.7116514813355
 10
-275.7472590695091
 20
121.75
  0
LINE
  5
162
330
1F
100
AcDbEntity
  8
1
  6
CONTINUOUS
 62
     7
100
AcDbLine
 10
-273.7499999999999
 20
119.7527409304908
 30
0.0
 11
-273.7499999999999
 21
111.2472590695091
 31
0.0
  0
LWPOLYLINE
  5
163
330
1F
100
AcDbEntity
  8
1
  6
CONTINUOUS
 62
     7
100
AcDbPolyline
 90
        9
 70
     0
 43
0.0
 10
-275.7472590695091
 20
109.25
 10
-275.3573220153183
 20
109.2883485186645
 10
-274.9825280534623
 20
109.4019254811927
 10
-274.6372302797691
 20
109.5863813483899
 10
-274.3346522051257
 20
109.8346522051257
 10
-274.0863813483899
 20
110.1372302797691
 10
-273.9019254811927
 20
110.4825280534624
 10
-273.7883485186645
 20
110.8573220153184
 10
-273.75
 20
111.2472590695091
  0
LINE
  5
164
330
1F
100
AcDbEntity
  8
1
  6
CONTINUOUS
 62
     7
100
AcDbLine
 10
-275.7472590695091
 20
109.25
 30
0.0
 11
-284.2527409304909
 21
109.25
 31
0.0
  0
LWPOLYLINE
  5
165
330
1F
100
AcDbEntity
  8
1
  6
CONTINUOUS
 62
     7
100
AcDbPolyline
 90
        9
 70
     0
 43
0.0
 10
-286.2499999999999
 20
111.2472590695091
 10
-286.2116514813354
 20
110.8573220153184
 10
-286.0980745188073
 20
110.4825280534624
 10
-285.9136186516101
 20
110.1372302797691
 10
-285.6653477948743
 20
109.8346522051257
 10
-285.3627697202308
 20
109.5863813483899
 10
-285.0174719465376
 20
109.4019254811927
 10
-284.6426779846816
 20
109.2883485186645
 10
-284.2527409304908
 20
109.25
  0
LINE
  5
166
330
1F
100
AcDbEntity
  8
1
  6
CONTINUOUS
 62
     7
100
AcDbLine
 10
-286.2499999999999
 20
111.2472590695091
 30
0.0
 11
-286.2499999999999
 21
119.7527409304908
 31
0.0
  0
LINE
  5
167
330
1F
100
AcDbEntity
  8
1
  6
CONTINUOUS
 62
     7
100
AcDbLine
 10
-279.5773978302677
 20
205.3125664051229
 30
0.0
 11
-277.6812909605871
 21
204.4283972511106
 31
0.0
  0
CIRCLE
  5
168
330
1F
100
AcDbEntity
  8
1
  6
CONTINUOUS
 62
     7
100
AcDbCircle
 10
-279.9999999999999
 20
199.0
 30
0.0
 40
3.500000000000003
  0
LINE
  5
169
330
1F
100
AcDbEntity
  8
1
  6
CONTINUOUS
 62
     7
100
AcDbLine
 10
-270.0
 20
193.4999999999999
 30
0.0
 11
-290.0000000000001
 21
193.4999999999999
 31
0.0
  0
ARC
  5
16A
330
1F
100
AcDbEntity
  8
1
  6
CONTINUOUS
 62
     7
100
AcDbCircle
 10
-290.0
 20
198.5000000000001
 30
0.0
 40
4.999999999999997
100
AcDbArc
 50
180.0
 51
269.9999999999999
  0
LWPOLYLINE
  5
16B
330
1F
100
AcDbEntity
  8
1
  6
CONTINUOUS
 62
     7
100
AcDbPolyline
 90
       11
 70
     0
 43
0.0
 10
-283.7412731322092
 20
205.3346705287238
 10
-283.7211994555013
 20
205.1352980050551
 10
-283.6617842996842
 20
204.9439342548054
 10
-283.5654129351896
 20
204.7682617335515
 10
-283.4359542699253
 20
204.6153329595411
 10
-283.2786055287763
 20
204.4912873845313
 10
-283.0996836067262
 20
204.4011049204349
 10
-282.9063714718972
 20
204.3484060166489
 10
-282.7064297993721
 20
204.335306314128
 10
-282.5078854124919
 20
204.3623317112337
 10
-282.3187090394128
 20
204.4283972511106
  0
LINE
  5
16C
330
1F
100
AcDbEntity
  8
1
  6
CONTINUOUS
 62
     7
100
AcDbLine
 10
-282.3187090394127
 20
204.4283972511106
 30
0.0
 11
-280.4226021697322
 21
205.3125664051229
 31
0.0
  0
LWPOLYLINE
  5
16D
330
1F
100
AcDbEntity
  8
1
  6
CONTINUOUS
 62
     7
100
AcDbPolyline
 90
        5
 70
     0
 43
0.0
 10
-279.5773978302677
 20
205.3125664051229
 10
-279.783569053379
 20
205.3825522872707
 10
-279.9999999999999
 20
205.4062554574754
 10
-280.2164309466209
 20
205.3825522872707
 10
-280.4226021697322
 20
205.3125664051229
  0
LWPOLYLINE
  5
16E
330
1F
100
AcDbEntity
  8
1
  6
CONTINUOUS
 62
     7
100
AcDbPolyline
 90
       11
 70
     0
 43
0.0
 10
-277.6812909605871
 20
204.4283972511106
 10
-277.4921145875081
 20
204.3623317112337
 10
-277.2935702006278
 20
204.335306314128
 10
-277.0936285281027
 20
204.3484060166489
 10
-276.9003163932738
 20
204.4011049204349
 10
-276.7213944712236
 20
204.4912873845313
 10
-276.5640457300747
 20
204.6153329595411
 10
-276.4345870648103
 20
204.7682617335515
 10
-276.3382157003157
 20
204.9439342548055
 10
-276.2788005444987
 20
205.1352980050551
 10
-276.2587268677908
 20
205.3346705287238
  0
ARC
  5
16F
330
1F
100
AcDbEntity
  8
1
  6
CONTINUOUS
 62
     7
100
AcDbCircle
 10
-270.0
 20
198.5000000000001
 30
0.0
 40
5.000000000000004
100
AcDbArc
 50
270.0
 51
359.9999999999998
  0
LINE
  5
170
330
1F
100
AcDbEntity
  8
1
  6
CONTINUOUS
 62
     7
100
AcDbLine
 10
-294.9999999999999
 20
198.5000000000001
 30
0.0
 11
-294.9999999999999
 21
212.0
 31
0.0
  0
LINE
  5
171
330
1F
100
AcDbEntity
  8
1
  6
CONTINUOUS
 62
     7
100
AcDbLine
 10
-264.9999999999999
 20
212.0
 30
0.0
 11
-264.9999999999999
 21
198.5000000000001
 31
0.0
  0
CIRCLE
  5
172
330
1F
100
AcDbEntity
  8
1
  6
CONTINUOUS
 62
     7
100
AcDbCircle
 10
-279.9999999999999
 20
199.0
 30
0.0
 40
2.750000000000002
  0
LWPOLYLINE
  5
173
330
1F
100
AcDbEntity
  8
1
  6
CONTINUOUS
 62
     7
100
AcDbPolyline
 90
       17
 70
     0
 43
0.0
 10
-294.9999999999999
 20
57.33180081414121
 10
-294.7117792060484
 20
57.17843705609403
 10
-293.8581929876693
 20
57.03096698126122
 10
-292.4720441845381
 20
56.89505778191643
 10
-290.6066017177982
 20
56.77593237237171
 10
-288.333553495294
 20
56.6781686753096
 10
-285.7402514854763
 20
56.60552369478165
 10
-282.9263548302419
 20
56.56078913664979
 10
-279.9999999999999
 20
56.54568412489559
 10
-277.073645169758
 20
56.56078913664979
 10
-274.2597485145236
 20
56.60552369478165
 10
-271.666446504706
 20
56.67816867530959
 10
-269.3933982822018
 20
56.77593237237171
 10
-267.5279558154618
 20
56.89505778191642
 10
-266.1418070123307
 20
57.03096698126122
 10
-265.2882207939515
 20
57.17843705609403
 10
-264.9999999999999
 20
57.33180081414121
  0
LWPOLYLINE
  5
174
330
1F
100
AcDbEntity
  8
1
  6
CONTINUOUS
 62
     7
100
AcDbPolyline
 90
        7
 70
     0
 43
0.0
 10
-267.2357829960455
 20
57.33180081414122
 10
-267.5038534581905
 20
57.46743368145938
 10
-268.2911539219073
 20
57.59739984550546
 10
-269.5649711007722
 20
57.71629905498309
 10
-271.272376350457
 20
57.81919090394254
 10
-273.3424249179125
 20
57.9018001116228
 10
-275.6891037816573
 20
57.9606941655377
  0
LWPOLYLINE
  5
175
330
1F
100
AcDbEntity
  8
1
  6
CONTINUOUS
 62
     7
100
AcDbPolyline
 90
        7
 70
     0
 43
0.0
 10
-284.3108962183426
 20
57.9606941655377
 10
-286.6575750820874
 20
57.9018001116228
 10
-288.7276236495429
 20
57.81919090394254
 10
-290.4350288992277
 20
57.71629905498309
 10
-291.7088460780926
 20
57.59739984550546
 10
-292.4961465418094
 20
57.46743368145938
 10
-292.7642170039544
 20
57.33180081414121
  0
LWPOLYLINE
  5
176
330
1F
100
AcDbEntity
  8
1
  6
CONTINUOUS
 62
     7
100
AcDbPolyline
 90
       17
 70
     0
 43
0.0
 10
-292.7642170039544
 20
57.33180081414121
 10
-292.5213875850982
 20
57.20119038135553
 10
-291.7966870576571
 20
57.07557763429154
 10
-290.6180046826396
 20
56.95979663413205
 10
-289.0307006870062
 20
56.85830307865983
 10
-287.0958606278357
 20
56.77500282988554
 10
-284.8879445853638
 20
56.71310160146908
 10
-282.4919216529771
 20
56.67498159053972
 10
-280.0
 20
56.66210980159684
 10
-277.5080783470229
 20
56.67498159053972
 10
-275.1120554146362
 20
56.71310160146908
 10
-272.9041393721643
 20
56.77500282988554
 10
-270.9692993129938
 20
56.85830307865982
 10
-269.3819953173604
 20
56.95979663413205
 10
-268.2033129423429
 20
57.07557763429153
 10
-267.4786124149017
 20
57.20119038135552
 10
-267.2357829960455
 20
57.3318008141412
  0
LINE
  5
177
330
1F
100
AcDbEntity
  8
1
  6
CONTINUOUS
 62
     7
100
AcDbLine
 10
-284.3108962183426
 20
57.9606941655377
 30
0.0
 11
-284.3084219849036
 21
57.99999999999999
 31
0.0
  0
LINE
  5
178
330
1F
100
AcDbEntity
  8
1
  6
CONTINUOUS
 62
     7
100
AcDbLine
 10
-275.6915780150964
 20
57.99999999999999
 30
0.0
 11
-275.6891037816573
 21
57.9606941655377
 31
0.0
  0
CIRCLE
  5
179
330
1F
100
AcDbEntity
  8
1
  6
CONTINUOUS
 62
     7
100
AcDbCircle
 10
-252.4999999999999
 20
196.0
 30
0.0
 40
2.500000000000002
  0
CIRCLE
  5
17A
330
1F
100
AcDbEntity
  8
1
  6
CONTINUOUS
 62
     7
100
AcDbCircle
 10
-252.4999999999999
 20
55.99999999999999
 30
0.0
 40
2.500000000000002
  0
CIRCLE
  5
17B
330
1F
100
AcDbEntity
  8
1
  6
CONTINUOUS
 62
     7
100
AcDbCircle
 10
-307.5
 20
55.99999999999999
 30
0.0
 40
2.500000000000002
  0
CIRCLE
  5
17C
330
1F
100
AcDbEntity
  8
1
  6
CONTINUOUS
 62
     7
100
AcDbCircle
 10
-307.5
 20
196.0
 30
0.0
 40
2.500000000000002
  0
CIRCLE
  5
17D
330
1F
100
AcDbEntity
  8
1
  6
CONTINUOUS
 62
     7
100
AcDbCircle
 10
-252.4999999999999
 20
196.0
 30
0.0
 40
5.02618259739232
  0
CIRCLE
  5
17E
330
1F
100
AcDbEntity
  8
1
  6
CONTINUOUS
 62
     7
100
AcDbCircle
 10
-307.5
 20
196.0
 30
0.0
 40
5.02618259739232
  0
CIRCLE
  5
17F
330
1F
100
AcDbEntity
  8
1
  6
CONTINUOUS
 62
     7
100
AcDbCircle
 10
-252.4999999999999
 20
55.99999999999999
 30
0.0
 40
5.02618259739232
  0
CIRCLE
  5
180
330
1F
100
AcDbEntity
  8
1
  6
CONTINUOUS
 62
     7
100
AcDbCircle
 10
-307.5
 20
55.99999999999999
 30
0.0
 40
5.02618259739232
  0
CIRCLE
  5
181
330
1F
100
AcDbEntity
  8
1
  6
CONTINUOUS
 62
     7
100
AcDbCircle
 10
-252.4999999999999
 20
157.25
 30
0.0
 40
2.466835376636389
  0
CIRCLE
  5
182
330
1F
100
AcDbEntity
  8
1
  6
CONTINUOUS
 62
     7
100
AcDbCircle
 10
-307.5
 20
157.25
 30
0.0
 40
2.466835376636389
  0
CIRCLE
  5
183
330
1F
100
AcDbEntity
  8
1
  6
CONTINUOUS
 62
     7
100
AcDbCircle
 10
-279.9999999999999
 20
157.25
 30
0.0
 40
13.55000000000001
  0
LINE
  5
184
330
1F
100
AcDbEntity
  8
1
  6
CONTINUOUS
 62
     7
100
AcDbLine
 10
-284.3084219849036
 20
57.99999999999999
 30
0.0
 11
-275.6915780150963
 21
57.99999999999999
 31
0.0
  0
CIRCLE
  5
185
330
1F
100
AcDbEntity
  8
1
  6
CONTINUOUS
 62
     7
100
AcDbCircle
 10
-279.9999999999999
 20
157.25
 30
0.0
 40
13.15
  0
LINE
  5
186
330
1F
100
AcDbEntity
  8
0
  6
CENTER
 62
     1
100
AcDbLine
 10
-279.9999999999999
 20
-68.25000000000003
 30
0.0
 11
-279.9999999999999
 21
8.250000000000036
 31
0.0
  0
LINE
  5
188
330
1F
100
AcDbEntity
  8
0
  6
CENTER
 62
     1
100
AcDbLine
 10
-279.9999999999999
 20
19.70000000000008
 30
0.0
 11
-279.9999999999999
 21
230.7999999999999
 31
0.0
  0
LINE
  5
189
330
1F
100
AcDbEntity
  8
0
  6
CENTER
 62
     1
100
AcDbLine
 10
-295.7499999999999
 20
-42.5
 30
0.0
 11
-264.2499999999999
 21
-42.5
 31
0.0
  0
LINE
  5
18A
330
1F
100
AcDbEntity
  8
0
  6
CENTER
 62
     1
100
AcDbLine
 10
-295.5499999999999
 20
157.25
 30
0.0
 11
-264.4499999999999
 21
157.25
 31
0.0
  0
ENDSEC
  0
SECTION
  2
OBJECTS
  0
DICTIONARY
  5
C
330
0
100
AcDbDictionary
  3
ACAD_GROUP
350
D
  3
ACAD_LAYOUT
350
1A
  3
ACAD_MATERIAL
350
43
  3
ACAD_MLEADERSTYLE
350
6B
  3
ACAD_MLINESTYLE
350
17
  3
ACAD_PLOTSETTINGS
350
19
  3
ACAD_SCALELIST
350
47
  3
ACAD_VISUALSTYLE
350
2A
  3
ACDBHEADERROUNDTRIPXREC
350
18B
  3
ACDBVARIABLEDICTIONARY
350
1AC
  0
DICTIONARY
  5
1B3
330
8
100
AcDbDictionary
280
     1
  3
ACAD_XREC_ROUNDTRIP
360
1B4
  0
DICTIONARY
  5
D
102
{ACAD_REACTORS
330
C
102
}
330
C
100
AcDbDictionary
  0
DICTIONARY
  5
1A
102
{ACAD_REACTORS
330
C
102
}
330
C
100
AcDbDictionary
  0
DICTIONARY
  5
43
102
{ACAD_REACTORS
330
C
102
}
330
C
100
AcDbDictionary
  3
BYBLOCK
350
45
  3
BYLAYER
350
44
  3
GLOBAL
350
46
  0
DICTIONARY
  5
6B
102
{ACAD_REACTORS
330
C
102
}
330
C
100
AcDbDictionary
  3
STANDARD
350
6C
  0
DICTIONARY
  5
17
102
{ACAD_REACTORS
330
C
102
}
330
C
100
AcDbDictionary
  3
STANDARD
350
18
  0
DICTIONARY
  5
19
102
{ACAD_REACTORS
330
C
102
}
330
C
100
AcDbDictionary
  0
DICTIONARY
  5
47
102
{ACAD_REACTORS
330
C
102
}
330
C
100
AcDbDictionary
  3
A0
350
48
  3
A1
350
49
  3
A2
350
4A
  3
A3
350
4B
  3
A4
350
4C
  3
A5
350
4D
  3
A6
350
4E
  3
A7
350
4F
  3
A8
350
50
  3
A9
350
51
  3
B0
350
52
  3
B1
350
53
  3
B2
350
54
  3
B3
350
55
  3
B4
350
56
  3
B5
350
57
  3
B6
350
58
  3
B7
350
59
  3
B8
350
5A
  3
B9
350
5B
  3
C0
350
5C
  3
C1
350
5D
  3
C2
350
5E
  3
C3
350
5F
  3
C4
350
60
  3
C5
350
61
  3
C6
350
62
  3
C7
350
63
  3
C8
350
64
  3
C9
350
65
  3
D0
350
66
  3
D1
350
67
  3
D2
350
68
  0
DICTIONARY
  5
2A
102
{ACAD_REACTORS
330
C
102
}
330
C
100
AcDbDictionary
  3
2DWIREFRAME
350
2F
  3
BASIC
350
32
  3
BRIGHTEN
350
36
  3
COLORCHANGE
350
3A
  3
CONCEPTUAL
350
34
  3
DIM
350
35
  3
EDGECOLOROFF
350
3D
  3
FACEPATTERN
350
39
  3
FLAT
350
2B
  3
FLATWITHEDGES
350
2C
  3
GOURAUD
350
2D
  3
GOURAUDWITHEDGES
350
2E
  3
HIDDEN
350
31
  3
JITTEROFF
350
3B
  3
LINEPATTERN
350
38
  3
OVERHANGOFF
350
3C
  3
REALISTIC
350
33
  3
SHADED
350
42
  3
SHADED_WITH_EDGES
350
41
  3
SHADES_OF_GRAY
350
3E
  3
SKETCHY
350
3F
  3
THICKEN
350
37
  3
WIREFRAME
350
30
  3
X-RAY
350
40
  0
DICTIONARY
  5
18B
102
{ACAD_REACTORS
330
C
102
}
330
C
100
AcDbDictionary
  3
CEPSNID
350
195
  3
CEPSNTYPE
350
194
  3
DIMSTYLEDATA
350
1AB
  3
FINGERPRINTGUID
350
196
  3
HYPERLINKBASE
350
18E
  3
INSUNITS
350
193
  3
LAYOUTDICT
350
190
  3
LWETCUNION
350
192
  3
PLOTSETDICT
350
191
  3
PSVPSCALE
350
198
  3
PUCSBASE
350
19B
  3
PUCSORGBACK
350
1A1
  3
PUCSORGBOTTOM
350
19D
  3
PUCSORGFRONT
350
1A0
  3
PUCSORGLEFT
350
19E
  3
PUCSORGRIGHT
350
19F
  3
PUCSORGTOP
350
19C
  3
PUCSORTHOREF
350
199
  3
PUCSORTHOVIEW
350
19A
  3
STYLESHEET
350
18F
  3
TSTACKALIGN
350
18C
  3
TSTACKSIZE
350
18D
  3
UCSBASE
350
1A4
  3
UCSORGBACK
350
1AA
  3
UCSORGBOTTOM
350
1A6
  3
UCSORGFRONT
350
1A9
  3
UCSORGLEFT
350
1A7
  3
UCSORGRIGHT
350
1A8
  3
UCSORGTOP
350
1A5
  3
UCSORTHOREF
350
1A2
  3
UCSORTHOVIEW
350
1A3
  3
VERSIONGUID
350
197
  0
DICTIONARY
  5
1AC
102
{ACAD_REACTORS
330
C
102
}
330
C
100
AcDbDictionary
  3
CANNOSCALE
350
1B5
  3
CMLEADERSTYLE
350
1AE
  3
CTABLESTYLE
350
1AD
  3
DIMASSOC
350
1B1
  3
HIDETEXT
350
1B2
  3
MSLTSCALE
350
1B6
  0
XRECORD
  5
1B4
102
{ACAD_REACTORS
330
1B3
102
}
330
1B3
100
AcDbXrecord
102
VTR_0.000_0.000_1.000_1.000_VISUALSTYLE
340
2F
102
VTR_0.000_0.000_1.000_1.000_GRIDDISPLAY
 70
     3
102
VTR_0.000_0.000_1.000_1.000_GRIDMAJOR
 70
     5
102
VTR_0.000_0.000_1.000_1.000_DEFAULTLIGHTING
280
     1
102
VTR_0.000_0.000_1.000_1.000_DEFAULTLIGHTINGTYPE
 70
     1
102
VTR_0.000_0.000_1.000_1.000_BRIGHTNESS
141
0.0
102
VTR_0.000_0.000_1.000_1.000_CONTRAST
142
0.0
  0
MATERIAL
  5
45
102
{ACAD_REACTORS
330
43
102
}
102
{ACAD_XDICTIONARY
360
1B9
102
}
330
43
100
AcDbMaterial
  1
BYBLOCK
  0
MATERIAL
  5
44
102
{ACAD_REACTORS
330
43
102
}
102
{ACAD_XDICTIONARY
360
1B7
102
}
330
43
100
AcDbMaterial
  1
BYLAYER
  0
MATERIAL
  5
46
102
{ACAD_REACTORS
330
43
102
}
102
{ACAD_XDICTIONARY
360
1BB
102
}
330
43
100
AcDbMaterial
  1
GLOBAL
  0
ACAD_PROXY_OBJECT
  5
6C
102
{ACAD_REACTORS
330
6B
102
}
330
6B
100
AcDbProxyObject
 90
      499
 91
      505
 93
      610
310
40901902A4063FBFFFFFE056BD1B81E855B9FC0AD7A3703D0AD73F4214DD185B99185C9900AD7A3703D0AC73F90141901A02B5E8DC0F42B1CFC02B5E8DC0F42B1CFE5764000000000000300FC0
340
14
340
0
340
11
340
0
 94
        0
1001
ACAD_MLEADERVER
1070
     2
  0
MLINESTYLE
  5
18
102
{ACAD_REACTORS
330
17
102
}
330
17
100
AcDbMlineStyle
  2
Standard
 70
     0
  3

 62
   256
 51
90.0
 52
90.0
 71
     2
 49
0.5
 62
   256
  6
BYLAYER
 49
-0.5
 62
   256
  6
BYLAYER
  0
ACAD_PROXY_OBJECT
  5
48
102
{ACAD_REACTORS
330
47
102
}
330
47
100
AcDbProxyObject
 90
      499
 91
      503
 93
       41
310
903313A31580
  0
ACAD_PROXY_OBJECT
  5
49
102
{ACAD_REACTORS
330
47
102
}
330
47
100
AcDbProxyObject
 90
      499
 91
      503
 93
      105
310
903313A324000000000000004000
  0
ACAD_PROXY_OBJECT
  5
4A
102
{ACAD_REACTORS
330
47
102
}
330
47
100
AcDbProxyObject
 90
      499
 91
      503
 93
      105
310
903313A344000000000000104000
  0
ACAD_PROXY_OBJECT
  5
4B
102
{ACAD_REACTORS
330
47
102
}
330
47
100
AcDbProxyObject
 90
      499
 91
      503
 93
      105
310
903313A354000000000000144000
  0
ACAD_PROXY_OBJECT
  5
4C
102
{ACAD_REACTORS
330
47
102
}
330
47
100
AcDbProxyObject
 90
      499
 91
      503
 93
      105
310
903313A384000000000000204000
  0
ACAD_PROXY_OBJECT
  5
4D
102
{ACAD_REACTORS
330
47
102
}
330
47
100
AcDbProxyObject
 90
      499
 91
      503
 93
      113
310
904313A31304000000000000244000
  0
ACAD_PROXY_OBJECT
  5
4E
102
{ACAD_REACTORS
330
47
102
}
330
47
100
AcDbProxyObject
 90
      499
 91
      503
 93
      113
310
904313A31364000000000000304000
  0
ACAD_PROXY_OBJECT
  5
4F
102
{ACAD_REACTORS
330
47
102
}
330
47
100
AcDbProxyObject
 90
      499
 91
      503
 93
      113
310
904313A32304000000000000344000
  0
ACAD_PROXY_OBJECT
  5
50
102
{ACAD_REACTORS
330
47
102
}
330
47
100
AcDbProxyObject
 90
      499
 91
      503
 93
      113
310
904313A333040000000000003E4000
  0
ACAD_PROXY_OBJECT
  5
51
102
{ACAD_REACTORS
330
47
102
}
330
47
100
AcDbProxyObject
 90
      499
 91
      503
 93
      113
310
904313A34304000000000000444000
  0
ACAD_PROXY_OBJECT
  5
52
102
{ACAD_REACTORS
330
47
102
}
330
47
100
AcDbProxyObject
 90
      499
 91
      503
 93
      113
310
904313A35304000000000000494000
  0
ACAD_PROXY_OBJECT
  5
53
102
{ACAD_REACTORS
330
47
102
}
330
47
100
AcDbProxyObject
 90
      499
 91
      503
 93
      121
310
905313A3130304000000000000594000
  0
ACAD_PROXY_OBJECT
  5
54
102
{ACAD_REACTORS
330
47
102
}
330
47
100
AcDbProxyObject
 90
      499
 91
      503
 93
      105
310
903323A310000000000000010100
  0
ACAD_PROXY_OBJECT
  5
55
102
{ACAD_REACTORS
330
47
102
}
330
47
100
AcDbProxyObject
 90
      499
 91
      503
 93
      105
310
903343A310000000000000410100
  0
ACAD_PROXY_OBJECT
  5
56
102
{ACAD_REACTORS
330
47
102
}
330
47
100
AcDbProxyObject
 90
      499
 91
      503
 93
      105
310
903383A310000000000000810100
  0
ACAD_PROXY_OBJECT
  5
57
102
{ACAD_REACTORS
330
47
102
}
330
47
100
AcDbProxyObject
 90
      499
 91
      503
 93
      113
310
90431303A310000000000000910100
  0
ACAD_PROXY_OBJECT
  5
58
102
{ACAD_REACTORS
330
47
102
}
330
47
100
AcDbProxyObject
 90
      499
 91
      503
 93
      121
310
9053130303A310000000000001650100
  0
ACAD_PROXY_OBJECT
  5
59
102
{ACAD_REACTORS
330
47
102
}
330
47
100
AcDbProxyObject
 90
      499
 91
      503
 93
      257
310
90E312F31323822203D2031272D3022000000000000200FC000000000000284000
  0
ACAD_PROXY_OBJECT
  5
5A
102
{ACAD_REACTORS
330
47
102
}
330
47
100
AcDbProxyObject
 90
      499
 91
      503
 93
      249
310
90D312F363422203D2031272D3022000000000000240FC000000000000284000
  0
ACAD_PROXY_OBJECT
  5
5B
102
{ACAD_REACTORS
330
47
102
}
330
47
100
AcDbProxyObject
 90
      499
 91
      503
 93
      249
310
90D312F333222203D2031272D3022000000000000280FC000000000000284000
  0
ACAD_PROXY_OBJECT
  5
5C
102
{ACAD_REACTORS
330
47
102
}
330
47
100
AcDbProxyObject
 90
      499
 91
      503
 93
      249
310
90D312F313622203D2031272D30220000000000002C0FC000000000000284000
  0
ACAD_PROXY_OBJECT
  5
5D
102
{ACAD_REACTORS
330
47
102
}
330
47
100
AcDbProxyObject
 90
      499
 91
      503
 93
      249
310
90D332F333222203D2031272D30220000000000002E0FC000000000000284000
  0
ACAD_PROXY_OBJECT
  5
5E
102
{ACAD_REACTORS
330
47
102
}
330
47
100
AcDbProxyObject
 90
      499
 91
      503
 93
      241
310
90C312F3822203D2031272D3022000000000000300FC000000000000284000
  0
ACAD_PROXY_OBJECT
  5
5F
102
{ACAD_REACTORS
330
47
102
}
330
47
100
AcDbProxyObject
 90
      499
 91
      503
 93
      249
310
90D332F313622203D2031272D3022000000000000320FC000000000000284000
  0
ACAD_PROXY_OBJECT
  5
60
102
{ACAD_REACTORS
330
47
102
}
330
47
100
AcDbProxyObject
 90
      499
 91
      503
 93
      241
310
90C312F3422203D2031272D3022000000000000340FC000000000000284000
  0
ACAD_PROXY_OBJECT
  5
61
102
{ACAD_REACTORS
330
47
102
}
330
47
100
AcDbProxyObject
 90
      499
 91
      503
 93
      241
310
90C332F3822203D2031272D3022000000000000360FC000000000000284000
  0
ACAD_PROXY_OBJECT
  5
62
102
{ACAD_REACTORS
330
47
102
}
330
47
100
AcDbProxyObject
 90
      499
 91
      503
 93
      241
310
90C312F3222203D2031272D3022000000000000380FC000000000000284000
  0
ACAD_PROXY_OBJECT
  5
63
102
{ACAD_REACTORS
330
47
102
}
330
47
100
AcDbProxyObject
 90
      499
 91
      503
 93
      241
310
90C332F3422203D2031272D30220000000000003A0FC000000000000284000
  0
ACAD_PROXY_OBJECT
  5
64
102
{ACAD_REACTORS
330
47
102
}
330
47
100
AcDbProxyObject
 90
      499
 91
      503
 93
      161
310
90A3122203D2031272D30224000000000000284000
  0
ACAD_PROXY_OBJECT
  5
65
102
{ACAD_REACTORS
330
47
102
}
330
47
100
AcDbProxyObject
 90
      499
 91
      503
 93
      257
310
90E312D312F3222203D2031272D30220000000000003E0FC000000000000284000
  0
ACAD_PROXY_OBJECT
  5
66
102
{ACAD_REACTORS
330
47
102
}
330
47
100
AcDbProxyObject
 90
      499
 91
      503
 93
      225
310
90A3322203D2031272D302200000000000002100000000000000284000
  0
ACAD_PROXY_OBJECT
  5
67
102
{ACAD_REACTORS
330
47
102
}
330
47
100
AcDbProxyObject
 90
      499
 91
      503
 93
      225
310
90A3622203D2031272D302200000000000006100000000000000284000
  0
ACAD_PROXY_OBJECT
  5
68
102
{ACAD_REACTORS
330
47
102
}
330
47
100
AcDbProxyObject
 90
      499
 91
      503
 93
      249
310
90D31272D3022203D2031272D30220000000000000A100000000000000284000
  0
ACAD_PROXY_OBJECT
  5
2F
102
{ACAD_REACTORS
330
2A
102
}
330
2A
100
AcDbProxyObject
 90
      499
 91
      501
 93
      436
310
42CC9915DA5C99599C985B595049028333333333333E33F0000000000000F90107901411070040501600405405064090741402480A0340
1001
ACAD
1000
AcDbSavedByObjectVersion
1070
     0
  0
ACAD_PROXY_OBJECT
  5
32
102
{ACAD_REACTORS
330
2A
102
}
330
2A
100
AcDbProxyObject
 90
      499
 91
      501
 93
      388
310
4150985CDA58D07406404333333333333E33F0000000000000F90107A41107004050150841D405064090741402480A0350
1001
ACAD
1000
AcDbSavedByObjectVersion
1070
     0
  0
ACAD_PROXY_OBJECT
  5
36
102
{ACAD_REACTORS
330
2A
102
}
330
2A
100
AcDbProxyObject
 90
      499
 91
      501
 93
      428
310
42109C9A59DA1D195B90C409028333333333333E33F0000000000000F9010790141107004050150841D405064090741402480A029950
1001
ACAD
1000
AcDbSavedByObjectVersion
1070
     0
  0
ACAD_PROXY_OBJECT
  5
3A
102
{ACAD_REACTORS
330
2A
102
}
330
2A
100
AcDbProxyObject
 90
      499
 91
      501
 93
      452
310
42D0DBDB1BDC90DA185B99D95104090240C333333333333E33F0000000000000F90108901411070040501508421405064090741402480A0350
1001
ACAD
1000
AcDbSavedByObjectVersion
1070
     0
  0
ACAD_PROXY_OBJECT
  5
34
102
{ACAD_REACTORS
330
2A
102
}
330
2A
100
AcDbProxyObject
 90
      499
 91
      501
 93
      500
310
4290DBDB98D95C1D1D585B10940D028333333333333E33F0000000000000F90107902409070040501000000000018199010841D405064090740C02480A0340
1001
ACAD
1000
AcDbSavedByObjectVersion
1070
     0
  0
ACAD_PROXY_OBJECT
  5
35
102
{ACAD_REACTORS
330
2A
102
}
330
2A
100
AcDbProxyObject
 90
      499
 91
      501
 93
      412
310
40D11A5B50B409028333333333333E33F0000000000000F9010790141107004050150841D405064090741402480A02677FFFFFD0
1001
ACAD
1000
AcDbSavedByObjectVersion
1070
     0
  0
ACAD_PROXY_OBJECT
  5
3D
102
{ACAD_REACTORS
330
2A
102
}
330
2A
100
AcDbProxyObject
 90
      499
 91
      501
 93
      452
310
43115919D950DBDB1BDC93D999916409028333333333333E33F0000000000000F9010790141107004050150841D405064090741402480A0350
1001
ACAD
1000
AcDbSavedByObjectVersion
1070
     0
  0
ACAD_PROXY_OBJECT
  5
39
102
{ACAD_REACTORS
330
2A
102
}
330
2A
100
AcDbProxyObject
 90
      499
 91
      501
 93
      444
310
42D19858D95C185D1D195C9B90F409028333333333333E33F0000000000000F9010790141107004050150841D405064090741402480A0350
1001
ACAD
1000
AcDbSavedByObjectVersion
1070
     0
  0
ACAD_PROXY_OBJECT
  5
2B
102
{ACAD_REACTORS
330
2A
102
}
330
2A
100
AcDbProxyObject
 90
      499
 91
      501
 93
      380
310
41119B185D240901404333333333333E33F0000000000000F9010740A907004050150841D405064090741402480A1B50
1001
ACAD
1000
AcDbSavedByObjectVersion
1070
     0
  0
ACAD_PROXY_OBJECT
  5
2C
102
{ACAD_REACTORS
330
2A
102
}
330
2A
100
AcDbProxyObject
 90
      499
 91
      501
 93
      468
310
43519B185D15DA5D1A115919D95CD0140901404333333333333E33F0000000000000F90107409019070040501600405405064090741402480A1B50
1001
ACAD
1000
AcDbSavedByObjectVersion
1070
     0
  0
ACAD_PROXY_OBJECT
  5
2D
102
{ACAD_REACTORS
330
2A
102
}
330
2A
100
AcDbProxyObject
 90
      499
 91
      501
 93
      404
310
41D1DBDD5C985D5910240902404333333333333E33F0000000000000F9010740A9070040501641D405064090741402480A1B50
1001
ACAD
1000
AcDbSavedByObjectVersion
1070
     0
  0
ACAD_PROXY_OBJECT
  5
2E
102
{ACAD_REACTORS
330
2A
102
}
330
2A
100
AcDbProxyObject
 90
      499
 91
      501
 93
      492
310
4411DBDD5C985D5915DA5D1A115919D95CD0340902404333333333333E33F0000000000000F90107409019070040501600405405064090741402480A1B50
1001
ACAD
1000
AcDbSavedByObjectVersion
1070
     0
  0
ACAD_PROXY_OBJECT
  5
31
102
{ACAD_REACTORS
330
2A
102
}
330
2A
100
AcDbProxyObject
 90
      499
 91
      501
 93
      476
310
41921A5919195B90640502408333333333333E33F0000000000000F901079024090700405020000000000001110200405405064090740C02480A0340
1001
ACAD
1000
AcDbSavedByObjectVersion
1070
     0
  0
ACAD_PROXY_OBJECT
  5
3B
102
{ACAD_REACTORS
330
2A
102
}
330
2A
100
AcDbProxyObject
 90
      499
 91
      501
 93
      428
310
42529A5D1D195C93D999914409028333333333333E33F0000000000000F9010790141107004050150A41D405064090741402480A0350
1001
ACAD
1000
AcDbSavedByObjectVersion
1070
     0
  0
ACAD_PROXY_OBJECT
  5
38
102
{ACAD_REACTORS
330
2A
102
}
330
2A
100
AcDbProxyObject
 90
      499
 91
      501
 93
      444
310
42D31A5B995C185D1D195C9B90E409028333333333333E33F0000000000000F9010790141107004050750841D405064090741402483A0350
1001
ACAD
1000
AcDbSavedByObjectVersion
1070
     0
  0
ACAD_PROXY_OBJECT
  5
3C
102
{ACAD_REACTORS
330
2A
102
}
330
2A
100
AcDbProxyObject
 90
      499
 91
      501
 93
      444
310
42D3DD995C9A185B99D3D999915409028333333333333E33F0000000000000F9010790141107004050150941D405064090741402480A0350
1001
ACAD
1000
AcDbSavedByObjectVersion
1070
     0
  0
ACAD_PROXY_OBJECT
  5
33
102
{ACAD_REACTORS
330
2A
102
}
330
2A
100
AcDbProxyObject
 90
      499
 91
      501
 93
      428
310
425499585B1A5CDD1A58D08409038333333333333E33F0000000000000F9010740A907004050150800405405064090740C02480A1B40
1001
ACAD
1000
AcDbSavedByObjectVersion
1070
     0
  0
ACAD_PROXY_OBJECT
  5
42
102
{ACAD_REACTORS
330
2A
102
}
330
2A
100
AcDbProxyObject
 90
      499
 91
      501
 93
      420
310
4194DA1859195911B40902404333333333333E33F0000000000000F9010740A41107004050150800405405064090840C02480A0B40
1001
ACAD
1000
AcDbSavedByObjectVersion
1070
     0
  0
ACAD_PROXY_OBJECT
  5
41
102
{ACAD_REACTORS
330
2A
102
}
330
2A
100
AcDbProxyObject
 90
      499
 91
      501
 93
      516
310
4454DA18591959081DDA5D1A08195919D95CD1A40902404333333333333E33F0000000000000F901074090142907004050250800405405064090740C02480A0B40
1001
ACAD
1000
AcDbSavedByObjectVersion
1070
     0
  0
ACAD_PROXY_OBJECT
  5
3E
102
{ACAD_REACTORS
330
2A
102
}
330
2A
100
AcDbProxyObject
 90
      499
 91
      501
 93
      532
310
4394DA1859195CC81BD98811DC985E5174090240C333333333333E33F0000000000000F901079024090741D01000000000000111010841D405064090740C02480A0340
1001
ACAD
1000
AcDbSavedByObjectVersion
1070
     0
  0
ACAD_PROXY_OBJECT
  5
3F
102
{ACAD_REACTORS
330
2A
102
}
330
2A
100
AcDbProxyObject
 90
      499
 91
      501
 93
      476
310
41D4DAD95D18DA1E51840502408333333333333E33F0000000000000F901079024090741D01000000000000111010B41D405064090741802480A0340
1001
ACAD
1000
AcDbSavedByObjectVersion
1070
     0
  0
ACAD_PROXY_OBJECT
  5
37
102
{ACAD_REACTORS
330
2A
102
}
330
2A
100
AcDbProxyObject
 90
      499
 91
      501
 93
      412
310
41D51A1A58DAD95B90D409028333333333333E33F0000000000000F9010790141107004050150C41D405064090741402480A0350
1001
ACAD
1000
AcDbSavedByObjectVersion
1070
     0
  0
ACAD_PROXY_OBJECT
  5
30
102
{ACAD_REACTORS
330
2A
102
}
330
2A
100
AcDbProxyObject
 90
      499
 91
      501
 93
      420
310
4255DA5C99599C985B595059028333333333333E33F0000000000000F90107901411070040501600405405064090740C02480A0340
1001
ACAD
1000
AcDbSavedByObjectVersion
1070
     0
  0
ACAD_PROXY_OBJECT
  5
40
102
{ACAD_REACTORS
330
2A
102
}
330
2A
100
AcDbProxyObject
 90
      499
 91
      501
 93
      404
310
41560B54985E51940902404000000000000E03F0000000000000F9010740501907004050150841D405064090740C02480A1B40
1001
ACAD
1000
AcDbSavedByObjectVersion
1070
     0
  0
XRECORD
  5
195
102
{ACAD_REACTORS
330
18B
102
}
330
18B
100
AcDbXrecord
340
0
  0
XRECORD
  5
194
102
{ACAD_REACTORS
330
18B
102
}
330
18B
100
AcDbXrecord
 90
        0
  0
XRECORD
  5
1AB
102
{ACAD_REACTORS
330
18B
102
}
330
18B
100
AcDbXrecord
1000
DSTYLE
1002
{
1070
   179
 70
     2
1070
   171
 70
     2
1070
   143
 40
25.4
1070
   274
 70
     2
1070
    41
 40
3.0
1070
   141
 40
0.09
1070
    43
 40
0.38
1070
   278
 70
    46
1070
    44
 40
1.5
1070
    42
 40
0.0625
1070
   147
 40
1.5
1070
   272
 70
     4
1070
    73
 70
     1
1070
   172
 70
     0
1070
    74
 70
     1
1070
   283
 70
     1
1070
   340
340
6F
1070
   140
 40
3.0
1070
   284
 70
     0
1070
    78
 70
     0
1002
}
  0
XRECORD
  5
196
102
{ACAD_REACTORS
330
18B
102
}
330
18B
100
AcDbXrecord
  1
{CD5DF22E-19DC-47E6-A7EE-810482FC007B}
  0
XRECORD
  5
18E
102
{ACAD_REACTORS
330
18B
102
}
330
18B
100
AcDbXrecord
  1

  0
XRECORD
  5
193
102
{ACAD_REACTORS
330
18B
102
}
330
18B
100
AcDbXrecord
 90
        4
  0
XRECORD
  5
190
102
{ACAD_REACTORS
330
18B
102
}
330
18B
100
AcDbXrecord
340
1A
  0
XRECORD
  5
192
102
{ACAD_REACTORS
330
18B
102
}
330
18B
100
AcDbXrecord
 90
    10269
  0
XRECORD
  5
191
102
{ACAD_REACTORS
330
18B
102
}
330
18B
100
AcDbXrecord
340
19
  0
XRECORD
  5
198
102
{ACAD_REACTORS
330
18B
102
}
330
18B
100
AcDbXrecord
 40
0.0
  0
XRECORD
  5
19B
102
{ACAD_REACTORS
330
18B
102
}
330
18B
100
AcDbXrecord
340
0
  0
XRECORD
  5
1A1
102
{ACAD_REACTORS
330
18B
102
}
330
18B
100
AcDbXrecord
 10
0.0
 20
0.0
 30
0.0
  0
XRECORD
  5
19D
102
{ACAD_REACTORS
330
18B
102
}
330
18B
100
AcDbXrecord
 10
0.0
 20
0.0
 30
0.0
  0
XRECORD
  5
1A0
102
{ACAD_REACTORS
330
18B
102
}
330
18B
100
AcDbXrecord
 10
0.0
 20
0.0
 30
0.0
  0
XRECORD
  5
19E
102
{ACAD_REACTORS
330
18B
102
}
330
18B
100
AcDbXrecord
 10
0.0
 20
0.0
 30
0.0
  0
XRECORD
  5
19F
102
{ACAD_REACTORS
330
18B
102
}
330
18B
100
AcDbXrecord
 10
0.0
 20
0.0
 30
0.0
  0
XRECORD
  5
19C
102
{ACAD_REACTORS
330
18B
102
}
330
18B
100
AcDbXrecord
 10
0.0
 20
0.0
 30
0.0
  0
XRECORD
  5
199
102
{ACAD_REACTORS
330
18B
102
}
330
18B
100
AcDbXrecord
340
0
  0
XRECORD
  5
19A
102
{ACAD_REACTORS
330
18B
102
}
330
18B
100
AcDbXrecord
 70
     0
  0
XRECORD
  5
18F
102
{ACAD_REACTORS
330
18B
102
}
330
18B
100
AcDbXrecord
  1

  0
XRECORD
  5
18C
102
{ACAD_REACTORS
330
18B
102
}
330
18B
100
AcDbXrecord
 90
        1
  0
XRECORD
  5
18D
102
{ACAD_REACTORS
330
18B
102
}
330
18B
100
AcDbXrecord
 90
       70
  0
XRECORD
  5
1A4
102
{ACAD_REACTORS
330
18B
102
}
330
18B
100
AcDbXrecord
340
0
  0
XRECORD
  5
1AA
102
{ACAD_REACTORS
330
18B
102
}
330
18B
100
AcDbXrecord
 10
0.0
 20
0.0
 30
0.0
  0
XRECORD
  5
1A6
102
{ACAD_REACTORS
330
18B
102
}
330
18B
100
AcDbXrecord
 10
0.0
 20
0.0
 30
0.0
  0
XRECORD
  5
1A9
102
{ACAD_REACTORS
330
18B
102
}
330
18B
100
AcDbXrecord
 10
0.0
 20
0.0
 30
0.0
  0
XRECORD
  5
1A7
102
{ACAD_REACTORS
330
18B
102
}
330
18B
100
AcDbXrecord
 10
0.0
 20
0.0
 30
0.0
  0
XRECORD
  5
1A8
102
{ACAD_REACTORS
330
18B
102
}
330
18B
100
AcDbXrecord
 10
0.0
 20
0.0
 30
0.0
  0
XRECORD
  5
1A5
102
{ACAD_REACTORS
330
18B
102
}
330
18B
100
AcDbXrecord
 10
0.0
 20
0.0
 30
0.0
  0
XRECORD
  5
1A2
102
{ACAD_REACTORS
330
18B
102
}
330
18B
100
AcDbXrecord
340
0
  0
XRECORD
  5
1A3
102
{ACAD_REACTORS
330
18B
102
}
330
18B
100
AcDbXrecord
 70
     0
  0
XRECORD
  5
197
102
{ACAD_REACTORS
330
18B
102
}
330
18B
100
AcDbXrecord
  1
{FAEB1C32-E019-11D5-929B-00C0DF256EC4}
  0
DICTIONARYVAR
  5
1B5
102
{ACAD_REACTORS
330
1AC
102
}
330
1AC
100
DictionaryVariables
280
     0
  1
1:1
  0
DICTIONARYVAR
  5
1AE
102
{ACAD_REACTORS
330
1AC
102
}
330
1AC
100
DictionaryVariables
280
     0
  1
Standard
  0
DICTIONARYVAR
  5
1AD
102
{ACAD_REACTORS
330
1AC
102
}
330
1AC
100
DictionaryVariables
280
     0
  1
Standard
  0
DICTIONARYVAR
  5
1B1
102
{ACAD_REACTORS
330
1AC
102
}
330
1AC
100
DictionaryVariables
280
     0
  1
2
  0
DICTIONARYVAR
  5
1B2
102
{ACAD_REACTORS
330
1AC
102
}
330
1AC
100
DictionaryVariables
280
     0
  1
1
  0
DICTIONARYVAR
  5
1B6
102
{ACAD_REACTORS
330
1AC
102
}
330
1AC
100
DictionaryVariables
280
     0
  1
1
  0
DICTIONARY
  5
1B9
330
45
100
AcDbDictionary
280
     1
  3
ACAD_XREC_ROUNDTRIP
360
1BA
  0
DICTIONARY
  5
1B7
330
44
100
AcDbDictionary
280
     1
  3
ACAD_XREC_ROUNDTRIP
360
1B8
  0
DICTIONARY
  5
1BB
330
46
100
AcDbDictionary
280
     1
  3
ACAD_XREC_ROUNDTRIP
360
1BC
  0
XRECORD
  5
1BA
102
{ACAD_REACTORS
330
1B9
102
}
330
1B9
100
AcDbXrecord
102
MATERIAL
148
0.0
149
0.0
149
0.0
 93
        0
 94
      127
282
     0
 72
     1
 77
     1
171
     1
175
     1
179
     1
273
     0
  0
XRECORD
  5
1B8
102
{ACAD_REACTORS
330
1B7
102
}
330
1B7
100
AcDbXrecord
102
MATERIAL
148
0.0
149
0.0
149
0.0
 93
        0
 94
      127
282
     0
 72
     1
 77
     1
171
     1
175
     1
179
     1
273
     0
  0
XRECORD
  5
1BC
102
{ACAD_REACTORS
330
1BB
102
}
330
1BB
100
AcDbXrecord
102
MATERIAL
148
0.0
149
0.0
149
0.0
 93
        0
 94
      127
282
     0
 72
     1
 77
     1
171
     1
175
     1
179
     1
273
     0
  0
ENDSEC
  0
EOF
