  0
SECTION
  2
HEADER
  9
$ACADVER
  1
AC1014
  9
$ACADMAINTVER
 70
     9
  9
$DWGCODEPAGE
  3
ANSI_932
  9
$INSBASE
 10
0.0
 20
0.0
 30
0.0
  9
$EXTMIN
 10
8.000000000000009
 20
112.6306218998791
 30
0.0
  9
$EXTMAX
 10
170.0
 20
238.6077055818682
 30
0.0
  9
$LIMMIN
 10
0.0
 20
0.0
  9
$LIMMAX
 10
12.0
 20
9.0
  9
$ORTHOMODE
 70
     0
  9
$REGENMODE
 70
     1
  9
$FILLMODE
 70
     1
  9
$QTEXTMODE
 70
     0
  9
$MIRRTEXT
 70
     1
  9
$DRAGMODE
 70
     2
  9
$LTSCALE
 40
1.0
  9
$OSMODE
 70
    37
  9
$ATTMODE
 70
     1
  9
$TEXTSIZE
 40
0.2
  9
$TRACEWID
 40
0.05
  9
$TEXTSTYLE
  7
STANDARD
  9
$CLAYER
  8
0
  9
$CELTYPE
  6
BYLAYER
  9
$CECOLOR
 62
   256
  9
$CELTSCALE
 40
1.0
  9
$DELOBJ
 70
     1
  9
$DISPSILH
 70
     0
  9
$DIMSCALE
 40
1.0
  9
$DIMASZ
 40
3.0
  9
$DIMEXO
 40
0.0625
  9
$DIMDLI
 40
0.38
  9
$DIMRND
 40
0.0
  9
$DIMDLE
 40
0.0
  9
$DIMEXE
 40
1.5
  9
$DIMTP
 40
0.0
  9
$DIMTM
 40
0.0
  9
$DIMTXT
 40
3.0
  9
$DIMCEN
 40
0.09
  9
$DIMTSZ
 40
0.0
  9
$DIMTOL
 70
     0
  9
$DIMLIM
 70
     0
  9
$DIMTIH
 70
     1
  9
$DIMTOH
 70
     1
  9
$DIMSE1
 70
     0
  9
$DIMSE2
 70
     0
  9
$DIMTAD
 70
     1
  9
$DIMZIN
 70
     0
  9
$DIMBLK
  1

  9
$DIMASO
 70
     1
  9
$DIMSHO
 70
     1
  9
$DIMPOST
  1

  9
$DIMAPOST
  1

  9
$DIMALT
 70
     0
  9
$DIMALTD
 70
     2
  9
$DIMALTF
 40
25.4
  9
$DIMLFAC
 40
1.0
  9
$DIMTOFL
 70
     0
  9
$DIMTVP
 40
0.0
  9
$DIMTIX
 70
     0
  9
$DIMSOXD
 70
     0
  9
$DIMSAH
 70
     0
  9
$DIMBLK1
  1

  9
$DIMBLK2
  1

  9
$DIMSTYLE
  2
STANDARD
  9
$DIMCLRD
 70
     0
  9
$DIMCLRE
 70
     0
  9
$DIMCLRT
 70
     0
  9
$DIMTFAC
 40
1.0
  9
$DIMGAP
 40
1.5
  9
$DIMJUST
 70
     0
  9
$DIMSD1
 70
     0
  9
$DIMSD2
 70
     0
  9
$DIMTOLJ
 70
     1
  9
$DIMTZIN
 70
     0
  9
$DIMALTZ
 70
     0
  9
$DIMALTTZ
 70
     0
  9
$DIMFIT
 70
     3
  9
$DIMUPT
 70
     0
  9
$DIMUNIT
 70
     2
  9
$DIMDEC
 70
     2
  9
$DIMTDEC
 70
     4
  9
$DIMALTU
 70
     2
  9
$DIMALTTD
 70
     2
  9
$DIMTXSTY
  7
ＭＳ_ゴシック
  9
$DIMAUNIT
 70
     0
  9
$LUNITS
 70
     2
  9
$LUPREC
 70
     4
  9
$SKETCHINC
 40
0.1
  9
$FILLETRAD
 40
0.5
  9
$AUNITS
 70
     0
  9
$AUPREC
 70
     0
  9
$MENU
  1
.
  9
$ELEVATION
 40
0.0
  9
$PELEVATION
 40
0.0
  9
$THICKNESS
 40
0.0
  9
$LIMCHECK
 70
     0
  9
$CHAMFERA
 40
0.0
  9
$CHAMFERB
 40
0.0
  9
$CHAMFERC
 40
0.0
  9
$CHAMFERD
 40
0.0
  9
$SKPOLY
 70
     0
  9
$TDCREATE
 40
2460012.649814641
  9
$TDUPDATE
 40
2460012.649814988
  9
$TDINDWG
 40
0.0000000116
  9
$TDUSRTIMER
 40
0.0000000116
  9
$USRTIMER
 70
     1
  9
$ANGBASE
 50
0.0
  9
$ANGDIR
 70
     0
  9
$PDMODE
 70
     0
  9
$PDSIZE
 40
0.0
  9
$PLINEWID
 40
0.0
  9
$COORDS
 70
     1
  9
$SPLFRAME
 70
     0
  9
$SPLINETYPE
 70
     6
  9
$SPLINESEGS
 70
     8
  9
$ATTDIA
 70
     0
  9
$ATTREQ
 70
     1
  9
$HANDLING
 70
     1
  9
$HANDSEED
  5
363
  9
$SURFTAB1
 70
     6
  9
$SURFTAB2
 70
     6
  9
$SURFTYPE
 70
     6
  9
$SURFU
 70
     6
  9
$SURFV
 70
     6
  9
$UCSNAME
  2

  9
$UCSORG
 10
0.0
 20
0.0
 30
0.0
  9
$UCSXDIR
 10
1.0
 20
0.0
 30
0.0
  9
$UCSYDIR
 10
0.0
 20
1.0
 30
0.0
  9
$PUCSNAME
  2

  9
$PUCSORG
 10
0.0
 20
0.0
 30
0.0
  9
$PUCSXDIR
 10
1.0
 20
0.0
 30
0.0
  9
$PUCSYDIR
 10
0.0
 20
1.0
 30
0.0
  9
$USERI1
 70
     0
  9
$USERI2
 70
     0
  9
$USERI3
 70
     0
  9
$USERI4
 70
     0
  9
$USERI5
 70
     0
  9
$USERR1
 40
0.0
  9
$USERR2
 40
0.0
  9
$USERR3
 40
0.0
  9
$USERR4
 40
0.0
  9
$USERR5
 40
0.0
  9
$WORLDVIEW
 70
     1
  9
$SHADEDGE
 70
     3
  9
$SHADEDIF
 70
    70
  9
$TILEMODE
 70
     1
  9
$MAXACTVP
 70
    64
  9
$PINSBASE
 10
0.0
 20
0.0
 30
0.0
  9
$PLIMCHECK
 70
     0
  9
$PEXTMIN
 10
1.000000000000000E+20
 20
1.000000000000000E+20
 30
1.000000000000000E+20
  9
$PEXTMAX
 10
-1.000000000000000E+20
 20
-1.000000000000000E+20
 30
-1.000000000000000E+20
  9
$PLIMMIN
 10
0.0
 20
0.0
  9
$PLIMMAX
 10
12.0
 20
9.0
  9
$UNITMODE
 70
     0
  9
$VISRETAIN
 70
     1
  9
$PLINEGEN
 70
     0
  9
$PSLTSCALE
 70
     1
  9
$TREEDEPTH
 70
  3020
  9
$PICKSTYLE
 70
     1
  9
$CMLSTYLE
  2
STANDARD
  9
$CMLJUST
 70
     0
  9
$CMLSCALE
 40
1.0
  9
$PROXYGRAPHICS
 70
     1
  9
$MEASUREMENT
 70
     1
  0
ENDSEC
  0
SECTION
  2
CLASSES
  0
CLASS
  1
ACDBDICTIONARYWDFLT
  2
AcDbDictionaryWithDefault
  3
ObjectDBX Classes
 90
        0
280
     0
281
     0
  0
CLASS
  1
VISUALSTYLE
  2
AcDbVisualStyle
  3
ObjectDBX Classes
 90
     4095
280
     0
281
     0
  0
CLASS
  1
MATERIAL
  2
AcDbMaterial
  3
ObjectDBX Classes
 90
     1153
280
     0
281
     0
  0
CLASS
  1
SCALE
  2
AcDbScale
  3
ObjectDBX Classes
 90
     1153
280
     0
281
     0
  0
CLASS
  1
TABLESTYLE
  2
AcDbTableStyle
  3
ObjectDBX Classes
 90
     4095
280
     0
281
     0
  0
CLASS
  1
MLEADERSTYLE
  2
AcDbMLeaderStyle
  3
ACDB_MLEADERSTYLE_CLASS
 90
     4095
280
     0
281
     0
  0
CLASS
  1
SUN
  2
AcDbSun
  3
SCENEOE
 90
     1153
280
     0
281
     0
  0
CLASS
  1
DICTIONARYVAR
  2
AcDbDictionaryVar
  3
ObjectDBX Classes
 90
        0
280
     0
281
     0
  0
CLASS
  1
XRECORD
  2
AcDbXrecord
  3
ObjectDBX Classes
 90
        0
280
     0
281
     0
  0
CLASS
  1
LWPOLYLINE
  2
AcDbPolyline
  3
ObjectDBX Classes
 90
        0
280
     0
281
     1
  0
CLASS
  1
HATCH
  2
AcDbHatch
  3
ObjectDBX Classes
 90
        0
280
     0
281
     1
  0
CLASS
  1
ACDBPLACEHOLDER
  2
AcDbPlaceHolder
  3
ObjectDBX Classes
 90
        0
280
     0
281
     0
  0
CLASS
  1
LAYOUT
  2
AcDbLayout
  3
ObjectDBX Classes
 90
        0
280
     0
281
     0
  0
ENDSEC
  0
SECTION
  2
TABLES
  0
TABLE
  2
VPORT
  5
8
102
{ACAD_XDICTIONARY
360
358
102
}
330
0
100
AcDbSymbolTable
 70
     1
  0
VPORT
  5
29
330
8
100
AcDbSymbolTableRecord
100
AcDbViewportTableRecord
  2
*ACTIVE
 70
     0
 10
0.0
 20
0.0
 11
1.0
 21
1.0
 12
88.99999999999999
 22
175.6191637408737
 13
0.0
 23
0.0
 14
0.5
 24
0.5
 15
0.5
 25
0.5
 16
0.0
 26
0.0
 36
1.0
 17
0.0
 27
0.0
 37
0.0
 40
125.9770836819891
 41
1.6
 42
50.0
 43
0.0
 44
0.0
 50
0.0
 51
0.0
 71
     0
 72
   100
 73
     1
 74
     3
 75
     0
 76
     0
 77
     0
 78
     0
  0
ENDTAB
  0
TABLE
  2
LTYPE
  5
5
330
0
100
AcDbSymbolTable
 70
     2
  0
LTYPE
  5
14
330
5
100
AcDbSymbolTableRecord
100
AcDbLinetypeTableRecord
  2
BYBLOCK
 70
     0
  3

 72
    65
 73
     0
 40
0.0
  0
LTYPE
  5
15
330
5
100
AcDbSymbolTableRecord
100
AcDbLinetypeTableRecord
  2
BYLAYER
 70
     0
  3

 72
    65
 73
     0
 40
0.0
  0
LTYPE
  5
16
330
5
100
AcDbSymbolTableRecord
100
AcDbLinetypeTableRecord
  2
CONTINUOUS
 70
     0
  3
Solid line
 72
    65
 73
     0
 40
0.0
  0
LTYPE
  5
329
330
5
100
AcDbSymbolTableRecord
100
AcDbLinetypeTableRecord
  2
CENTER
 70
     0
  3

 72
    65
 73
     0
 40
0.0
  0
ENDTAB
  0
TABLE
  2
LAYER
  5
2
330
0
100
AcDbSymbolTable
 70
     2
  0
LAYER
  5
10
330
2
100
AcDbSymbolTableRecord
100
AcDbLayerTableRecord
  2
0
 70
     0
 62
     7
  6
CONTINUOUS
  0
LAYER
  5
6E
330
2
100
AcDbSymbolTableRecord
100
AcDbLayerTableRecord
  2
1
 70
     0
 62
     7
  6
CONTINUOUS
  0
ENDTAB
  0
TABLE
  2
STYLE
  5
3
330
0
100
AcDbSymbolTable
 70
     2
  0
STYLE
  5
11
330
3
100
AcDbSymbolTableRecord
100
AcDbTextStyleTableRecord
  2
STANDARD
 70
     0
 40
0.0
 41
1.0
 50
0.0
 71
     0
 42
0.2
  3
txt
  4

  0
STYLE
  5
6F
330
3
100
AcDbSymbolTableRecord
100
AcDbTextStyleTableRecord
  2
ＭＳ_ゴシック
 70
     0
 40
0.0
 41
1.0
 50
0.0
 71
     0
 42
0.2
  3
ＭＳ ゴシック.shx
  4

  0
ENDTAB
  0
TABLE
  2
VIEW
  5
6
330
0
100
AcDbSymbolTable
 70
     0
  0
ENDTAB
  0
TABLE
  2
UCS
  5
7
330
0
100
AcDbSymbolTable
 70
     0
  0
ENDTAB
  0
TABLE
  2
APPID
  5
9
330
0
100
AcDbSymbolTable
 70
     2
  0
APPID
  5
12
330
9
100
AcDbSymbolTableRecord
100
AcDbRegAppTableRecord
  2
ACAD
 70
     0
  0
APPID
  5
362
330
9
100
AcDbSymbolTableRecord
100
AcDbRegAppTableRecord
  2
ACAD_MLEADERVER
 70
     0
  0
ENDTAB
  0
TABLE
  2
DIMSTYLE
  5
A
330
0
100
AcDbSymbolTable
 70
     1
  0
DIMSTYLE
105
27
330
A
100
AcDbSymbolTableRecord
100
AcDbDimStyleTableRecord
  2
STANDARD
 70
     0
  3

  4

  5

  6

  7

 40
1.0
 41
0.18
 42
0.0625
 43
0.38
 44
0.18
 45
0.0
 46
0.0
 47
0.0
 48
0.0
140
0.18
141
0.09
142
0.0
143
25.4
144
1.0
145
0.0
146
1.0
147
0.09
 71
     0
 72
     0
 73
     1
 74
     1
 75
     0
 76
     0
 77
     0
 78
     0
170
     0
171
     2
172
     0
173
     0
174
     0
175
     0
176
     0
177
     0
178
     0
270
     2
271
     4
272
     4
273
     2
274
     2
340
11
275
     0
280
     0
281
     0
282
     0
283
     1
284
     0
285
     0
286
     0
287
     3
288
     0
  0
ENDTAB
  0
TABLE
  2
BLOCK_RECORD
  5
1
330
0
100
AcDbSymbolTable
 70
     0
  0
BLOCK_RECORD
  5
1F
330
1
100
AcDbSymbolTableRecord
100
AcDbBlockTableRecord
  2
*MODEL_SPACE
  0
BLOCK_RECORD
  5
1B
330
1
100
AcDbSymbolTableRecord
100
AcDbBlockTableRecord
  2
*PAPER_SPACE
  0
ENDTAB
  0
ENDSEC
  0
SECTION
  2
BLOCKS
  0
BLOCK
  5
20
330
1F
100
AcDbEntity
  8
0
100
AcDbBlockBegin
  2
*MODEL_SPACE
 70
     0
 10
0.0
 20
0.0
 30
0.0
  3
*MODEL_SPACE
  1

  0
ENDBLK
  5
21
330
1F
100
AcDbEntity
  8
0
100
AcDbBlockEnd
  0
BLOCK
  5
1C
330
1B
100
AcDbEntity
 67
     1
  8
0
100
AcDbBlockBegin
  2
*PAPER_SPACE
 70
     0
 10
0.0
 20
0.0
 30
0.0
  3
*PAPER_SPACE
  1

  0
ENDBLK
  5
1D
330
1B
100
AcDbEntity
 67
     1
  8
0
100
AcDbBlockEnd
  0
ENDSEC
  0
SECTION
  2
ENTITIES
  0
LINE
  5
70
330
1F
100
AcDbEntity
  8
1
  6
CONTINUOUS
 62
     7
100
AcDbLine
 10
15.88757418552657
 20
201.6859346414976
 30
0.0
 11
16.38464045751168
 21
201.8557315092138
 31
0.0
  0
ARC
  5
71
330
1F
100
AcDbEntity
  8
1
  6
CONTINUOUS
 62
   253
100
AcDbCircle
 10
62.5
 20
184.1077055818682
 30
0.0
 40
48.9497123447549
100
AcDbArc
 50
93.19477764247502
 51
158.8052223575251
  0
LINE
  5
72
330
1F
100
AcDbEntity
  8
1
  6
CONTINUOUS
 62
     7
100
AcDbLine
 10
139.9419384952074
 20
236.6077055818682
 30
0.0
 11
139.5419384952075
 21
236.6077055818682
 31
0.0
  0
LINE
  5
73
330
1F
100
AcDbEntity
  8
1
  6
CONTINUOUS
 62
     7
100
AcDbLine
 10
24.73624153680779
 20
185.0410445163563
 30
0.0
 11
24.73624153680779
 21
183.1743666473801
 31
0.0
  0
ARC
  5
74
330
1F
100
AcDbEntity
  8
1
  6
CONTINUOUS
 62
     7
100
AcDbCircle
 10
57.83309524416879
 20
179.440800826037
 30
0.0
 40
0.5999999999999931
100
AcDbArc
 50
36.29813148797416
 51
53.70186851207802
  0
LINE
  5
75
330
1F
100
AcDbEntity
  8
1
  6
CONTINUOUS
 62
   253
100
AcDbLine
 10
56.37940662352434
 20
186.0270233829859
 30
0.0
 11
33.93585014331345
 21
186.0270233829859
 31
0.0
  0
ARC
  5
76
330
1F
100
AcDbEntity
  8
1
  6
CONTINUOUS
 62
     7
100
AcDbCircle
 10
107.8653958272788
 20
198.8478162135532
 30
0.0
 40
3.099999999999997
100
AcDbArc
 50
329.7200224735129
 51
66.27997752648707
  0
LINE
  5
77
330
1F
100
AcDbEntity
  8
1
  6
CONTINUOUS
 62
     7
100
AcDbLine
 10
139.5419384952074
 20
131.7256277514651
 30
0.0
 11
139.5419384952074
 21
131.7267616184805
 31
0.0
  0
ARC
  5
78
330
1F
100
AcDbEntity
  8
1
  6
CONTINUOUS
 62
     7
100
AcDbCircle
 10
66.0
 20
132.2256277514651
 30
0.0
 40
0.5000000000000004
100
AcDbArc
 50
180.0
 51
273.8593644766708
  0
LINE
  5
79
330
1F
100
AcDbEntity
  8
1
  6
CONTINUOUS
 62
     7
100
AcDbLine
 10
65.5
 20
134.1077055818682
 30
0.0
 11
65.5
 21
132.2256277514651
 31
0.0
  0
ARC
  5
7A
330
1F
100
AcDbEntity
  8
1
  6
CONTINUOUS
 62
     7
100
AcDbCircle
 10
62.5
 20
134.1077055818682
 30
0.0
 40
3.000000000000003
100
AcDbArc
 50
0.0
 51
90.0
  0
LINE
  5
7B
330
1F
100
AcDbEntity
  8
1
  6
CONTINUOUS
 62
     7
100
AcDbLine
 10
140.3206553572606
 20
134.9564586625417
 30
0.0
 11
140.3207171620499
 21
134.9625346527195
 31
0.0
  0
LINE
  5
7C
330
1F
100
AcDbEntity
  8
1
  6
CONTINUOUS
 62
     7
100
AcDbLine
 10
152.1707972955619
 20
135.5938934224922
 30
0.0
 11
152.1711589670165
 21
135.588024864542
 31
0.0
  0
LINE
  5
7D
330
1F
100
AcDbEntity
  8
1
  6
CONTINUOUS
 62
     7
100
AcDbLine
 10
152.3783584318215
 20
135.5997463958227
 30
0.0
 11
152.3836549731124
 21
135.6058861223019
 31
0.0
  0
ARC
  5
7E
330
1F
100
AcDbEntity
  8
1
  6
CONTINUOUS
 62
     7
100
AcDbCircle
 10
59.0
 20
132.2256277514651
 30
0.0
 40
0.4999999999999933
100
AcDbArc
 50
266.1406355233292
 51
0.0
  0
ARC
  5
7F
330
1F
100
AcDbEntity
  8
1
  6
CONTINUOUS
 62
   253
100
AcDbCircle
 10
23.45761867110262
 20
130.3704777886325
 30
0.0
 40
17.75999417942791
100
AcDbArc
 50
45.16420463472172
 51
62.83579536527851
  0
LINE
  5
80
330
1F
100
AcDbEntity
  8
1
  6
CONTINUOUS
 62
   253
100
AcDbLine
 10
91.06414985668656
 20
186.0270233829859
 30
0.0
 11
68.62059337647565
 21
186.0270233829859
 31
0.0
  0
LINE
  5
81
330
1F
100
AcDbEntity
  8
1
  6
CONTINUOUS
 62
   253
100
AcDbLine
 10
62.51846301104025
 20
149.7475777012481
 30
0.0
 11
62.48153698895975
 21
149.7475777012481
 31
0.0
  0
LINE
  5
82
330
1F
100
AcDbEntity
  8
1
  6
CONTINUOUS
 62
     7
100
AcDbLine
 10
139.9419384952074
 20
131.7267616184805
 30
0.0
 11
139.9419384952074
 21
131.7256277514651
 31
0.0
  0
LINE
  5
83
330
1F
100
AcDbEntity
  8
1
  6
CONTINUOUS
 62
   253
100
AcDbLine
 10
62.74422456574456
 20
190.1220668241241
 30
0.0
 11
62.59077583397679
 21
190.1146122098213
 31
0.0
  0
ARC
  5
84
330
1F
100
AcDbEntity
  8
1
  6
CONTINUOUS
 62
   253
100
AcDbCircle
 10
125.6718999918909
 20
204.6335001376889
 30
0.0
 40
17.75999417942848
100
AcDbArc
 50
189.1642046347217
 51
206.8357953652779
  0
ARC
  5
85
330
1F
100
AcDbEntity
  8
1
  6
CONTINUOUS
 62
   253
100
AcDbCircle
 10
62.5
 20
184.1077055818682
 30
0.0
 40
6.01931780111843
100
AcDbArc
 50
227.3253264599884
 51
312.6746735400126
  0
LINE
  5
86
330
1F
100
AcDbEntity
  8
1
  6
CONTINUOUS
 62
   253
100
AcDbLine
 10
62.40922416608668
 20
190.1146122098116
 30
0.0
 11
62.25577543425962
 21
190.1220668241233
 31
0.0
  0
LINE
  5
87
330
1F
100
AcDbEntity
  8
1
  6
CONTINUOUS
 62
   253
100
AcDbLine
 10
59.24475518959238
 20
233.0774045467024
 30
0.0
 11
59.77200807829242
 21
232.9813426340597
 31
0.0
  0
ARC
  5
88
330
1F
100
AcDbEntity
  8
1
  6
CONTINUOUS
 62
   253
100
AcDbCircle
 10
62.49999999999999
 20
250.5305281315478
 30
0.0
 40
17.75995077555536
100
AcDbArc
 50
261.1641828679312
 51
278.8358171320689
  0
LINE
  5
89
330
1F
100
AcDbEntity
  8
1
  6
CONTINUOUS
 62
   253
100
AcDbLine
 10
58.31666379715477
 20
179.795992963567
 30
0.0
 11
58.41989722766063
 21
179.682217116399
 31
0.0
  0
LINE
  5
8A
330
1F
100
AcDbEntity
  8
1
  6
CONTINUOUS
 62
   253
100
AcDbLine
 10
66.81171261830117
 20
179.924369379023
 30
0.0
 11
66.92548846547075
 21
180.0276028095306
 31
0.0
  0
ARC
  5
8B
330
1F
100
AcDbEntity
  8
1
  6
CONTINUOUS
 62
     7
100
AcDbCircle
 10
34.46264346564903
 20
145.5175949501832
 30
0.0
 40
3.099999999999993
100
AcDbArc
 50
185.7200224735131
 51
282.279977526487
  0
ARC
  5
8C
330
1F
100
AcDbEntity
  8
1
  6
CONTINUOUS
 62
     7
100
AcDbCircle
 10
90.53735653435098
 20
145.5175949501832
 30
0.0
 40
3.100000000000006
100
AcDbArc
 50
257.7200224735129
 51
354.2799775264869
  0
ARC
  5
8D
330
1F
100
AcDbEntity
  8
1
  6
CONTINUOUS
 62
   253
100
AcDbCircle
 10
62.5
 20
184.1077055818682
 30
0.0
 40
6.019317801117708
100
AcDbArc
 50
202.3661360705346
 51
222.6746735400125
  0
ARC
  5
8E
330
1F
100
AcDbEntity
  8
1
  6
CONTINUOUS
 62
     7
100
AcDbCircle
 10
62.5
 20
184.1077055818682
 30
0.0
 40
6.896721964139185
100
AcDbArc
 50
326.8237310443417
 51
333.061471053108
  0
LINE
  5
8F
330
1F
100
AcDbEntity
  8
1
  6
CONTINUOUS
 62
   253
100
AcDbLine
 10
32.02844243917778
 20
184.1493190538053
 30
0.0
 11
32.02844243917778
 21
184.0660921099311
 31
0.0
  0
ARC
  5
90
330
1F
100
AcDbEntity
  8
1
  6
CONTINUOUS
 62
   253
100
AcDbCircle
 10
-0.6718999918907259
 20
204.6335001376888
 30
0.0
 40
17.75999417942835
100
AcDbArc
 50
333.1642046347218
 51
350.8357953652783
  0
LINE
  5
91
330
1F
100
AcDbEntity
  8
1
  6
CONTINUOUS
 62
     7
100
AcDbLine
 10
159.9419384952074
 20
225.4678334624883
 30
0.0
 11
159.9419384952074
 21
144.3813119661893
 31
0.0
  0
LINE
  5
92
330
1F
100
AcDbEntity
  8
1
  6
CONTINUOUS
 62
     7
100
AcDbLine
 10
59.8710540907624
 20
233.4504604042026
 30
0.0
 11
60.18614243362445
 21
233.8707284034886
 31
0.0
  0
LINE
  5
93
330
1F
100
AcDbEntity
  8
1
  6
CONTINUOUS
 62
     7
100
AcDbLine
 10
59.5
 20
132.2256277514651
 30
0.0
 11
59.5
 21
134.1077055818682
 31
0.0
  0
LINE
  5
94
330
1F
100
AcDbEntity
  8
1
  6
CONTINUOUS
 62
     7
100
AcDbLine
 10
100.2637584631922
 20
185.0410445163563
 30
0.0
 11
100.2637584631922
 21
183.1743666473801
 31
0.0
  0
LINE
  5
95
330
1F
100
AcDbEntity
  8
1
  6
CONTINUOUS
 62
     7
100
AcDbLine
 10
14.75986253101784
 20
196.855179233278
 30
0.0
 11
14.45753156438036
 21
197.2847160089369
 31
0.0
  0
ARC
  5
96
330
1F
100
AcDbEntity
  8
1
  6
CONTINUOUS
 62
   253
100
AcDbCircle
 10
62.5
 20
184.1077055818682
 30
0.0
 40
6.019317801117581
100
AcDbArc
 50
317.3253264599301
 51
337.6338639294654
  0
LINE
  5
97
330
1F
100
AcDbEntity
  8
1
  6
CONTINUOUS
 62
   253
100
AcDbLine
 10
33.93585014331344
 20
182.1883877807505
 30
0.0
 11
56.37940662352434
 21
182.1883877807505
 31
0.0
  0
ARC
  5
98
330
1F
100
AcDbEntity
  8
1
  6
CONTINUOUS
 62
     7
100
AcDbCircle
 10
151.6447118712427
 20
143.827427670865
 30
0.0
 40
8.254682541867034
100
AcDbArc
 50
275.1358813202161
 51
356.5046356102545
  0
ARC
  5
99
330
1F
100
AcDbEntity
  8
1
  6
CONTINUOUS
 62
     7
100
AcDbCircle
 10
62.5
 20
190.7077055818682
 30
0.0
 40
0.6000000000000071
100
AcDbArc
 50
261.2981314879747
 51
278.7018685120777
  0
LINE
  5
9A
330
1F
100
AcDbEntity
  8
1
  6
CONTINUOUS
 62
   253
100
AcDbLine
 10
68.62059337647565
 20
182.1883877807505
 30
0.0
 11
91.06414985668654
 21
182.1883877807505
 31
0.0
  0
ARC
  5
9B
330
1F
100
AcDbEntity
  8
1
  6
CONTINUOUS
 62
     7
100
AcDbCircle
 10
62.5
 20
184.1077055818682
 30
0.0
 40
52.49999999999999
100
AcDbArc
 50
273.8593644766708
 51
266.1406355233291
  0
LINE
  5
9C
330
1F
100
AcDbEntity
  8
1
  6
CONTINUOUS
 62
   253
100
AcDbLine
 10
62.48199679455778
 20
140.7281197551823
 30
0.0
 11
62.51800320544222
 21
140.7281197551823
 31
0.0
  0
LINE
  5
9D
330
1F
100
AcDbEntity
  8
1
  6
CONTINUOUS
 62
   253
100
AcDbLine
 10
58.07451153452498
 20
180.0276028095338
 30
0.0
 11
58.18828738164697
 21
179.924369379061
 31
0.0
  0
ARC
  5
9E
330
1F
100
AcDbEntity
  8
1
  6
CONTINUOUS
 62
   253
100
AcDbCircle
 10
62.5
 20
184.1077055818682
 30
0.0
 40
6.019317801117714
100
AcDbArc
 50
22.36613607053455
 51
87.67467354001256
  0
ARC
  5
9F
330
1F
100
AcDbEntity
  8
1
  6
CONTINUOUS
 62
   253
100
AcDbCircle
 10
101.542381328898
 20
130.3704777886317
 30
0.0
 40
17.75999417942894
100
AcDbArc
 50
117.1642046347222
 51
134.835795365278
  0
ARC
  5
A0
330
1F
100
AcDbEntity
  8
1
  6
CONTINUOUS
 62
     7
100
AcDbCircle
 10
67.16690475583121
 20
179.440800826037
 30
0.0
 40
0.6000000000000084
100
AcDbArc
 50
126.2981314879748
 51
143.7018685120775
  0
LINE
  5
A1
330
1F
100
AcDbEntity
  8
1
  6
CONTINUOUS
 62
     7
100
AcDbLine
 10
64.81385756637555
 20
233.8707284034886
 30
0.0
 11
65.1289459092376
 21
233.4504604042026
 31
0.0
  0
ARC
  5
A2
330
1F
100
AcDbEntity
  8
1
  6
CONTINUOUS
 62
     7
100
AcDbCircle
 10
140.3419384952074
 20
134.5570252787803
 30
0.0
 40
0.3999999999999837
100
AcDbArc
 50
93.0500251646369
 51
180.0
  0
ARC
  5
A3
330
1F
100
AcDbEntity
  8
1
  6
CONTINUOUS
 62
     7
100
AcDbCircle
 10
62.5
 20
134.1077055818682
 30
0.0
 40
2.999999999999996
100
AcDbArc
 50
90.0
 51
180.0
  0
LINE
  5
A4
330
1F
100
AcDbEntity
  8
1
  6
CONTINUOUS
 62
     7
100
AcDbLine
 10
139.5419384952074
 20
131.7267616184805
 30
0.0
 11
139.5419384952075
 21
236.6077055818682
 31
0.0
  0
LINE
  5
A5
330
1F
100
AcDbEntity
  8
1
  6
CONTINUOUS
 62
   253
100
AcDbLine
 10
16.86140487079418
 20
201.804964501449
 30
0.0
 11
16.94463314858881
 21
202.3346671511415
 31
0.0
  0
LINE
  5
A6
330
1F
100
AcDbEntity
  8
1
  6
CONTINUOUS
 62
   253
100
AcDbLine
 10
66.58010277233441
 20
179.6822171163932
 30
0.0
 11
66.68333620280723
 21
179.7959929635153
 31
0.0
  0
ARC
  5
A7
330
1F
100
AcDbEntity
  8
1
  6
CONTINUOUS
 62
   253
100
AcDbCircle
 10
62.5
 20
184.1077055818682
 30
0.0
 40
41.36012788062013
100
AcDbArc
 50
286.1576214889403
 51
253.8423785110598
  0
LINE
  5
A8
330
1F
100
AcDbEntity
  8
1
  6
CONTINUOUS
 62
   253
100
AcDbLine
 10
92.97155756082222
 20
184.0660921099311
 30
0.0
 11
92.97155756082222
 21
184.1493190538053
 31
0.0
  0
LINE
  5
A9
330
1F
100
AcDbEntity
  8
1
  6
CONTINUOUS
 62
     7
100
AcDbLine
 10
152.1711589677863
 20
135.5880248643499
 30
0.0
 11
152.3783583826469
 21
135.5997463933612
 31
0.0
  0
LINE
  5
AA
330
1F
100
AcDbEntity
  8
1
  6
CONTINUOUS
 62
     7
100
AcDbLine
 10
139.9419384952074
 20
131.7267616184805
 30
0.0
 11
139.9419384952074
 21
236.6077055818682
 31
0.0
  0
ARC
  5
AB
330
1F
100
AcDbEntity
  8
1
  6
CONTINUOUS
 62
     7
100
AcDbCircle
 10
151.9419384952075
 20
225.4678334624883
 30
0.0
 40
7.99999999999998
100
AcDbArc
 50
0.0
 51
73.92322810044267
  0
LINE
  5
AC
330
1F
100
AcDbEntity
  8
1
  6
CONTINUOUS
 62
   253
100
AcDbLine
 10
65.22799192170757
 20
232.9813426340597
 30
0.0
 11
65.75748803064752
 21
233.0658749588436
 31
0.0
  0
ARC
  5
AD
330
1F
100
AcDbEntity
  8
1
  6
CONTINUOUS
 62
     7
100
AcDbCircle
 10
17.13460417272116
 20
198.8478162135532
 30
0.0
 40
3.100000000000005
100
AcDbArc
 50
113.7200224735129
 51
180.0
  0
LINE
  5
AE
330
1F
100
AcDbEntity
  8
1
  6
CONTINUOUS
 62
     7
100
AcDbLine
 10
35.62391832581426
 20
142.6433227467988
 30
0.0
 11
35.12197916971864
 21
142.488523074288
 31
0.0
  0
LINE
  5
AF
330
1F
100
AcDbEntity
  8
1
  6
CONTINUOUS
 62
   253
100
AcDbLine
 10
69.63846136158067
 20
136.9342357063756
 30
0.0
 11
69.88272896625888
 21
136.6162311561784
 31
0.0
  0
ARC
  5
B0
330
1F
100
AcDbEntity
  8
1
  6
CONTINUOUS
 62
     7
100
AcDbCircle
 10
149.9419384952074
 20
230.3077055818682
 30
0.0
 40
5.000000000000022
100
AcDbArc
 50
36.75920646219496
 51
89.99999999999977
  0
LINE
  5
B1
330
1F
100
AcDbEntity
  8
1
  6
CONTINUOUS
 62
   253
100
AcDbLine
 10
69.88272896625888
 20
136.6162311561784
 30
0.0
 11
70.18566284825093
 21
136.3533328554949
 31
0.0
  0
LINE
  5
B2
330
1F
100
AcDbEntity
  8
1
  6
CONTINUOUS
 62
   253
100
AcDbLine
 10
53.28111937328449
 20
136.0339437296414
 30
0.0
 11
53.28454337366241
 21
136.0230624307761
 31
0.0
  0
LINE
  5
B3
330
1F
100
AcDbEntity
  8
1
  6
CONTINUOUS
 62
   253
100
AcDbLine
 10
109.8245868578562
 20
196.616015514368
 30
0.0
 11
110.0712411543869
 21
196.1394251491773
 31
0.0
  0
LINE
  5
B4
330
1F
100
AcDbEntity
  8
1
  6
CONTINUOUS
 62
   253
100
AcDbLine
 10
108.1360197331774
 20
202.2007165185705
 30
0.0
 11
108.2289618903243
 21
202.0816014960927
 31
0.0
  0
LINE
  5
B5
330
1F
100
AcDbEntity
  8
1
  6
CONTINUOUS
 62
     7
100
AcDbLine
 10
140.3207354020544
 20
134.9625356737276
 30
0.0
 11
152.1707972887795
 21
135.5938935406236
 31
0.0
  0
LINE
  5
B6
330
1F
100
AcDbEntity
  8
1
  6
CONTINUOUS
 62
   253
100
AcDbLine
 10
70.9168605869843
 20
136.0325580082828
 30
0.0
 11
71.31567850273218
 21
135.9875993316037
 31
0.0
  0
LINE
  5
B7
330
1F
100
AcDbEntity
  8
1
  6
CONTINUOUS
 62
   253
100
AcDbLine
 10
71.31567850273218
 20
135.9875993316037
 30
0.0
 11
71.7154566263376
 21
136.0230624307761
 31
0.0
  0
ARC
  5
B8
330
1F
100
AcDbEntity
  8
1
  6
CONTINUOUS
 62
     7
100
AcDbCircle
 10
62.5
 20
184.1077055818682
 30
0.0
 40
6.896721964139179
100
AcDbArc
 50
101.8237310443416
 51
153.0614710531081
  0
ARC
  5
B9
330
1F
100
AcDbEntity
  8
1
  6
CONTINUOUS
 62
     7
100
AcDbCircle
 10
154.2682419444622
 20
233.5392839059951
 30
0.0
 40
0.3999999999999916
100
AcDbArc
 50
216.7582831659239
 51
253.9222882027115
  0
ARC
  5
BA
330
1F
100
AcDbEntity
  8
1
  6
CONTINUOUS
 62
     7
100
AcDbCircle
 10
149.9673617169335
 20
147.1943440984954
 30
0.0
 40
5.176811575164229
100
AcDbArc
 50
269.7186204016515
 51
311.4270128892254
  0
LINE
  5
BB
330
1F
100
AcDbEntity
  8
1
  6
CONTINUOUS
 62
   253
100
AcDbLine
 10
70.18566284825093
 20
136.3533328554949
 30
0.0
 11
70.53506360821302
 21
136.1561279375163
 31
0.0
  0
ARC
  5
BC
330
1F
100
AcDbEntity
  8
1
  6
CONTINUOUS
 62
     7
100
AcDbCircle
 10
62.5
 20
231.8077055818682
 30
0.0
 40
3.100000000000005
100
AcDbArc
 50
41.72002247351304
 51
138.279977526487
  0
LINE
  5
BD
330
1F
100
AcDbEntity
  8
1
  6
CONTINUOUS
 62
     7
100
AcDbLine
 10
26.76076352974445
 20
186.9044275460074
 30
0.0
 11
55.81745726411467
 21
186.9044275460074
 31
0.0
  0
ARC
  5
BE
330
1F
100
AcDbEntity
  8
1
  6
CONTINUOUS
 62
     7
100
AcDbCircle
 10
62.5
 20
184.1077055818682
 30
0.0
 40
6.896721964139179
100
AcDbArc
 50
206.9385289468919
 51
213.1762689556585
  0
LINE
  5
BF
330
1F
100
AcDbEntity
  8
1
  6
CONTINUOUS
 62
     7
100
AcDbLine
 10
62.40922416602802
 20
190.1146122098207
 30
0.0
 11
62.36547861185955
 21
190.1229800085154
 31
0.0
  0
LINE
  5
C0
330
1F
100
AcDbEntity
  8
1
  6
CONTINUOUS
 62
   253
100
AcDbLine
 10
108.0671390504286
 20
202.3352526527083
 30
0.0
 11
108.1360197331774
 21
202.2007165185705
 31
0.0
  0
LINE
  5
C1
330
1F
100
AcDbEntity
  8
1
  6
CONTINUOUS
 62
   253
100
AcDbLine
 10
89.02021125999418
 20
142.9646292097794
 30
0.0
 11
88.64316895097672
 21
142.5827694019046
 31
0.0
  0
LINE
  5
C2
330
1F
100
AcDbEntity
  8
1
  6
CONTINUOUS
 62
   253
100
AcDbLine
 10
14.92112275549701
 20
196.1442530274002
 30
0.0
 11
15.17541314214376
 21
196.6160155143679
 31
0.0
  0
ARC
  5
C3
330
1F
100
AcDbEntity
  8
1
  6
CONTINUOUS
 62
   253
100
AcDbCircle
 10
62.48915682358354
 20
134.7577585753788
 30
0.0
 40
7.400238584709016
100
AcDbArc
 50
90.05899599542361
 51
159.952608877916
  0
ARC
  5
C4
330
1F
100
AcDbEntity
  8
1
  6
CONTINUOUS
 62
   253
100
AcDbCircle
 10
62.5
 20
184.1077055818682
 30
0.0
 40
48.9497123447549
100
AcDbArc
 50
309.194777642475
 51
14.80522235752505
  0
LINE
  5
C5
330
1F
100
AcDbEntity
  8
1
  6
CONTINUOUS
 62
   253
100
AcDbLine
 10
108.2289618903243
 20
202.0816014960927
 30
0.0
 11
108.3426420032409
 21
201.9821670194033
 31
0.0
  0
LINE
  5
C6
330
1F
100
AcDbEntity
  8
1
  6
CONTINUOUS
 62
     7
100
AcDbLine
 10
62.36547861185955
 20
190.1229800085154
 30
0.0
 11
62.22769340320871
 21
190.1730569894788
 31
0.0
  0
LINE
  5
C7
330
1F
100
AcDbEntity
  8
1
  6
CONTINUOUS
 62
     7
100
AcDbLine
 10
93.6298055099172
 20
145.7338340158478
 30
0.0
 11
93.62192101780315
 21
145.2086257811299
 31
0.0
  0
LINE
  5
C8
330
1F
100
AcDbEntity
  8
1
  6
CONTINUOUS
 62
     7
100
AcDbLine
 10
98.23923647025555
 20
181.3109836177291
 30
0.0
 11
69.18254273588532
 21
181.3109836177291
 31
0.0
  0
LINE
  5
C9
330
1F
100
AcDbEntity
  8
1
  6
CONTINUOUS
 62
   253
100
AcDbLine
 10
69.46269689378647
 20
137.2945401984014
 30
0.0
 11
69.46883122512675
 21
137.3044126070721
 31
0.0
  0
LINE
  5
CA
330
1F
100
AcDbEntity
  8
1
  6
CONTINUOUS
 62
     7
100
AcDbLine
 10
31.37807898219688
 20
145.2086257811298
 30
0.0
 11
31.37019449008282
 21
145.7338340158478
 31
0.0
  0
LINE
  5
CB
330
1F
100
AcDbEntity
  8
1
  6
CONTINUOUS
 62
     7
100
AcDbLine
 10
26.76076352974445
 20
181.310983617729
 30
0.0
 11
55.81745726411467
 21
181.310983617729
 31
0.0
  0
LINE
  5
CC
330
1F
100
AcDbEntity
  8
1
  6
CONTINUOUS
 62
   253
100
AcDbLine
 10
55.53730310621353
 20
137.2945401984014
 30
0.0
 11
55.53116877487341
 21
137.3044126070725
 31
0.0
  0
LINE
  5
CD
330
1F
100
AcDbEntity
  8
1
  6
CONTINUOUS
 62
     7
100
AcDbLine
 10
139.5419384952074
 20
131.7256277514651
 30
0.0
 11
139.9419384952074
 21
131.7256277514651
 31
0.0
  0
LINE
  5
CE
330
1F
100
AcDbEntity
  8
1
  6
CONTINUOUS
 62
   253
100
AcDbLine
 10
93.9172248987253
 20
146.403776448426
 30
0.0
 11
93.43419491035218
 21
146.1715760496849
 31
0.0
  0
LINE
  5
CF
330
1F
100
AcDbEntity
  8
1
  6
CONTINUOUS
 62
   253
100
AcDbLine
 10
108.3426420032409
 20
201.9821670194033
 30
0.0
 11
108.4729949847317
 21
201.9059687659873
 31
0.0
  0
LINE
  5
D0
330
1F
100
AcDbEntity
  8
1
  6
CONTINUOUS
 62
   253
100
AcDbLine
 10
62.48153698895975
 20
142.1579932371133
 30
0.0
 11
62.51846301104025
 21
142.1579932371136
 31
0.0
  0
LINE
  5
D1
330
1F
100
AcDbEntity
  8
1
  6
CONTINUOUS
 62
     7
100
AcDbLine
 10
159.8840385110438
 20
143.324157972126
 30
0.0
 11
159.9419384952074
 21
144.3813119661892
 31
0.0
  0
LINE
  5
D2
330
1F
100
AcDbEntity
  8
1
  6
CONTINUOUS
 62
   253
100
AcDbLine
 10
108.0670239020967
 20
202.3361071887689
 30
0.0
 11
108.1385951292058
 21
201.804964501449
 31
0.0
  0
ARC
  5
D3
330
1F
100
AcDbEntity
  8
1
  6
CONTINUOUS
 62
   253
100
AcDbCircle
 10
62.5
 20
184.1077055818682
 30
0.0
 40
48.94971234475491
100
AcDbArc
 50
280.8555570065539
 51
302.8052223575251
  0
LINE
  5
D4
330
1F
100
AcDbEntity
  8
1
  6
CONTINUOUS
 62
   253
100
AcDbLine
 10
31.56580508964785
 20
146.1715760496848
 30
0.0
 11
31.08774688521008
 21
146.4144179663419
 31
0.0
  0
ARC
  5
D5
330
1F
100
AcDbEntity
  8
1
  6
CONTINUOUS
 62
   253
100
AcDbCircle
 10
62.48412289382723
 20
134.7552713620439
 30
0.0
 40
14.99230656221536
100
AcDbArc
 50
90.00988249774967
 51
140.0539993647158
  0
ARC
  5
D6
330
1F
100
AcDbEntity
  8
1
  6
CONTINUOUS
 62
   253
100
AcDbCircle
 10
62.5
 20
184.1077055818682
 30
0.0
 40
48.9497123447549
100
AcDbArc
 50
21.19477764247499
 51
86.80522235752501
  0
ARC
  5
D7
330
1F
100
AcDbEntity
  8
1
  6
CONTINUOUS
 62
   253
100
AcDbCircle
 10
62.510385435544
 20
134.7571049945488
 30
0.0
 40
7.400892650630743
100
AcDbArc
 50
20.05092962058467
 51
89.93746550607256
  0
LINE
  5
D8
330
1F
100
AcDbEntity
  8
1
  6
CONTINUOUS
 62
     7
100
AcDbLine
 10
69.18254273588532
 20
186.9044275460074
 30
0.0
 11
98.23923647025555
 21
186.9044275460074
 31
0.0
  0
LINE
  5
D9
330
1F
100
AcDbEntity
  8
1
  6
CONTINUOUS
 62
     7
100
AcDbLine
 10
110.5424684356196
 20
197.2847160089369
 30
0.0
 11
110.2401374689822
 21
196.855179233278
 31
0.0
  0
ARC
  5
DA
330
1F
100
AcDbEntity
  8
1
  6
CONTINUOUS
 62
     7
100
AcDbCircle
 10
140.3419384952074
 20
141.6175949501832
 30
0.0
 40
0.3999999999999837
100
AcDbArc
 50
90.0
 51
180.0
  0
ARC
  5
DB
330
1F
100
AcDbEntity
  8
1
  6
CONTINUOUS
 62
     7
100
AcDbCircle
 10
62.5
 20
184.1077055818682
 30
0.0
 40
6.896721964139175
100
AcDbArc
 50
26.93852894689189
 51
78.17626895565843
  0
LINE
  5
DC
330
1F
100
AcDbEntity
  8
1
  6
CONTINUOUS
 62
     7
100
AcDbLine
 10
149.9419384952075
 20
235.3077055818682
 30
0.0
 11
140.3419384952074
 21
235.3077055818682
 31
0.0
  0
LINE
  5
DD
330
1F
100
AcDbEntity
  8
1
  6
CONTINUOUS
 62
     7
100
AcDbLine
 10
108.6153595424883
 20
201.8557315092138
 30
0.0
 11
109.1124258144734
 21
201.6859346414976
 31
0.0
  0
ARC
  5
DE
330
1F
100
AcDbEntity
  8
1
  6
CONTINUOUS
 62
   253
100
AcDbCircle
 10
62.5
 20
184.1077055818682
 30
0.0
 40
48.9497123447549
100
AcDbArc
 50
237.194777642475
 51
259.1444429934462
  0
ARC
  5
DF
330
1F
100
AcDbEntity
  8
1
  6
CONTINUOUS
 62
   253
100
AcDbCircle
 10
62.51581250635421
 20
134.7551330286772
 30
0.0
 40
14.99244490686136
100
AcDbArc
 50
39.94624742157239
 51
89.98987071596235
  0
LINE
  5
E0
330
1F
100
AcDbEntity
  8
1
  6
CONTINUOUS
 62
   253
100
AcDbLine
 10
108.4729949847317
 20
201.9059687659873
 30
0.0
 11
108.6153595424883
 21
201.8557315092138
 31
0.0
  0
ARC
  5
E1
330
1F
100
AcDbEntity
  8
1
  6
CONTINUOUS
 62
     7
100
AcDbCircle
 10
62.5
 20
184.1077055818682
 30
0.0
 40
6.896721964139169
100
AcDbArc
 50
236.8237310443415
 51
303.1762689556585
  0
LINE
  5
E2
330
1F
100
AcDbEntity
  8
1
  6
CONTINUOUS
 62
   253
100
AcDbLine
 10
69.46269689378647
 20
137.2945401984014
 30
0.0
 11
69.63846136158067
 21
136.9342357063756
 31
0.0
  0
LINE
  5
E3
330
1F
100
AcDbEntity
  8
1
  6
CONTINUOUS
 62
   253
100
AcDbLine
 10
70.53506360821302
 20
136.1561279375163
 30
0.0
 11
70.9168605869843
 21
136.0325580082828
 31
0.0
  0
LINE
  5
E4
330
1F
100
AcDbEntity
  8
1
  6
CONTINUOUS
 62
   253
100
AcDbLine
 10
71.7154566263376
 20
136.0230624307761
 30
0.0
 11
71.71888062671552
 21
136.0339437296414
 31
0.0
  0
ARC
  5
E5
330
1F
100
AcDbEntity
  8
1
  6
CONTINUOUS
 62
   253
100
AcDbCircle
 10
62.5
 20
184.1077055818682
 30
0.0
 40
6.019317801117587
100
AcDbArc
 50
92.32532645994148
 51
157.6338639294655
  0
ARC
  5
E6
330
1F
100
AcDbEntity
  8
1
  6
CONTINUOUS
 62
     7
100
AcDbCircle
 10
17.13460417272116
 20
198.8478162135532
 30
0.0
 40
3.100000000000001
100
AcDbArc
 50
180.0
 51
210.2799775264871
  0
ARC
  5
E7
330
1F
100
AcDbEntity
  8
1
  6
CONTINUOUS
 62
   253
100
AcDbCircle
 10
62.5
 20
184.1077055818682
 30
0.0
 40
48.9497123447549
100
AcDbArc
 50
165.194777642475
 51
230.805222357525
  0
LINE
  5
E8
330
1F
100
AcDbEntity
  8
1
  6
CONTINUOUS
 62
     7
100
AcDbLine
 10
89.87802083028139
 20
142.4885230742881
 30
0.0
 11
89.37608167418576
 21
142.6433227467988
 31
0.0
  0
LINE
  5
E9
330
1F
100
AcDbEntity
  8
1
  6
CONTINUOUS
 62
     7
100
AcDbLine
 10
140.3419384952074
 20
142.0175949501832
 30
0.0
 11
149.9419384952074
 21
142.0175949501832
 31
0.0
  0
LINE
  5
EA
330
1F
100
AcDbEntity
  8
1
  6
CONTINUOUS
 62
   253
100
AcDbLine
 10
36.34988147640014
 20
142.5770020547462
 30
0.0
 11
35.97978874000583
 21
142.9646292097794
 31
0.0
  0
ARC
  5
EB
330
1F
100
AcDbEntity
  8
1
  6
CONTINUOUS
 62
     7
100
AcDbCircle
 10
140.3419384952074
 20
235.7077055818682
 30
0.0
 40
0.4000000000000115
100
AcDbArc
 50
180.0
 51
270.0
  0
LINE
  5
EC
330
1F
100
AcDbEntity
  8
1
  6
CONTINUOUS
 62
     7
100
AcDbLine
 10
55.94179702696465
 20
181.297947350457
 30
0.0
 11
55.96676029550874
 21
181.2920922026428
 31
0.0
  0
LINE
  5
ED
330
1F
100
AcDbEntity
  8
1
  6
CONTINUOUS
 62
     7
100
AcDbLine
 10
55.86721467022826
 20
181.3089123141492
 30
0.0
 11
55.89199694162823
 21
181.3063309062722
 31
0.0
  0
LINE
  5
EE
330
1F
100
AcDbEntity
  8
1
  6
CONTINUOUS
 62
     7
100
AcDbLine
 10
99.01711534386337
 20
181.4520814530789
 30
0.0
 11
99.36711264025577
 21
181.623505603623
 31
0.0
  0
LINE
  5
EF
330
1F
100
AcDbEntity
  8
1
  6
CONTINUOUS
 62
     7
100
AcDbLine
 10
55.89199694162823
 20
181.3063309062722
 30
0.0
 11
55.91662937686427
 21
181.3027258579796
 31
0.0
  0
LINE
  5
F0
330
1F
100
AcDbEntity
  8
1
  6
CONTINUOUS
 62
     7
100
AcDbLine
 10
56.08460020229757
 20
181.24815851333
 30
0.0
 11
56.10665017443225
 21
181.2366015327147
 31
0.0
  0
LINE
  5
F1
330
1F
100
AcDbEntity
  8
1
  6
CONTINUOUS
 62
   253
100
AcDbLine
 10
32.35413180658789
 20
185.1891181936047
 30
0.0
 11
32.17745618809224
 21
184.865807840431
 31
0.0
  0
LINE
  5
F2
330
1F
100
AcDbEntity
  8
1
  6
CONTINUOUS
 62
     7
100
AcDbLine
 10
100.1104589717424
 20
182.4584019420017
 30
0.0
 11
100.225071574081
 21
182.8088087157446
 31
0.0
  0
LINE
  5
F3
330
1F
100
AcDbEntity
  8
1
  6
CONTINUOUS
 62
     7
100
AcDbLine
 10
56.01580148961386
 20
181.27722137733
 30
0.0
 11
56.03911694868826
 21
181.268494707741
 31
0.0
  0
LINE
  5
F4
330
1F
100
AcDbEntity
  8
1
  6
CONTINUOUS
 62
     7
100
AcDbLine
 10
55.99145113291799
 20
181.2851777623347
 30
0.0
 11
56.01580148961386
 21
181.27722137733
 31
0.0
  0
LINE
  5
F5
330
1F
100
AcDbEntity
  8
1
  6
CONTINUOUS
 62
     7
100
AcDbLine
 10
55.96676029550874
 20
181.2920922026428
 30
0.0
 11
55.99145113291799
 21
181.2851777623347
 31
0.0
  0
LINE
  5
F6
330
1F
100
AcDbEntity
  8
1
  6
CONTINUOUS
 62
     7
100
AcDbLine
 10
56.06206948998287
 20
181.2587983290398
 30
0.0
 11
56.08460020229757
 21
181.24815851333
 31
0.0
  0
LINE
  5
F7
330
1F
100
AcDbEntity
  8
1
  6
CONTINUOUS
 62
     7
100
AcDbLine
 10
56.12881734310432
 20
181.2237586439145
 30
0.0
 11
56.15043475898408
 21
181.2099668041509
 31
0.0
  0
LINE
  5
F8
330
1F
100
AcDbEntity
  8
1
  6
CONTINUOUS
 62
   253
100
AcDbLine
 10
54.08313941301569
 20
136.0325580082827
 30
0.0
 11
54.46493639178696
 21
136.1561279375162
 31
0.0
  0
LINE
  5
F9
330
1F
100
AcDbEntity
  8
1
  6
CONTINUOUS
 62
   253
100
AcDbLine
 10
32.87900288162223
 20
185.7058156399434
 30
0.0
 11
32.59093525215307
 21
185.4726584669189
 31
0.0
  0
LINE
  5
FA
330
1F
100
AcDbEntity
  8
1
  6
CONTINUOUS
 62
     7
100
AcDbLine
 10
56.15043475898408
 20
181.2099668041509
 30
0.0
 11
56.17144398356828
 21
181.1952651009093
 31
0.0
  0
LINE
  5
FB
330
1F
100
AcDbEntity
  8
1
  6
CONTINUOUS
 62
   253
100
AcDbLine
 10
53.68432149726782
 20
135.9875993316037
 30
0.0
 11
54.08313941301569
 21
136.0325580082827
 31
0.0
  0
LINE
  5
FC
330
1F
100
AcDbEntity
  8
1
  6
CONTINUOUS
 62
     7
100
AcDbLine
 10
56.10665017443225
 20
181.2366015327147
 30
0.0
 11
56.12881734310432
 21
181.2237586439145
 31
0.0
  0
LINE
  5
FD
330
1F
100
AcDbEntity
  8
1
  6
CONTINUOUS
 62
     7
100
AcDbLine
 10
56.22932338230963
 20
181.1470041141473
 30
0.0
 11
56.24705075138078
 21
181.1295132223183
 31
0.0
  0
LINE
  5
FE
330
1F
100
AcDbEntity
  8
1
  6
CONTINUOUS
 62
     7
100
AcDbLine
 10
56.24705075138078
 20
181.1295132223183
 30
0.0
 11
56.26402184269839
 21
181.11131701321
 31
0.0
  0
LINE
  5
FF
330
1F
100
AcDbEntity
  8
1
  6
CONTINUOUS
 62
     7
100
AcDbLine
 10
99.36711264025577
 20
181.623505603623
 30
0.0
 11
99.67329795310916
 21
181.8544472590263
 31
0.0
  0
LINE
  5
100
330
1F
100
AcDbEntity
  8
1
  6
CONTINUOUS
 62
   253
100
AcDbLine
 10
55.1172710337411
 20
136.6162311561782
 30
0.0
 11
55.36153863841932
 21
136.9342357063753
 31
0.0
  0
LINE
  5
101
330
1F
100
AcDbEntity
  8
1
  6
CONTINUOUS
 62
     7
100
AcDbLine
 10
56.17144398356828
 20
181.1952651009093
 30
0.0
 11
56.19178657835369
 21
181.1796926216751
 31
0.0
  0
LINE
  5
102
330
1F
100
AcDbEntity
  8
1
  6
CONTINUOUS
 62
     7
100
AcDbLine
 10
99.67329795310916
 20
181.8544472590263
 30
0.0
 11
99.92421064953788
 21
182.136262185162
 31
0.0
  0
LINE
  5
103
330
1F
100
AcDbEntity
  8
1
  6
CONTINUOUS
 62
     7
100
AcDbLine
 10
99.92421064953788
 20
182.136262185162
 30
0.0
 11
100.1104589717424
 21
182.4584019420017
 31
0.0
  0
LINE
  5
104
330
1F
100
AcDbEntity
  8
1
  6
CONTINUOUS
 62
     7
100
AcDbLine
 10
100.225071574081
 20
182.8088087157446
 30
0.0
 11
100.2637584631922
 21
183.1743666473801
 31
0.0
  0
LINE
  5
105
330
1F
100
AcDbEntity
  8
1
  6
CONTINUOUS
 62
     7
100
AcDbLine
 10
56.28067787858696
 20
181.09187102051
 30
0.0
 11
56.29650246722682
 21
181.0717128346733
 31
0.0
  0
LINE
  5
106
330
1F
100
AcDbEntity
  8
1
  6
CONTINUOUS
 62
     7
100
AcDbLine
 10
66.81171261834908
 20
179.924369379058
 30
0.0
 11
66.84856232354896
 21
179.9493852298567
 31
0.0
  0
LINE
  5
107
330
1F
100
AcDbEntity
  8
1
  6
CONTINUOUS
 62
     7
100
AcDbLine
 10
66.84856232354896
 20
179.9493852298567
 30
0.0
 11
66.98140095175371
 21
180.0114043124203
 31
0.0
  0
LINE
  5
108
330
1F
100
AcDbEntity
  8
1
  6
CONTINUOUS
 62
     7
100
AcDbLine
 10
56.03911694868826
 20
181.268494707741
 30
0.0
 11
56.06206948998287
 21
181.2587983290398
 31
0.0
  0
LINE
  5
109
330
1F
100
AcDbEntity
  8
1
  6
CONTINUOUS
 62
   253
100
AcDbLine
 10
53.28454337366242
 20
136.0230624307762
 30
0.0
 11
53.68432149726782
 21
135.9875993316037
 31
0.0
  0
LINE
  5
10A
330
1F
100
AcDbEntity
  8
1
  6
CONTINUOUS
 62
     7
100
AcDbLine
 10
62.08154478793846
 20
190.2777111220217
 30
0.0
 11
61.99232863449601
 21
190.3879091080801
 31
0.0
  0
LINE
  5
10B
330
1F
100
AcDbEntity
  8
1
  6
CONTINUOUS
 62
     7
100
AcDbLine
 10
61.99232863449601
 20
190.3879091080801
 30
0.0
 11
61.96496058579239
 21
190.4361676927169
 31
0.0
  0
LINE
  5
10C
330
1F
100
AcDbEntity
  8
1
  6
CONTINUOUS
 62
   253
100
AcDbLine
 10
14.94487948206893
 20
196.2943316271542
 30
0.0
 11
14.93970175098219
 21
196.4453277339113
 31
0.0
  0
LINE
  5
10D
330
1F
100
AcDbEntity
  8
1
  6
CONTINUOUS
 62
     7
100
AcDbLine
 10
56.19178657835369
 20
181.1796926216751
 30
0.0
 11
56.21088642734669
 21
181.1637453576239
 31
0.0
  0
LINE
  5
10E
330
1F
100
AcDbEntity
  8
1
  6
CONTINUOUS
 62
     7
100
AcDbLine
 10
56.21088642734669
 20
181.1637453576239
 30
0.0
 11
56.22932338230963
 21
181.1470041141473
 31
0.0
  0
LINE
  5
10F
330
1F
100
AcDbEntity
  8
1
  6
CONTINUOUS
 62
     7
100
AcDbLine
 10
98.23923647025555
 20
181.310983617729
 30
0.0
 11
98.63640659604928
 21
181.3465912786442
 31
0.0
  0
LINE
  5
110
330
1F
100
AcDbEntity
  8
1
  6
CONTINUOUS
 62
     7
100
AcDbLine
 10
55.8423467239589
 20
181.3104649338788
 30
0.0
 11
55.86721467022826
 21
181.3089123141492
 31
0.0
  0
LINE
  5
111
330
1F
100
AcDbEntity
  8
1
  6
CONTINUOUS
 62
     7
100
AcDbLine
 10
58.43303976067046
 20
179.4489603063948
 30
0.0
 11
58.4182033645458
 21
179.3079532160891
 31
0.0
  0
LINE
  5
112
330
1F
100
AcDbEntity
  8
1
  6
CONTINUOUS
 62
     7
100
AcDbLine
 10
55.81745726411467
 20
181.310983617729
 30
0.0
 11
55.8423467239589
 21
181.3104649338788
 31
0.0
  0
LINE
  5
113
330
1F
100
AcDbEntity
  8
1
  6
CONTINUOUS
 62
   253
100
AcDbLine
 10
55.36153863841932
 20
136.9342357063753
 30
0.0
 11
55.53730310621352
 21
137.2945401984011
 31
0.0
  0
LINE
  5
114
330
1F
100
AcDbEntity
  8
1
  6
CONTINUOUS
 62
   253
100
AcDbLine
 10
54.46493639178696
 20
136.1561279375162
 30
0.0
 11
54.81433715174906
 21
136.3533328554947
 31
0.0
  0
LINE
  5
115
330
1F
100
AcDbEntity
  8
1
  6
CONTINUOUS
 62
     7
100
AcDbLine
 10
56.26402184269839
 20
181.11131701321
 30
0.0
 11
56.28067787858696
 21
181.09187102051
 31
0.0
  0
LINE
  5
116
330
1F
100
AcDbEntity
  8
1
  6
CONTINUOUS
 62
   253
100
AcDbLine
 10
33.93585014331345
 20
186.0270233829859
 30
0.0
 11
33.56428552233489
 21
185.9882845575662
 31
0.0
  0
LINE
  5
117
330
1F
100
AcDbEntity
  8
1
  6
CONTINUOUS
 62
     7
100
AcDbLine
 10
56.32548952255625
 20
181.0294844467191
 30
0.0
 11
56.3390665406184
 21
181.0066584571028
 31
0.0
  0
LINE
  5
118
330
1F
100
AcDbEntity
  8
1
  6
CONTINUOUS
 62
     7
100
AcDbLine
 10
56.3390665406184
 20
181.0066584571028
 30
0.0
 11
56.35162005900981
 21
180.9832539576837
 31
0.0
  0
LINE
  5
119
330
1F
100
AcDbEntity
  8
1
  6
CONTINUOUS
 62
     7
100
AcDbLine
 10
58.31666379718984
 20
179.7959929635191
 30
0.0
 11
58.34167964798858
 21
179.7591432583191
 31
0.0
  0
LINE
  5
11A
330
1F
100
AcDbEntity
  8
1
  6
CONTINUOUS
 62
   253
100
AcDbLine
 10
14.90617872667764
 20
196.5925914092311
 30
0.0
 11
14.84550915899251
 21
196.730856651299
 31
0.0
  0
LINE
  5
11B
330
1F
100
AcDbEntity
  8
1
  6
CONTINUOUS
 62
     7
100
AcDbLine
 10
62.22769340320871
 20
190.1730569894788
 30
0.0
 11
62.08154478793846
 21
190.2777111220217
 31
0.0
  0
LINE
  5
11C
330
1F
100
AcDbEntity
  8
1
  6
CONTINUOUS
 62
   253
100
AcDbLine
 10
32.17745618809224
 20
184.865807840431
 30
0.0
 11
32.06752143236189
 21
184.5148290370655
 31
0.0
  0
LINE
  5
11D
330
1F
100
AcDbEntity
  8
1
  6
CONTINUOUS
 62
   253
100
AcDbLine
 10
32.06752143236189
 20
184.5148290370655
 30
0.0
 11
32.02844243917778
 21
184.1493190538053
 31
0.0
  0
LINE
  5
11E
330
1F
100
AcDbEntity
  8
1
  6
CONTINUOUS
 62
     7
100
AcDbLine
 10
58.34167964798858
 20
179.7591432583191
 30
0.0
 11
58.40369873055224
 21
179.626304630114
 31
0.0
  0
LINE
  5
11F
330
1F
100
AcDbEntity
  8
1
  6
CONTINUOUS
 62
   253
100
AcDbLine
 10
14.92152676945021
 20
196.1450025587916
 30
0.0
 11
14.94487948206893
 21
196.2943316271542
 31
0.0
  0
LINE
  5
120
330
1F
100
AcDbEntity
  8
1
  6
CONTINUOUS
 62
   253
100
AcDbLine
 10
32.59093525215307
 20
185.4726584669189
 30
0.0
 11
32.35413180658789
 21
185.1891181936047
 31
0.0
  0
LINE
  5
121
330
1F
100
AcDbEntity
  8
1
  6
CONTINUOUS
 62
     7
100
AcDbLine
 10
55.91662937686427
 20
181.3027258579796
 30
0.0
 11
55.94179702696465
 21
181.297947350457
 31
0.0
  0
LINE
  5
122
330
1F
100
AcDbEntity
  8
1
  6
CONTINUOUS
 62
     7
100
AcDbLine
 10
56.29650246722682
 20
181.0717128346733
 30
0.0
 11
56.31145366356694
 21
181.0508985964823
 31
0.0
  0
LINE
  5
123
330
1F
100
AcDbEntity
  8
1
  6
CONTINUOUS
 62
     7
100
AcDbLine
 10
56.31145366356694
 20
181.0508985964823
 30
0.0
 11
56.32548952255625
 21
181.0294844467191
 31
0.0
  0
LINE
  5
124
330
1F
100
AcDbEntity
  8
1
  6
CONTINUOUS
 62
     7
100
AcDbLine
 10
98.63640659604928
 20
181.3465912786442
 30
0.0
 11
99.01711534386337
 21
181.4520814530789
 31
0.0
  0
LINE
  5
125
330
1F
100
AcDbEntity
  8
1
  6
CONTINUOUS
 62
   253
100
AcDbLine
 10
33.56428552233489
 20
185.9882845575662
 30
0.0
 11
33.20755221389987
 21
185.8798625508827
 31
0.0
  0
LINE
  5
126
330
1F
100
AcDbEntity
  8
1
  6
CONTINUOUS
 62
     7
100
AcDbLine
 10
58.40369873055224
 20
179.626304630114
 30
0.0
 11
58.43303976067046
 21
179.4489603063948
 31
0.0
  0
LINE
  5
127
330
1F
100
AcDbEntity
  8
1
  6
CONTINUOUS
 62
     7
100
AcDbLine
 10
58.4182033645458
 20
179.3079532160891
 30
0.0
 11
58.40343152492503
 21
179.2544771108167
 31
0.0
  0
LINE
  5
128
330
1F
100
AcDbEntity
  8
1
  6
CONTINUOUS
 62
   253
100
AcDbLine
 10
54.81433715174906
 20
136.3533328554947
 30
0.0
 11
55.1172710337411
 21
136.6162311561782
 31
0.0
  0
LINE
  5
129
330
1F
100
AcDbEntity
  8
1
  6
CONTINUOUS
 62
   253
100
AcDbLine
 10
14.93970175098219
 20
196.4453277339113
 30
0.0
 11
14.90617872667764
 21
196.5925914092311
 31
0.0
  0
LINE
  5
12A
330
1F
100
AcDbEntity
  8
1
  6
CONTINUOUS
 62
   253
100
AcDbLine
 10
33.20755221389987
 20
185.8798625508827
 30
0.0
 11
32.87900288162223
 21
185.7058156399434
 31
0.0
  0
LINE
  5
12B
330
1F
100
AcDbEntity
  8
1
  6
CONTINUOUS
 62
   253
100
AcDbLine
 10
14.84550915899251
 20
196.730856651299
 30
0.0
 11
14.7598625310178
 21
196.855179233278
 31
0.0
  0
LINE
  5
12C
330
1F
100
AcDbEntity
  8
1
  6
CONTINUOUS
 62
   253
100
AcDbLine
 10
69.64509144886904
 20
136.9449522900217
 30
0.0
 11
69.88947845802974
 21
136.6276492838402
 31
0.0
  0
LINE
  5
12D
330
1F
100
AcDbEntity
  8
1
  6
CONTINUOUS
 62
     7
100
AcDbLine
 10
67.29975236577802
 20
180.0259089464143
 30
0.0
 11
67.35322847105154
 21
180.0111371067932
 31
0.0
  0
LINE
  5
12E
330
1F
100
AcDbEntity
  8
1
  6
CONTINUOUS
 62
     7
100
AcDbLine
 10
55.91662937686426
 20
186.9126853057568
 30
0.0
 11
55.94179702696465
 21
186.9174638132794
 31
0.0
  0
LINE
  5
12F
330
1F
100
AcDbEntity
  8
1
  6
CONTINUOUS
 62
     7
100
AcDbLine
 10
25.07578935046211
 20
186.0791489785744
 30
0.0
 11
24.88954102825757
 21
185.7570092217346
 31
0.0
  0
LINE
  5
130
330
1F
100
AcDbEntity
  8
1
  6
CONTINUOUS
 62
     7
100
AcDbLine
 10
56.01580148961386
 20
186.9381897864064
 30
0.0
 11
56.03911694868825
 21
186.9469164559954
 31
0.0
  0
LINE
  5
131
330
1F
100
AcDbEntity
  8
1
  6
CONTINUOUS
 62
     7
100
AcDbLine
 10
56.12881734310431
 20
186.9916525198219
 30
0.0
 11
56.15043475898408
 21
187.0054443595855
 31
0.0
  0
LINE
  5
132
330
1F
100
AcDbEntity
  8
1
  6
CONTINUOUS
 62
     7
100
AcDbLine
 10
24.77492842591903
 20
185.4066024479918
 30
0.0
 11
24.73624153680779
 21
185.0410445163563
 31
0.0
  0
LINE
  5
133
330
1F
100
AcDbEntity
  8
1
  6
CONTINUOUS
 62
   253
100
AcDbLine
 10
110.0551205179311
 20
196.2943316271542
 30
0.0
 11
110.0784732305498
 21
196.1450025587916
 31
0.0
  0
LINE
  5
134
330
1F
100
AcDbEntity
  8
1
  6
CONTINUOUS
 62
     7
100
AcDbLine
 10
24.88954102825757
 20
185.7570092217346
 30
0.0
 11
24.77492842591903
 21
185.4066024479918
 31
0.0
  0
LINE
  5
135
330
1F
100
AcDbEntity
  8
1
  6
CONTINUOUS
 62
   253
100
AcDbLine
 10
110.2401374689822
 20
196.855179233278
 30
0.0
 11
110.1544908410075
 21
196.730856651299
 31
0.0
  0
LINE
  5
136
330
1F
100
AcDbEntity
  8
1
  6
CONTINUOUS
 62
   253
100
AcDbLine
 10
32.17745618809224
 20
183.3496033233054
 30
0.0
 11
32.35413180658788
 21
183.0262929701317
 31
0.0
  0
LINE
  5
137
330
1F
100
AcDbEntity
  8
1
  6
CONTINUOUS
 62
     7
100
AcDbLine
 10
61.96496058579239
 20
190.4361676927169
 30
0.0
 11
61.94707322466492
 21
190.4694474161516
 31
0.0
  0
LINE
  5
138
330
1F
100
AcDbEntity
  8
1
  6
CONTINUOUS
 62
     7
100
AcDbLine
 10
56.29650246722682
 20
187.1436983290631
 30
0.0
 11
56.31145366356694
 21
187.1645125672541
 31
0.0
  0
LINE
  5
139
330
1F
100
AcDbEntity
  8
1
  6
CONTINUOUS
 62
   253
100
AcDbLine
 10
32.35413180658788
 20
183.0262929701317
 30
0.0
 11
32.59093525215307
 21
182.7427526968175
 31
0.0
  0
LINE
  5
13A
330
1F
100
AcDbEntity
  8
1
  6
CONTINUOUS
 62
   253
100
AcDbLine
 10
70.9221124612035
 20
136.0445823690059
 30
0.0
 11
71.32004130288475
 21
135.9992078724628
 31
0.0
  0
LINE
  5
13B
330
1F
100
AcDbEntity
  8
1
  6
CONTINUOUS
 62
   253
100
AcDbLine
 10
70.54106312046821
 20
136.1682463254015
 30
0.0
 11
70.9221124612035
 21
136.0445823690059
 31
0.0
  0
LINE
  5
13C
330
1F
100
AcDbEntity
  8
1
  6
CONTINUOUS
 62
   253
100
AcDbLine
 10
110.0938212733223
 20
196.5925914092311
 30
0.0
 11
110.0602982490178
 21
196.4453277339113
 31
0.0
  0
LINE
  5
13D
330
1F
100
AcDbEntity
  8
1
  6
CONTINUOUS
 62
     7
100
AcDbLine
 10
56.24705075138078
 20
187.0858979414181
 30
0.0
 11
56.26402184269839
 21
187.1040941505264
 31
0.0
  0
LINE
  5
13E
330
1F
100
AcDbEntity
  8
1
  6
CONTINUOUS
 62
   253
100
AcDbLine
 10
110.1544908410075
 20
196.730856651299
 30
0.0
 11
110.0938212733223
 21
196.5925914092311
 31
0.0
  0
LINE
  5
13F
330
1F
100
AcDbEntity
  8
1
  6
CONTINUOUS
 62
     7
100
AcDbLine
 10
61.92759404433637
 20
190.5019192753163
 30
0.0
 11
61.90645730143738
 21
190.5336458625692
 31
0.0
  0
LINE
  5
140
330
1F
100
AcDbEntity
  8
1
  6
CONTINUOUS
 62
     7
100
AcDbLine
 10
26.36359340395072
 20
186.8688198850921
 30
0.0
 11
25.98288465613664
 21
186.7633297106574
 31
0.0
  0
LINE
  5
141
330
1F
100
AcDbEntity
  8
1
  6
CONTINUOUS
 62
     7
100
AcDbLine
 10
61.90645730143738
 20
190.5336458625692
 30
0.0
 11
61.88378434754277
 21
190.5644008917162
 31
0.0
  0
LINE
  5
142
330
1F
100
AcDbEntity
  8
1
  6
CONTINUOUS
 62
     7
100
AcDbLine
 10
56.28067787858696
 20
187.1235401432263
 30
0.0
 11
56.29650246722682
 21
187.1436983290631
 31
0.0
  0
LINE
  5
143
330
1F
100
AcDbEntity
  8
1
  6
CONTINUOUS
 62
     7
100
AcDbLine
 10
61.88378434754277
 20
190.5644008917162
 30
0.0
 11
61.85901988307184
 21
190.5948050808512
 31
0.0
  0
LINE
  5
144
330
1F
100
AcDbEntity
  8
1
  6
CONTINUOUS
 62
     7
100
AcDbLine
 10
56.22932338230962
 20
187.0684070495892
 30
0.0
 11
56.24705075138078
 21
187.0858979414181
 31
0.0
  0
LINE
  5
145
330
1F
100
AcDbEntity
  8
1
  6
CONTINUOUS
 62
     7
100
AcDbLine
 10
56.10665017443224
 20
186.9788096310217
 30
0.0
 11
56.12881734310431
 21
186.9916525198219
 31
0.0
  0
LINE
  5
146
330
1F
100
AcDbEntity
  8
1
  6
CONTINUOUS
 62
   253
100
AcDbLine
 10
32.87900288162223
 20
182.509595523793
 30
0.0
 11
33.20755221389986
 21
182.3355486128537
 31
0.0
  0
LINE
  5
147
330
1F
100
AcDbEntity
  8
1
  6
CONTINUOUS
 62
     7
100
AcDbLine
 10
61.85901988307184
 20
190.5948050808512
 30
0.0
 11
61.83273451406755
 21
190.624031124578
 31
0.0
  0
LINE
  5
148
330
1F
100
AcDbEntity
  8
1
  6
CONTINUOUS
 62
     7
100
AcDbLine
 10
56.26402184269839
 20
187.1040941505264
 30
0.0
 11
56.28067787858696
 21
187.1235401432263
 31
0.0
  0
LINE
  5
149
330
1F
100
AcDbEntity
  8
1
  6
CONTINUOUS
 62
     7
100
AcDbLine
 10
56.31145366356694
 20
187.1645125672541
 30
0.0
 11
56.32548952255625
 21
187.1859267170173
 31
0.0
  0
LINE
  5
14A
330
1F
100
AcDbEntity
  8
1
  6
CONTINUOUS
 62
   253
100
AcDbLine
 10
70.19218491940221
 20
136.3652370653183
 30
0.0
 11
70.54106312046821
 21
136.1682463254015
 31
0.0
  0
LINE
  5
14B
330
1F
100
AcDbEntity
  8
1
  6
CONTINUOUS
 62
     7
100
AcDbLine
 10
55.8423467239589
 20
186.9049462298576
 30
0.0
 11
55.86721467022826
 21
186.9064988495872
 31
0.0
  0
LINE
  5
14C
330
1F
100
AcDbEntity
  8
1
  6
CONTINUOUS
 62
     7
100
AcDbLine
 10
56.3390665406184
 20
187.2087527066336
 30
0.0
 11
56.35162005900981
 21
187.2321572060527
 31
0.0
  0
LINE
  5
14D
330
1F
100
AcDbEntity
  8
1
  6
CONTINUOUS
 62
   253
100
AcDbLine
 10
32.06752143236189
 20
183.7005821266709
 30
0.0
 11
32.17745618809224
 21
183.3496033233054
 31
0.0
  0
LINE
  5
14E
330
1F
100
AcDbEntity
  8
1
  6
CONTINUOUS
 62
     7
100
AcDbLine
 10
61.94707322466492
 20
190.4694474161516
 30
0.0
 11
61.92759404433637
 21
190.5019192753163
 31
0.0
  0
LINE
  5
14F
330
1F
100
AcDbEntity
  8
1
  6
CONTINUOUS
 62
     7
100
AcDbLine
 10
61.83273451406755
 20
190.624031124578
 30
0.0
 11
61.80484153800518
 21
190.6521331491998
 31
0.0
  0
LINE
  5
150
330
1F
100
AcDbEntity
  8
1
  6
CONTINUOUS
 62
     7
100
AcDbLine
 10
56.03911694868825
 20
186.9469164559954
 30
0.0
 11
56.06206948998287
 21
186.9566128346966
 31
0.0
  0
LINE
  5
151
330
1F
100
AcDbEntity
  8
1
  6
CONTINUOUS
 62
     7
100
AcDbLine
 10
67.15874527547255
 20
180.0407453425387
 30
0.0
 11
67.29975236577802
 21
180.0259089464143
 31
0.0
  0
LINE
  5
152
330
1F
100
AcDbEntity
  8
1
  6
CONTINUOUS
 62
     7
100
AcDbLine
 10
55.89199694162823
 20
186.9090802574642
 30
0.0
 11
55.91662937686426
 21
186.9126853057568
 31
0.0
  0
LINE
  5
153
330
1F
100
AcDbEntity
  8
1
  6
CONTINUOUS
 62
     7
100
AcDbLine
 10
55.94179702696465
 20
186.9174638132794
 30
0.0
 11
55.96676029550874
 21
186.9233189610936
 31
0.0
  0
LINE
  5
154
330
1F
100
AcDbEntity
  8
1
  6
CONTINUOUS
 62
     7
100
AcDbLine
 10
56.15043475898408
 20
187.0054443595855
 30
0.0
 11
56.17144398356827
 21
187.0201460628271
 31
0.0
  0
LINE
  5
155
330
1F
100
AcDbEntity
  8
1
  6
CONTINUOUS
 62
     7
100
AcDbLine
 10
56.32548952255625
 20
187.1859267170173
 30
0.0
 11
56.3390665406184
 21
187.2087527066336
 31
0.0
  0
LINE
  5
156
330
1F
100
AcDbEntity
  8
1
  6
CONTINUOUS
 62
   253
100
AcDbLine
 10
32.02844243917778
 20
184.0660921099311
 30
0.0
 11
32.06752143236189
 21
183.7005821266709
 31
0.0
  0
LINE
  5
157
330
1F
100
AcDbEntity
  8
1
  6
CONTINUOUS
 62
     7
100
AcDbLine
 10
55.99145113291799
 20
186.9302334014018
 30
0.0
 11
56.01580148961386
 21
186.9381897864064
 31
0.0
  0
LINE
  5
158
330
1F
100
AcDbEntity
  8
1
  6
CONTINUOUS
 62
     7
100
AcDbLine
 10
56.08460020229757
 20
186.9672526504064
 30
0.0
 11
56.10665017443224
 21
186.9788096310217
 31
0.0
  0
LINE
  5
159
330
1F
100
AcDbEntity
  8
1
  6
CONTINUOUS
 62
   253
100
AcDbLine
 10
32.59093525215307
 20
182.7427526968175
 30
0.0
 11
32.87900288162223
 21
182.509595523793
 31
0.0
  0
LINE
  5
15A
330
1F
100
AcDbEntity
  8
1
  6
CONTINUOUS
 62
   253
100
AcDbLine
 10
33.20755221389986
 20
182.3355486128537
 30
0.0
 11
33.56428552233488
 21
182.2271266061702
 31
0.0
  0
LINE
  5
15B
330
1F
100
AcDbEntity
  8
1
  6
CONTINUOUS
 62
   253
100
AcDbLine
 10
69.46883122512676
 20
137.3044126070722
 30
0.0
 11
69.64509144886904
 21
136.9449522900217
 31
0.0
  0
LINE
  5
15C
330
1F
100
AcDbEntity
  8
1
  6
CONTINUOUS
 62
     7
100
AcDbLine
 10
56.06206948998287
 20
186.9566128346966
 30
0.0
 11
56.08460020229757
 21
186.9672526504064
 31
0.0
  0
LINE
  5
15D
330
1F
100
AcDbEntity
  8
1
  6
CONTINUOUS
 62
     7
100
AcDbLine
 10
56.17144398356827
 20
187.0201460628271
 30
0.0
 11
56.19178657835369
 21
187.0357185420613
 31
0.0
  0
LINE
  5
15E
330
1F
100
AcDbEntity
  8
1
  6
CONTINUOUS
 62
     7
100
AcDbLine
 10
56.19178657835369
 20
187.0357185420613
 30
0.0
 11
56.21088642734669
 21
187.0516658061125
 31
0.0
  0
LINE
  5
15F
330
1F
100
AcDbEntity
  8
1
  6
CONTINUOUS
 62
     7
100
AcDbLine
 10
56.21088642734669
 20
187.0516658061125
 30
0.0
 11
56.22932338230962
 21
187.0684070495892
 31
0.0
  0
LINE
  5
160
330
1F
100
AcDbEntity
  8
1
  6
CONTINUOUS
 62
   253
100
AcDbLine
 10
71.32004130288475
 20
135.9992078724628
 30
0.0
 11
71.71888062671552
 21
136.0339437296414
 31
0.0
  0
LINE
  5
161
330
1F
100
AcDbEntity
  8
1
  6
CONTINUOUS
 62
     7
100
AcDbLine
 10
55.81745726411467
 20
186.9044275460074
 30
0.0
 11
55.8423467239589
 21
186.9049462298576
 31
0.0
  0
LINE
  5
162
330
1F
100
AcDbEntity
  8
1
  6
CONTINUOUS
 62
   253
100
AcDbLine
 10
33.56428552233488
 20
182.2271266061702
 30
0.0
 11
33.93585014331345
 21
182.1883877807505
 31
0.0
  0
LINE
  5
163
330
1F
100
AcDbEntity
  8
1
  6
CONTINUOUS
 62
     7
100
AcDbLine
 10
25.98288465613664
 20
186.7633297106574
 30
0.0
 11
25.63288735974422
 21
186.5919055601134
 31
0.0
  0
LINE
  5
164
330
1F
100
AcDbEntity
  8
1
  6
CONTINUOUS
 62
     7
100
AcDbLine
 10
25.63288735974422
 20
186.5919055601134
 30
0.0
 11
25.32670204689085
 21
186.36096390471
 31
0.0
  0
LINE
  5
165
330
1F
100
AcDbEntity
  8
1
  6
CONTINUOUS
 62
     7
100
AcDbLine
 10
55.96676029550874
 20
186.9233189610936
 30
0.0
 11
55.99145113291799
 21
186.9302334014018
 31
0.0
  0
LINE
  5
166
330
1F
100
AcDbEntity
  8
1
  6
CONTINUOUS
 62
     7
100
AcDbLine
 10
25.32670204689085
 20
186.36096390471
 30
0.0
 11
25.07578935046211
 21
186.0791489785744
 31
0.0
  0
LINE
  5
167
330
1F
100
AcDbEntity
  8
1
  6
CONTINUOUS
 62
   253
100
AcDbLine
 10
69.88947845802974
 20
136.6276492838402
 30
0.0
 11
70.19218491940221
 21
136.3652370653183
 31
0.0
  0
LINE
  5
168
330
1F
100
AcDbEntity
  8
1
  6
CONTINUOUS
 62
     7
100
AcDbLine
 10
26.76076352974445
 20
186.9044275460074
 30
0.0
 11
26.36359340395072
 21
186.8688198850921
 31
0.0
  0
LINE
  5
169
330
1F
100
AcDbEntity
  8
1
  6
CONTINUOUS
 62
   253
100
AcDbLine
 10
110.0602982490178
 20
196.4453277339113
 30
0.0
 11
110.0551205179311
 21
196.2943316271542
 31
0.0
  0
LINE
  5
16A
330
1F
100
AcDbEntity
  8
1
  6
CONTINUOUS
 62
     7
100
AcDbLine
 10
66.98140095175371
 20
180.0114043124203
 30
0.0
 11
67.15874527547255
 21
180.0407453425387
 31
0.0
  0
LINE
  5
16B
330
1F
100
AcDbEntity
  8
1
  6
CONTINUOUS
 62
     7
100
AcDbLine
 10
55.86721467022826
 20
186.9064988495872
 30
0.0
 11
55.89199694162823
 21
186.9090802574642
 31
0.0
  0
LINE
  5
16C
330
1F
100
AcDbEntity
  8
1
  6
CONTINUOUS
 62
     7
100
AcDbLine
 10
24.77492842591903
 20
182.8088087157446
 30
0.0
 11
24.88954102825757
 21
182.4584019420017
 31
0.0
  0
LINE
  5
16D
330
1F
100
AcDbEntity
  8
1
  6
CONTINUOUS
 62
   253
100
AcDbLine
 10
92.9715575608222
 20
184.1493190538053
 30
0.0
 11
92.9324785676381
 21
184.5148290370655
 31
0.0
  0
LINE
  5
16E
330
1F
100
AcDbEntity
  8
1
  6
CONTINUOUS
 62
   253
100
AcDbLine
 10
92.9324785676381
 20
184.5148290370655
 30
0.0
 11
92.82254381190775
 21
184.865807840431
 31
0.0
  0
LINE
  5
16F
330
1F
100
AcDbEntity
  8
1
  6
CONTINUOUS
 62
   253
100
AcDbLine
 10
92.82254381190775
 20
184.865807840431
 30
0.0
 11
92.64586819341211
 21
185.1891181936047
 31
0.0
  0
LINE
  5
170
330
1F
100
AcDbEntity
  8
1
  6
CONTINUOUS
 62
   253
100
AcDbLine
 10
92.64586819341211
 20
185.1891181936047
 30
0.0
 11
92.40906474784693
 21
185.4726584669189
 31
0.0
  0
LINE
  5
171
330
1F
100
AcDbEntity
  8
1
  6
CONTINUOUS
 62
     7
100
AcDbLine
 10
61.28207461669641
 20
190.874435364269
 30
0.0
 11
61.25776396443772
 21
190.8750221180911
 31
0.0
  0
LINE
  5
172
330
1F
100
AcDbEntity
  8
1
  6
CONTINUOUS
 62
     7
100
AcDbLine
 10
61.77552232299344
 20
190.6788877814858
 30
0.0
 11
61.7500080374181
 21
190.7001281378307
 31
0.0
  0
LINE
  5
173
330
1F
100
AcDbEntity
  8
1
  6
CONTINUOUS
 62
     7
100
AcDbLine
 10
61.57710855930289
 20
190.8054016485428
 30
0.0
 11
61.54534122659753
 21
190.8187852868252
 31
0.0
  0
LINE
  5
174
330
1F
100
AcDbEntity
  8
1
  6
CONTINUOUS
 62
     7
100
AcDbLine
 10
140.1089474164603
 20
234.0785259305111
 30
0.0
 11
140.1744746001925
 21
234.0404710201948
 31
0.0
  0
LINE
  5
175
330
1F
100
AcDbEntity
  8
1
  6
CONTINUOUS
 62
     7
100
AcDbLine
 10
25.63288735974422
 20
181.623505603623
 30
0.0
 11
25.98288465613664
 21
181.4520814530789
 31
0.0
  0
LINE
  5
176
330
1F
100
AcDbEntity
  8
1
  6
CONTINUOUS
 62
     7
100
AcDbLine
 10
61.35063562431366
 20
190.8687755913382
 30
0.0
 11
61.31644774796992
 21
190.8723403605779
 31
0.0
  0
LINE
  5
177
330
1F
100
AcDbEntity
  8
1
  6
CONTINUOUS
 62
     7
100
AcDbLine
 10
140.0050516017209
 20
234.1878263595235
 30
0.0
 11
140.0517887468025
 21
234.1282395776487
 31
0.0
  0
LINE
  5
178
330
1F
100
AcDbEntity
  8
1
  6
CONTINUOUS
 62
     7
100
AcDbLine
 10
61.7500080374181
 20
190.7001281378307
 30
0.0
 11
61.72359023258123
 21
190.7203277655228
 31
0.0
  0
LINE
  5
179
330
1F
100
AcDbEntity
  8
1
  6
CONTINUOUS
 62
     7
100
AcDbLine
 10
61.54534122659753
 20
190.8187852868252
 30
0.0
 11
61.5142624314728
 21
190.8303594516277
 31
0.0
  0
LINE
  5
17A
330
1F
100
AcDbEntity
  8
1
  6
CONTINUOUS
 62
     7
100
AcDbLine
 10
61.31644774796992
 20
190.8723403605779
 30
0.0
 11
61.28207461669641
 21
190.874435364269
 31
0.0
  0
LINE
  5
17B
330
1F
100
AcDbEntity
  8
1
  6
CONTINUOUS
 62
     7
100
AcDbLine
 10
140.2460167093454
 20
234.0154416932514
 30
0.0
 11
140.3210041127103
 21
234.0043369466552
 31
0.0
  0
LINE
  5
17C
330
1F
100
AcDbEntity
  8
1
  6
CONTINUOUS
 62
     7
100
AcDbLine
 10
61.11118386457307
 20
190.8627981607965
 30
0.0
 11
61.08685155660351
 21
190.8580970762606
 31
0.0
  0
LINE
  5
17D
330
1F
100
AcDbEntity
  8
1
  6
CONTINUOUS
 62
     7
100
AcDbLine
 10
139.9419384952074
 20
234.4031213897132
 30
0.0
 11
139.9491220441393
 21
234.3277806874633
 31
0.0
  0
LINE
  5
17E
330
1F
100
AcDbEntity
  8
1
  6
CONTINUOUS
 62
     7
100
AcDbLine
 10
140.0517887468025
 20
234.1282395776487
 30
0.0
 11
140.1089474164603
 21
234.0785259305111
 31
0.0
  0
LINE
  5
17F
330
1F
100
AcDbEntity
  8
1
  6
CONTINUOUS
 62
     7
100
AcDbLine
 10
24.88954102825757
 20
182.4584019420017
 30
0.0
 11
25.07578935046211
 21
182.136262185162
 31
0.0
  0
LINE
  5
180
330
1F
100
AcDbEntity
  8
1
  6
CONTINUOUS
 62
     7
100
AcDbLine
 10
25.32670204689085
 20
181.8544472590263
 30
0.0
 11
25.63288735974422
 21
181.623505603623
 31
0.0
  0
LINE
  5
181
330
1F
100
AcDbEntity
  8
1
  6
CONTINUOUS
 62
     7
100
AcDbLine
 10
26.36359340395072
 20
181.3465912786442
 30
0.0
 11
26.76076352974445
 21
181.310983617729
 31
0.0
  0
LINE
  5
182
330
1F
100
AcDbEntity
  8
1
  6
CONTINUOUS
 62
     7
100
AcDbLine
 10
139.9491220441393
 20
234.3277806874633
 30
0.0
 11
139.9704146740587
 21
234.2551460533192
 31
0.0
  0
LINE
  5
183
330
1F
100
AcDbEntity
  8
1
  6
CONTINUOUS
 62
   253
100
AcDbLine
 10
31.37019449008282
 20
145.7338340158478
 30
0.0
 11
31.36640908741106
 21
145.8847549222855
 31
0.0
  0
LINE
  5
184
330
1F
100
AcDbEntity
  8
1
  6
CONTINUOUS
 62
   253
100
AcDbLine
 10
59.666532420614
 20
233.2301613327344
 30
0.0
 11
59.77928255260374
 21
233.3305878299525
 31
0.0
  0
LINE
  5
185
330
1F
100
AcDbEntity
  8
1
  6
CONTINUOUS
 62
     7
100
AcDbLine
 10
66.59656847507497
 20
179.2544771108167
 30
0.0
 11
66.58179663535482
 21
179.3079532165268
 31
0.0
  0
LINE
  5
186
330
1F
100
AcDbEntity
  8
1
  6
CONTINUOUS
 62
   253
100
AcDbLine
 10
92.40906474784693
 20
185.4726584669189
 30
0.0
 11
92.12099711837776
 21
185.7058156399434
 31
0.0
  0
LINE
  5
187
330
1F
100
AcDbEntity
  8
1
  6
CONTINUOUS
 62
   253
100
AcDbLine
 10
92.12099711837776
 20
185.7058156399434
 30
0.0
 11
91.79244778610014
 21
185.8798625508827
 31
0.0
  0
LINE
  5
188
330
1F
100
AcDbEntity
  8
1
  6
CONTINUOUS
 62
     7
100
AcDbLine
 10
61.72359023258123
 20
190.7203277655228
 30
0.0
 11
61.69621328922191
 21
190.7395108733945
 31
0.0
  0
LINE
  5
189
330
1F
100
AcDbEntity
  8
1
  6
CONTINUOUS
 62
     7
100
AcDbLine
 10
61.5142624314728
 20
190.8303594516277
 30
0.0
 11
61.48267635952168
 21
190.8406532029742
 31
0.0
  0
LINE
  5
18A
330
1F
100
AcDbEntity
  8
1
  6
CONTINUOUS
 62
     7
100
AcDbLine
 10
66.56695998861927
 20
179.448941851465
 30
0.0
 11
66.59630126950535
 21
179.6263046302911
 31
0.0
  0
LINE
  5
18B
330
1F
100
AcDbEntity
  8
1
  6
CONTINUOUS
 62
     7
100
AcDbLine
 10
61.66801047642671
 20
190.7575661454374
 30
0.0
 11
61.63849270984498
 21
190.7747519738257
 31
0.0
  0
LINE
  5
18C
330
1F
100
AcDbEntity
  8
1
  6
CONTINUOUS
 62
     7
100
AcDbLine
 10
61.45052250765805
 20
190.8496708952545
 30
0.0
 11
61.41796343722455
 21
190.8573516390146
 31
0.0
  0
LINE
  5
18D
330
1F
100
AcDbEntity
  8
1
  6
CONTINUOUS
 62
     7
100
AcDbLine
 10
61.38445217039472
 20
190.8637770809251
 30
0.0
 11
61.35063562431366
 21
190.8687755913382
 31
0.0
  0
LINE
  5
18E
330
1F
100
AcDbEntity
  8
1
  6
CONTINUOUS
 62
     7
100
AcDbLine
 10
25.98288465613664
 20
181.4520814530789
 30
0.0
 11
26.36359340395072
 21
181.3465912786442
 31
0.0
  0
LINE
  5
18F
330
1F
100
AcDbEntity
  8
1
  6
CONTINUOUS
 62
     7
100
AcDbLine
 10
61.41796343722455
 20
190.8573516390146
 30
0.0
 11
61.38445217039472
 21
190.8637770809251
 31
0.0
  0
LINE
  5
190
330
1F
100
AcDbEntity
  8
1
  6
CONTINUOUS
 62
   253
100
AcDbLine
 10
59.39482970243209
 20
233.1011873857336
 30
0.0
 11
59.53683552680047
 21
233.1527720636957
 31
0.0
  0
LINE
  5
191
330
1F
100
AcDbEntity
  8
1
  6
CONTINUOUS
 62
   253
100
AcDbLine
 10
59.53683552680047
 20
233.1527720636957
 30
0.0
 11
59.666532420614
 21
233.2301613327344
 31
0.0
  0
LINE
  5
192
330
1F
100
AcDbEntity
  8
1
  6
CONTINUOUS
 62
     7
100
AcDbLine
 10
24.73624153680779
 20
183.1743666473801
 30
0.0
 11
24.77492842591903
 21
182.8088087157446
 31
0.0
  0
LINE
  5
193
330
1F
100
AcDbEntity
  8
1
  6
CONTINUOUS
 62
     7
100
AcDbLine
 10
61.69621328922191
 20
190.7395108733945
 30
0.0
 11
61.66801047642671
 21
190.7575661454374
 31
0.0
  0
LINE
  5
194
330
1F
100
AcDbEntity
  8
1
  6
CONTINUOUS
 62
     7
100
AcDbLine
 10
61.48267635952168
 20
190.8406532029742
 30
0.0
 11
61.45052250765805
 21
190.8496708952545
 31
0.0
  0
LINE
  5
195
330
1F
100
AcDbEntity
  8
1
  6
CONTINUOUS
 62
   253
100
AcDbLine
 10
31.36640908741106
 20
145.8847549222855
 30
0.0
 11
31.33422152851753
 21
146.0322745299981
 31
0.0
  0
LINE
  5
196
330
1F
100
AcDbEntity
  8
1
  6
CONTINUOUS
 62
   253
100
AcDbLine
 10
31.27478280833138
 20
146.1711176852843
 30
0.0
 11
31.1902183960675
 21
146.2963194957084
 31
0.0
  0
LINE
  5
197
330
1F
100
AcDbEntity
  8
1
  6
CONTINUOUS
 62
     7
100
AcDbLine
 10
25.07578935046211
 20
182.136262185162
 30
0.0
 11
25.32670204689085
 21
181.8544472590263
 31
0.0
  0
LINE
  5
198
330
1F
100
AcDbEntity
  8
1
  6
CONTINUOUS
 62
     7
100
AcDbLine
 10
61.80484153800518
 20
190.6521331491998
 30
0.0
 11
61.77552232299344
 21
190.6788877814858
 31
0.0
  0
LINE
  5
199
330
1F
100
AcDbEntity
  8
1
  6
CONTINUOUS
 62
     7
100
AcDbLine
 10
61.60821359677492
 20
190.7906919837178
 30
0.0
 11
61.57710855930289
 21
190.8054016485428
 31
0.0
  0
LINE
  5
19A
330
1F
100
AcDbEntity
  8
1
  6
CONTINUOUS
 62
     7
100
AcDbLine
 10
61.25776396443772
 20
190.8750221180911
 30
0.0
 11
61.23344671221037
 21
190.8748694828535
 31
0.0
  0
LINE
  5
19B
330
1F
100
AcDbEntity
  8
1
  6
CONTINUOUS
 62
     7
100
AcDbLine
 10
61.23344671221037
 20
190.8748694828535
 30
0.0
 11
61.20905489271225
 21
190.8739724716623
 31
0.0
  0
LINE
  5
19C
330
1F
100
AcDbEntity
  8
1
  6
CONTINUOUS
 62
     7
100
AcDbLine
 10
61.20905489271225
 20
190.8739724716623
 30
0.0
 11
61.18470181776706
 21
190.8723313770932
 31
0.0
  0
LINE
  5
19D
330
1F
100
AcDbEntity
  8
1
  6
CONTINUOUS
 62
     7
100
AcDbLine
 10
61.18470181776706
 20
190.8723313770932
 30
0.0
 11
61.16013286509676
 21
190.8699157546735
 31
0.0
  0
LINE
  5
19E
330
1F
100
AcDbEntity
  8
1
  6
CONTINUOUS
 62
     7
100
AcDbLine
 10
61.13565021552986
 20
190.8667426642515
 30
0.0
 11
61.11118386457307
 21
190.8627981607965
 31
0.0
  0
LINE
  5
19F
330
1F
100
AcDbEntity
  8
1
  6
CONTINUOUS
 62
   253
100
AcDbLine
 10
31.1902183960675
 20
146.2963194957084
 30
0.0
 11
31.08355223057209
 21
146.4034028696896
 31
0.0
  0
LINE
  5
1A0
330
1F
100
AcDbEntity
  8
1
  6
CONTINUOUS
 62
   253
100
AcDbLine
 10
59.77928255260374
 20
233.3305878299525
 30
0.0
 11
59.87105409076243
 21
233.4504604042027
 31
0.0
  0
LINE
  5
1A1
330
1F
100
AcDbEntity
  8
1
  6
CONTINUOUS
 62
   253
100
AcDbLine
 10
31.33422152851753
 20
146.0322745299981
 30
0.0
 11
31.27478280833138
 21
146.1711176852843
 31
0.0
  0
LINE
  5
1A2
330
1F
100
AcDbEntity
  8
1
  6
CONTINUOUS
 62
     7
100
AcDbLine
 10
66.58179663535482
 20
179.3079532165268
 30
0.0
 11
66.56695998861927
 21
179.448941851465
 31
0.0
  0
LINE
  5
1A3
330
1F
100
AcDbEntity
  8
1
  6
CONTINUOUS
 62
     7
100
AcDbLine
 10
61.16013286509676
 20
190.8699157546735
 30
0.0
 11
61.13565021552986
 21
190.8667426642515
 31
0.0
  0
LINE
  5
1A4
330
1F
100
AcDbEntity
  8
1
  6
CONTINUOUS
 62
     7
100
AcDbLine
 10
61.63849270984498
 20
190.7747519738257
 30
0.0
 11
61.60821359677492
 21
190.7906919837178
 31
0.0
  0
LINE
  5
1A5
330
1F
100
AcDbEntity
  8
1
  6
CONTINUOUS
 62
     7
100
AcDbLine
 10
139.9704146740587
 20
234.2551460533192
 30
0.0
 11
140.0050516017209
 21
234.1878263595235
 31
0.0
  0
LINE
  5
1A6
330
1F
100
AcDbEntity
  8
1
  6
CONTINUOUS
 62
     7
100
AcDbLine
 10
140.1744746001925
 20
234.0404710201948
 30
0.0
 11
140.2460167093454
 21
234.0154416932514
 31
0.0
  0
LINE
  5
1A7
330
1F
100
AcDbEntity
  8
1
  6
CONTINUOUS
 62
   253
100
AcDbLine
 10
59.24559293382961
 20
233.0772519153646
 30
0.0
 11
59.39482970243209
 21
233.1011873857336
 31
0.0
  0
LINE
  5
1A8
330
1F
100
AcDbEntity
  8
1
  6
CONTINUOUS
 62
     7
100
AcDbLine
 10
66.59630126950535
 20
179.6263046302911
 30
0.0
 11
66.65832035205737
 21
179.7591432583925
 31
0.0
  0
LINE
  5
1A9
330
1F
100
AcDbEntity
  8
1
  6
CONTINUOUS
 62
     7
100
AcDbLine
 10
66.65832035205737
 20
179.7591432583925
 30
0.0
 11
66.68333620280983
 21
179.7959929635187
 31
0.0
  0
LINE
  5
1AA
330
1F
100
AcDbEntity
  8
1
  6
CONTINUOUS
 62
   253
100
AcDbLine
 10
68.44511095305197
 20
182.1625353882804
 30
0.0
 11
68.46969203481824
 21
182.1694401778988
 31
0.0
  0
LINE
  5
1AB
330
1F
100
AcDbEntity
  8
1
  6
CONTINUOUS
 62
   253
100
AcDbLine
 10
68.37444909407498
 20
182.1360577499103
 30
0.0
 11
68.39745397265035
 21
182.1458077183909
 31
0.0
  0
LINE
  5
1AC
330
1F
100
AcDbEntity
  8
1
  6
CONTINUOUS
 62
   253
100
AcDbLine
 10
68.51999491927936
 20
182.1801294948943
 30
0.0
 11
68.54490611738073
 21
182.1837742861946
 31
0.0
  0
LINE
  5
1AD
330
1F
100
AcDbEntity
  8
1
  6
CONTINUOUS
 62
   253
100
AcDbLine
 10
68.24500994035212
 20
182.0567739392621
 30
0.0
 11
68.26525566778791
 21
182.0723532318877
 31
0.0
  0
LINE
  5
1AE
330
1F
100
AcDbEntity
  8
1
  6
CONTINUOUS
 62
   253
100
AcDbLine
 10
68.12560789017124
 20
181.9273808123185
 30
0.0
 11
68.14043387017146
 21
181.9482102247739
 31
0.0
  0
LINE
  5
1AF
330
1F
100
AcDbEntity
  8
1
  6
CONTINUOUS
 62
   253
100
AcDbLine
 10
68.54490611738073
 20
182.1837742861946
 30
0.0
 11
68.56994563374401
 21
182.1863680071926
 31
0.0
  0
LINE
  5
1B0
330
1F
100
AcDbEntity
  8
1
  6
CONTINUOUS
 62
     7
100
AcDbLine
 10
63.78136871724545
 20
190.8744136296449
 30
0.0
 11
63.74733225922087
 21
190.8750514600991
 31
0.0
  0
LINE
  5
1B1
330
1F
100
AcDbEntity
  8
1
  6
CONTINUOUS
 62
   253
100
AcDbLine
 10
68.14043387017146
 20
181.9482102247739
 30
0.0
 11
68.15626039352699
 21
181.9685355413131
 31
0.0
  0
LINE
  5
1B2
330
1F
100
AcDbEntity
  8
1
  6
CONTINUOUS
 62
   253
100
AcDbLine
 10
65.1289459092376
 20
233.4504604042026
 30
0.0
 11
65.2207174473963
 21
233.3305878299525
 31
0.0
  0
LINE
  5
1B3
330
1F
100
AcDbEntity
  8
1
  6
CONTINUOUS
 62
   253
100
AcDbLine
 10
68.28615071992725
 20
182.0870507719061
 30
0.0
 11
68.30782068419475
 21
182.1009384253904
 31
0.0
  0
LINE
  5
1B4
330
1F
100
AcDbEntity
  8
1
  6
CONTINUOUS
 62
   253
100
AcDbLine
 10
68.26525566778791
 20
182.0723532318877
 30
0.0
 11
68.28615071992725
 21
182.0870507719061
 31
0.0
  0
LINE
  5
1B5
330
1F
100
AcDbEntity
  8
1
  6
CONTINUOUS
 62
     7
100
AcDbLine
 10
63.81468339020249
 20
190.8723820096495
 30
0.0
 11
63.78136871724545
 21
190.8744136296449
 31
0.0
  0
LINE
  5
1B6
330
1F
100
AcDbEntity
  8
1
  6
CONTINUOUS
 62
   253
100
AcDbLine
 10
91.79244778610014
 20
185.8798625508827
 30
0.0
 11
91.4357144776651
 21
185.9882845575662
 31
0.0
  0
LINE
  5
1B7
330
1F
100
AcDbEntity
  8
1
  6
CONTINUOUS
 62
   253
100
AcDbLine
 10
68.3300697819728
 20
182.11387733482
 30
0.0
 11
68.3520289926281
 21
182.1254296258394
 31
0.0
  0
LINE
  5
1B8
330
1F
100
AcDbEntity
  8
1
  6
CONTINUOUS
 62
     7
100
AcDbLine
 10
63.48279046304954
 20
190.8293244362772
 30
0.0
 11
63.45088679791126
 21
190.8172798205566
 31
0.0
  0
LINE
  5
1B9
330
1F
100
AcDbEntity
  8
1
  6
CONTINUOUS
 62
     7
100
AcDbLine
 10
63.61216301438818
 20
190.8631951401105
 30
0.0
 11
63.57963360968831
 21
190.8568336877196
 31
0.0
  0
LINE
  5
1BA
330
1F
100
AcDbEntity
  8
1
  6
CONTINUOUS
 62
     7
100
AcDbLine
 10
63.67902135088335
 20
190.8719531716922
 30
0.0
 11
63.64487169495666
 21
190.8681963891631
 31
0.0
  0
LINE
  5
1BB
330
1F
100
AcDbEntity
  8
1
  6
CONTINUOUS
 62
   253
100
AcDbLine
 10
65.46316447319954
 20
233.1527720636957
 30
0.0
 11
65.60517029756791
 21
233.1011873857337
 31
0.0
  0
LINE
  5
1BC
330
1F
100
AcDbEntity
  8
1
  6
CONTINUOUS
 62
   253
100
AcDbLine
 10
68.0871601510396
 20
181.8623561879268
 30
0.0
 11
68.09896777700158
 21
181.8844024444785
 31
0.0
  0
LINE
  5
1BD
330
1F
100
AcDbEntity
  8
1
  6
CONTINUOUS
 62
     7
100
AcDbLine
 10
63.33048611464448
 20
190.7566451069011
 30
0.0
 11
63.30242986671382
 21
190.7385997096746
 31
0.0
  0
LINE
  5
1BE
330
1F
100
AcDbEntity
  8
1
  6
CONTINUOUS
 62
   253
100
AcDbLine
 10
89.23137760891683
 20
142.6863597398167
 30
0.0
 11
89.08113162201494
 21
142.7013336179741
 31
0.0
  0
LINE
  5
1BF
330
1F
100
AcDbEntity
  8
1
  6
CONTINUOUS
 62
   253
100
AcDbLine
 10
88.78551052161097
 20
142.6459728821742
 30
0.0
 11
88.65070652313638
 21
142.5776179127868
 31
0.0
  0
LINE
  5
1C0
330
1F
100
AcDbEntity
  8
1
  6
CONTINUOUS
 62
   253
100
AcDbLine
 10
65.2207174473963
 20
233.3305878299525
 30
0.0
 11
65.33346757938602
 21
233.2301613327344
 31
0.0
  0
LINE
  5
1C1
330
1F
100
AcDbEntity
  8
1
  6
CONTINUOUS
 62
   253
100
AcDbLine
 10
68.11168756722428
 20
181.9059386837436
 30
0.0
 11
68.12560789017124
 21
181.9273808123185
 31
0.0
  0
LINE
  5
1C2
330
1F
100
AcDbEntity
  8
1
  6
CONTINUOUS
 62
   253
100
AcDbLine
 10
68.07635739584968
 20
181.83999647765
 30
0.0
 11
68.0871601510396
 21
181.8623561879268
 31
0.0
  0
LINE
  5
1C3
330
1F
100
AcDbEntity
  8
1
  6
CONTINUOUS
 62
   253
100
AcDbLine
 10
68.30782068419475
 20
182.1009384253904
 30
0.0
 11
68.3300697819728
 21
182.11387733482
 31
0.0
  0
LINE
  5
1C4
330
1F
100
AcDbEntity
  8
1
  6
CONTINUOUS
 62
   253
100
AcDbLine
 10
68.39745397265035
 20
182.1458077183909
 30
0.0
 11
68.42084559000415
 21
182.1545852377433
 31
0.0
  0
LINE
  5
1C5
330
1F
100
AcDbEntity
  8
1
  6
CONTINUOUS
 62
     7
100
AcDbLine
 10
63.30242986671382
 20
190.7385997096746
 30
0.0
 11
63.27510208596679
 21
190.7193681684369
 31
0.0
  0
LINE
  5
1C6
330
1F
100
AcDbEntity
  8
1
  6
CONTINUOUS
 62
   253
100
AcDbLine
 10
68.09896777700158
 20
181.8844024444785
 30
0.0
 11
68.11168756722428
 21
181.9059386837436
 31
0.0
  0
LINE
  5
1C7
330
1F
100
AcDbEntity
  8
1
  6
CONTINUOUS
 62
     7
100
AcDbLine
 10
63.27510208596679
 20
190.7193681684369
 30
0.0
 11
63.24808108953797
 21
190.6985984334717
 31
0.0
  0
LINE
  5
1C8
330
1F
100
AcDbEntity
  8
1
  6
CONTINUOUS
 62
     7
100
AcDbLine
 10
63.84782656648436
 20
190.8689685349857
 30
0.0
 11
63.81468339020249
 21
190.8723820096495
 31
0.0
  0
LINE
  5
1C9
330
1F
100
AcDbEntity
  8
1
  6
CONTINUOUS
 62
     7
100
AcDbLine
 10
63.57963360968831
 20
190.8568336877196
 30
0.0
 11
63.54722877664445
 21
190.8490870667792
 31
0.0
  0
LINE
  5
1CA
330
1F
100
AcDbEntity
  8
1
  6
CONTINUOUS
 62
     7
100
AcDbLine
 10
63.54722877664445
 20
190.8490870667792
 30
0.0
 11
63.51511903791597
 21
190.8399815387535
 31
0.0
  0
LINE
  5
1CB
330
1F
100
AcDbEntity
  8
1
  6
CONTINUOUS
 62
     7
100
AcDbLine
 10
63.24808108953797
 20
190.6985984334717
 30
0.0
 11
63.22192069389451
 21
190.6766584073588
 31
0.0
  0
LINE
  5
1CC
330
1F
100
AcDbEntity
  8
1
  6
CONTINUOUS
 62
     7
100
AcDbLine
 10
63.22192069389451
 20
190.6766584073588
 30
0.0
 11
63.19658216370699
 21
190.6534950496634
 31
0.0
  0
LINE
  5
1CD
330
1F
100
AcDbEntity
  8
1
  6
CONTINUOUS
 62
     7
100
AcDbLine
 10
63.19658216370699
 20
190.6534950496634
 30
0.0
 11
63.17221443495743
 21
190.6292229736875
 31
0.0
  0
LINE
  5
1CE
330
1F
100
AcDbEntity
  8
1
  6
CONTINUOUS
 62
   253
100
AcDbLine
 10
68.4947297544082
 20
182.175326339949
 30
0.0
 11
68.51999491927936
 21
182.1801294948943
 31
0.0
  0
LINE
  5
1CF
330
1F
100
AcDbEntity
  8
1
  6
CONTINUOUS
 62
   253
100
AcDbLine
 10
68.46969203481824
 20
182.1694401778988
 30
0.0
 11
68.4947297544082
 21
182.175326339949
 31
0.0
  0
LINE
  5
1D0
330
1F
100
AcDbEntity
  8
1
  6
CONTINUOUS
 62
     7
100
AcDbLine
 10
63.74733225922087
 20
190.8750514600991
 30
0.0
 11
63.71323763839553
 21
190.8742370741878
 31
0.0
  0
LINE
  5
1D1
330
1F
100
AcDbEntity
  8
1
  6
CONTINUOUS
 62
   253
100
AcDbLine
 10
89.08113162201494
 20
142.7013336179741
 30
0.0
 11
88.93071635977554
 21
142.6877089303569
 31
0.0
  0
LINE
  5
1D2
330
1F
100
AcDbEntity
  8
1
  6
CONTINUOUS
 62
   253
100
AcDbLine
 10
91.4357144776651
 20
185.9882845575662
 30
0.0
 11
91.06414985668654
 21
186.0270233829859
 31
0.0
  0
LINE
  5
1D3
330
1F
100
AcDbEntity
  8
1
  6
CONTINUOUS
 62
   253
100
AcDbLine
 10
68.15626039352699
 20
181.9685355413131
 30
0.0
 11
68.1729503592464
 21
181.9881608597998
 31
0.0
  0
LINE
  5
1D4
330
1F
100
AcDbEntity
  8
1
  6
CONTINUOUS
 62
   253
100
AcDbLine
 10
68.1729503592464
 20
181.9881608597998
 30
0.0
 11
68.18981204444432
 21
182.0063639747455
 31
0.0
  0
LINE
  5
1D5
330
1F
100
AcDbEntity
  8
1
  6
CONTINUOUS
 62
   253
100
AcDbLine
 10
68.18981204444432
 20
182.0063639747455
 30
0.0
 11
68.20741723665196
 21
182.0238511128162
 31
0.0
  0
LINE
  5
1D6
330
1F
100
AcDbEntity
  8
1
  6
CONTINUOUS
 62
   253
100
AcDbLine
 10
88.93071635977554
 20
142.6877089303569
 30
0.0
 11
88.78551052161097
 21
142.6459728821742
 31
0.0
  0
LINE
  5
1D7
330
1F
100
AcDbEntity
  8
1
  6
CONTINUOUS
 62
   253
100
AcDbLine
 10
68.20741723665196
 20
182.0238511128162
 30
0.0
 11
68.22586812554776
 21
182.0407062896759
 31
0.0
  0
LINE
  5
1D8
330
1F
100
AcDbEntity
  8
1
  6
CONTINUOUS
 62
     7
100
AcDbLine
 10
63.9131484433965
 20
190.8580970762606
 30
0.0
 11
63.88062823112066
 21
190.8642050328152
 31
0.0
  0
LINE
  5
1D9
330
1F
100
AcDbEntity
  8
1
  6
CONTINUOUS
 62
   253
100
AcDbLine
 10
68.42084559000415
 20
182.1545852377433
 30
0.0
 11
68.44511095305197
 21
182.1625353882804
 31
0.0
  0
LINE
  5
1DA
330
1F
100
AcDbEntity
  8
1
  6
CONTINUOUS
 62
     7
100
AcDbLine
 10
63.88062823112066
 20
190.8642050328152
 30
0.0
 11
63.84782656648436
 21
190.8689685349857
 31
0.0
  0
LINE
  5
1DB
330
1F
100
AcDbEntity
  8
1
  6
CONTINUOUS
 62
   253
100
AcDbLine
 10
68.06649113716625
 20
181.8172114843639
 30
0.0
 11
68.07635739584968
 21
181.83999647765
 31
0.0
  0
LINE
  5
1DC
330
1F
100
AcDbEntity
  8
1
  6
CONTINUOUS
 62
   253
100
AcDbLine
 10
65.60517029756791
 20
233.1011873857337
 30
0.0
 11
65.75440706617039
 21
233.0772519153646
 31
0.0
  0
LINE
  5
1DD
330
1F
100
AcDbEntity
  8
1
  6
CONTINUOUS
 62
     7
100
AcDbLine
 10
63.71323763839553
 20
190.8742370741878
 30
0.0
 11
63.67902135088335
 21
190.8719531716922
 31
0.0
  0
LINE
  5
1DE
330
1F
100
AcDbEntity
  8
1
  6
CONTINUOUS
 62
     7
100
AcDbLine
 10
63.64487169495666
 20
190.8681963891631
 30
0.0
 11
63.61216301438818
 21
190.8631951401105
 31
0.0
  0
LINE
  5
1DF
330
1F
100
AcDbEntity
  8
1
  6
CONTINUOUS
 62
   253
100
AcDbLine
 10
68.56994563374401
 20
182.1863680071926
 30
0.0
 11
68.59524979305036
 21
182.1879135079838
 31
0.0
  0
LINE
  5
1E0
330
1F
100
AcDbEntity
  8
1
  6
CONTINUOUS
 62
     7
100
AcDbLine
 10
63.51511903791597
 20
190.8399815387535
 30
0.0
 11
63.48279046304954
 21
190.8293244362772
 31
0.0
  0
LINE
  5
1E1
330
1F
100
AcDbEntity
  8
1
  6
CONTINUOUS
 62
   253
100
AcDbLine
 10
68.22586812554776
 20
182.0407062896759
 30
0.0
 11
68.24500994035212
 21
182.0567739392621
 31
0.0
  0
LINE
  5
1E2
330
1F
100
AcDbEntity
  8
1
  6
CONTINUOUS
 62
     7
100
AcDbLine
 10
63.41935398591841
 20
190.8038105436451
 30
0.0
 11
63.38837026829902
 21
190.7889755690804
 31
0.0
  0
LINE
  5
1E3
330
1F
100
AcDbEntity
  8
1
  6
CONTINUOUS
 62
     7
100
AcDbLine
 10
63.38837026829902
 20
190.7889755690804
 30
0.0
 11
63.3591184473333
 21
190.7734231641693
 31
0.0
  0
LINE
  5
1E4
330
1F
100
AcDbEntity
  8
1
  6
CONTINUOUS
 62
     7
100
AcDbLine
 10
63.45088679791126
 20
190.8172798205566
 30
0.0
 11
63.41935398591841
 21
190.8038105436451
 31
0.0
  0
LINE
  5
1E5
330
1F
100
AcDbEntity
  8
1
  6
CONTINUOUS
 62
   253
100
AcDbLine
 10
68.59524979305036
 20
182.1879135079838
 30
0.0
 11
68.62059337647565
 21
182.1883877807505
 31
0.0
  0
LINE
  5
1E6
330
1F
100
AcDbEntity
  8
1
  6
CONTINUOUS
 62
   253
100
AcDbLine
 10
89.37608167418571
 20
142.6433227467988
 30
0.0
 11
89.23137760891683
 21
142.6863597398167
 31
0.0
  0
LINE
  5
1E7
330
1F
100
AcDbEntity
  8
1
  6
CONTINUOUS
 62
   253
100
AcDbLine
 10
68.3520289926281
 20
182.1254296258394
 30
0.0
 11
68.37444909407498
 21
182.1360577499103
 31
0.0
  0
LINE
  5
1E8
330
1F
100
AcDbEntity
  8
1
  6
CONTINUOUS
 62
     7
100
AcDbLine
 10
63.3591184473333
 20
190.7734231641693
 30
0.0
 11
63.33048611464448
 21
190.7566451069011
 31
0.0
  0
LINE
  5
1E9
330
1F
100
AcDbEntity
  8
1
  6
CONTINUOUS
 62
   253
100
AcDbLine
 10
65.33346757938602
 20
233.2301613327344
 30
0.0
 11
65.46316447319954
 21
233.1527720636957
 31
0.0
  0
LINE
  5
1EA
330
1F
100
AcDbEntity
  8
1
  6
CONTINUOUS
 62
     7
100
AcDbLine
 10
58.72599924579999
 20
178.3352111333704
 30
0.0
 11
58.69867887764742
 21
178.3538917975206
 31
0.0
  0
LINE
  5
1EB
330
1F
100
AcDbEntity
  8
1
  6
CONTINUOUS
 62
   253
100
AcDbLine
 10
56.37940662352434
 20
182.1883877807505
 30
0.0
 11
56.40423188587634
 21
182.1879339682166
 31
0.0
  0
LINE
  5
1EC
330
1F
100
AcDbEntity
  8
1
  6
CONTINUOUS
 62
   253
100
AcDbLine
 10
56.40423188587634
 20
182.1879339682166
 30
0.0
 11
56.42902021445602
 21
182.1864522813802
 31
0.0
  0
LINE
  5
1ED
330
1F
100
AcDbEntity
  8
1
  6
CONTINUOUS
 62
   253
100
AcDbLine
 10
91.4357144776651
 20
182.2271266061702
 30
0.0
 11
91.79244778610014
 21
182.3355486128537
 31
0.0
  0
LINE
  5
1EE
330
1F
100
AcDbEntity
  8
1
  6
CONTINUOUS
 62
   253
100
AcDbLine
 10
56.45390104265411
 20
182.1839220442872
 30
0.0
 11
56.47865731937671
 21
182.1803541926763
 31
0.0
  0
LINE
  5
1EF
330
1F
100
AcDbEntity
  8
1
  6
CONTINUOUS
 62
   253
100
AcDbLine
 10
56.47865731937671
 20
182.1803541926763
 30
0.0
 11
56.50378338880049
 21
182.1756403156429
 31
0.0
  0
LINE
  5
1F0
330
1F
100
AcDbEntity
  8
1
  6
CONTINUOUS
 62
     7
100
AcDbLine
 10
58.44199133600882
 20
178.6599580207681
 30
0.0
 11
58.42794961211969
 21
178.6910435328403
 31
0.0
  0
LINE
  5
1F1
330
1F
100
AcDbEntity
  8
1
  6
CONTINUOUS
 62
   253
100
AcDbLine
 10
56.52868745906893
 20
182.1698557636269
 30
0.0
 11
56.55350608402723
 21
182.1629541218173
 31
0.0
  0
LINE
  5
1F2
330
1F
100
AcDbEntity
  8
1
  6
CONTINUOUS
 62
   253
100
AcDbLine
 10
56.55350608402723
 20
182.1629541218173
 30
0.0
 11
56.5780059317257
 21
182.1549876311863
 31
0.0
  0
LINE
  5
1F3
330
1F
100
AcDbEntity
  8
1
  6
CONTINUOUS
 62
   253
100
AcDbLine
 10
56.5780059317257
 20
182.1549876311863
 30
0.0
 11
56.60125592491513
 21
182.1463211545538
 31
0.0
  0
LINE
  5
1F4
330
1F
100
AcDbEntity
  8
1
  6
CONTINUOUS
 62
     7
100
AcDbLine
 10
58.59673362327641
 20
178.4404997775243
 30
0.0
 11
58.57319657506336
 21
178.4651914046192
 31
0.0
  0
LINE
  5
1F5
330
1F
100
AcDbEntity
  8
1
  6
CONTINUOUS
 62
     7
100
AcDbLine
 10
63.08029334656302
 20
190.5141435623861
 30
0.0
 11
63.06429610981414
 21
190.4888193705016
 31
0.0
  0
LINE
  5
1F6
330
1F
100
AcDbEntity
  8
1
  6
CONTINUOUS
 62
     7
100
AcDbLine
 10
58.57319657506336
 20
178.4651914046192
 30
0.0
 11
58.55061309930586
 21
178.491008693132
 31
0.0
  0
LINE
  5
1F7
330
1F
100
AcDbEntity
  8
1
  6
CONTINUOUS
 62
     7
100
AcDbLine
 10
58.42794961211969
 20
178.6910435328403
 30
0.0
 11
58.41517821051309
 21
178.7228744279225
 31
0.0
  0
LINE
  5
1F8
330
1F
100
AcDbEntity
  8
1
  6
CONTINUOUS
 62
     7
100
AcDbLine
 10
58.37290925739071
 20
178.8846003901914
 30
0.0
 11
58.36849432717197
 21
178.9183942611083
 31
0.0
  0
LINE
  5
1F9
330
1F
100
AcDbEntity
  8
1
  6
CONTINUOUS
 62
     7
100
AcDbLine
 10
58.36849432717197
 20
178.9183942611083
 30
0.0
 11
58.36551548996449
 21
178.9524068875998
 31
0.0
  0
LINE
  5
1FA
330
1F
100
AcDbEntity
  8
1
  6
CONTINUOUS
 62
     7
100
AcDbLine
 10
58.36503049597246
 20
179.0503639902513
 30
0.0
 11
58.36720765518687
 21
179.0795712557988
 31
0.0
  0
LINE
  5
1FB
330
1F
100
AcDbEntity
  8
1
  6
CONTINUOUS
 62
     7
100
AcDbLine
 10
58.36720765518687
 20
179.0795712557988
 30
0.0
 11
58.37047024590299
 21
179.1088358983845
 31
0.0
  0
LINE
  5
1FC
330
1F
100
AcDbEntity
  8
1
  6
CONTINUOUS
 62
     7
100
AcDbLine
 10
58.38030364372847
 20
179.1673890862775
 30
0.0
 11
58.38689670506241
 21
179.1965914553186
 31
0.0
  0
LINE
  5
1FD
330
1F
100
AcDbEntity
  8
1
  6
CONTINUOUS
 62
   253
100
AcDbLine
 10
91.06414985668654
 20
182.1883877807505
 30
0.0
 11
91.4357144776651
 21
182.2271266061702
 31
0.0
  0
LINE
  5
1FE
330
1F
100
AcDbEntity
  8
1
  6
CONTINUOUS
 62
   253
100
AcDbLine
 10
56.42902021445602
 20
182.1864522813802
 30
0.0
 11
56.45390104265411
 21
182.1839220442872
 31
0.0
  0
LINE
  5
1FF
330
1F
100
AcDbEntity
  8
1
  6
CONTINUOUS
 62
   253
100
AcDbLine
 10
35.91886837798502
 20
142.7013336179741
 30
0.0
 11
35.76862239108312
 21
142.6863597398167
 31
0.0
  0
LINE
  5
200
330
1F
100
AcDbEntity
  8
1
  6
CONTINUOUS
 62
     7
100
AcDbLine
 10
58.37047024590299
 20
179.1088358983845
 30
0.0
 11
58.3748042516313
 21
179.1379611493619
 31
0.0
  0
LINE
  5
201
330
1F
100
AcDbEntity
  8
1
  6
CONTINUOUS
 62
     7
100
AcDbLine
 10
63.11476590212847
 20
190.5625233400897
 30
0.0
 11
63.09722440596638
 21
190.5388531855067
 31
0.0
  0
LINE
  5
202
330
1F
100
AcDbEntity
  8
1
  6
CONTINUOUS
 62
   253
100
AcDbLine
 10
56.50378338880049
 20
182.1756403156429
 30
0.0
 11
56.52868745906893
 21
182.1698557636269
 31
0.0
  0
LINE
  5
203
330
1F
100
AcDbEntity
  8
1
  6
CONTINUOUS
 62
     7
100
AcDbLine
 10
58.5291188147573
 20
178.5178207729381
 30
0.0
 11
58.50952449598892
 21
178.5444934431584
 31
0.0
  0
LINE
  5
204
330
1F
100
AcDbEntity
  8
1
  6
CONTINUOUS
 62
   253
100
AcDbLine
 10
56.60125592491513
 20
182.1463211545538
 30
0.0
 11
56.6241267262678
 21
182.13669465944
 31
0.0
  0
LINE
  5
205
330
1F
100
AcDbEntity
  8
1
  6
CONTINUOUS
 62
   253
100
AcDbLine
 10
56.6241267262678
 20
182.13669465944
 30
0.0
 11
56.64673491586284
 21
182.1260456138932
 31
0.0
  0
LINE
  5
206
330
1F
100
AcDbEntity
  8
1
  6
CONTINUOUS
 62
     7
100
AcDbLine
 10
63.13316440557634
 20
190.5855336710309
 30
0.0
 11
63.11476590212847
 21
190.5625233400897
 31
0.0
  0
LINE
  5
207
330
1F
100
AcDbEntity
  8
1
  6
CONTINUOUS
 62
     7
100
AcDbLine
 10
63.09722440596638
 20
190.5388531855067
 30
0.0
 11
63.08029334656302
 21
190.5141435623861
 31
0.0
  0
LINE
  5
208
330
1F
100
AcDbEntity
  8
1
  6
CONTINUOUS
 62
     7
100
AcDbLine
 10
58.41517821051309
 20
178.7228744279225
 30
0.0
 11
58.40376151426394
 21
178.7552828441015
 31
0.0
  0
LINE
  5
209
330
1F
100
AcDbEntity
  8
1
  6
CONTINUOUS
 62
   253
100
AcDbLine
 10
91.79244778610014
 20
182.3355486128537
 30
0.0
 11
92.12099711837776
 21
182.509595523793
 31
0.0
  0
LINE
  5
20A
330
1F
100
AcDbEntity
  8
1
  6
CONTINUOUS
 62
     7
100
AcDbLine
 10
58.67211050845658
 20
178.3737226760227
 30
0.0
 11
58.64625558633156
 21
178.3947502134449
 31
0.0
  0
LINE
  5
20B
330
1F
100
AcDbEntity
  8
1
  6
CONTINUOUS
 62
     7
100
AcDbLine
 10
58.6212569332998
 20
178.4168766281533
 30
0.0
 11
58.59673362327641
 21
178.4404997775243
 31
0.0
  0
LINE
  5
20C
330
1F
100
AcDbEntity
  8
1
  6
CONTINUOUS
 62
     7
100
AcDbLine
 10
58.39407960500844
 20
178.7869657746637
 30
0.0
 11
58.38570247594232
 21
178.8190771203192
 31
0.0
  0
LINE
  5
20D
330
1F
100
AcDbEntity
  8
1
  6
CONTINUOUS
 62
     7
100
AcDbLine
 10
58.37862892334017
 20
178.8516770497952
 30
0.0
 11
58.37290925739071
 21
178.8846003901914
 31
0.0
  0
LINE
  5
20E
330
1F
100
AcDbEntity
  8
1
  6
CONTINUOUS
 62
     7
100
AcDbLine
 10
58.64625558633156
 20
178.3947502134449
 30
0.0
 11
58.6212569332998
 21
178.4168766281533
 31
0.0
  0
LINE
  5
20F
330
1F
100
AcDbEntity
  8
1
  6
CONTINUOUS
 62
     7
100
AcDbLine
 10
58.38570247594232
 20
178.8190771203192
 30
0.0
 11
58.37862892334017
 21
178.8516770497952
 31
0.0
  0
LINE
  5
210
330
1F
100
AcDbEntity
  8
1
  6
CONTINUOUS
 62
     7
100
AcDbLine
 10
58.55061309930586
 20
178.491008693132
 30
0.0
 11
58.5291188147573
 21
178.5178207729381
 31
0.0
  0
LINE
  5
211
330
1F
100
AcDbEntity
  8
1
  6
CONTINUOUS
 62
     7
100
AcDbLine
 10
63.15229046704121
 20
190.6077349123025
 30
0.0
 11
63.13316440557634
 21
190.5855336710309
 31
0.0
  0
LINE
  5
212
330
1F
100
AcDbEntity
  8
1
  6
CONTINUOUS
 62
     7
100
AcDbLine
 10
58.69867887764742
 20
178.3538917975206
 30
0.0
 11
58.67211050845658
 21
178.3737226760227
 31
0.0
  0
LINE
  5
213
330
1F
100
AcDbEntity
  8
1
  6
CONTINUOUS
 62
     7
100
AcDbLine
 10
58.47358224061999
 20
178.6004011685779
 30
0.0
 11
58.45731533526231
 21
178.6295533496138
 31
0.0
  0
LINE
  5
214
330
1F
100
AcDbEntity
  8
1
  6
CONTINUOUS
 62
     7
100
AcDbLine
 10
58.40376151426394
 20
178.7552828441015
 30
0.0
 11
58.39407960500844
 21
178.7869657746637
 31
0.0
  0
LINE
  5
215
330
1F
100
AcDbEntity
  8
1
  6
CONTINUOUS
 62
   253
100
AcDbLine
 10
36.34929347686364
 20
142.5776179127868
 30
0.0
 11
36.21448947838903
 21
142.6459728821742
 31
0.0
  0
LINE
  5
216
330
1F
100
AcDbEntity
  8
1
  6
CONTINUOUS
 62
     7
100
AcDbLine
 10
58.36551548996449
 20
178.9524068875998
 30
0.0
 11
58.36398287140402
 21
178.9867031633645
 31
0.0
  0
LINE
  5
217
330
1F
100
AcDbEntity
  8
1
  6
CONTINUOUS
 62
     7
100
AcDbLine
 10
63.17221443495743
 20
190.6292229736875
 30
0.0
 11
63.15229046704121
 21
190.6077349123025
 31
0.0
  0
LINE
  5
218
330
1F
100
AcDbEntity
  8
1
  6
CONTINUOUS
 62
     7
100
AcDbLine
 10
58.50952449598892
 20
178.5444934431584
 30
0.0
 11
58.491019316422
 21
178.5720014491134
 31
0.0
  0
LINE
  5
219
330
1F
100
AcDbEntity
  8
1
  6
CONTINUOUS
 62
     7
100
AcDbLine
 10
58.45731533526231
 20
178.6295533496138
 30
0.0
 11
58.44199133600882
 21
178.6599580207681
 31
0.0
  0
LINE
  5
21A
330
1F
100
AcDbEntity
  8
1
  6
CONTINUOUS
 62
   253
100
AcDbLine
 10
36.06928364022445
 20
142.687708930357
 30
0.0
 11
35.91886837798502
 21
142.7013336179741
 31
0.0
  0
LINE
  5
21B
330
1F
100
AcDbEntity
  8
1
  6
CONTINUOUS
 62
   253
100
AcDbLine
 10
35.76862239108312
 20
142.6863597398167
 30
0.0
 11
35.62391832581424
 21
142.6433227467988
 31
0.0
  0
LINE
  5
21C
330
1F
100
AcDbEntity
  8
1
  6
CONTINUOUS
 62
     7
100
AcDbLine
 10
58.36392071169367
 20
179.021096726961
 30
0.0
 11
58.36503049597246
 21
179.0503639902513
 31
0.0
  0
LINE
  5
21D
330
1F
100
AcDbEntity
  8
1
  6
CONTINUOUS
 62
     7
100
AcDbLine
 10
63.04917368016141
 20
190.4627680757127
 30
0.0
 11
63.03503941420761
 21
190.4361676927169
 31
0.0
  0
LINE
  5
21E
330
1F
100
AcDbEntity
  8
1
  6
CONTINUOUS
 62
   253
100
AcDbLine
 10
36.21448947838903
 20
142.6459728821742
 30
0.0
 11
36.06928364022445
 21
142.687708930357
 31
0.0
  0
LINE
  5
21F
330
1F
100
AcDbEntity
  8
1
  6
CONTINUOUS
 62
     7
100
AcDbLine
 10
58.38689670506241
 20
179.1965914553186
 30
0.0
 11
58.3946212173978
 21
179.2256893596319
 31
0.0
  0
LINE
  5
220
330
1F
100
AcDbEntity
  8
1
  6
CONTINUOUS
 62
     7
100
AcDbLine
 10
58.491019316422
 20
178.5720014491134
 30
0.0
 11
58.47358224061999
 21
178.6004011685779
 31
0.0
  0
LINE
  5
221
330
1F
100
AcDbEntity
  8
1
  6
CONTINUOUS
 62
     7
100
AcDbLine
 10
58.3946212173978
 20
179.2256893596319
 30
0.0
 11
58.40343152492503
 21
179.2544771108167
 31
0.0
  0
LINE
  5
222
330
1F
100
AcDbEntity
  8
1
  6
CONTINUOUS
 62
     7
100
AcDbLine
 10
58.36398287140402
 20
178.9867031633645
 30
0.0
 11
58.36392071169367
 21
179.021096726961
 31
0.0
  0
LINE
  5
223
330
1F
100
AcDbEntity
  8
1
  6
CONTINUOUS
 62
     7
100
AcDbLine
 10
58.3748042516313
 20
179.1379611493619
 30
0.0
 11
58.38030364372847
 21
179.1673890862775
 31
0.0
  0
LINE
  5
224
330
1F
100
AcDbEntity
  8
1
  6
CONTINUOUS
 62
   253
100
AcDbLine
 10
92.12099711837776
 20
182.509595523793
 30
0.0
 11
92.40906474784693
 21
182.7427526968175
 31
0.0
  0
LINE
  5
225
330
1F
100
AcDbEntity
  8
1
  6
CONTINUOUS
 62
   253
100
AcDbLine
 10
92.40906474784693
 20
182.7427526968175
 30
0.0
 11
92.64586819341211
 21
183.0262929701317
 31
0.0
  0
LINE
  5
226
330
1F
100
AcDbEntity
  8
1
  6
CONTINUOUS
 62
   253
100
AcDbLine
 10
92.64586819341211
 20
183.0262929701317
 30
0.0
 11
92.82254381190775
 21
183.3496033233054
 31
0.0
  0
LINE
  5
227
330
1F
100
AcDbEntity
  8
1
  6
CONTINUOUS
 62
   253
100
AcDbLine
 10
92.82254381190775
 20
183.3496033233054
 30
0.0
 11
92.9324785676381
 21
183.7005821266709
 31
0.0
  0
LINE
  5
228
330
1F
100
AcDbEntity
  8
1
  6
CONTINUOUS
 62
     7
100
AcDbLine
 10
63.06429610981414
 20
190.4888193705016
 30
0.0
 11
63.04917368016141
 21
190.4627680757127
 31
0.0
  0
LINE
  5
229
330
1F
100
AcDbEntity
  8
1
  6
CONTINUOUS
 62
   253
100
AcDbLine
 10
92.9324785676381
 20
183.7005821266709
 30
0.0
 11
92.9715575608222
 21
184.0660921099311
 31
0.0
  0
LINE
  5
22A
330
1F
100
AcDbEntity
  8
1
  6
CONTINUOUS
 62
   253
100
AcDbLine
 10
55.35490855113115
 20
136.9449522900219
 30
0.0
 11
55.53116877487339
 21
137.3044126070725
 31
0.0
  0
LINE
  5
22B
330
1F
100
AcDbEntity
  8
1
  6
CONTINUOUS
 62
     7
100
AcDbLine
 10
68.64837994099018
 20
187.2321572060527
 30
0.0
 11
68.66011812296547
 21
187.2102034065127
 31
0.0
  0
LINE
  5
22C
330
1F
100
AcDbEntity
  8
1
  6
CONTINUOUS
 62
     7
100
AcDbLine
 10
68.66011812296547
 20
187.2102034065127
 30
0.0
 11
68.672768305172
 21
187.1887371945565
 31
0.0
  0
LINE
  5
22D
330
1F
100
AcDbEntity
  8
1
  6
CONTINUOUS
 62
     7
100
AcDbLine
 10
68.68629683120031
 20
187.1678134374441
 30
0.0
 11
68.70067004464093
 21
187.1474870024355
 31
0.0
  0
LINE
  5
22E
330
1F
100
AcDbEntity
  8
1
  6
CONTINUOUS
 62
   253
100
AcDbLine
 10
56.90044166931087
 20
181.8854493367357
 30
0.0
 11
56.91236838991352
 21
181.8632804847981
 31
0.0
  0
LINE
  5
22F
330
1F
100
AcDbEntity
  8
1
  6
CONTINUOUS
 62
   253
100
AcDbLine
 10
56.69098900585425
 20
182.1016635854709
 30
0.0
 11
56.71253193910835
 21
182.0879332182873
 31
0.0
  0
LINE
  5
230
330
1F
100
AcDbEntity
  8
1
  6
CONTINUOUS
 62
   253
100
AcDbLine
 10
68.15717387701335
 20
186.2457560359165
 30
0.0
 11
68.14143483865061
 21
186.26586047431
 31
0.0
  0
LINE
  5
231
330
1F
100
AcDbEntity
  8
1
  6
CONTINUOUS
 62
   253
100
AcDbLine
 10
56.85856516134938
 20
181.9495506894264
 30
0.0
 11
56.8735359620691
 21
181.9286363510204
 31
0.0
  0
LINE
  5
232
330
1F
100
AcDbEntity
  8
1
  6
CONTINUOUS
 62
   253
100
AcDbLine
 10
56.84282612298663
 20
181.9696551278199
 30
0.0
 11
56.85856516134938
 21
181.9495506894264
 31
0.0
  0
LINE
  5
233
330
1F
100
AcDbEntity
  8
1
  6
CONTINUOUS
 62
   253
100
AcDbLine
 10
56.82624050093151
 20
181.9890698127043
 30
0.0
 11
56.84282612298663
 21
181.9696551278199
 31
0.0
  0
LINE
  5
234
330
1F
100
AcDbEntity
  8
1
  6
CONTINUOUS
 62
   253
100
AcDbLine
 10
56.88759177403448
 20
181.9070995675642
 30
0.0
 11
56.90044166931087
 21
181.8854493367357
 31
0.0
  0
LINE
  5
235
330
1F
100
AcDbEntity
  8
1
  6
CONTINUOUS
 62
   253
100
AcDbLine
 10
68.22690813171246
 20
186.1737961747304
 30
0.0
 11
68.20854816308756
 21
186.1904853738944
 31
0.0
  0
LINE
  5
236
330
1F
100
AcDbEntity
  8
1
  6
CONTINUOUS
 62
   253
100
AcDbLine
 10
68.44649391597277
 20
186.0524570419191
 30
0.0
 11
68.4219940682743
 21
186.0604235325501
 31
0.0
  0
LINE
  5
237
330
1F
100
AcDbEntity
  8
1
  6
CONTINUOUS
 62
   253
100
AcDbLine
 10
93.66577847148248
 20
146.032274529998
 30
0.0
 11
93.63359091258894
 21
145.8847549222855
 31
0.0
  0
LINE
  5
238
330
1F
100
AcDbEntity
  8
1
  6
CONTINUOUS
 62
   253
100
AcDbLine
 10
93.63359091258894
 20
145.8847549222855
 30
0.0
 11
93.6298055099172
 21
145.7338340158477
 31
0.0
  0
LINE
  5
239
330
1F
100
AcDbEntity
  8
1
  6
CONTINUOUS
 62
   253
100
AcDbLine
 10
56.91236838991352
 20
181.8632804847981
 30
0.0
 11
56.92342644724314
 21
181.8404680262132
 31
0.0
  0
LINE
  5
23A
330
1F
100
AcDbEntity
  8
1
  6
CONTINUOUS
 62
   253
100
AcDbLine
 10
68.54609895734588
 20
186.0314891194492
 30
0.0
 11
68.52134268062329
 21
186.0350569710601
 31
0.0
  0
LINE
  5
23B
330
1F
100
AcDbEntity
  8
1
  6
CONTINUOUS
 62
   253
100
AcDbLine
 10
68.52134268062329
 20
186.0350569710601
 30
0.0
 11
68.4962166111995
 21
186.0397708480936
 31
0.0
  0
LINE
  5
23C
330
1F
100
AcDbEntity
  8
1
  6
CONTINUOUS
 62
   253
100
AcDbLine
 10
68.3758732737322
 20
186.0787165042964
 30
0.0
 11
68.35326508413715
 21
186.0893655498432
 31
0.0
  0
LINE
  5
23D
330
1F
100
AcDbEntity
  8
1
  6
CONTINUOUS
 62
   253
100
AcDbLine
 10
68.12646403793089
 20
186.286774812716
 30
0.0
 11
68.11240822596552
 21
186.3083115961721
 31
0.0
  0
LINE
  5
23E
330
1F
100
AcDbEntity
  8
1
  6
CONTINUOUS
 62
   253
100
AcDbLine
 10
93.91644776942793
 20
146.4034028696896
 30
0.0
 11
93.80978160393252
 21
146.2963194957084
 31
0.0
  0
LINE
  5
23F
330
1F
100
AcDbEntity
  8
1
  6
CONTINUOUS
 62
   253
100
AcDbLine
 10
68.26637921391838
 20
186.1422331107322
 30
0.0
 11
68.2459473634862
 21
186.1578848628583
 31
0.0
  0
LINE
  5
240
330
1F
100
AcDbEntity
  8
1
  6
CONTINUOUS
 62
   253
100
AcDbLine
 10
68.4962166111995
 20
186.0397708480936
 30
0.0
 11
68.47131254093105
 21
186.0455554001095
 31
0.0
  0
LINE
  5
241
330
1F
100
AcDbEntity
  8
1
  6
CONTINUOUS
 62
   253
100
AcDbLine
 10
93.72521719166862
 20
146.1711176852843
 30
0.0
 11
93.66577847148248
 21
146.032274529998
 31
0.0
  0
LINE
  5
242
330
1F
100
AcDbEntity
  8
1
  6
CONTINUOUS
 62
   253
100
AcDbLine
 10
68.07657355275686
 20
186.3749431375231
 30
0.0
 11
68.06649113716625
 21
186.3981996793725
 31
0.0
  0
LINE
  5
243
330
1F
100
AcDbEntity
  8
1
  6
CONTINUOUS
 62
   253
100
AcDbLine
 10
68.17375949906848
 20
186.2263413510321
 30
0.0
 11
68.15717387701335
 21
186.2457560359165
 31
0.0
  0
LINE
  5
244
330
1F
100
AcDbEntity
  8
1
  6
CONTINUOUS
 62
   253
100
AcDbLine
 10
53.67995869711532
 20
135.9992078724628
 30
0.0
 11
54.07788753879662
 21
136.0445823690059
 31
0.0
  0
LINE
  5
245
330
1F
100
AcDbEntity
  8
1
  6
CONTINUOUS
 62
   253
100
AcDbLine
 10
54.45893687953195
 20
136.1682463254016
 30
0.0
 11
54.80781508059798
 21
136.3652370653184
 31
0.0
  0
LINE
  5
246
330
1F
100
AcDbEntity
  8
1
  6
CONTINUOUS
 62
   253
100
AcDbLine
 10
56.8735359620691
 20
181.9286363510204
 30
0.0
 11
56.88759177403448
 21
181.9070995675642
 31
0.0
  0
LINE
  5
247
330
1F
100
AcDbEntity
  8
1
  6
CONTINUOUS
 62
   253
100
AcDbLine
 10
93.80978160393252
 20
146.2963194957084
 30
0.0
 11
93.72521719166862
 21
146.1711176852843
 31
0.0
  0
LINE
  5
248
330
1F
100
AcDbEntity
  8
1
  6
CONTINUOUS
 62
   253
100
AcDbLine
 10
68.2459473634862
 20
186.1578848628583
 30
0.0
 11
68.22690813171246
 21
186.1737961747304
 31
0.0
  0
LINE
  5
249
330
1F
100
AcDbEntity
  8
1
  6
CONTINUOUS
 62
   253
100
AcDbLine
 10
53.28111937328448
 20
136.0339437296414
 30
0.0
 11
53.67995869711532
 21
135.9992078724628
 31
0.0
  0
LINE
  5
24A
330
1F
100
AcDbEntity
  8
1
  6
CONTINUOUS
 62
   253
100
AcDbLine
 10
56.80922223432854
 20
182.0073616444396
 30
0.0
 11
56.82624050093151
 21
181.9890698127043
 31
0.0
  0
LINE
  5
24B
330
1F
100
AcDbEntity
  8
1
  6
CONTINUOUS
 62
   253
100
AcDbLine
 10
68.30901099414574
 20
186.1137475782655
 30
0.0
 11
68.28746806089164
 21
186.1274779454491
 31
0.0
  0
LINE
  5
24C
330
1F
100
AcDbEntity
  8
1
  6
CONTINUOUS
 62
   253
100
AcDbLine
 10
54.07788753879662
 20
136.0445823690059
 30
0.0
 11
54.45893687953195
 21
136.1682463254016
 31
0.0
  0
LINE
  5
24D
330
1F
100
AcDbEntity
  8
1
  6
CONTINUOUS
 62
     7
100
AcDbLine
 10
68.672768305172
 20
187.1887371945565
 30
0.0
 11
68.68629683120031
 21
187.1678134374441
 31
0.0
  0
LINE
  5
24E
330
1F
100
AcDbEntity
  8
1
  6
CONTINUOUS
 62
     7
100
AcDbLine
 10
68.70067004464093
 20
187.1474870024355
 30
0.0
 11
68.7163318595425
 21
187.1272150443708
 31
0.0
  0
LINE
  5
24F
330
1F
100
AcDbEntity
  8
1
  6
CONTINUOUS
 62
   253
100
AcDbLine
 10
56.79145183691244
 20
182.024925789842
 30
0.0
 11
56.80922223432854
 21
182.0073616444396
 31
0.0
  0
LINE
  5
250
330
1F
100
AcDbEntity
  8
1
  6
CONTINUOUS
 62
     7
100
AcDbLine
 10
68.7163318595425
 20
187.1272150443708
 30
0.0
 11
68.73286089997055
 21
187.1076130460303
 31
0.0
  0
LINE
  5
251
330
1F
100
AcDbEntity
  8
1
  6
CONTINUOUS
 62
   253
100
AcDbLine
 10
56.75405263651379
 20
182.0575263008781
 30
0.0
 11
56.77309186828754
 21
182.041614989006
 31
0.0
  0
LINE
  5
252
330
1F
100
AcDbEntity
  8
1
  6
CONTINUOUS
 62
   253
100
AcDbLine
 10
68.39874407508486
 20
186.0690900091826
 30
0.0
 11
68.3758732737322
 21
186.0787165042964
 31
0.0
  0
LINE
  5
253
330
1F
100
AcDbEntity
  8
1
  6
CONTINUOUS
 62
   253
100
AcDbLine
 10
56.64673491586284
 20
182.1260456138932
 30
0.0
 11
56.66887773789668
 21
182.1144579478589
 31
0.0
  0
LINE
  5
254
330
1F
100
AcDbEntity
  8
1
  6
CONTINUOUS
 62
     7
100
AcDbLine
 10
68.73286089997055
 20
187.1076130460303
 30
0.0
 11
68.75021087169407
 21
187.0887338140015
 31
0.0
  0
LINE
  5
255
330
1F
100
AcDbEntity
  8
1
  6
CONTINUOUS
 62
   253
100
AcDbLine
 10
68.19077776567147
 20
186.2080495192968
 30
0.0
 11
68.17375949906848
 21
186.2263413510321
 31
0.0
  0
LINE
  5
256
330
1F
100
AcDbEntity
  8
1
  6
CONTINUOUS
 62
   253
100
AcDbLine
 10
56.66887773789668
 20
182.1144579478589
 30
0.0
 11
56.69098900585425
 21
182.1016635854709
 31
0.0
  0
LINE
  5
257
330
1F
100
AcDbEntity
  8
1
  6
CONTINUOUS
 62
   253
100
AcDbLine
 10
56.92342644724314
 20
181.8404680262132
 30
0.0
 11
56.93350886283374
 21
181.8172114843639
 31
0.0
  0
LINE
  5
258
330
1F
100
AcDbEntity
  8
1
  6
CONTINUOUS
 62
   253
100
AcDbLine
 10
68.62059337647565
 20
186.0270233829859
 30
0.0
 11
68.59576811412366
 21
186.0274771955198
 31
0.0
  0
LINE
  5
259
330
1F
100
AcDbEntity
  8
1
  6
CONTINUOUS
 62
   253
100
AcDbLine
 10
68.4219940682743
 20
186.0604235325501
 30
0.0
 11
68.39874407508486
 21
186.0690900091826
 31
0.0
  0
LINE
  5
25A
330
1F
100
AcDbEntity
  8
1
  6
CONTINUOUS
 62
   253
100
AcDbLine
 10
56.73362078608161
 20
182.0731780530041
 30
0.0
 11
56.75405263651379
 21
182.0575263008781
 31
0.0
  0
LINE
  5
25B
330
1F
100
AcDbEntity
  8
1
  6
CONTINUOUS
 62
   253
100
AcDbLine
 10
68.57097978554397
 20
186.0289588823562
 30
0.0
 11
68.54609895734588
 21
186.0314891194492
 31
0.0
  0
LINE
  5
25C
330
1F
100
AcDbEntity
  8
1
  6
CONTINUOUS
 62
   253
100
AcDbLine
 10
68.35326508413715
 20
186.0893655498432
 30
0.0
 11
68.33112226210332
 21
186.1009532158775
 31
0.0
  0
LINE
  5
25D
330
1F
100
AcDbEntity
  8
1
  6
CONTINUOUS
 62
   253
100
AcDbLine
 10
68.33112226210332
 20
186.1009532158775
 30
0.0
 11
68.30901099414574
 21
186.1137475782655
 31
0.0
  0
LINE
  5
25E
330
1F
100
AcDbEntity
  8
1
  6
CONTINUOUS
 62
   253
100
AcDbLine
 10
68.14143483865061
 20
186.26586047431
 30
0.0
 11
68.12646403793089
 21
186.286774812716
 31
0.0
  0
LINE
  5
25F
330
1F
100
AcDbEntity
  8
1
  6
CONTINUOUS
 62
   253
100
AcDbLine
 10
68.11240822596552
 20
186.3083115961721
 30
0.0
 11
68.09955833068913
 21
186.3299618270007
 31
0.0
  0
LINE
  5
260
330
1F
100
AcDbEntity
  8
1
  6
CONTINUOUS
 62
   253
100
AcDbLine
 10
68.09955833068913
 20
186.3299618270007
 30
0.0
 11
68.08763161008648
 21
186.3521306789383
 31
0.0
  0
LINE
  5
261
330
1F
100
AcDbEntity
  8
1
  6
CONTINUOUS
 62
   253
100
AcDbLine
 10
68.28746806089164
 20
186.1274779454491
 30
0.0
 11
68.26637921391838
 21
186.1422331107322
 31
0.0
  0
LINE
  5
262
330
1F
100
AcDbEntity
  8
1
  6
CONTINUOUS
 62
   253
100
AcDbLine
 10
56.77309186828754
 20
182.041614989006
 30
0.0
 11
56.79145183691244
 21
182.024925789842
 31
0.0
  0
LINE
  5
263
330
1F
100
AcDbEntity
  8
1
  6
CONTINUOUS
 62
   253
100
AcDbLine
 10
56.71253193910835
 20
182.0879332182873
 30
0.0
 11
56.73362078608161
 21
182.0731780530041
 31
0.0
  0
LINE
  5
264
330
1F
100
AcDbEntity
  8
1
  6
CONTINUOUS
 62
   253
100
AcDbLine
 10
68.59576811412366
 20
186.0274771955198
 30
0.0
 11
68.57097978554397
 21
186.0289588823562
 31
0.0
  0
LINE
  5
265
330
1F
100
AcDbEntity
  8
1
  6
CONTINUOUS
 62
   253
100
AcDbLine
 10
68.47131254093105
 20
186.0455554001095
 30
0.0
 11
68.44649391597277
 21
186.0524570419191
 31
0.0
  0
LINE
  5
266
330
1F
100
AcDbEntity
  8
1
  6
CONTINUOUS
 62
   253
100
AcDbLine
 10
68.20854816308756
 20
186.1904853738944
 30
0.0
 11
68.19077776567147
 21
186.2080495192968
 31
0.0
  0
LINE
  5
267
330
1F
100
AcDbEntity
  8
1
  6
CONTINUOUS
 62
   253
100
AcDbLine
 10
68.08763161008648
 20
186.3521306789383
 30
0.0
 11
68.07657355275686
 21
186.3749431375231
 31
0.0
  0
LINE
  5
268
330
1F
100
AcDbEntity
  8
1
  6
CONTINUOUS
 62
   253
100
AcDbLine
 10
54.80781508059798
 20
136.3652370653184
 30
0.0
 11
55.11052154197046
 21
136.6276492838404
 31
0.0
  0
LINE
  5
269
330
1F
100
AcDbEntity
  8
1
  6
CONTINUOUS
 62
   253
100
AcDbLine
 10
55.11052154197046
 20
136.6276492838404
 30
0.0
 11
55.35490855113115
 21
136.9449522900219
 31
0.0
  0
LINE
  5
26A
330
1F
100
AcDbEntity
  8
1
  6
CONTINUOUS
 62
     7
100
AcDbLine
 10
66.43045310313073
 20
178.4692150343226
 30
0.0
 11
66.41061795864786
 21
178.4479873515593
 31
0.0
  0
LINE
  5
26B
330
1F
100
AcDbEntity
  8
1
  6
CONTINUOUS
 62
     7
100
AcDbLine
 10
68.9119103212744
 20
186.9690049532479
 30
0.0
 11
68.93500897180134
 21
186.9579245379879
 31
0.0
  0
LINE
  5
26C
330
1F
100
AcDbEntity
  8
1
  6
CONTINUOUS
 62
     7
100
AcDbLine
 10
57.64677152894847
 20
180.0111371067932
 30
0.0
 11
57.70024763422104
 21
180.025908946414
 31
0.0
  0
LINE
  5
26D
330
1F
100
AcDbEntity
  8
1
  6
CONTINUOUS
 62
     7
100
AcDbLine
 10
57.70024763422104
 20
180.025908946414
 30
0.0
 11
57.84123626927408
 21
180.0407455932533
 31
0.0
  0
LINE
  5
26E
330
1F
100
AcDbEntity
  8
1
  6
CONTINUOUS
 62
     7
100
AcDbLine
 10
68.9811560094526
 20
186.9392697519806
 30
0.0
 11
69.00478012454505
 21
186.931389898904
 31
0.0
  0
LINE
  5
26F
330
1F
100
AcDbEntity
  8
1
  6
CONTINUOUS
 62
     7
100
AcDbLine
 10
68.75021087169407
 20
187.0887338140015
 30
0.0
 11
68.76833548048208
 21
187.0706301548723
 31
0.0
  0
LINE
  5
270
330
1F
100
AcDbEntity
  8
1
  6
CONTINUOUS
 62
   253
100
AcDbLine
 10
16.86398026682253
 20
202.2007165185705
 30
0.0
 11
16.93286094957135
 21
202.3352526527083
 31
0.0
  0
LINE
  5
271
330
1F
100
AcDbEntity
  8
1
  6
CONTINUOUS
 62
     7
100
AcDbLine
 10
66.57280532949655
 20
178.6928203516597
 30
0.0
 11
66.55921667639164
 21
178.662498756978
 31
0.0
  0
LINE
  5
272
330
1F
100
AcDbEntity
  8
1
  6
CONTINUOUS
 62
     7
100
AcDbLine
 10
68.93500897180134
 20
186.9579245379879
 30
0.0
 11
68.95787873391996
 21
186.9481218123323
 31
0.0
  0
LINE
  5
273
330
1F
100
AcDbEntity
  8
1
  6
CONTINUOUS
 62
     7
100
AcDbLine
 10
66.6316482818019
 20
179.0909941476247
 30
0.0
 11
66.63457493910417
 21
179.0569088941345
 31
0.0
  0
LINE
  5
274
330
1F
100
AcDbEntity
  8
1
  6
CONTINUOUS
 62
     7
100
AcDbLine
 10
66.55921667639164
 20
178.662498756978
 30
0.0
 11
66.54430104593064
 21
178.6326135459527
 31
0.0
  0
LINE
  5
275
330
1F
100
AcDbEntity
  8
1
  6
CONTINUOUS
 62
   253
100
AcDbLine
 10
16.65735799675911
 20
201.9821670194034
 30
0.0
 11
16.77103810967569
 21
202.0816014960927
 31
0.0
  0
LINE
  5
276
330
1F
100
AcDbEntity
  8
1
  6
CONTINUOUS
 62
     7
100
AcDbLine
 10
66.54430104593064
 20
178.6326135459527
 30
0.0
 11
66.52812250610572
 21
178.6033260768087
 31
0.0
  0
LINE
  5
277
330
1F
100
AcDbEntity
  8
1
  6
CONTINUOUS
 62
     7
100
AcDbLine
 10
66.51037416435194
 20
178.5741761902394
 30
0.0
 11
66.49136335505133
 21
178.5457585447386
 31
0.0
  0
LINE
  5
278
330
1F
100
AcDbEntity
  8
1
  6
CONTINUOUS
 62
     7
100
AcDbLine
 10
66.41061795864786
 20
178.4479873515593
 30
0.0
 11
66.38991273853338
 21
178.4273872918261
 31
0.0
  0
LINE
  5
279
330
1F
100
AcDbEntity
  8
1
  6
CONTINUOUS
 62
     7
100
AcDbLine
 10
69.15599060863434
 20
186.9050158799728
 30
0.0
 11
69.18254273588532
 21
186.9044275460074
 31
0.0
  0
LINE
  5
27A
330
1F
100
AcDbEntity
  8
1
  6
CONTINUOUS
 62
     7
100
AcDbLine
 10
68.8892859553404
 20
186.9810741557166
 30
0.0
 11
68.9119103212744
 21
186.9690049532479
 31
0.0
  0
LINE
  5
27B
330
1F
100
AcDbEntity
  8
1
  6
CONTINUOUS
 62
   253
100
AcDbLine
 10
16.77103810967569
 20
202.0816014960927
 30
0.0
 11
16.86398026682253
 21
202.2007165185705
 31
0.0
  0
LINE
  5
27C
330
1F
100
AcDbEntity
  8
1
  6
CONTINUOUS
 62
     7
100
AcDbLine
 10
66.61456565812873
 20
179.1905325529475
 30
0.0
 11
66.62160211931246
 21
179.1578585205979
 31
0.0
  0
LINE
  5
27D
330
1F
100
AcDbEntity
  8
1
  6
CONTINUOUS
 62
     7
100
AcDbLine
 10
66.62728027898089
 20
179.124862229686
 30
0.0
 11
66.6316482818019
 21
179.0909941476247
 31
0.0
  0
LINE
  5
27E
330
1F
100
AcDbEntity
  8
1
  6
CONTINUOUS
 62
     7
100
AcDbLine
 10
66.61503633618601
 20
178.8221976044681
 30
0.0
 11
66.60651144960099
 21
178.7890643139024
 31
0.0
  0
LINE
  5
27F
330
1F
100
AcDbEntity
  8
1
  6
CONTINUOUS
 62
     7
100
AcDbLine
 10
66.52812250610572
 20
178.6033260768087
 30
0.0
 11
66.51037416435194
 21
178.5741761902394
 31
0.0
  0
LINE
  5
280
330
1F
100
AcDbEntity
  8
1
  6
CONTINUOUS
 62
     7
100
AcDbLine
 10
66.38991273853338
 20
178.4273872918261
 30
0.0
 11
66.36846912787678
 21
178.407557010242
 31
0.0
  0
LINE
  5
281
330
1F
100
AcDbEntity
  8
1
  6
CONTINUOUS
 62
     7
100
AcDbLine
 10
66.36846912787678
 20
178.407557010242
 30
0.0
 11
66.34594312497009
 21
178.3882157838988
 31
0.0
  0
LINE
  5
282
330
1F
100
AcDbEntity
  8
1
  6
CONTINUOUS
 62
     7
100
AcDbLine
 10
66.34594312497009
 20
178.3882157838988
 30
0.0
 11
66.3227145869519
 21
178.3697241973037
 31
0.0
  0
LINE
  5
283
330
1F
100
AcDbEntity
  8
1
  6
CONTINUOUS
 62
     7
100
AcDbLine
 10
66.29867996645949
 20
178.3520127562568
 30
0.0
 11
66.2740007542
 21
178.3352111333704
 31
0.0
  0
LINE
  5
284
330
1F
100
AcDbEntity
  8
1
  6
CONTINUOUS
 62
     7
100
AcDbLine
 10
66.62212767026496
 20
178.8556034267597
 30
0.0
 11
66.61503633618601
 21
178.8221976044681
 31
0.0
  0
LINE
  5
285
330
1F
100
AcDbEntity
  8
1
  6
CONTINUOUS
 62
     7
100
AcDbLine
 10
69.00478012454505
 20
186.931389898904
 30
0.0
 11
69.02869040534304
 21
186.9245037950737
 31
0.0
  0
LINE
  5
286
330
1F
100
AcDbEntity
  8
1
  6
CONTINUOUS
 62
     7
100
AcDbLine
 10
66.44950435974633
 20
178.491148962291
 30
0.0
 11
66.43045310313073
 21
178.4692150343226
 31
0.0
  0
LINE
  5
287
330
1F
100
AcDbEntity
  8
1
  6
CONTINUOUS
 62
     7
100
AcDbLine
 10
69.12949053843833
 20
186.9067787419644
 30
0.0
 11
69.15599060863434
 21
186.9050158799728
 31
0.0
  0
LINE
  5
288
330
1F
100
AcDbEntity
  8
1
  6
CONTINUOUS
 62
   253
100
AcDbLine
 10
16.5270050152683
 20
201.9059687659873
 30
0.0
 11
16.65735799675911
 21
201.9821670194034
 31
0.0
  0
LINE
  5
289
330
1F
100
AcDbEntity
  8
1
  6
CONTINUOUS
 62
     7
100
AcDbLine
 10
66.63457493910417
 20
179.0569088941345
 30
0.0
 11
66.63604961958161
 21
179.0225411939974
 31
0.0
  0
LINE
  5
28A
330
1F
100
AcDbEntity
  8
1
  6
CONTINUOUS
 62
     7
100
AcDbLine
 10
66.63464649548598
 20
178.9549148779983
 30
0.0
 11
66.63186782412306
 21
178.921781029016
 31
0.0
  0
LINE
  5
28B
330
1F
100
AcDbEntity
  8
1
  6
CONTINUOUS
 62
     7
100
AcDbLine
 10
66.63186782412306
 20
178.921781029016
 30
0.0
 11
66.62769253043409
 21
178.888619426192
 31
0.0
  0
LINE
  5
28C
330
1F
100
AcDbEntity
  8
1
  6
CONTINUOUS
 62
     7
100
AcDbLine
 10
66.3227145869519
 20
178.3697241973037
 30
0.0
 11
66.29867996645949
 21
178.3520127562568
 31
0.0
  0
LINE
  5
28D
330
1F
100
AcDbEntity
  8
1
  6
CONTINUOUS
 62
     7
100
AcDbLine
 10
57.64677152894847
 20
180.0111371067932
 30
0.0
 11
57.61501301376246
 21
180.0014841851335
 31
0.0
  0
LINE
  5
28E
330
1F
100
AcDbEntity
  8
1
  6
CONTINUOUS
 62
     7
100
AcDbLine
 10
57.58282697107789
 20
179.9931399237437
 30
0.0
 11
57.55015293872952
 21
179.9861034625557
 31
0.0
  0
LINE
  5
28F
330
1F
100
AcDbEntity
  8
1
  6
CONTINUOUS
 62
     7
100
AcDbLine
 10
69.07871209294413
 20
186.9134895937769
 30
0.0
 11
69.10404124678388
 21
186.9095902691656
 31
0.0
  0
LINE
  5
290
330
1F
100
AcDbEntity
  8
1
  6
CONTINUOUS
 62
     7
100
AcDbLine
 10
57.61501301376246
 20
180.0014841851335
 30
0.0
 11
57.58282697107789
 21
179.9931399237437
 31
0.0
  0
LINE
  5
291
330
1F
100
AcDbEntity
  8
1
  6
CONTINUOUS
 62
     7
100
AcDbLine
 10
66.59652114882181
 20
178.7561453705233
 30
0.0
 11
66.58510441567913
 21
178.723626088752
 31
0.0
  0
LINE
  5
292
330
1F
100
AcDbEntity
  8
1
  6
CONTINUOUS
 62
     7
100
AcDbLine
 10
66.60651144960099
 20
178.7890643139024
 30
0.0
 11
66.59652114882181
 21
178.7561453705233
 31
0.0
  0
LINE
  5
293
330
1F
100
AcDbEntity
  8
1
  6
CONTINUOUS
 62
   253
100
AcDbLine
 10
16.38464045751168
 20
201.8557315092138
 30
0.0
 11
16.5270050152683
 21
201.9059687659873
 31
0.0
  0
LINE
  5
294
330
1F
100
AcDbEntity
  8
1
  6
CONTINUOUS
 62
     7
100
AcDbLine
 10
66.62769253043409
 20
178.888619426192
 30
0.0
 11
66.62212767026496
 21
178.8556034267597
 31
0.0
  0
LINE
  5
295
330
1F
100
AcDbEntity
  8
1
  6
CONTINUOUS
 62
     7
100
AcDbLine
 10
58.15143767645088
 20
179.9493852298568
 30
0.0
 11
58.18828738165048
 21
179.9243693790584
 31
0.0
  0
LINE
  5
296
330
1F
100
AcDbEntity
  8
1
  6
CONTINUOUS
 62
     7
100
AcDbLine
 10
68.95787873391996
 20
186.9481218123323
 30
0.0
 11
68.9811560094526
 21
186.9392697519806
 31
0.0
  0
LINE
  5
297
330
1F
100
AcDbEntity
  8
1
  6
CONTINUOUS
 62
     7
100
AcDbLine
 10
68.80572049145462
 20
187.0377288255979
 30
0.0
 11
68.82541299890737
 21
187.022463053008
 31
0.0
  0
LINE
  5
298
330
1F
100
AcDbEntity
  8
1
  6
CONTINUOUS
 62
     7
100
AcDbLine
 10
68.82541299890737
 20
187.022463053008
 30
0.0
 11
68.84570536073919
 21
187.008041364128
 31
0.0
  0
LINE
  5
299
330
1F
100
AcDbEntity
  8
1
  6
CONTINUOUS
 62
     7
100
AcDbLine
 10
68.76833548048208
 20
187.0706301548723
 30
0.0
 11
68.78667794857991
 21
187.053798065139
 31
0.0
  0
LINE
  5
29A
330
1F
100
AcDbEntity
  8
1
  6
CONTINUOUS
 62
     7
100
AcDbLine
 10
68.78667794857991
 20
187.053798065139
 30
0.0
 11
68.80572049145462
 21
187.0377288255979
 31
0.0
  0
LINE
  5
29B
330
1F
100
AcDbEntity
  8
1
  6
CONTINUOUS
 62
     7
100
AcDbLine
 10
68.86719719487132
 20
186.9940977558561
 30
0.0
 11
68.8892859553404
 21
186.9810741557166
 31
0.0
  0
LINE
  5
29C
330
1F
100
AcDbEntity
  8
1
  6
CONTINUOUS
 62
     7
100
AcDbLine
 10
69.02869040534304
 20
186.9245037950737
 30
0.0
 11
69.05357212857766
 21
186.9184647557592
 31
0.0
  0
LINE
  5
29D
330
1F
100
AcDbEntity
  8
1
  6
CONTINUOUS
 62
     7
100
AcDbLine
 10
66.62160211931246
 20
179.1578585205979
 30
0.0
 11
66.62728027898089
 21
179.124862229686
 31
0.0
  0
LINE
  5
29E
330
1F
100
AcDbEntity
  8
1
  6
CONTINUOUS
 62
     7
100
AcDbLine
 10
66.63604961958161
 20
179.0225411939974
 30
0.0
 11
66.63604793034581
 21
178.9880783919821
 31
0.0
  0
LINE
  5
29F
330
1F
100
AcDbEntity
  8
1
  6
CONTINUOUS
 62
     7
100
AcDbLine
 10
57.84123626927408
 20
180.0407455932533
 30
0.0
 11
58.0185990482459
 21
180.0114043124204
 31
0.0
  0
LINE
  5
2A0
330
1F
100
AcDbEntity
  8
1
  6
CONTINUOUS
 62
     7
100
AcDbLine
 10
66.63604793034581
 20
178.9880783919821
 30
0.0
 11
66.63464649548598
 21
178.9549148779983
 31
0.0
  0
LINE
  5
2A1
330
1F
100
AcDbEntity
  8
1
  6
CONTINUOUS
 62
     7
100
AcDbLine
 10
66.58510441567913
 20
178.723626088752
 30
0.0
 11
66.57280532949655
 21
178.6928203516597
 31
0.0
  0
LINE
  5
2A2
330
1F
100
AcDbEntity
  8
1
  6
CONTINUOUS
 62
     7
100
AcDbLine
 10
68.84570536073919
 20
187.008041364128
 30
0.0
 11
68.86719719487132
 21
186.9940977558561
 31
0.0
  0
LINE
  5
2A3
330
1F
100
AcDbEntity
  8
1
  6
CONTINUOUS
 62
     7
100
AcDbLine
 10
66.59656847507497
 20
179.2544771108167
 30
0.0
 11
66.60622139673893
 21
179.222718595632
 31
0.0
  0
LINE
  5
2A4
330
1F
100
AcDbEntity
  8
1
  6
CONTINUOUS
 62
     7
100
AcDbLine
 10
69.05357212857766
 20
186.9184647557592
 30
0.0
 11
69.07871209294413
 21
186.9134895937769
 31
0.0
  0
LINE
  5
2A5
330
1F
100
AcDbEntity
  8
1
  6
CONTINUOUS
 62
     7
100
AcDbLine
 10
69.10404124678388
 20
186.9095902691656
 30
0.0
 11
69.12949053843833
 21
186.9067787419644
 31
0.0
  0
LINE
  5
2A6
330
1F
100
AcDbEntity
  8
1
  6
CONTINUOUS
 62
     7
100
AcDbLine
 10
58.0185990482459
 20
180.0114043124204
 30
0.0
 11
58.15143767645088
 21
179.9493852298568
 31
0.0
  0
LINE
  5
2A7
330
1F
100
AcDbEntity
  8
1
  6
CONTINUOUS
 62
     7
100
AcDbLine
 10
66.49136335505133
 20
178.5457585447386
 30
0.0
 11
66.47104066008927
 21
178.5180287722329
 31
0.0
  0
LINE
  5
2A8
330
1F
100
AcDbEntity
  8
1
  6
CONTINUOUS
 62
     7
100
AcDbLine
 10
66.47104066008927
 20
178.5180287722329
 30
0.0
 11
66.44950435974633
 21
178.491148962291
 31
0.0
  0
LINE
  5
2A9
330
1F
100
AcDbEntity
  8
1
  6
CONTINUOUS
 62
     7
100
AcDbLine
 10
66.60622139673893
 20
179.222718595632
 30
0.0
 11
66.61456565812873
 21
179.1905325529475
 31
0.0
  0
LINE
  5
2AA
330
1F
100
AcDbEntity
  8
1
  6
CONTINUOUS
 62
     7
100
AcDbLine
 10
57.51715664781777
 20
179.9804253028873
 30
0.0
 11
57.48328856575647
 21
179.9760573000663
 31
0.0
  0
LINE
  5
2AB
330
1F
100
AcDbEntity
  8
1
  6
CONTINUOUS
 62
     7
100
AcDbLine
 10
57.31407544714782
 20
179.9758377577452
 30
0.0
 11
57.28091384432379
 21
179.9800130514341
 31
0.0
  0
LINE
  5
2AC
330
1F
100
AcDbEntity
  8
1
  6
CONTINUOUS
 62
     7
100
AcDbLine
 10
57.24789784489148
 20
179.9855779116032
 30
0.0
 11
57.21449202259993
 21
179.9926692456822
 31
0.0
  0
LINE
  5
2AD
330
1F
100
AcDbEntity
  8
1
  6
CONTINUOUS
 62
     7
100
AcDbLine
 10
68.14251417724897
 20
180.1809021569316
 30
0.0
 11
68.11669688873616
 21
180.1583186811741
 31
0.0
  0
LINE
  5
2AE
330
1F
100
AcDbEntity
  8
1
  6
CONTINUOUS
 62
     7
100
AcDbLine
 10
68.06321213870977
 20
180.1172300778571
 30
0.0
 11
68.03570413275479
 21
180.0987248982902
 31
0.0
  0
LINE
  5
2AF
330
1F
100
AcDbEntity
  8
1
  6
CONTINUOUS
 62
     7
100
AcDbLine
 10
67.97815223225443
 20
180.0650209171305
 30
0.0
 11
67.94774756110007
 21
180.049696917877
 31
0.0
  0
LINE
  5
2B0
330
1F
100
AcDbEntity
  8
1
  6
CONTINUOUS
 62
     7
100
AcDbLine
 10
67.9166620490279
 20
180.0356551939879
 30
0.0
 11
67.88483115394567
 21
180.0228837923813
 31
0.0
  0
LINE
  5
2B1
330
1F
100
AcDbEntity
  8
1
  6
CONTINUOUS
 62
     7
100
AcDbLine
 10
67.85242273776674
 20
180.0114670961321
 30
0.0
 11
67.8207398072045
 21
180.0017851868766
 31
0.0
  0
LINE
  5
2B2
330
1F
100
AcDbEntity
  8
1
  6
CONTINUOUS
 62
     7
100
AcDbLine
 10
57.28091384432379
 20
179.9800130514341
 30
0.0
 11
57.24789784489148
 21
179.9855779116032
 31
0.0
  0
LINE
  5
2B3
330
1F
100
AcDbEntity
  8
1
  6
CONTINUOUS
 62
     7
100
AcDbLine
 10
57.21449202259993
 20
179.9926692456822
 30
0.0
 11
57.18135873203421
 21
180.0011941322672
 31
0.0
  0
LINE
  5
2B4
330
1F
100
AcDbEntity
  8
1
  6
CONTINUOUS
 62
     7
100
AcDbLine
 10
68.11669688873616
 20
180.1583186811741
 30
0.0
 11
68.08988480893004
 21
180.1368243966255
 31
0.0
  0
LINE
  5
2B5
330
1F
100
AcDbEntity
  8
1
  6
CONTINUOUS
 62
     7
100
AcDbLine
 10
57.41483561212924
 20
179.9716559622866
 30
0.0
 11
57.38037281011388
 21
179.9716576515224
 31
0.0
  0
LINE
  5
2B6
330
1F
100
AcDbEntity
  8
1
  6
CONTINUOUS
 62
     7
100
AcDbLine
 10
68.21295536842331
 20
180.2539611681997
 30
0.0
 11
68.19082895371488
 21
180.228962515168
 31
0.0
  0
LINE
  5
2B7
330
1F
100
AcDbEntity
  8
1
  6
CONTINUOUS
 62
     7
100
AcDbLine
 10
67.75602853207296
 20
179.9863345052084
 30
0.0
 11
67.7231051916768
 21
179.9806148392589
 31
0.0
  0
LINE
  5
2B8
330
1F
100
AcDbEntity
  8
1
  6
CONTINUOUS
 62
     7
100
AcDbLine
 10
67.7231051916768
 20
179.9806148392589
 30
0.0
 11
67.68931132075993
 21
179.9761999090402
 31
0.0
  0
LINE
  5
2B9
330
1F
100
AcDbEntity
  8
1
  6
CONTINUOUS
 62
     7
100
AcDbLine
 10
56.99562049494053
 20
180.0795830757625
 30
0.0
 11
56.96647060837119
 21
180.0973314175163
 31
0.0
  0
LINE
  5
2BA
330
1F
100
AcDbEntity
  8
1
  6
CONTINUOUS
 62
     7
100
AcDbLine
 10
56.74430717438862
 20
180.3090256154087
 30
0.0
 11
56.72750555150223
 21
180.3337048276682
 31
0.0
  0
LINE
  5
2BB
330
1F
100
AcDbEntity
  8
1
  6
CONTINUOUS
 62
     7
100
AcDbLine
 10
68.27249444849777
 20
180.3337048276682
 30
0.0
 11
68.25381378434763
 21
180.3063844595156
 31
0.0
  0
LINE
  5
2BC
330
1F
100
AcDbEntity
  8
1
  6
CONTINUOUS
 62
     7
100
AcDbLine
 10
67.62100241850372
 20
179.9716884532722
 30
0.0
 11
67.58660885490714
 21
179.9716262935619
 31
0.0
  0
LINE
  5
2BD
330
1F
100
AcDbEntity
  8
1
  6
CONTINUOUS
 62
     7
100
AcDbLine
 10
67.55734159161692
 20
179.9727360778407
 30
0.0
 11
67.52813432606943
 21
179.9749132370551
 31
0.0
  0
LINE
  5
2BE
330
1F
100
AcDbEntity
  8
1
  6
CONTINUOUS
 62
     7
100
AcDbLine
 10
67.8207398072045
 20
180.0017851868766
 30
0.0
 11
67.78862846154898
 21
179.9934080578105
 31
0.0
  0
LINE
  5
2BF
330
1F
100
AcDbEntity
  8
1
  6
CONTINUOUS
 62
     7
100
AcDbLine
 10
68.25381378434763
 20
180.3063844595156
 30
0.0
 11
68.23398290584548
 21
180.2798160903248
 31
0.0
  0
LINE
  5
2C0
330
1F
100
AcDbEntity
  8
1
  6
CONTINUOUS
 62
     7
100
AcDbLine
 10
67.52813432606943
 20
179.9749132370551
 30
0.0
 11
67.49886968348366
 21
179.9781758277712
 31
0.0
  0
LINE
  5
2C1
330
1F
100
AcDbEntity
  8
1
  6
CONTINUOUS
 62
     7
100
AcDbLine
 10
67.65529869426841
 20
179.9732210718327
 30
0.0
 11
67.62100241850372
 21
179.9716884532722
 31
0.0
  0
LINE
  5
2C2
330
1F
100
AcDbEntity
  8
1
  6
CONTINUOUS
 62
     7
100
AcDbLine
 10
67.4697444325063
 20
179.9825098334995
 30
0.0
 11
67.44031649559071
 21
179.9880092255967
 31
0.0
  0
LINE
  5
2C3
330
1F
100
AcDbEntity
  8
1
  6
CONTINUOUS
 62
     7
100
AcDbLine
 10
68.03570413275479
 20
180.0987248982902
 30
0.0
 11
68.00730441329029
 21
180.0812878224882
 31
0.0
  0
LINE
  5
2C4
330
1F
100
AcDbEntity
  8
1
  6
CONTINUOUS
 62
     7
100
AcDbLine
 10
68.19082895371488
 20
180.228962515168
 30
0.0
 11
68.16720580434387
 21
180.2044392051446
 31
0.0
  0
LINE
  5
2C5
330
1F
100
AcDbEntity
  8
1
  6
CONTINUOUS
 62
     7
100
AcDbLine
 10
57.38037281011388
 20
179.9716576515224
 30
0.0
 11
57.34720929613014
 21
179.9730590863822
 31
0.0
  0
LINE
  5
2C6
330
1F
100
AcDbEntity
  8
1
  6
CONTINUOUS
 62
     7
100
AcDbLine
 10
57.18135873203421
 20
180.0011941322672
 30
0.0
 11
57.14843978865512
 21
180.0111844330464
 31
0.0
  0
LINE
  5
2C7
330
1F
100
AcDbEntity
  8
1
  6
CONTINUOUS
 62
     7
100
AcDbLine
 10
67.78862846154898
 20
179.9934080578105
 30
0.0
 11
67.75602853207296
 21
179.9863345052084
 31
0.0
  0
LINE
  5
2C8
330
1F
100
AcDbEntity
  8
1
  6
CONTINUOUS
 62
     7
100
AcDbLine
 10
67.49886968348366
 20
179.9781758277712
 30
0.0
 11
67.4697444325063
 21
179.9825098334995
 31
0.0
  0
LINE
  5
2C9
330
1F
100
AcDbEntity
  8
1
  6
CONTINUOUS
 62
     7
100
AcDbLine
 10
56.91032319036467
 20
180.1366649217789
 30
0.0
 11
56.88344338042285
 21
180.1582012221219
 31
0.0
  0
LINE
  5
2CA
330
1F
100
AcDbEntity
  8
1
  6
CONTINUOUS
 62
     7
100
AcDbLine
 10
57.44920331226631
 20
179.973130642764
 30
0.0
 11
57.41483561212924
 21
179.9716559622866
 31
0.0
  0
LINE
  5
2CB
330
1F
100
AcDbEntity
  8
1
  6
CONTINUOUS
 62
     7
100
AcDbLine
 10
67.88483115394567
 20
180.0228837923813
 30
0.0
 11
67.85242273776674
 21
180.0114670961321
 31
0.0
  0
LINE
  5
2CC
330
1F
100
AcDbEntity
  8
1
  6
CONTINUOUS
 62
     7
100
AcDbLine
 10
67.44031649559071
 20
179.9880092255967
 30
0.0
 11
67.41111412654959
 21
179.9946022869306
 31
0.0
  0
LINE
  5
2CD
330
1F
100
AcDbEntity
  8
1
  6
CONTINUOUS
 62
     7
100
AcDbLine
 10
67.94774756110007
 20
180.049696917877
 30
0.0
 11
67.9166620490279
 21
180.0356551939879
 31
0.0
  0
LINE
  5
2CE
330
1F
100
AcDbEntity
  8
1
  6
CONTINUOUS
 62
     7
100
AcDbLine
 10
67.58660885490714
 20
179.9716262935619
 30
0.0
 11
67.55734159161692
 21
179.9727360778407
 31
0.0
  0
LINE
  5
2CF
330
1F
100
AcDbEntity
  8
1
  6
CONTINUOUS
 62
     7
100
AcDbLine
 10
67.41111412654959
 20
179.9946022869306
 30
0.0
 11
67.3820162222363
 21
180.002326799266
 31
0.0
  0
LINE
  5
2D0
330
1F
100
AcDbEntity
  8
1
  6
CONTINUOUS
 62
     7
100
AcDbLine
 10
57.05479317510981
 20
180.0484889054765
 30
0.0
 11
57.02490796408445
 21
180.0634045359376
 31
0.0
  0
LINE
  5
2D1
330
1F
100
AcDbEntity
  8
1
  6
CONTINUOUS
 62
     7
100
AcDbLine
 10
67.68931132075993
 20
179.9761999090402
 30
0.0
 11
67.65529869426841
 21
179.9732210718327
 31
0.0
  0
LINE
  5
2D2
330
1F
100
AcDbEntity
  8
1
  6
CONTINUOUS
 62
     7
100
AcDbLine
 10
68.08988480893004
 20
180.1368243966255
 30
0.0
 11
68.06321213870977
 21
180.1172300778571
 31
0.0
  0
LINE
  5
2D3
330
1F
100
AcDbEntity
  8
1
  6
CONTINUOUS
 62
     7
100
AcDbLine
 10
56.81968170995794
 20
180.2177928433348
 30
0.0
 11
56.79985142837383
 21
180.2392364539914
 31
0.0
  0
LINE
  5
2D4
330
1F
100
AcDbEntity
  8
1
  6
CONTINUOUS
 62
     7
100
AcDbLine
 10
56.93805296287042
 20
180.1163422268169
 30
0.0
 11
56.91032319036467
 21
180.1366649217789
 31
0.0
  0
LINE
  5
2D5
330
1F
100
AcDbEntity
  8
1
  6
CONTINUOUS
 62
     7
100
AcDbLine
 10
56.86150945245436
 20
180.1772524787375
 30
0.0
 11
56.84028176969107
 21
180.1970876232203
 31
0.0
  0
LINE
  5
2D6
330
1F
100
AcDbEntity
  8
1
  6
CONTINUOUS
 62
     7
100
AcDbLine
 10
57.55015293872952
 20
179.9861034625557
 30
0.0
 11
57.51715664781777
 21
179.9804253028873
 31
0.0
  0
LINE
  5
2D7
330
1F
100
AcDbEntity
  8
1
  6
CONTINUOUS
 62
     7
100
AcDbLine
 10
57.11592050688382
 20
180.0226011661891
 30
0.0
 11
57.08511476979152
 21
180.0349002523716
 31
0.0
  0
LINE
  5
2D8
330
1F
100
AcDbEntity
  8
1
  6
CONTINUOUS
 62
     7
100
AcDbLine
 10
57.34720929613014
 20
179.9730590863822
 30
0.0
 11
57.31407544714782
 21
179.9758377577452
 31
0.0
  0
LINE
  5
2D9
330
1F
100
AcDbEntity
  8
1
  6
CONTINUOUS
 62
     7
100
AcDbLine
 10
56.96647060837119
 20
180.0973314175163
 30
0.0
 11
56.93805296287042
 21
180.1163422268169
 31
0.0
  0
LINE
  5
2DA
330
1F
100
AcDbEntity
  8
1
  6
CONTINUOUS
 62
     7
100
AcDbLine
 10
56.84028176969107
 20
180.1970876232203
 30
0.0
 11
56.81968170995794
 21
180.2177928433348
 31
0.0
  0
LINE
  5
2DB
330
1F
100
AcDbEntity
  8
1
  6
CONTINUOUS
 62
     7
100
AcDbLine
 10
56.79985142837383
 20
180.2392364539914
 30
0.0
 11
56.78051020203061
 21
180.2617624568981
 31
0.0
  0
LINE
  5
2DC
330
1F
100
AcDbEntity
  8
1
  6
CONTINUOUS
 62
     7
100
AcDbLine
 10
56.76201861543549
 20
180.2849909949163
 30
0.0
 11
56.74430717438862
 21
180.3090256154087
 31
0.0
  0
LINE
  5
2DD
330
1F
100
AcDbEntity
  8
1
  6
CONTINUOUS
 62
     7
100
AcDbLine
 10
57.14843978865512
 20
180.0111844330464
 30
0.0
 11
57.11592050688382
 21
180.0226011661891
 31
0.0
  0
LINE
  5
2DE
330
1F
100
AcDbEntity
  8
1
  6
CONTINUOUS
 62
     7
100
AcDbLine
 10
56.88344338042285
 20
180.1582012221219
 30
0.0
 11
56.86150945245436
 21
180.1772524787375
 31
0.0
  0
LINE
  5
2DF
330
1F
100
AcDbEntity
  8
1
  6
CONTINUOUS
 62
     7
100
AcDbLine
 10
57.08511476979152
 20
180.0349002523716
 30
0.0
 11
57.05479317510981
 21
180.0484889054765
 31
0.0
  0
LINE
  5
2E0
330
1F
100
AcDbEntity
  8
1
  6
CONTINUOUS
 62
     7
100
AcDbLine
 10
56.78051020203061
 20
180.2617624568981
 30
0.0
 11
56.76201861543549
 21
180.2849909949163
 31
0.0
  0
LINE
  5
2E1
330
1F
100
AcDbEntity
  8
1
  6
CONTINUOUS
 62
     7
100
AcDbLine
 10
68.23398290584548
 20
180.2798160903248
 30
0.0
 11
68.21295536842331
 21
180.2539611681997
 31
0.0
  0
LINE
  5
2E2
330
1F
100
AcDbEntity
  8
1
  6
CONTINUOUS
 62
     7
100
AcDbLine
 10
68.16720580434387
 20
180.2044392051446
 30
0.0
 11
68.14251417724897
 21
180.1809021569316
 31
0.0
  0
LINE
  5
2E3
330
1F
100
AcDbEntity
  8
1
  6
CONTINUOUS
 62
     7
100
AcDbLine
 10
68.00730441329029
 20
180.0812878224882
 30
0.0
 11
67.97815223225443
 21
180.0650209171305
 31
0.0
  0
LINE
  5
2E4
330
1F
100
AcDbEntity
  8
1
  6
CONTINUOUS
 62
     7
100
AcDbLine
 10
57.48328856575647
 20
179.9760573000663
 30
0.0
 11
57.44920331226631
 21
179.973130642764
 31
0.0
  0
LINE
  5
2E5
330
1F
100
AcDbEntity
  8
1
  6
CONTINUOUS
 62
     7
100
AcDbLine
 10
57.02490796408445
 20
180.0634045359376
 30
0.0
 11
56.99562049494053
 21
180.0795830757625
 31
0.0
  0
LINE
  5
2E6
330
1F
100
AcDbEntity
  8
1
  6
CONTINUOUS
 62
     7
100
AcDbLine
 10
63.0076713655039
 20
190.38790910808
 30
0.0
 11
62.91846843917779
 21
190.2777239945739
 31
0.0
  0
LINE
  5
2E7
330
1F
100
AcDbEntity
  8
1
  6
CONTINUOUS
 62
     7
100
AcDbLine
 10
99.01711534386337
 20
186.7633297106574
 30
0.0
 11
98.63640659604928
 21
186.8688198850921
 31
0.0
  0
LINE
  5
2E8
330
1F
100
AcDbEntity
  8
1
  6
CONTINUOUS
 62
   253
100
AcDbLine
 10
56.92364260415031
 20
186.3754146860864
 30
0.0
 11
56.9128398489604
 21
186.3530549758096
 31
0.0
  0
LINE
  5
2E9
330
1F
100
AcDbEntity
  8
1
  6
CONTINUOUS
 62
     7
100
AcDbLine
 10
99.92421064953788
 20
186.0791489785744
 30
0.0
 11
99.67329795310916
 21
186.36096390471
 31
0.0
  0
LINE
  5
2EA
330
1F
100
AcDbEntity
  8
1
  6
CONTINUOUS
 62
     7
100
AcDbLine
 10
68.7891135726533
 20
181.1637453576239
 30
0.0
 11
68.77067661769037
 21
181.1470041141473
 31
0.0
  0
LINE
  5
2EB
330
1F
100
AcDbEntity
  8
1
  6
CONTINUOUS
 62
     7
100
AcDbLine
 10
98.63640659604928
 20
186.8688198850921
 30
0.0
 11
98.23923647025555
 21
186.9044275460074
 31
0.0
  0
LINE
  5
2EC
330
1F
100
AcDbEntity
  8
1
  6
CONTINUOUS
 62
     7
100
AcDbLine
 10
68.77067661769037
 20
181.1470041141473
 30
0.0
 11
68.75294924861922
 21
181.1295132223183
 31
0.0
  0
LINE
  5
2ED
330
1F
100
AcDbEntity
  8
1
  6
CONTINUOUS
 62
   253
100
AcDbLine
 10
56.69217931580525
 20
186.114472738346
 30
0.0
 11
56.6699302180272
 21
186.1015338289164
 31
0.0
  0
LINE
  5
2EE
330
1F
100
AcDbEntity
  8
1
  6
CONTINUOUS
 62
   253
100
AcDbLine
 10
56.57915440999585
 20
186.0608259259931
 30
0.0
 11
56.55488904694804
 21
186.052875775456
 31
0.0
  0
LINE
  5
2EF
330
1F
100
AcDbEntity
  8
1
  6
CONTINUOUS
 62
   253
100
AcDbLine
 10
56.55488904694804
 20
186.052875775456
 30
0.0
 11
56.53030796518175
 21
186.0459709858376
 31
0.0
  0
LINE
  5
2F0
330
1F
100
AcDbEntity
  8
1
  6
CONTINUOUS
 62
     7
100
AcDbLine
 10
68.89334982556775
 20
181.2366015327147
 30
0.0
 11
68.87118265689568
 21
181.2237586439145
 31
0.0
  0
LINE
  5
2F1
330
1F
100
AcDbEntity
  8
1
  6
CONTINUOUS
 62
     7
100
AcDbLine
 10
68.8082134216463
 20
181.1796926216751
 30
0.0
 11
68.7891135726533
 21
181.1637453576239
 31
0.0
  0
LINE
  5
2F2
330
1F
100
AcDbEntity
  8
1
  6
CONTINUOUS
 62
     7
100
AcDbLine
 10
68.75294924861922
 20
181.1295132223183
 30
0.0
 11
68.7359781573016
 21
181.11131701321
 31
0.0
  0
LINE
  5
2F3
330
1F
100
AcDbEntity
  8
1
  6
CONTINUOUS
 62
     7
100
AcDbLine
 10
68.70349753277318
 20
181.0717128346733
 30
0.0
 11
68.68854633643306
 21
181.0508985964823
 31
0.0
  0
LINE
  5
2F4
330
1F
100
AcDbEntity
  8
1
  6
CONTINUOUS
 62
     7
100
AcDbLine
 10
67.3820162222363
 20
180.002326799266
 30
0.0
 11
67.35322847105154
 21
180.0111371067932
 31
0.0
  0
LINE
  5
2F5
330
1F
100
AcDbEntity
  8
1
  6
CONTINUOUS
 62
     7
100
AcDbLine
 10
62.63452138814042
 20
190.1229800085154
 30
0.0
 11
62.59077583397253
 21
190.1146122098208
 31
0.0
  0
LINE
  5
2F6
330
1F
100
AcDbEntity
  8
1
  6
CONTINUOUS
 62
     7
100
AcDbLine
 10
100.1104589717424
 20
185.7570092217346
 30
0.0
 11
99.92421064953788
 21
186.0791489785744
 31
0.0
  0
LINE
  5
2F7
330
1F
100
AcDbEntity
  8
1
  6
CONTINUOUS
 62
     7
100
AcDbLine
 10
69.15765327604109
 20
181.3104649338788
 30
0.0
 11
69.13278532977174
 21
181.3089123141492
 31
0.0
  0
LINE
  5
2F8
330
1F
100
AcDbEntity
  8
1
  6
CONTINUOUS
 62
     7
100
AcDbLine
 10
99.67329795310916
 20
186.36096390471
 30
0.0
 11
99.36711264025577
 21
186.5919055601134
 31
0.0
  0
LINE
  5
2F9
330
1F
100
AcDbEntity
  8
1
  6
CONTINUOUS
 62
   253
100
AcDbLine
 10
56.79258276334803
 20
186.1915600509202
 30
0.0
 11
56.77413187445222
 21
186.1747048740605
 31
0.0
  0
LINE
  5
2FA
330
1F
100
AcDbEntity
  8
1
  6
CONTINUOUS
 62
   253
100
AcDbLine
 10
56.75499005964787
 20
186.1586372244743
 30
0.0
 11
56.73474433221207
 21
186.1430579318487
 31
0.0
  0
LINE
  5
2FB
330
1F
100
AcDbEntity
  8
1
  6
CONTINUOUS
 62
   253
100
AcDbLine
 10
56.71384928007275
 20
186.1283603918303
 30
0.0
 11
56.69217931580525
 21
186.114472738346
 31
0.0
  0
LINE
  5
2FC
330
1F
100
AcDbEntity
  8
1
  6
CONTINUOUS
 62
     7
100
AcDbLine
 10
69.008548867082
 20
181.2851777623347
 30
0.0
 11
68.98419851038615
 21
181.27722137733
 31
0.0
  0
LINE
  5
2FD
330
1F
100
AcDbEntity
  8
1
  6
CONTINUOUS
 62
     7
100
AcDbLine
 10
62.91846843917779
 20
190.2777239945739
 30
0.0
 11
62.77230659679121
 21
190.1730569894788
 31
0.0
  0
LINE
  5
2FE
330
1F
100
AcDbEntity
  8
1
  6
CONTINUOUS
 62
   253
100
AcDbLine
 10
56.87439210982876
 20
186.2880303514179
 30
0.0
 11
56.85956612982854
 21
186.2672009389625
 31
0.0
  0
LINE
  5
2FF
330
1F
100
AcDbEntity
  8
1
  6
CONTINUOUS
 62
   253
100
AcDbLine
 10
56.9128398489604
 20
186.3530549758096
 30
0.0
 11
56.90103222299843
 21
186.3310087192579
 31
0.0
  0
LINE
  5
300
330
1F
100
AcDbEntity
  8
1
  6
CONTINUOUS
 62
     7
100
AcDbLine
 10
69.18254273588532
 20
181.3109836177291
 30
0.0
 11
69.15765327604109
 21
181.3104649338788
 31
0.0
  0
LINE
  5
301
330
1F
100
AcDbEntity
  8
1
  6
CONTINUOUS
 62
   253
100
AcDbLine
 10
56.53030796518175
 20
186.0459709858376
 30
0.0
 11
56.5052702455918
 21
186.0400848237874
 31
0.0
  0
LINE
  5
302
330
1F
100
AcDbEntity
  8
1
  6
CONTINUOUS
 62
     7
100
AcDbLine
 10
68.7359781573016
 20
181.11131701321
 30
0.0
 11
68.71932212141304
 21
181.09187102051
 31
0.0
  0
LINE
  5
303
330
1F
100
AcDbEntity
  8
1
  6
CONTINUOUS
 62
   253
100
AcDbLine
 10
56.5052702455918
 20
186.0400848237874
 30
0.0
 11
56.48000508072063
 21
186.0352816688421
 31
0.0
  0
LINE
  5
304
330
1F
100
AcDbEntity
  8
1
  6
CONTINUOUS
 62
     7
100
AcDbLine
 10
69.03323970449127
 20
181.2920922026429
 30
0.0
 11
69.008548867082
 21
181.2851777623347
 31
0.0
  0
LINE
  5
305
330
1F
100
AcDbEntity
  8
1
  6
CONTINUOUS
 62
     7
100
AcDbLine
 10
68.84956524101592
 20
181.2099668041509
 30
0.0
 11
68.82855601643172
 21
181.1952651009093
 31
0.0
  0
LINE
  5
306
330
1F
100
AcDbEntity
  8
1
  6
CONTINUOUS
 62
     7
100
AcDbLine
 10
68.96088305131174
 20
181.268494707741
 30
0.0
 11
68.93793051001714
 21
181.2587983290398
 31
0.0
  0
LINE
  5
307
330
1F
100
AcDbEntity
  8
1
  6
CONTINUOUS
 62
     7
100
AcDbLine
 10
68.68854633643306
 20
181.0508985964823
 30
0.0
 11
68.67451047744375
 21
181.0294844467191
 31
0.0
  0
LINE
  5
308
330
1F
100
AcDbEntity
  8
1
  6
CONTINUOUS
 62
   253
100
AcDbLine
 10
56.88831243277571
 20
186.3094724799929
 30
0.0
 11
56.87439210982876
 21
186.2880303514179
 31
0.0
  0
LINE
  5
309
330
1F
100
AcDbEntity
  8
1
  6
CONTINUOUS
 62
   253
100
AcDbLine
 10
56.84373960647299
 20
186.2468756224233
 30
0.0
 11
56.82704964075359
 21
186.2272503039366
 31
0.0
  0
LINE
  5
30A
330
1F
100
AcDbEntity
  8
1
  6
CONTINUOUS
 62
     7
100
AcDbLine
 10
68.67451047744375
 20
181.0294844467191
 30
0.0
 11
68.6609334593816
 21
181.0066584571028
 31
0.0
  0
LINE
  5
30B
330
1F
100
AcDbEntity
  8
1
  6
CONTINUOUS
 62
     7
100
AcDbLine
 10
63.03503941420761
 20
190.4361676927169
 30
0.0
 11
63.0076713655039
 21
190.38790910808
 31
0.0
  0
LINE
  5
30C
330
1F
100
AcDbEntity
  8
1
  6
CONTINUOUS
 62
   253
100
AcDbLine
 10
56.73474433221207
 20
186.1430579318487
 30
0.0
 11
56.71384928007275
 21
186.1283603918303
 31
0.0
  0
LINE
  5
30D
330
1F
100
AcDbEntity
  8
1
  6
CONTINUOUS
 62
     7
100
AcDbLine
 10
69.10800305837176
 20
181.3063309062722
 30
0.0
 11
69.08337062313572
 21
181.3027258579796
 31
0.0
  0
LINE
  5
30E
330
1F
100
AcDbEntity
  8
1
  6
CONTINUOUS
 62
     7
100
AcDbLine
 10
69.13278532977174
 20
181.3089123141492
 30
0.0
 11
69.10800305837176
 21
181.3063309062722
 31
0.0
  0
LINE
  5
30F
330
1F
100
AcDbEntity
  8
1
  6
CONTINUOUS
 62
     7
100
AcDbLine
 10
68.93793051001714
 20
181.2587983290398
 30
0.0
 11
68.91539979770243
 21
181.24815851333
 31
0.0
  0
LINE
  5
310
330
1F
100
AcDbEntity
  8
1
  6
CONTINUOUS
 62
     7
100
AcDbLine
 10
68.71932212141304
 20
181.09187102051
 30
0.0
 11
68.70349753277318
 21
181.0717128346733
 31
0.0
  0
LINE
  5
311
330
1F
100
AcDbEntity
  8
1
  6
CONTINUOUS
 62
     7
100
AcDbLine
 10
100.225071574081
 20
185.4066024479918
 30
0.0
 11
100.1104589717424
 21
185.7570092217346
 31
0.0
  0
LINE
  5
312
330
1F
100
AcDbEntity
  8
1
  6
CONTINUOUS
 62
     7
100
AcDbLine
 10
68.98419851038615
 20
181.27722137733
 30
0.0
 11
68.96088305131174
 21
181.268494707741
 31
0.0
  0
LINE
  5
313
330
1F
100
AcDbEntity
  8
1
  6
CONTINUOUS
 62
     7
100
AcDbLine
 10
100.2637584631922
 20
185.0410445163563
 30
0.0
 11
100.225071574081
 21
185.4066024479918
 31
0.0
  0
LINE
  5
314
330
1F
100
AcDbEntity
  8
1
  6
CONTINUOUS
 62
     7
100
AcDbLine
 10
99.36711264025577
 20
186.5919055601134
 30
0.0
 11
99.01711534386337
 21
186.7633297106574
 31
0.0
  0
LINE
  5
315
330
1F
100
AcDbEntity
  8
1
  6
CONTINUOUS
 62
     7
100
AcDbLine
 10
69.05820297303535
 20
181.297947350457
 30
0.0
 11
69.03323970449127
 21
181.2920922026429
 31
0.0
  0
LINE
  5
316
330
1F
100
AcDbEntity
  8
1
  6
CONTINUOUS
 62
   253
100
AcDbLine
 10
56.90103222299843
 20
186.3310087192579
 30
0.0
 11
56.88831243277571
 21
186.3094724799929
 31
0.0
  0
LINE
  5
317
330
1F
100
AcDbEntity
  8
1
  6
CONTINUOUS
 62
   253
100
AcDbLine
 10
56.85956612982854
 20
186.2672009389625
 30
0.0
 11
56.84373960647299
 21
186.2468756224233
 31
0.0
  0
LINE
  5
318
330
1F
100
AcDbEntity
  8
1
  6
CONTINUOUS
 62
     7
100
AcDbLine
 10
68.87118265689568
 20
181.2237586439145
 30
0.0
 11
68.84956524101592
 21
181.2099668041509
 31
0.0
  0
LINE
  5
319
330
1F
100
AcDbEntity
  8
1
  6
CONTINUOUS
 62
   253
100
AcDbLine
 10
56.82704964075359
 20
186.2272503039366
 30
0.0
 11
56.81018795555568
 21
186.2090471889909
 31
0.0
  0
LINE
  5
31A
330
1F
100
AcDbEntity
  8
1
  6
CONTINUOUS
 62
     7
100
AcDbLine
 10
68.91539979770243
 20
181.24815851333
 30
0.0
 11
68.89334982556775
 21
181.2366015327147
 31
0.0
  0
LINE
  5
31B
330
1F
100
AcDbEntity
  8
1
  6
CONTINUOUS
 62
   253
100
AcDbLine
 10
56.81018795555568
 20
186.2090471889909
 30
0.0
 11
56.79258276334803
 21
186.1915600509202
 31
0.0
  0
LINE
  5
31C
330
1F
100
AcDbEntity
  8
1
  6
CONTINUOUS
 62
   253
100
AcDbLine
 10
56.77413187445222
 20
186.1747048740605
 30
0.0
 11
56.75499005964787
 21
186.1586372244743
 31
0.0
  0
LINE
  5
31D
330
1F
100
AcDbEntity
  8
1
  6
CONTINUOUS
 62
     7
100
AcDbLine
 10
69.08337062313572
 20
181.3027258579796
 30
0.0
 11
69.05820297303535
 21
181.297947350457
 31
0.0
  0
LINE
  5
31E
330
1F
100
AcDbEntity
  8
1
  6
CONTINUOUS
 62
     7
100
AcDbLine
 10
68.6609334593816
 20
181.0066584571028
 30
0.0
 11
68.6483799409902
 21
180.9832539576837
 31
0.0
  0
LINE
  5
31F
330
1F
100
AcDbEntity
  8
1
  6
CONTINUOUS
 62
     7
100
AcDbLine
 10
62.77230659679121
 20
190.1730569894788
 30
0.0
 11
62.63452138814042
 21
190.1229800085154
 31
0.0
  0
LINE
  5
320
330
1F
100
AcDbEntity
  8
1
  6
CONTINUOUS
 62
     7
100
AcDbLine
 10
68.82855601643172
 20
181.1952651009093
 30
0.0
 11
68.8082134216463
 21
181.1796926216751
 31
0.0
  0
LINE
  5
321
330
1F
100
AcDbEntity
  8
1
  6
CONTINUOUS
 62
   253
100
AcDbLine
 10
56.6699302180272
 20
186.1015338289164
 30
0.0
 11
56.64797100737188
 21
186.089981537897
 31
0.0
  0
LINE
  5
322
330
1F
100
AcDbEntity
  8
1
  6
CONTINUOUS
 62
   253
100
AcDbLine
 10
56.93350886283374
 20
186.3981996793725
 30
0.0
 11
56.92364260415031
 21
186.3754146860864
 31
0.0
  0
LINE
  5
323
330
1F
100
AcDbEntity
  8
1
  6
CONTINUOUS
 62
   253
100
AcDbLine
 10
56.64797100737188
 20
186.089981537897
 30
0.0
 11
56.62555090592502
 21
186.0793534138261
 31
0.0
  0
LINE
  5
324
330
1F
100
AcDbEntity
  8
1
  6
CONTINUOUS
 62
   253
100
AcDbLine
 10
56.62555090592502
 20
186.0793534138261
 30
0.0
 11
56.60254602734964
 21
186.0696034453455
 31
0.0
  0
LINE
  5
325
330
1F
100
AcDbEntity
  8
1
  6
CONTINUOUS
 62
   253
100
AcDbLine
 10
56.60254602734964
 20
186.0696034453455
 30
0.0
 11
56.57915440999585
 21
186.0608259259931
 31
0.0
  0
LINE
  5
326
330
1F
100
AcDbEntity
  8
1
  6
CONTINUOUS
 62
   253
100
AcDbLine
 10
56.43005436625599
 20
186.0290431565438
 30
0.0
 11
56.40475020694964
 21
186.0274976557526
 31
0.0
  0
LINE
  5
327
330
1F
100
AcDbEntity
  8
1
  6
CONTINUOUS
 62
   253
100
AcDbLine
 10
56.48000508072063
 20
186.0352816688421
 30
0.0
 11
56.45509388261926
 21
186.0316368775418
 31
0.0
  0
LINE
  5
328
330
1F
100
AcDbEntity
  8
0
  6
CENTER
 62
     1
100
AcDbLine
 10
8.000000000000009
 20
184.1672336001743
 30
0.0
 11
117.0
 21
184.1672336001743
 31
0.0
  0
LINE
  5
32A
330
1F
100
AcDbEntity
  8
1
  6
CONTINUOUS
 62
   253
100
AcDbLine
 10
56.40475020694964
 20
186.0274976557526
 30
0.0
 11
56.37940662352434
 21
186.0270233829859
 31
0.0
  0
LINE
  5
32B
330
1F
100
AcDbEntity
  8
1
  6
CONTINUOUS
 62
   253
100
AcDbLine
 10
56.45509388261926
 20
186.0316368775418
 30
0.0
 11
56.43005436625599
 21
186.0290431565438
 31
0.0
  0
LINE
  5
32C
330
1F
100
AcDbEntity
  8
0
  6
CENTER
 62
     1
100
AcDbLine
 10
129.5419384952075
 20
184.1672336001743
 30
0.0
 11
170.0
 21
184.1672336001743
 31
0.0
  0
LINE
  5
32D
330
1F
100
AcDbEntity
  8
0
  6
CENTER
 62
     1
100
AcDbLine
 10
62.5
 20
129.6077055818682
 30
0.0
 11
62.5
 21
238.6077055818682
 31
0.0
  0
POINT
  5
32E
330
1F
100
AcDbEntity
  8
0
 62
     1
100
AcDbPoint
 10
117.0
 20
184.1672336001743
 30
0.0
  0
MTEXT
  5
32F
330
1F
100
AcDbEntity
  8
1
 62
     7
100
AcDbMText
 10
97.61432933183275
 20
117.0624400816973
 30
0.0
 40
5.0
 41
0.0
 71
     1
 72
     1
  1
{\fＭＳ ゴシック;PYC-100-BM}
  0
ENDSEC
  0
SECTION
  2
OBJECTS
  0
DICTIONARY
  5
C
330
0
100
AcDbDictionary
  3
ACAD_GROUP
350
D
  3
ACAD_LAYOUT
350
1A
  3
ACAD_MATERIAL
350
43
  3
ACAD_MLEADERSTYLE
350
6B
  3
ACAD_MLINESTYLE
350
17
  3
ACAD_PLOTSETTINGS
350
19
  3
ACAD_SCALELIST
350
47
  3
ACAD_VISUALSTYLE
350
2A
  3
ACDBHEADERROUNDTRIPXREC
350
330
  3
ACDBVARIABLEDICTIONARY
350
351
  0
DICTIONARY
  5
358
330
8
100
AcDbDictionary
280
     1
  3
ACAD_XREC_ROUNDTRIP
360
359
  0
DICTIONARY
  5
D
102
{ACAD_REACTORS
330
C
102
}
330
C
100
AcDbDictionary
  0
DICTIONARY
  5
1A
102
{ACAD_REACTORS
330
C
102
}
330
C
100
AcDbDictionary
  0
DICTIONARY
  5
43
102
{ACAD_REACTORS
330
C
102
}
330
C
100
AcDbDictionary
  3
BYBLOCK
350
45
  3
BYLAYER
350
44
  3
GLOBAL
350
46
  0
DICTIONARY
  5
6B
102
{ACAD_REACTORS
330
C
102
}
330
C
100
AcDbDictionary
  3
STANDARD
350
6C
  0
DICTIONARY
  5
17
102
{ACAD_REACTORS
330
C
102
}
330
C
100
AcDbDictionary
  3
STANDARD
350
18
  0
DICTIONARY
  5
19
102
{ACAD_REACTORS
330
C
102
}
330
C
100
AcDbDictionary
  0
DICTIONARY
  5
47
102
{ACAD_REACTORS
330
C
102
}
330
C
100
AcDbDictionary
  3
A0
350
48
  3
A1
350
49
  3
A2
350
4A
  3
A3
350
4B
  3
A4
350
4C
  3
A5
350
4D
  3
A6
350
4E
  3
A7
350
4F
  3
A8
350
50
  3
A9
350
51
  3
B0
350
52
  3
B1
350
53
  3
B2
350
54
  3
B3
350
55
  3
B4
350
56
  3
B5
350
57
  3
B6
350
58
  3
B7
350
59
  3
B8
350
5A
  3
B9
350
5B
  3
C0
350
5C
  3
C1
350
5D
  3
C2
350
5E
  3
C3
350
5F
  3
C4
350
60
  3
C5
350
61
  3
C6
350
62
  3
C7
350
63
  3
C8
350
64
  3
C9
350
65
  3
D0
350
66
  3
D1
350
67
  3
D2
350
68
  0
DICTIONARY
  5
2A
102
{ACAD_REACTORS
330
C
102
}
330
C
100
AcDbDictionary
  3
2DWIREFRAME
350
2F
  3
BASIC
350
32
  3
BRIGHTEN
350
36
  3
COLORCHANGE
350
3A
  3
CONCEPTUAL
350
34
  3
DIM
350
35
  3
EDGECOLOROFF
350
3D
  3
FACEPATTERN
350
39
  3
FLAT
350
2B
  3
FLATWITHEDGES
350
2C
  3
GOURAUD
350
2D
  3
GOURAUDWITHEDGES
350
2E
  3
HIDDEN
350
31
  3
JITTEROFF
350
3B
  3
LINEPATTERN
350
38
  3
OVERHANGOFF
350
3C
  3
REALISTIC
350
33
  3
SHADED
350
42
  3
SHADED_WITH_EDGES
350
41
  3
SHADES_OF_GRAY
350
3E
  3
SKETCHY
350
3F
  3
THICKEN
350
37
  3
WIREFRAME
350
30
  3
X-RAY
350
40
  0
DICTIONARY
  5
330
102
{ACAD_REACTORS
330
C
102
}
330
C
100
AcDbDictionary
  3
CEPSNID
350
33A
  3
CEPSNTYPE
350
339
  3
DIMSTYLEDATA
350
350
  3
FINGERPRINTGUID
350
33B
  3
HYPERLINKBASE
350
333
  3
INSUNITS
350
338
  3
LAYOUTDICT
350
335
  3
LWETCUNION
350
337
  3
PLOTSETDICT
350
336
  3
PSVPSCALE
350
33D
  3
PUCSBASE
350
340
  3
PUCSORGBACK
350
346
  3
PUCSORGBOTTOM
350
342
  3
PUCSORGFRONT
350
345
  3
PUCSORGLEFT
350
343
  3
PUCSORGRIGHT
350
344
  3
PUCSORGTOP
350
341
  3
PUCSORTHOREF
350
33E
  3
PUCSORTHOVIEW
350
33F
  3
STYLESHEET
350
334
  3
TSTACKALIGN
350
331
  3
TSTACKSIZE
350
332
  3
UCSBASE
350
349
  3
UCSORGBACK
350
34F
  3
UCSORGBOTTOM
350
34B
  3
UCSORGFRONT
350
34E
  3
UCSORGLEFT
350
34C
  3
UCSORGRIGHT
350
34D
  3
UCSORGTOP
350
34A
  3
UCSORTHOREF
350
347
  3
UCSORTHOVIEW
350
348
  3
VERSIONGUID
350
33C
  0
DICTIONARY
  5
351
102
{ACAD_REACTORS
330
C
102
}
330
C
100
AcDbDictionary
  3
CANNOSCALE
350
35A
  3
CMLEADERSTYLE
350
353
  3
CTABLESTYLE
350
352
  3
DIMASSOC
350
356
  3
HIDETEXT
350
357
  3
MSLTSCALE
350
35B
  0
XRECORD
  5
359
102
{ACAD_REACTORS
330
358
102
}
330
358
100
AcDbXrecord
102
VTR_0.000_0.000_1.000_1.000_VISUALSTYLE
340
2F
102
VTR_0.000_0.000_1.000_1.000_GRIDDISPLAY
 70
     3
102
VTR_0.000_0.000_1.000_1.000_GRIDMAJOR
 70
     5
102
VTR_0.000_0.000_1.000_1.000_DEFAULTLIGHTING
280
     1
102
VTR_0.000_0.000_1.000_1.000_DEFAULTLIGHTINGTYPE
 70
     1
102
VTR_0.000_0.000_1.000_1.000_BRIGHTNESS
141
0.0
102
VTR_0.000_0.000_1.000_1.000_CONTRAST
142
0.0
  0
MATERIAL
  5
45
102
{ACAD_REACTORS
330
43
102
}
102
{ACAD_XDICTIONARY
360
35E
102
}
330
43
100
AcDbMaterial
  1
BYBLOCK
  0
MATERIAL
  5
44
102
{ACAD_REACTORS
330
43
102
}
102
{ACAD_XDICTIONARY
360
35C
102
}
330
43
100
AcDbMaterial
  1
BYLAYER
  0
MATERIAL
  5
46
102
{ACAD_REACTORS
330
43
102
}
102
{ACAD_XDICTIONARY
360
360
102
}
330
43
100
AcDbMaterial
  1
GLOBAL
  0
ACAD_PROXY_OBJECT
  5
6C
102
{ACAD_REACTORS
330
6B
102
}
330
6B
100
AcDbProxyObject
 90
      499
 91
      505
 93
      610
310
40901902A4063FBFFFFFE056BD1B81E855B9FC0AD7A3703D0AD73F4214DD185B99185C9900AD7A3703D0AC73F90141901A02B5E8DC0F42B1CFC02B5E8DC0F42B1CFE5764000000000000300FC0
340
14
340
0
340
11
340
0
 94
        0
1001
ACAD_MLEADERVER
1070
     2
  0
MLINESTYLE
  5
18
102
{ACAD_REACTORS
330
17
102
}
330
17
100
AcDbMlineStyle
  2
Standard
 70
     0
  3

 62
   256
 51
90.0
 52
90.0
 71
     2
 49
0.5
 62
   256
  6
BYLAYER
 49
-0.5
 62
   256
  6
BYLAYER
  0
ACAD_PROXY_OBJECT
  5
48
102
{ACAD_REACTORS
330
47
102
}
330
47
100
AcDbProxyObject
 90
      499
 91
      503
 93
       41
310
903313A31580
  0
ACAD_PROXY_OBJECT
  5
49
102
{ACAD_REACTORS
330
47
102
}
330
47
100
AcDbProxyObject
 90
      499
 91
      503
 93
      105
310
903313A324000000000000004000
  0
ACAD_PROXY_OBJECT
  5
4A
102
{ACAD_REACTORS
330
47
102
}
330
47
100
AcDbProxyObject
 90
      499
 91
      503
 93
      105
310
903313A344000000000000104000
  0
ACAD_PROXY_OBJECT
  5
4B
102
{ACAD_REACTORS
330
47
102
}
330
47
100
AcDbProxyObject
 90
      499
 91
      503
 93
      105
310
903313A354000000000000144000
  0
ACAD_PROXY_OBJECT
  5
4C
102
{ACAD_REACTORS
330
47
102
}
330
47
100
AcDbProxyObject
 90
      499
 91
      503
 93
      105
310
903313A384000000000000204000
  0
ACAD_PROXY_OBJECT
  5
4D
102
{ACAD_REACTORS
330
47
102
}
330
47
100
AcDbProxyObject
 90
      499
 91
      503
 93
      113
310
904313A31304000000000000244000
  0
ACAD_PROXY_OBJECT
  5
4E
102
{ACAD_REACTORS
330
47
102
}
330
47
100
AcDbProxyObject
 90
      499
 91
      503
 93
      113
310
904313A31364000000000000304000
  0
ACAD_PROXY_OBJECT
  5
4F
102
{ACAD_REACTORS
330
47
102
}
330
47
100
AcDbProxyObject
 90
      499
 91
      503
 93
      113
310
904313A32304000000000000344000
  0
ACAD_PROXY_OBJECT
  5
50
102
{ACAD_REACTORS
330
47
102
}
330
47
100
AcDbProxyObject
 90
      499
 91
      503
 93
      113
310
904313A333040000000000003E4000
  0
ACAD_PROXY_OBJECT
  5
51
102
{ACAD_REACTORS
330
47
102
}
330
47
100
AcDbProxyObject
 90
      499
 91
      503
 93
      113
310
904313A34304000000000000444000
  0
ACAD_PROXY_OBJECT
  5
52
102
{ACAD_REACTORS
330
47
102
}
330
47
100
AcDbProxyObject
 90
      499
 91
      503
 93
      113
310
904313A35304000000000000494000
  0
ACAD_PROXY_OBJECT
  5
53
102
{ACAD_REACTORS
330
47
102
}
330
47
100
AcDbProxyObject
 90
      499
 91
      503
 93
      121
310
905313A3130304000000000000594000
  0
ACAD_PROXY_OBJECT
  5
54
102
{ACAD_REACTORS
330
47
102
}
330
47
100
AcDbProxyObject
 90
      499
 91
      503
 93
      105
310
903323A310000000000000010100
  0
ACAD_PROXY_OBJECT
  5
55
102
{ACAD_REACTORS
330
47
102
}
330
47
100
AcDbProxyObject
 90
      499
 91
      503
 93
      105
310
903343A310000000000000410100
  0
ACAD_PROXY_OBJECT
  5
56
102
{ACAD_REACTORS
330
47
102
}
330
47
100
AcDbProxyObject
 90
      499
 91
      503
 93
      105
310
903383A310000000000000810100
  0
ACAD_PROXY_OBJECT
  5
57
102
{ACAD_REACTORS
330
47
102
}
330
47
100
AcDbProxyObject
 90
      499
 91
      503
 93
      113
310
90431303A310000000000000910100
  0
ACAD_PROXY_OBJECT
  5
58
102
{ACAD_REACTORS
330
47
102
}
330
47
100
AcDbProxyObject
 90
      499
 91
      503
 93
      121
310
9053130303A310000000000001650100
  0
ACAD_PROXY_OBJECT
  5
59
102
{ACAD_REACTORS
330
47
102
}
330
47
100
AcDbProxyObject
 90
      499
 91
      503
 93
      257
310
90E312F31323822203D2031272D3022000000000000200FC000000000000284000
  0
ACAD_PROXY_OBJECT
  5
5A
102
{ACAD_REACTORS
330
47
102
}
330
47
100
AcDbProxyObject
 90
      499
 91
      503
 93
      249
310
90D312F363422203D2031272D3022000000000000240FC000000000000284000
  0
ACAD_PROXY_OBJECT
  5
5B
102
{ACAD_REACTORS
330
47
102
}
330
47
100
AcDbProxyObject
 90
      499
 91
      503
 93
      249
310
90D312F333222203D2031272D3022000000000000280FC000000000000284000
  0
ACAD_PROXY_OBJECT
  5
5C
102
{ACAD_REACTORS
330
47
102
}
330
47
100
AcDbProxyObject
 90
      499
 91
      503
 93
      249
310
90D312F313622203D2031272D30220000000000002C0FC000000000000284000
  0
ACAD_PROXY_OBJECT
  5
5D
102
{ACAD_REACTORS
330
47
102
}
330
47
100
AcDbProxyObject
 90
      499
 91
      503
 93
      249
310
90D332F333222203D2031272D30220000000000002E0FC000000000000284000
  0
ACAD_PROXY_OBJECT
  5
5E
102
{ACAD_REACTORS
330
47
102
}
330
47
100
AcDbProxyObject
 90
      499
 91
      503
 93
      241
310
90C312F3822203D2031272D3022000000000000300FC000000000000284000
  0
ACAD_PROXY_OBJECT
  5
5F
102
{ACAD_REACTORS
330
47
102
}
330
47
100
AcDbProxyObject
 90
      499
 91
      503
 93
      249
310
90D332F313622203D2031272D3022000000000000320FC000000000000284000
  0
ACAD_PROXY_OBJECT
  5
60
102
{ACAD_REACTORS
330
47
102
}
330
47
100
AcDbProxyObject
 90
      499
 91
      503
 93
      241
310
90C312F3422203D2031272D3022000000000000340FC000000000000284000
  0
ACAD_PROXY_OBJECT
  5
61
102
{ACAD_REACTORS
330
47
102
}
330
47
100
AcDbProxyObject
 90
      499
 91
      503
 93
      241
310
90C332F3822203D2031272D3022000000000000360FC000000000000284000
  0
ACAD_PROXY_OBJECT
  5
62
102
{ACAD_REACTORS
330
47
102
}
330
47
100
AcDbProxyObject
 90
      499
 91
      503
 93
      241
310
90C312F3222203D2031272D3022000000000000380FC000000000000284000
  0
ACAD_PROXY_OBJECT
  5
63
102
{ACAD_REACTORS
330
47
102
}
330
47
100
AcDbProxyObject
 90
      499
 91
      503
 93
      241
310
90C332F3422203D2031272D30220000000000003A0FC000000000000284000
  0
ACAD_PROXY_OBJECT
  5
64
102
{ACAD_REACTORS
330
47
102
}
330
47
100
AcDbProxyObject
 90
      499
 91
      503
 93
      161
310
90A3122203D2031272D30224000000000000284000
  0
ACAD_PROXY_OBJECT
  5
65
102
{ACAD_REACTORS
330
47
102
}
330
47
100
AcDbProxyObject
 90
      499
 91
      503
 93
      257
310
90E312D312F3222203D2031272D30220000000000003E0FC000000000000284000
  0
ACAD_PROXY_OBJECT
  5
66
102
{ACAD_REACTORS
330
47
102
}
330
47
100
AcDbProxyObject
 90
      499
 91
      503
 93
      225
310
90A3322203D2031272D302200000000000002100000000000000284000
  0
ACAD_PROXY_OBJECT
  5
67
102
{ACAD_REACTORS
330
47
102
}
330
47
100
AcDbProxyObject
 90
      499
 91
      503
 93
      225
310
90A3622203D2031272D302200000000000006100000000000000284000
  0
ACAD_PROXY_OBJECT
  5
68
102
{ACAD_REACTORS
330
47
102
}
330
47
100
AcDbProxyObject
 90
      499
 91
      503
 93
      249
310
90D31272D3022203D2031272D30220000000000000A100000000000000284000
  0
ACAD_PROXY_OBJECT
  5
2F
102
{ACAD_REACTORS
330
2A
102
}
330
2A
100
AcDbProxyObject
 90
      499
 91
      501
 93
      436
310
42CC9915DA5C99599C985B595049028333333333333E33F0000000000000F90107901411070040501600405405064090741402480A0340
1001
ACAD
1000
AcDbSavedByObjectVersion
1070
     0
  0
ACAD_PROXY_OBJECT
  5
32
102
{ACAD_REACTORS
330
2A
102
}
330
2A
100
AcDbProxyObject
 90
      499
 91
      501
 93
      388
310
4150985CDA58D07406404333333333333E33F0000000000000F90107A41107004050150841D405064090741402480A0350
1001
ACAD
1000
AcDbSavedByObjectVersion
1070
     0
  0
ACAD_PROXY_OBJECT
  5
36
102
{ACAD_REACTORS
330
2A
102
}
330
2A
100
AcDbProxyObject
 90
      499
 91
      501
 93
      428
310
42109C9A59DA1D195B90C409028333333333333E33F0000000000000F9010790141107004050150841D405064090741402480A029950
1001
ACAD
1000
AcDbSavedByObjectVersion
1070
     0
  0
ACAD_PROXY_OBJECT
  5
3A
102
{ACAD_REACTORS
330
2A
102
}
330
2A
100
AcDbProxyObject
 90
      499
 91
      501
 93
      452
310
42D0DBDB1BDC90DA185B99D95104090240C333333333333E33F0000000000000F90108901411070040501508421405064090741402480A0350
1001
ACAD
1000
AcDbSavedByObjectVersion
1070
     0
  0
ACAD_PROXY_OBJECT
  5
34
102
{ACAD_REACTORS
330
2A
102
}
330
2A
100
AcDbProxyObject
 90
      499
 91
      501
 93
      500
310
4290DBDB98D95C1D1D585B10940D028333333333333E33F0000000000000F90107902409070040501000000000018199010841D405064090740C02480A0340
1001
ACAD
1000
AcDbSavedByObjectVersion
1070
     0
  0
ACAD_PROXY_OBJECT
  5
35
102
{ACAD_REACTORS
330
2A
102
}
330
2A
100
AcDbProxyObject
 90
      499
 91
      501
 93
      412
310
40D11A5B50B409028333333333333E33F0000000000000F9010790141107004050150841D405064090741402480A02677FFFFFD0
1001
ACAD
1000
AcDbSavedByObjectVersion
1070
     0
  0
ACAD_PROXY_OBJECT
  5
3D
102
{ACAD_REACTORS
330
2A
102
}
330
2A
100
AcDbProxyObject
 90
      499
 91
      501
 93
      452
310
43115919D950DBDB1BDC93D999916409028333333333333E33F0000000000000F9010790141107004050150841D405064090741402480A0350
1001
ACAD
1000
AcDbSavedByObjectVersion
1070
     0
  0
ACAD_PROXY_OBJECT
  5
39
102
{ACAD_REACTORS
330
2A
102
}
330
2A
100
AcDbProxyObject
 90
      499
 91
      501
 93
      444
310
42D19858D95C185D1D195C9B90F409028333333333333E33F0000000000000F9010790141107004050150841D405064090741402480A0350
1001
ACAD
1000
AcDbSavedByObjectVersion
1070
     0
  0
ACAD_PROXY_OBJECT
  5
2B
102
{ACAD_REACTORS
330
2A
102
}
330
2A
100
AcDbProxyObject
 90
      499
 91
      501
 93
      380
310
41119B185D240901404333333333333E33F0000000000000F9010740A907004050150841D405064090741402480A1B50
1001
ACAD
1000
AcDbSavedByObjectVersion
1070
     0
  0
ACAD_PROXY_OBJECT
  5
2C
102
{ACAD_REACTORS
330
2A
102
}
330
2A
100
AcDbProxyObject
 90
      499
 91
      501
 93
      468
310
43519B185D15DA5D1A115919D95CD0140901404333333333333E33F0000000000000F90107409019070040501600405405064090741402480A1B50
1001
ACAD
1000
AcDbSavedByObjectVersion
1070
     0
  0
ACAD_PROXY_OBJECT
  5
2D
102
{ACAD_REACTORS
330
2A
102
}
330
2A
100
AcDbProxyObject
 90
      499
 91
      501
 93
      404
310
41D1DBDD5C985D5910240902404333333333333E33F0000000000000F9010740A9070040501641D405064090741402480A1B50
1001
ACAD
1000
AcDbSavedByObjectVersion
1070
     0
  0
ACAD_PROXY_OBJECT
  5
2E
102
{ACAD_REACTORS
330
2A
102
}
330
2A
100
AcDbProxyObject
 90
      499
 91
      501
 93
      492
310
4411DBDD5C985D5915DA5D1A115919D95CD0340902404333333333333E33F0000000000000F90107409019070040501600405405064090741402480A1B50
1001
ACAD
1000
AcDbSavedByObjectVersion
1070
     0
  0
ACAD_PROXY_OBJECT
  5
31
102
{ACAD_REACTORS
330
2A
102
}
330
2A
100
AcDbProxyObject
 90
      499
 91
      501
 93
      476
310
41921A5919195B90640502408333333333333E33F0000000000000F901079024090700405020000000000001110200405405064090740C02480A0340
1001
ACAD
1000
AcDbSavedByObjectVersion
1070
     0
  0
ACAD_PROXY_OBJECT
  5
3B
102
{ACAD_REACTORS
330
2A
102
}
330
2A
100
AcDbProxyObject
 90
      499
 91
      501
 93
      428
310
42529A5D1D195C93D999914409028333333333333E33F0000000000000F9010790141107004050150A41D405064090741402480A0350
1001
ACAD
1000
AcDbSavedByObjectVersion
1070
     0
  0
ACAD_PROXY_OBJECT
  5
38
102
{ACAD_REACTORS
330
2A
102
}
330
2A
100
AcDbProxyObject
 90
      499
 91
      501
 93
      444
310
42D31A5B995C185D1D195C9B90E409028333333333333E33F0000000000000F9010790141107004050750841D405064090741402483A0350
1001
ACAD
1000
AcDbSavedByObjectVersion
1070
     0
  0
ACAD_PROXY_OBJECT
  5
3C
102
{ACAD_REACTORS
330
2A
102
}
330
2A
100
AcDbProxyObject
 90
      499
 91
      501
 93
      444
310
42D3DD995C9A185B99D3D999915409028333333333333E33F0000000000000F9010790141107004050150941D405064090741402480A0350
1001
ACAD
1000
AcDbSavedByObjectVersion
1070
     0
  0
ACAD_PROXY_OBJECT
  5
33
102
{ACAD_REACTORS
330
2A
102
}
330
2A
100
AcDbProxyObject
 90
      499
 91
      501
 93
      428
310
425499585B1A5CDD1A58D08409038333333333333E33F0000000000000F9010740A907004050150800405405064090740C02480A1B40
1001
ACAD
1000
AcDbSavedByObjectVersion
1070
     0
  0
ACAD_PROXY_OBJECT
  5
42
102
{ACAD_REACTORS
330
2A
102
}
330
2A
100
AcDbProxyObject
 90
      499
 91
      501
 93
      420
310
4194DA1859195911B40902404333333333333E33F0000000000000F9010740A41107004050150800405405064090840C02480A0B40
1001
ACAD
1000
AcDbSavedByObjectVersion
1070
     0
  0
ACAD_PROXY_OBJECT
  5
41
102
{ACAD_REACTORS
330
2A
102
}
330
2A
100
AcDbProxyObject
 90
      499
 91
      501
 93
      516
310
4454DA18591959081DDA5D1A08195919D95CD1A40902404333333333333E33F0000000000000F901074090142907004050250800405405064090740C02480A0B40
1001
ACAD
1000
AcDbSavedByObjectVersion
1070
     0
  0
ACAD_PROXY_OBJECT
  5
3E
102
{ACAD_REACTORS
330
2A
102
}
330
2A
100
AcDbProxyObject
 90
      499
 91
      501
 93
      532
310
4394DA1859195CC81BD98811DC985E5174090240C333333333333E33F0000000000000F901079024090741D01000000000000111010841D405064090740C02480A0340
1001
ACAD
1000
AcDbSavedByObjectVersion
1070
     0
  0
ACAD_PROXY_OBJECT
  5
3F
102
{ACAD_REACTORS
330
2A
102
}
330
2A
100
AcDbProxyObject
 90
      499
 91
      501
 93
      476
310
41D4DAD95D18DA1E51840502408333333333333E33F0000000000000F901079024090741D01000000000000111010B41D405064090741802480A0340
1001
ACAD
1000
AcDbSavedByObjectVersion
1070
     0
  0
ACAD_PROXY_OBJECT
  5
37
102
{ACAD_REACTORS
330
2A
102
}
330
2A
100
AcDbProxyObject
 90
      499
 91
      501
 93
      412
310
41D51A1A58DAD95B90D409028333333333333E33F0000000000000F9010790141107004050150C41D405064090741402480A0350
1001
ACAD
1000
AcDbSavedByObjectVersion
1070
     0
  0
ACAD_PROXY_OBJECT
  5
30
102
{ACAD_REACTORS
330
2A
102
}
330
2A
100
AcDbProxyObject
 90
      499
 91
      501
 93
      420
310
4255DA5C99599C985B595059028333333333333E33F0000000000000F90107901411070040501600405405064090740C02480A0340
1001
ACAD
1000
AcDbSavedByObjectVersion
1070
     0
  0
ACAD_PROXY_OBJECT
  5
40
102
{ACAD_REACTORS
330
2A
102
}
330
2A
100
AcDbProxyObject
 90
      499
 91
      501
 93
      404
310
41560B54985E51940902404000000000000E03F0000000000000F9010740501907004050150841D405064090740C02480A1B40
1001
ACAD
1000
AcDbSavedByObjectVersion
1070
     0
  0
XRECORD
  5
33A
102
{ACAD_REACTORS
330
330
102
}
330
330
100
AcDbXrecord
340
0
  0
XRECORD
  5
339
102
{ACAD_REACTORS
330
330
102
}
330
330
100
AcDbXrecord
 90
        0
  0
XRECORD
  5
350
102
{ACAD_REACTORS
330
330
102
}
330
330
100
AcDbXrecord
1000
DSTYLE
1002
{
1070
   179
 70
     2
1070
   171
 70
     2
1070
   143
 40
25.4
1070
   274
 70
     2
1070
    41
 40
3.0
1070
   141
 40
0.09
1070
    43
 40
0.38
1070
   278
 70
    46
1070
    44
 40
1.5
1070
    42
 40
0.0625
1070
   147
 40
1.5
1070
   272
 70
     4
1070
    73
 70
     1
1070
   172
 70
     0
1070
    74
 70
     1
1070
   283
 70
     1
1070
   340
340
6F
1070
   140
 40
3.0
1070
   284
 70
     0
1070
    78
 70
     0
1002
}
  0
XRECORD
  5
33B
102
{ACAD_REACTORS
330
330
102
}
330
330
100
AcDbXrecord
  1
{8C821463-EA55-40E2-8358-55EA9C849656}
  0
XRECORD
  5
333
102
{ACAD_REACTORS
330
330
102
}
330
330
100
AcDbXrecord
  1

  0
XRECORD
  5
338
102
{ACAD_REACTORS
330
330
102
}
330
330
100
AcDbXrecord
 90
        4
  0
XRECORD
  5
335
102
{ACAD_REACTORS
330
330
102
}
330
330
100
AcDbXrecord
340
1A
  0
XRECORD
  5
337
102
{ACAD_REACTORS
330
330
102
}
330
330
100
AcDbXrecord
 90
    10269
  0
XRECORD
  5
336
102
{ACAD_REACTORS
330
330
102
}
330
330
100
AcDbXrecord
340
19
  0
XRECORD
  5
33D
102
{ACAD_REACTORS
330
330
102
}
330
330
100
AcDbXrecord
 40
0.0
  0
XRECORD
  5
340
102
{ACAD_REACTORS
330
330
102
}
330
330
100
AcDbXrecord
340
0
  0
XRECORD
  5
346
102
{ACAD_REACTORS
330
330
102
}
330
330
100
AcDbXrecord
 10
0.0
 20
0.0
 30
0.0
  0
XRECORD
  5
342
102
{ACAD_REACTORS
330
330
102
}
330
330
100
AcDbXrecord
 10
0.0
 20
0.0
 30
0.0
  0
XRECORD
  5
345
102
{ACAD_REACTORS
330
330
102
}
330
330
100
AcDbXrecord
 10
0.0
 20
0.0
 30
0.0
  0
XRECORD
  5
343
102
{ACAD_REACTORS
330
330
102
}
330
330
100
AcDbXrecord
 10
0.0
 20
0.0
 30
0.0
  0
XRECORD
  5
344
102
{ACAD_REACTORS
330
330
102
}
330
330
100
AcDbXrecord
 10
0.0
 20
0.0
 30
0.0
  0
XRECORD
  5
341
102
{ACAD_REACTORS
330
330
102
}
330
330
100
AcDbXrecord
 10
0.0
 20
0.0
 30
0.0
  0
XRECORD
  5
33E
102
{ACAD_REACTORS
330
330
102
}
330
330
100
AcDbXrecord
340
0
  0
XRECORD
  5
33F
102
{ACAD_REACTORS
330
330
102
}
330
330
100
AcDbXrecord
 70
     0
  0
XRECORD
  5
334
102
{ACAD_REACTORS
330
330
102
}
330
330
100
AcDbXrecord
  1

  0
XRECORD
  5
331
102
{ACAD_REACTORS
330
330
102
}
330
330
100
AcDbXrecord
 90
        1
  0
XRECORD
  5
332
102
{ACAD_REACTORS
330
330
102
}
330
330
100
AcDbXrecord
 90
       70
  0
XRECORD
  5
349
102
{ACAD_REACTORS
330
330
102
}
330
330
100
AcDbXrecord
340
0
  0
XRECORD
  5
34F
102
{ACAD_REACTORS
330
330
102
}
330
330
100
AcDbXrecord
 10
0.0
 20
0.0
 30
0.0
  0
XRECORD
  5
34B
102
{ACAD_REACTORS
330
330
102
}
330
330
100
AcDbXrecord
 10
0.0
 20
0.0
 30
0.0
  0
XRECORD
  5
34E
102
{ACAD_REACTORS
330
330
102
}
330
330
100
AcDbXrecord
 10
0.0
 20
0.0
 30
0.0
  0
XRECORD
  5
34C
102
{ACAD_REACTORS
330
330
102
}
330
330
100
AcDbXrecord
 10
0.0
 20
0.0
 30
0.0
  0
XRECORD
  5
34D
102
{ACAD_REACTORS
330
330
102
}
330
330
100
AcDbXrecord
 10
0.0
 20
0.0
 30
0.0
  0
XRECORD
  5
34A
102
{ACAD_REACTORS
330
330
102
}
330
330
100
AcDbXrecord
 10
0.0
 20
0.0
 30
0.0
  0
XRECORD
  5
347
102
{ACAD_REACTORS
330
330
102
}
330
330
100
AcDbXrecord
340
0
  0
XRECORD
  5
348
102
{ACAD_REACTORS
330
330
102
}
330
330
100
AcDbXrecord
 70
     0
  0
XRECORD
  5
33C
102
{ACAD_REACTORS
330
330
102
}
330
330
100
AcDbXrecord
  1
{FAEB1C32-E019-11D5-929B-00C0DF256EC4}
  0
DICTIONARYVAR
  5
35A
102
{ACAD_REACTORS
330
351
102
}
330
351
100
DictionaryVariables
280
     0
  1
1:1
  0
DICTIONARYVAR
  5
353
102
{ACAD_REACTORS
330
351
102
}
330
351
100
DictionaryVariables
280
     0
  1
Standard
  0
DICTIONARYVAR
  5
352
102
{ACAD_REACTORS
330
351
102
}
330
351
100
DictionaryVariables
280
     0
  1
Standard
  0
DICTIONARYVAR
  5
356
102
{ACAD_REACTORS
330
351
102
}
330
351
100
DictionaryVariables
280
     0
  1
2
  0
DICTIONARYVAR
  5
357
102
{ACAD_REACTORS
330
351
102
}
330
351
100
DictionaryVariables
280
     0
  1
1
  0
DICTIONARYVAR
  5
35B
102
{ACAD_REACTORS
330
351
102
}
330
351
100
DictionaryVariables
280
     0
  1
1
  0
DICTIONARY
  5
35E
330
45
100
AcDbDictionary
280
     1
  3
ACAD_XREC_ROUNDTRIP
360
35F
  0
DICTIONARY
  5
35C
330
44
100
AcDbDictionary
280
     1
  3
ACAD_XREC_ROUNDTRIP
360
35D
  0
DICTIONARY
  5
360
330
46
100
AcDbDictionary
280
     1
  3
ACAD_XREC_ROUNDTRIP
360
361
  0
XRECORD
  5
35F
102
{ACAD_REACTORS
330
35E
102
}
330
35E
100
AcDbXrecord
102
MATERIAL
148
0.0
149
0.0
149
0.0
 93
        0
 94
      127
282
     0
 72
     1
 77
     1
171
     1
175
     1
179
     1
273
     0
  0
XRECORD
  5
35D
102
{ACAD_REACTORS
330
35C
102
}
330
35C
100
AcDbXrecord
102
MATERIAL
148
0.0
149
0.0
149
0.0
 93
        0
 94
      127
282
     0
 72
     1
 77
     1
171
     1
175
     1
179
     1
273
     0
  0
XRECORD
  5
361
102
{ACAD_REACTORS
330
360
102
}
330
360
100
AcDbXrecord
102
MATERIAL
148
0.0
149
0.0
149
0.0
 93
        0
 94
      127
282
     0
 72
     1
 77
     1
171
     1
175
     1
179
     1
273
     0
  0
ENDSEC
  0
EOF
