  0
SECTION
  2
HEADER
  9
$ACADVER
  1
AC1014
  9
$ACADMAINTVER
 70
     9
  9
$DWGCODEPAGE
  3
ANSI_932
  9
$INSBASE
 10
0.0
 20
0.0
 30
0.0
  9
$EXTMIN
 10
-360.0000000000001
 20
370.0
 30
0.0
  9
$EXTMAX
 10
-25.00000000000001
 20
760.0
 30
0.0
  9
$LIMMIN
 10
0.0
 20
0.0
  9
$LIMMAX
 10
12.0
 20
9.0
  9
$ORTHOMODE
 70
     0
  9
$REGENMODE
 70
     1
  9
$FILLMODE
 70
     1
  9
$QTEXTMODE
 70
     0
  9
$MIRRTEXT
 70
     1
  9
$DRAGMODE
 70
     2
  9
$LTSCALE
 40
1.0
  9
$OSMODE
 70
    37
  9
$ATTMODE
 70
     1
  9
$TEXTSIZE
 40
0.2
  9
$TRACEWID
 40
0.05
  9
$TEXTSTYLE
  7
STANDARD
  9
$CLAYER
  8
0
  9
$CELTYPE
  6
BYLAYER
  9
$CECOLOR
 62
   256
  9
$CELTSCALE
 40
1.0
  9
$DELOBJ
 70
     1
  9
$DISPSILH
 70
     0
  9
$DIMSCALE
 40
1.0
  9
$DIMASZ
 40
3.0
  9
$DIMEXO
 40
0.0625
  9
$DIMDLI
 40
0.38
  9
$DIMRND
 40
0.0
  9
$DIMDLE
 40
0.0
  9
$DIMEXE
 40
1.5
  9
$DIMTP
 40
0.0
  9
$DIMTM
 40
0.0
  9
$DIMTXT
 40
3.0
  9
$DIMCEN
 40
0.09
  9
$DIMTSZ
 40
0.0
  9
$DIMTOL
 70
     0
  9
$DIMLIM
 70
     0
  9
$DIMTIH
 70
     1
  9
$DIMTOH
 70
     1
  9
$DIMSE1
 70
     0
  9
$DIMSE2
 70
     0
  9
$DIMTAD
 70
     1
  9
$DIMZIN
 70
     0
  9
$DIMBLK
  1

  9
$DIMASO
 70
     1
  9
$DIMSHO
 70
     1
  9
$DIMPOST
  1

  9
$DIMAPOST
  1

  9
$DIMALT
 70
     0
  9
$DIMALTD
 70
     2
  9
$DIMALTF
 40
25.4
  9
$DIMLFAC
 40
1.0
  9
$DIMTOFL
 70
     0
  9
$DIMTVP
 40
0.0
  9
$DIMTIX
 70
     0
  9
$DIMSOXD
 70
     0
  9
$DIMSAH
 70
     0
  9
$DIMBLK1
  1

  9
$DIMBLK2
  1

  9
$DIMSTYLE
  2
STANDARD
  9
$DIMCLRD
 70
     0
  9
$DIMCLRE
 70
     0
  9
$DIMCLRT
 70
     0
  9
$DIMTFAC
 40
1.0
  9
$DIMGAP
 40
1.5
  9
$DIMJUST
 70
     0
  9
$DIMSD1
 70
     0
  9
$DIMSD2
 70
     0
  9
$DIMTOLJ
 70
     1
  9
$DIMTZIN
 70
     0
  9
$DIMALTZ
 70
     0
  9
$DIMALTTZ
 70
     0
  9
$DIMFIT
 70
     3
  9
$DIMUPT
 70
     0
  9
$DIMUNIT
 70
     2
  9
$DIMDEC
 70
     2
  9
$DIMTDEC
 70
     4
  9
$DIMALTU
 70
     2
  9
$DIMALTTD
 70
     2
  9
$DIMTXSTY
  7
ＭＳ_ゴシック
  9
$DIMAUNIT
 70
     0
  9
$LUNITS
 70
     2
  9
$LUPREC
 70
     4
  9
$SKETCHINC
 40
0.1
  9
$FILLETRAD
 40
0.5
  9
$AUNITS
 70
     0
  9
$AUPREC
 70
     0
  9
$MENU
  1
.
  9
$ELEVATION
 40
0.0
  9
$PELEVATION
 40
0.0
  9
$THICKNESS
 40
0.0
  9
$LIMCHECK
 70
     0
  9
$CHAMFERA
 40
0.0
  9
$CHAMFERB
 40
0.0
  9
$CHAMFERC
 40
0.0
  9
$CHAMFERD
 40
0.0
  9
$SKPOLY
 70
     0
  9
$TDCREATE
 40
2459870.46775654
  9
$TDUPDATE
 40
2459870.467756782
  9
$TDINDWG
 40
0.0000000116
  9
$TDUSRTIMER
 40
0.0000000116
  9
$USRTIMER
 70
     1
  9
$ANGBASE
 50
0.0
  9
$ANGDIR
 70
     0
  9
$PDMODE
 70
     0
  9
$PDSIZE
 40
0.0
  9
$PLINEWID
 40
0.0
  9
$COORDS
 70
     1
  9
$SPLFRAME
 70
     0
  9
$SPLINETYPE
 70
     6
  9
$SPLINESEGS
 70
     8
  9
$ATTDIA
 70
     0
  9
$ATTREQ
 70
     1
  9
$HANDLING
 70
     1
  9
$HANDSEED
  5
1ED
  9
$SURFTAB1
 70
     6
  9
$SURFTAB2
 70
     6
  9
$SURFTYPE
 70
     6
  9
$SURFU
 70
     6
  9
$SURFV
 70
     6
  9
$UCSNAME
  2

  9
$UCSORG
 10
0.0
 20
0.0
 30
0.0
  9
$UCSXDIR
 10
1.0
 20
0.0
 30
0.0
  9
$UCSYDIR
 10
0.0
 20
1.0
 30
0.0
  9
$PUCSNAME
  2

  9
$PUCSORG
 10
0.0
 20
0.0
 30
0.0
  9
$PUCSXDIR
 10
1.0
 20
0.0
 30
0.0
  9
$PUCSYDIR
 10
0.0
 20
1.0
 30
0.0
  9
$USERI1
 70
     0
  9
$USERI2
 70
     0
  9
$USERI3
 70
     0
  9
$USERI4
 70
     0
  9
$USERI5
 70
     0
  9
$USERR1
 40
0.0
  9
$USERR2
 40
0.0
  9
$USERR3
 40
0.0
  9
$USERR4
 40
0.0
  9
$USERR5
 40
0.0
  9
$WORLDVIEW
 70
     1
  9
$SHADEDGE
 70
     3
  9
$SHADEDIF
 70
    70
  9
$TILEMODE
 70
     1
  9
$MAXACTVP
 70
    64
  9
$PINSBASE
 10
0.0
 20
0.0
 30
0.0
  9
$PLIMCHECK
 70
     0
  9
$PEXTMIN
 10
1.000000000000000E+20
 20
1.000000000000000E+20
 30
1.000000000000000E+20
  9
$PEXTMAX
 10
-1.000000000000000E+20
 20
-1.000000000000000E+20
 30
-1.000000000000000E+20
  9
$PLIMMIN
 10
0.0
 20
0.0
  9
$PLIMMAX
 10
12.0
 20
9.0
  9
$UNITMODE
 70
     0
  9
$VISRETAIN
 70
     1
  9
$PLINEGEN
 70
     0
  9
$PSLTSCALE
 70
     1
  9
$TREEDEPTH
 70
  3020
  9
$PICKSTYLE
 70
     1
  9
$CMLSTYLE
  2
STANDARD
  9
$CMLJUST
 70
     0
  9
$CMLSCALE
 40
1.0
  9
$PROXYGRAPHICS
 70
     1
  9
$MEASUREMENT
 70
     1
  0
ENDSEC
  0
SECTION
  2
CLASSES
  0
CLASS
  1
ACDBDICTIONARYWDFLT
  2
AcDbDictionaryWithDefault
  3
ObjectDBX Classes
 90
        0
280
     0
281
     0
  0
CLASS
  1
VISUALSTYLE
  2
AcDbVisualStyle
  3
ObjectDBX Classes
 90
     4095
280
     0
281
     0
  0
CLASS
  1
MATERIAL
  2
AcDbMaterial
  3
ObjectDBX Classes
 90
     1153
280
     0
281
     0
  0
CLASS
  1
SCALE
  2
AcDbScale
  3
ObjectDBX Classes
 90
     1153
280
     0
281
     0
  0
CLASS
  1
TABLESTYLE
  2
AcDbTableStyle
  3
ObjectDBX Classes
 90
     4095
280
     0
281
     0
  0
CLASS
  1
MLEADERSTYLE
  2
AcDbMLeaderStyle
  3
ACDB_MLEADERSTYLE_CLASS
 90
     4095
280
     0
281
     0
  0
CLASS
  1
SUN
  2
AcDbSun
  3
SCENEOE
 90
     1153
280
     0
281
     0
  0
CLASS
  1
DICTIONARYVAR
  2
AcDbDictionaryVar
  3
ObjectDBX Classes
 90
        0
280
     0
281
     0
  0
CLASS
  1
XRECORD
  2
AcDbXrecord
  3
ObjectDBX Classes
 90
        0
280
     0
281
     0
  0
CLASS
  1
LWPOLYLINE
  2
AcDbPolyline
  3
ObjectDBX Classes
 90
        0
280
     0
281
     1
  0
CLASS
  1
HATCH
  2
AcDbHatch
  3
ObjectDBX Classes
 90
        0
280
     0
281
     1
  0
CLASS
  1
ACDBPLACEHOLDER
  2
AcDbPlaceHolder
  3
ObjectDBX Classes
 90
        0
280
     0
281
     0
  0
CLASS
  1
LAYOUT
  2
AcDbLayout
  3
ObjectDBX Classes
 90
        0
280
     0
281
     0
  0
ENDSEC
  0
SECTION
  2
TABLES
  0
TABLE
  2
VPORT
  5
8
102
{ACAD_XDICTIONARY
360
1E2
102
}
330
0
100
AcDbSymbolTable
 70
     1
  0
VPORT
  5
29
330
8
100
AcDbSymbolTableRecord
100
AcDbViewportTableRecord
  2
*ACTIVE
 70
     0
 10
0.0
 20
0.0
 11
1.0
 21
1.0
 12
-192.5000000000001
 22
565.0
 13
0.0
 23
0.0
 14
0.5
 24
0.5
 15
0.5
 25
0.5
 16
0.0
 26
0.0
 36
1.0
 17
0.0
 27
0.0
 37
0.0
 40
390.0
 41
1.6
 42
50.0
 43
0.0
 44
0.0
 50
0.0
 51
0.0
 71
     0
 72
   100
 73
     1
 74
     3
 75
     0
 76
     0
 77
     0
 78
     0
  0
ENDTAB
  0
TABLE
  2
LTYPE
  5
5
330
0
100
AcDbSymbolTable
 70
     2
  0
LTYPE
  5
14
330
5
100
AcDbSymbolTableRecord
100
AcDbLinetypeTableRecord
  2
BYBLOCK
 70
     0
  3

 72
    65
 73
     0
 40
0.0
  0
LTYPE
  5
15
330
5
100
AcDbSymbolTableRecord
100
AcDbLinetypeTableRecord
  2
BYLAYER
 70
     0
  3

 72
    65
 73
     0
 40
0.0
  0
LTYPE
  5
16
330
5
100
AcDbSymbolTableRecord
100
AcDbLinetypeTableRecord
  2
CONTINUOUS
 70
     0
  3
Solid line
 72
    65
 73
     0
 40
0.0
  0
LTYPE
  5
72
330
5
100
AcDbSymbolTableRecord
100
AcDbLinetypeTableRecord
  2
CENTER
 70
     0
  3

 72
    65
 73
     0
 40
0.0
  0
ENDTAB
  0
TABLE
  2
LAYER
  5
2
330
0
100
AcDbSymbolTable
 70
     2
  0
LAYER
  5
10
330
2
100
AcDbSymbolTableRecord
100
AcDbLayerTableRecord
  2
0
 70
     0
 62
     7
  6
CONTINUOUS
  0
LAYER
  5
6E
330
2
100
AcDbSymbolTableRecord
100
AcDbLayerTableRecord
  2
1
 70
     0
 62
     7
  6
CONTINUOUS
  0
ENDTAB
  0
TABLE
  2
STYLE
  5
3
330
0
100
AcDbSymbolTable
 70
     2
  0
STYLE
  5
11
330
3
100
AcDbSymbolTableRecord
100
AcDbTextStyleTableRecord
  2
STANDARD
 70
     0
 40
0.0
 41
1.0
 50
0.0
 71
     0
 42
0.2
  3
txt
  4

  0
STYLE
  5
6F
330
3
100
AcDbSymbolTableRecord
100
AcDbTextStyleTableRecord
  2
ＭＳ_ゴシック
 70
     0
 40
0.0
 41
1.0
 50
0.0
 71
     0
 42
0.2
  3
ＭＳ ゴシック.shx
  4

  0
ENDTAB
  0
TABLE
  2
VIEW
  5
6
330
0
100
AcDbSymbolTable
 70
     0
  0
ENDTAB
  0
TABLE
  2
UCS
  5
7
330
0
100
AcDbSymbolTable
 70
     0
  0
ENDTAB
  0
TABLE
  2
APPID
  5
9
330
0
100
AcDbSymbolTable
 70
     2
  0
APPID
  5
12
330
9
100
AcDbSymbolTableRecord
100
AcDbRegAppTableRecord
  2
ACAD
 70
     0
  0
APPID
  5
1EC
330
9
100
AcDbSymbolTableRecord
100
AcDbRegAppTableRecord
  2
ACAD_MLEADERVER
 70
     0
  0
ENDTAB
  0
TABLE
  2
DIMSTYLE
  5
A
330
0
100
AcDbSymbolTable
 70
     1
  0
DIMSTYLE
105
27
330
A
100
AcDbSymbolTableRecord
100
AcDbDimStyleTableRecord
  2
STANDARD
 70
     0
  3

  4

  5

  6

  7

 40
1.0
 41
0.18
 42
0.0625
 43
0.38
 44
0.18
 45
0.0
 46
0.0
 47
0.0
 48
0.0
140
0.18
141
0.09
142
0.0
143
25.4
144
1.0
145
0.0
146
1.0
147
0.09
 71
     0
 72
     0
 73
     1
 74
     1
 75
     0
 76
     0
 77
     0
 78
     0
170
     0
171
     2
172
     0
173
     0
174
     0
175
     0
176
     0
177
     0
178
     0
270
     2
271
     4
272
     4
273
     2
274
     2
340
11
275
     0
280
     0
281
     0
282
     0
283
     1
284
     0
285
     0
286
     0
287
     3
288
     0
  0
ENDTAB
  0
TABLE
  2
BLOCK_RECORD
  5
1
330
0
100
AcDbSymbolTable
 70
     0
  0
BLOCK_RECORD
  5
1F
330
1
100
AcDbSymbolTableRecord
100
AcDbBlockTableRecord
  2
*MODEL_SPACE
  0
BLOCK_RECORD
  5
1B
330
1
100
AcDbSymbolTableRecord
100
AcDbBlockTableRecord
  2
*PAPER_SPACE
  0
ENDTAB
  0
ENDSEC
  0
SECTION
  2
BLOCKS
  0
BLOCK
  5
20
330
1F
100
AcDbEntity
  8
0
100
AcDbBlockBegin
  2
*MODEL_SPACE
 70
     0
 10
0.0
 20
0.0
 30
0.0
  3
*MODEL_SPACE
  1

  0
ENDBLK
  5
21
330
1F
100
AcDbEntity
  8
0
100
AcDbBlockEnd
  0
BLOCK
  5
1C
330
1B
100
AcDbEntity
 67
     1
  8
0
100
AcDbBlockBegin
  2
*PAPER_SPACE
 70
     0
 10
0.0
 20
0.0
 30
0.0
  3
*PAPER_SPACE
  1

  0
ENDBLK
  5
1D
330
1B
100
AcDbEntity
 67
     1
  8
0
100
AcDbBlockEnd
  0
ENDSEC
  0
SECTION
  2
ENTITIES
  0
MTEXT
  5
70
330
1F
100
AcDbEntity
  8
1
 62
     7
100
AcDbMText
 10
-123.5518569463548
 20
501.0147836688759
 30
0.0
 40
3.0
 41
0.0
 71
     1
 72
     1
  1
{\fＭＳ ゴシック;PYE-S100AL}
  0
LINE
  5
71
330
1F
100
AcDbEntity
  8
1
  6
CENTER
 62
     1
100
AcDbLine
 10
-25.00000000000001
 20
653.9433348013531
 30
0.0
 11
-170.0
 21
653.9433348013531
 31
0.0
  0
LINE
  5
73
330
1F
100
AcDbEntity
  8
1
  6
CENTER
 62
     1
100
AcDbLine
 10
-279.9999999999999
 20
535.0
 30
0.0
 11
-279.9999999999999
 21
760.0
 31
0.0
  0
LINE
  5
74
330
1F
100
AcDbEntity
  8
1
  6
CENTER
 62
     1
100
AcDbLine
 10
-280.0
 20
505.0
 30
0.0
 11
-280.0
 21
370.0
 31
0.0
  0
ARC
  5
75
330
1F
100
AcDbEntity
  8
1
  6
CONTINUOUS
 62
     7
100
AcDbCircle
 10
-280.0
 20
730.9433348013531
 30
0.0
 40
5.000000000000004
100
AcDbArc
 50
90.0
 51
180.0
  0
ARC
  5
76
330
1F
100
AcDbEntity
  8
1
  6
CONTINUOUS
 62
     7
100
AcDbCircle
 10
-280.0
 20
730.9433348013531
 30
0.0
 40
5.0
100
AcDbArc
 50
0.0
 51
90.0
  0
CIRCLE
  5
77
330
1F
100
AcDbEntity
  8
1
  6
CONTINUOUS
 62
     7
100
AcDbCircle
 10
-280.0
 20
730.9433348013531
 30
0.0
 40
2.5
  0
LINE
  5
78
330
1F
100
AcDbEntity
  8
1
  6
CONTINUOUS
 62
     7
100
AcDbLine
 10
-275.0
 20
730.9433348013531
 30
0.0
 11
-275.0
 21
726.443334801353
 31
0.0
  0
LINE
  5
79
330
1F
100
AcDbEntity
  8
1
  6
CONTINUOUS
 62
     7
100
AcDbLine
 10
-285.0
 20
726.443334801353
 30
0.0
 11
-285.0
 21
730.9433348013531
 31
0.0
  0
LINE
  5
7A
330
1F
100
AcDbEntity
  8
1
  6
CONTINUOUS
 62
     7
100
AcDbLine
 10
-349.9999999999999
 20
581.4433348013531
 30
0.0
 11
-349.9999999999999
 21
725.893334801353
 31
0.0
  0
LINE
  5
7B
330
1F
100
AcDbEntity
  8
1
  6
CONTINUOUS
 62
     7
100
AcDbLine
 10
-349.9999999999999
 20
725.893334801353
 30
0.0
 11
-349.45
 21
725.893334801353
 31
0.0
  0
LINE
  5
7C
330
1F
100
AcDbEntity
  8
1
  6
CONTINUOUS
 62
     7
100
AcDbLine
 10
-348.9999999999999
 20
581.4433348013531
 30
0.0
 11
-349.9999999999999
 21
581.4433348013531
 31
0.0
  0
LINE
  5
7D
330
1F
100
AcDbEntity
  8
1
  6
CONTINUOUS
 62
     7
100
AcDbLine
 10
-210.55
 20
725.893334801353
 30
0.0
 11
-211.05
 21
725.893334801353
 31
0.0
  0
LINE
  5
7E
330
1F
100
AcDbEntity
  8
1
  6
CONTINUOUS
 62
     7
100
AcDbLine
 10
-210.55
 20
725.893334801353
 30
0.0
 11
-211.0
 21
725.4433348013531
 31
0.0
  0
LINE
  5
7F
330
1F
100
AcDbEntity
  8
1
  6
CONTINUOUS
 62
     7
100
AcDbLine
 10
-348.95
 20
725.893334801353
 30
0.0
 11
-349.45
 21
725.893334801353
 31
0.0
  0
LINE
  5
80
330
1F
100
AcDbEntity
  8
1
  6
CONTINUOUS
 62
     7
100
AcDbLine
 10
-348.95
 20
726.443334801353
 30
0.0
 11
-211.05
 21
726.443334801353
 31
0.0
  0
LINE
  5
81
330
1F
100
AcDbEntity
  8
1
  6
CONTINUOUS
 62
     7
100
AcDbLine
 10
-348.9999999999999
 20
581.4433348013531
 30
0.0
 11
-211.0
 21
581.4433348013531
 31
0.0
  0
LINE
  5
82
330
1F
100
AcDbEntity
  8
1
  6
CONTINUOUS
 62
     7
100
AcDbLine
 10
-210.0
 20
725.893334801353
 30
0.0
 11
-210.0
 21
581.4433348013531
 31
0.0
  0
LINE
  5
83
330
1F
100
AcDbEntity
  8
1
  6
CONTINUOUS
 62
     7
100
AcDbLine
 10
-210.55
 20
725.893334801353
 30
0.0
 11
-210.0
 21
725.893334801353
 31
0.0
  0
LINE
  5
84
330
1F
100
AcDbEntity
  8
1
  6
CONTINUOUS
 62
     7
100
AcDbLine
 10
-210.0
 20
581.4433348013531
 30
0.0
 11
-211.0
 21
581.4433348013531
 31
0.0
  0
LINE
  5
85
330
1F
100
AcDbEntity
  8
1
  6
CONTINUOUS
 62
     7
100
AcDbLine
 10
-349.45
 20
725.893334801353
 30
0.0
 11
-349.45
 21
725.9433348013531
 31
0.0
  0
ARC
  5
86
330
1F
100
AcDbEntity
  8
1
  6
CONTINUOUS
 62
     7
100
AcDbCircle
 10
-348.95
 20
725.9433348013531
 30
0.0
 40
0.5000000000000004
100
AcDbArc
 50
90.0
 51
180.0
  0
ARC
  5
87
330
1F
100
AcDbEntity
  8
1
  6
CONTINUOUS
 62
     7
100
AcDbCircle
 10
-211.05
 20
725.9433348013531
 30
0.0
 40
0.5000000000000004
100
AcDbArc
 50
0.0
 51
90.0
  0
LINE
  5
88
330
1F
100
AcDbEntity
  8
1
  6
CONTINUOUS
 62
     7
100
AcDbLine
 10
-210.55
 20
725.9433348013531
 30
0.0
 11
-210.55
 21
725.893334801353
 31
0.0
  0
LINE
  5
89
330
1F
100
AcDbEntity
  8
1
  6
CONTINUOUS
 62
     7
100
AcDbLine
 10
-349.65
 20
726.443334801353
 30
0.0
 11
-349.65
 21
725.9433348013531
 31
0.0
  0
LINE
  5
8A
330
1F
100
AcDbEntity
  8
1
  6
CONTINUOUS
 62
     7
100
AcDbLine
 10
-349.45
 20
725.9433348013531
 30
0.0
 11
-349.65
 21
725.9433348013531
 31
0.0
  0
LINE
  5
8B
330
1F
100
AcDbEntity
  8
1
  6
CONTINUOUS
 62
     7
100
AcDbLine
 10
-348.95
 20
726.443334801353
 30
0.0
 11
-349.65
 21
726.443334801353
 31
0.0
  0
LINE
  5
8C
330
1F
100
AcDbEntity
  8
1
  6
CONTINUOUS
 62
     7
100
AcDbLine
 10
-210.35
 20
726.443334801353
 30
0.0
 11
-210.35
 21
725.9433348013531
 31
0.0
  0
LINE
  5
8D
330
1F
100
AcDbEntity
  8
1
  6
CONTINUOUS
 62
     7
100
AcDbLine
 10
-210.55
 20
725.9433348013531
 30
0.0
 11
-210.35
 21
725.9433348013531
 31
0.0
  0
LINE
  5
8E
330
1F
100
AcDbEntity
  8
1
  6
CONTINUOUS
 62
     7
100
AcDbLine
 10
-211.05
 20
726.443334801353
 30
0.0
 11
-210.35
 21
726.443334801353
 31
0.0
  0
LINE
  5
8F
330
1F
100
AcDbEntity
  8
1
  6
CONTINUOUS
 62
     7
100
AcDbLine
 10
-200.0
 20
561.6345173167632
 30
0.0
 11
-200.0
 21
557.4080211583466
 31
0.0
  0
LINE
  5
90
330
1F
100
AcDbEntity
  8
1
  6
CONTINUOUS
 62
     7
100
AcDbLine
 10
-360.0
 20
557.4080211583465
 30
0.0
 11
-360.0
 21
561.6345173167631
 31
0.0
  0
LINE
  5
91
330
1F
100
AcDbEntity
  8
1
  6
CONTINUOUS
 62
     7
100
AcDbLine
 10
-360.0
 20
561.6345173167632
 30
0.0
 11
-360.0
 21
572.9134701789367
 31
0.0
  0
LINE
  5
92
330
1F
100
AcDbEntity
  8
1
  6
CONTINUOUS
 62
     7
100
AcDbLine
 10
-200.0
 20
561.6345173167632
 30
0.0
 11
-200.0
 21
572.9134701789367
 31
0.0
  0
LWPOLYLINE
  5
93
330
1F
100
AcDbEntity
  8
1
  6
CONTINUOUS
 62
     7
100
AcDbPolyline
 90
        6
 70
     0
 43
0.0
 10
-200.5
 20
556.1793784655031
 10
-200.3308693936411
 20
556.2583645787099
 10
-200.190983005625
 20
556.3582277873994
 10
-200.0864545423574
 20
556.4746035901549
 10
-200.0218523992662
 20
556.6024058059628
 10
-200.0
 20
556.7360488647295
  0
LINE
  5
94
330
1F
100
AcDbEntity
  8
1
  6
CONTINUOUS
 62
     7
100
AcDbLine
 10
-200.0
 20
556.7360488647295
 30
0.0
 11
-200.0
 21
557.4080211583465
 31
0.0
  0
LWPOLYLINE
  5
95
330
1F
100
AcDbEntity
  8
1
  6
CONTINUOUS
 62
     7
100
AcDbPolyline
 90
        6
 70
     0
 43
0.0
 10
-360.0
 20
556.7360488647295
 10
-359.9781476007338
 20
556.6024058059628
 10
-359.9135454576426
 20
556.4746035901549
 10
-359.8090169943749
 20
556.3582277873994
 10
-359.6691306063589
 20
556.2583645787099
 10
-359.5
 20
556.1793784655031
  0
LINE
  5
96
330
1F
100
AcDbEntity
  8
1
  6
CONTINUOUS
 62
     7
100
AcDbLine
 10
-360.0
 20
556.7360488647295
 30
0.0
 11
-360.0
 21
557.4080211583465
 31
0.0
  0
LINE
  5
97
330
1F
100
AcDbEntity
  8
1
  6
CONTINUOUS
 62
     7
100
AcDbLine
 10
-359.5000000000001
 20
556.1805338525785
 30
0.0
 11
-359.0464329266313
 21
556.0961811323765
 31
0.0
  0
LINE
  5
98
330
1F
100
AcDbEntity
  8
1
  6
CONTINUOUS
 62
     7
100
AcDbLine
 10
-200.9535670733688
 20
556.0961811323766
 30
0.0
 11
-200.5
 21
556.1805338525786
 31
0.0
  0
LINE
  5
99
330
1F
100
AcDbEntity
  8
1
  6
CONTINUOUS
 62
     7
100
AcDbLine
 10
-274.6489788069712
 20
554.066333636247
 30
0.0
 11
-200.9535670733688
 21
556.0961811323766
 31
0.0
  0
LINE
  5
9A
330
1F
100
AcDbEntity
  8
1
  6
CONTINUOUS
 62
     7
100
AcDbLine
 10
-274.8629808296186
 20
554.0614190076298
 30
0.0
 11
-274.6489788069712
 21
554.066333636247
 31
0.0
  0
LINE
  5
9B
330
1F
100
AcDbEntity
  8
1
  6
CONTINUOUS
 62
     7
100
AcDbLine
 10
-285.3510211930287
 20
554.066333636247
 30
0.0
 11
-359.0464329266313
 21
556.0961811323766
 31
0.0
  0
LINE
  5
9C
330
1F
100
AcDbEntity
  8
1
  6
CONTINUOUS
 62
     7
100
AcDbLine
 10
-285.3510211930287
 20
554.066333636247
 30
0.0
 11
-285.1370191703814
 21
554.0614190076298
 31
0.0
  0
LINE
  5
9D
330
1F
100
AcDbEntity
  8
1
  6
CONTINUOUS
 62
     7
100
AcDbLine
 10
-285.0835623588546
 20
554.0593662972757
 30
0.0
 11
-284.6499369741015
 21
554.0566651986469
 31
0.0
  0
LINE
  5
9E
330
1F
100
AcDbEntity
  8
1
  6
CONTINUOUS
 62
     7
100
AcDbLine
 10
-275.3500630258984
 20
554.0566651986469
 30
0.0
 11
-274.9164376411453
 21
554.0593662972757
 31
0.0
  0
LINE
  5
9F
330
1F
100
AcDbEntity
  8
1
  6
CONTINUOUS
 62
     7
100
AcDbLine
 10
-275.3500630258984
 20
554.0566651986469
 30
0.0
 11
-284.6499369741015
 21
554.0566651986469
 31
0.0
  0
LINE
  5
A0
330
1F
100
AcDbEntity
  8
1
  6
CONTINUOUS
 62
     7
100
AcDbLine
 10
-274.8629808296186
 20
554.0614190076298
 30
0.0
 11
-274.9164376411453
 21
554.0593662972757
 31
0.0
  0
LINE
  5
A1
330
1F
100
AcDbEntity
  8
1
  6
CONTINUOUS
 62
     7
100
AcDbLine
 10
-285.0835623588546
 20
554.0593662972757
 30
0.0
 11
-285.1370191703813
 21
554.0614190076299
 31
0.0
  0
LINE
  5
A2
330
1F
100
AcDbEntity
  8
1
  6
CONTINUOUS
 62
     7
100
AcDbLine
 10
-200.0
 20
573.0920763740934
 30
0.0
 11
-200.0
 21
572.9134701789367
 31
0.0
  0
LINE
  5
A3
330
1F
100
AcDbEntity
  8
1
  6
CONTINUOUS
 62
     7
100
AcDbLine
 10
-360.0
 20
572.9134701789367
 30
0.0
 11
-360.0
 21
573.0920763740934
 31
0.0
  0
LINE
  5
A4
330
1F
100
AcDbEntity
  8
1
  6
CONTINUOUS
 62
     7
100
AcDbLine
 10
-200.0
 20
573.6132897417889
 30
0.0
 11
-200.0
 21
573.143443431396
 31
0.0
  0
LINE
  5
A5
330
1F
100
AcDbEntity
  8
1
  6
CONTINUOUS
 62
     7
100
AcDbLine
 10
-360.0
 20
573.1434434313959
 30
0.0
 11
-360.0
 21
573.6132897417888
 31
0.0
  0
LINE
  5
A6
330
1F
100
AcDbEntity
  8
1
  6
CONTINUOUS
 62
     7
100
AcDbLine
 10
-360.0
 20
580.9433348013531
 30
0.0
 11
-359.5
 21
580.9433348013531
 31
0.0
  0
LINE
  5
A7
330
1F
100
AcDbEntity
  8
1
  6
CONTINUOUS
 62
     7
100
AcDbLine
 10
-360.0
 20
577.9433348013531
 30
0.0
 11
-360.0
 21
580.9433348013531
 31
0.0
  0
LINE
  5
A8
330
1F
100
AcDbEntity
  8
1
  6
CONTINUOUS
 62
     7
100
AcDbLine
 10
-200.5
 20
580.9433348013531
 30
0.0
 11
-200.0
 21
580.9433348013531
 31
0.0
  0
LINE
  5
A9
330
1F
100
AcDbEntity
  8
1
  6
CONTINUOUS
 62
     7
100
AcDbLine
 10
-200.0
 20
580.9433348013531
 30
0.0
 11
-200.0
 21
577.9433348013531
 31
0.0
  0
LINE
  5
AA
330
1F
100
AcDbEntity
  8
1
  6
CONTINUOUS
 62
     7
100
AcDbLine
 10
-360.0
 20
577.9433348013531
 30
0.0
 11
-360.0
 21
573.6132897417889
 31
0.0
  0
LINE
  5
AB
330
1F
100
AcDbEntity
  8
1
  6
CONTINUOUS
 62
     7
100
AcDbLine
 10
-200.0
 20
577.9433348013531
 30
0.0
 11
-200.0
 21
573.6132897417889
 31
0.0
  0
LINE
  5
AC
330
1F
100
AcDbEntity
  8
1
  6
CONTINUOUS
 62
     7
100
AcDbLine
 10
-200.0
 20
573.1434434313959
 30
0.0
 11
-200.0
 21
573.0920763740934
 31
0.0
  0
LINE
  5
AD
330
1F
100
AcDbEntity
  8
1
  6
CONTINUOUS
 62
     7
100
AcDbLine
 10
-360.0
 20
573.1434434313959
 30
0.0
 11
-360.0
 21
573.0920763740934
 31
0.0
  0
LINE
  5
AE
330
1F
100
AcDbEntity
  8
1
  6
CONTINUOUS
 62
     7
100
AcDbLine
 10
-348.5
 20
581.4433348013531
 30
0.0
 11
-348.5
 21
580.9433348013531
 31
0.0
  0
LINE
  5
AF
330
1F
100
AcDbEntity
  8
1
  6
CONTINUOUS
 62
     7
100
AcDbLine
 10
-211.5
 20
580.9433348013531
 30
0.0
 11
-211.5
 21
581.443334801353
 31
0.0
  0
LINE
  5
B0
330
1F
100
AcDbEntity
  8
1
  6
CONTINUOUS
 62
     7
100
AcDbLine
 10
-359.0
 20
580.9433348013531
 30
0.0
 11
-359.5
 21
580.9433348013531
 31
0.0
  0
LINE
  5
B1
330
1F
100
AcDbEntity
  8
1
  6
CONTINUOUS
 62
     7
100
AcDbLine
 10
-200.5
 20
580.9433348013531
 30
0.0
 11
-201.0
 21
580.9433348013531
 31
0.0
  0
CIRCLE
  5
B2
330
1F
100
AcDbEntity
  8
1
  6
CONTINUOUS
 62
     7
100
AcDbCircle
 10
-220.0
 20
576.4433348013531
 30
0.0
 40
2.500000000000002
  0
CIRCLE
  5
B3
330
1F
100
AcDbEntity
  8
1
  6
CONTINUOUS
 62
     7
100
AcDbCircle
 10
-340.0
 20
576.4433348013531
 30
0.0
 40
2.500000000000002
  0
LINE
  5
B4
330
1F
100
AcDbEntity
  8
1
  6
CONTINUOUS
 62
     7
100
AcDbLine
 10
-211.5
 20
580.9433348013531
 30
0.0
 11
-201.0
 21
580.9433348013531
 31
0.0
  0
LINE
  5
B5
330
1F
100
AcDbEntity
  8
1
  6
CONTINUOUS
 62
     7
100
AcDbLine
 10
-359.0
 20
580.9433348013531
 30
0.0
 11
-348.4999999999999
 21
580.9433348013531
 31
0.0
  0
ARC
  5
B6
330
1F
100
AcDbEntity
  8
1
  6
CONTINUOUS
 62
     7
100
AcDbCircle
 10
-90.25000500000796
 20
722.4433348013531
 30
0.0
 40
0.5000000000000004
100
AcDbArc
 50
270.0000000000001
 51
0.0
  0
LINE
  5
B7
330
1F
100
AcDbEntity
  8
1
  6
CONTINUOUS
 62
     7
100
AcDbLine
 10
-89.75000500000796
 20
730.9433348013531
 30
0.0
 11
-89.75000500000796
 21
722.4433348013531
 31
0.0
  0
LINE
  5
B8
330
1F
100
AcDbEntity
  8
1
  6
CONTINUOUS
 62
     7
100
AcDbLine
 10
-88.75000500000796
 20
730.9433348013531
 30
0.0
 11
-88.75000500000796
 21
721.9433348013531
 31
0.0
  0
ARC
  5
B9
330
1F
100
AcDbEntity
  8
1
  6
CONTINUOUS
 62
     7
100
AcDbCircle
 10
-89.75000500000796
 20
721.9433348013531
 30
0.0
 40
0.9999999999998899
100
AcDbArc
 50
270.0
 51
0.0
  0
LINE
  5
BA
330
1F
100
AcDbEntity
  8
1
  6
CONTINUOUS
 62
     7
100
AcDbLine
 10
-93.25000500000796
 20
720.9433348013532
 30
0.0
 11
-92.75000500000796
 21
720.9433348013532
 31
0.0
  0
LINE
  5
BB
330
1F
100
AcDbEntity
  8
1
  6
CONTINUOUS
 62
     7
100
AcDbLine
 10
-90.25000500000796
 20
721.9433348013531
 30
0.0
 11
-93.25000500000796
 21
721.9433348013531
 31
0.0
  0
LINE
  5
BC
330
1F
100
AcDbEntity
  8
1
  6
CONTINUOUS
 62
     7
100
AcDbLine
 10
-93.25000500000796
 20
720.9433348013532
 30
0.0
 11
-93.75000500000796
 21
720.9433348013532
 31
0.0
  0
LINE
  5
BD
330
1F
100
AcDbEntity
  8
1
  6
CONTINUOUS
 62
     7
100
AcDbLine
 10
-93.75000500000796
 20
721.9433348013531
 30
0.0
 11
-93.25000500000796
 21
721.9433348013531
 31
0.0
  0
LINE
  5
BE
330
1F
100
AcDbEntity
  8
1
  6
CONTINUOUS
 62
     7
100
AcDbLine
 10
-88.75000500000796
 20
735.9433348013531
 30
0.0
 11
-89.75000500000796
 21
735.9433348013531
 31
0.0
  0
LINE
  5
BF
330
1F
100
AcDbEntity
  8
1
  6
CONTINUOUS
 62
     7
100
AcDbLine
 10
-89.75000500000796
 20
730.9433348013531
 30
0.0
 11
-89.75000500000796
 21
735.9433348013531
 31
0.0
  0
LINE
  5
C0
330
1F
100
AcDbEntity
  8
1
  6
CONTINUOUS
 62
     7
100
AcDbLine
 10
-88.75000500000796
 20
735.9433348013531
 30
0.0
 11
-88.75000500000796
 21
730.9433348013531
 31
0.0
  0
LINE
  5
C1
330
1F
100
AcDbEntity
  8
1
  6
CONTINUOUS
 62
     7
100
AcDbLine
 10
-88.75000500000796
 20
720.9433348013532
 30
0.0
 11
-88.75000500000796
 21
720.4433348013531
 31
0.0
  0
LINE
  5
C2
330
1F
100
AcDbEntity
  8
1
  6
CONTINUOUS
 62
     7
100
AcDbLine
 10
-89.25000500000796
 20
720.9433348013532
 30
0.0
 11
-88.75000500000796
 21
720.9433348013532
 31
0.0
  0
LINE
  5
C3
330
1F
100
AcDbEntity
  8
1
  6
CONTINUOUS
 62
     7
100
AcDbLine
 10
-88.75000500000796
 20
720.4433348013531
 30
0.0
 11
-89.25000500000796
 21
720.4433348013531
 31
0.0
  0
LINE
  5
C4
330
1F
100
AcDbEntity
  8
1
  6
CONTINUOUS
 62
     7
100
AcDbLine
 10
-92.25000500000796
 20
720.9433348013532
 30
0.0
 11
-89.25000500000796
 21
720.9433348013532
 31
0.0
  0
LINE
  5
C5
330
1F
100
AcDbEntity
  8
1
  6
CONTINUOUS
 62
     7
100
AcDbLine
 10
-89.25000500000796
 20
720.4433348013531
 30
0.0
 11
-92.25000500000796
 21
720.4433348013531
 31
0.0
  0
LINE
  5
C6
330
1F
100
AcDbEntity
  8
1
  6
CONTINUOUS
 62
     7
100
AcDbLine
 10
-92.75000500000796
 20
720.9433348013532
 30
0.0
 11
-92.25000500000796
 21
720.9433348013532
 31
0.0
  0
LINE
  5
C7
330
1F
100
AcDbEntity
  8
1
  6
CONTINUOUS
 62
     7
100
AcDbLine
 10
-93.75000500000796
 20
720.4433348013531
 30
0.0
 11
-92.75000500000796
 21
720.4433348013531
 31
0.0
  0
LINE
  5
C8
330
1F
100
AcDbEntity
  8
1
  6
CONTINUOUS
 62
     7
100
AcDbLine
 10
-93.75000500000796
 20
582.9433348013531
 30
0.0
 11
-92.75000500000796
 21
582.9433348013531
 31
0.0
  0
ARC
  5
C9
330
1F
100
AcDbEntity
  8
1
  6
CONTINUOUS
 62
     7
100
AcDbCircle
 10
-89.25000500000796
 20
583.4433348013531
 30
0.0
 40
0.5000000000000004
100
AcDbArc
 50
270.0
 51
0.0
  0
LINE
  5
CA
330
1F
100
AcDbEntity
  8
1
  6
CONTINUOUS
 62
     7
100
AcDbLine
 10
-92.75000500000796
 20
720.4433348013531
 30
0.0
 11
-89.25000500000796
 21
720.4433348013531
 31
0.0
  0
LINE
  5
CB
330
1F
100
AcDbEntity
  8
1
  6
CONTINUOUS
 62
     7
100
AcDbLine
 10
-88.75000500000796
 20
719.9433348013531
 30
0.0
 11
-88.75000500000796
 21
583.4433348013531
 31
0.0
  0
ARC
  5
CC
330
1F
100
AcDbEntity
  8
1
  6
CONTINUOUS
 62
     7
100
AcDbCircle
 10
-89.25000500000796
 20
719.9433348013531
 30
0.0
 40
0.500000000000056
100
AcDbArc
 50
0.0
 51
90.0
  0
LINE
  5
CD
330
1F
100
AcDbEntity
  8
1
  6
CONTINUOUS
 62
     7
100
AcDbLine
 10
-92.75000500000796
 20
582.9433348013531
 30
0.0
 11
-89.25000500000796
 21
582.9433348013531
 31
0.0
  0
LINE
  5
CE
330
1F
100
AcDbEntity
  8
1
  6
CONTINUOUS
 62
     7
100
AcDbLine
 10
-46.25000500000796
 20
698.9433348013531
 30
0.0
 11
-46.25000500000796
 21
608.9433348013532
 31
0.0
  0
LINE
  5
CF
330
1F
100
AcDbEntity
  8
1
  6
CONTINUOUS
 62
     7
100
AcDbLine
 10
-75.75000500000789
 20
702.4433348013531
 30
0.0
 11
-75.75000500000789
 21
702.376531998774
 31
0.0
  0
LINE
  5
D0
330
1F
100
AcDbEntity
  8
1
  6
CONTINUOUS
 62
     7
100
AcDbLine
 10
-60.92427338926145
 20
633.5946514585555
 30
0.0
 11
-59.63823661075473
 21
633.7046194307962
 31
0.0
  0
LINE
  5
D1
330
1F
100
AcDbEntity
  8
1
  6
CONTINUOUS
 62
     7
100
AcDbLine
 10
-75.75000500000789
 20
702.3765319987739
 30
0.0
 11
-75.2966753543544
 21
702.3478097582588
 31
0.0
  0
LINE
  5
D2
330
1F
100
AcDbEntity
  8
1
  6
CONTINUOUS
 62
     7
100
AcDbLine
 10
-60.92427338926131
 20
702.2442526980166
 30
0.0
 11
-75.29667535435459
 21
702.3478097582588
 31
0.0
  0
LINE
  5
D3
330
1F
100
AcDbEntity
  8
1
  6
CONTINUOUS
 62
     7
100
AcDbLine
 10
-59.63823661075462
 20
702.2331431011081
 30
0.0
 11
-60.92427338926131
 21
702.2442526980166
 31
0.0
  0
LINE
  5
D4
330
1F
100
AcDbEntity
  8
1
  6
CONTINUOUS
 62
     7
100
AcDbLine
 10
-74.29667535435453
 20
630.7067385164303
 30
0.0
 11
-69.36768889254272
 21
631.121915519877
 31
0.0
  0
ARC
  5
D5
330
1F
100
AcDbEntity
  8
1
  6
CONTINUOUS
 62
     7
100
AcDbCircle
 10
-70.08370897740002
 20
639.8257654135897
 30
0.0
 40
8.733251841908626
100
AcDbArc
 50
274.7028335869254
 51
287.5410536714101
  0
LINE
  5
D6
330
1F
100
AcDbEntity
  8
1
  6
CONTINUOUS
 62
     7
100
AcDbLine
 10
-60.92427338926146
 20
633.5946514585556
 30
0.0
 11
-67.45160222905847
 21
631.4985989207462
 31
0.0
  0
LINE
  5
D7
330
1F
100
AcDbEntity
  8
1
  6
CONTINUOUS
 62
     7
100
AcDbLine
 10
-59.85113512891937
 20
633.6625062890096
 30
0.0
 11
-59.63823661075443
 21
633.7046194307962
 31
0.0
  0
ARC
  5
D8
330
1F
100
AcDbEntity
  8
1
  6
CONTINUOUS
 62
     7
100
AcDbCircle
 10
-68.61450650356572
 20
633.7818426002507
 30
0.0
 40
9.17400373558911
100
AcDbArc
 50
265.2907367365249
 51
278.6250455890108
  0
LINE
  5
D9
330
1F
100
AcDbEntity
  8
1
  6
CONTINUOUS
 62
     7
100
AcDbLine
 10
-74.29667535435425
 20
625.0241431801654
 30
0.0
 11
-69.36768889254301
 21
624.6388091414069
 31
0.0
  0
LWPOLYLINE
  5
DA
330
1F
100
AcDbEntity
  8
1
  6
CONTINUOUS
 62
     7
100
AcDbPolyline
 90
       36
 70
     0
 43
0.0
 10
-74.75000500000797
 20
625.4415553244818
 10
-74.74957076117514
 20
625.4240727675794
 10
-74.74827104669532
 20
625.4066098233072
 10
-74.74611035959646
 20
625.389211527103
 10
-74.74309320290651
 20
625.3719229144051
 10
-74.73909432526588
 20
625.3542630591654
 10
-74.73419491448493
 20
625.3367512002839
 10
-74.72840957360422
 20
625.3194348872107
 10
-74.72175290566437
 20
625.3023616693961
 10
-74.71445241232024
 20
625.2860184394443
 10
-74.70634108624918
 20
625.269933385267
 10
-74.6974408611517
 20
625.2541475622158
 10
-74.68777367072829
 20
625.2387020256425
 10
-74.6770311511261
 20
625.2231780547306
 10
-74.66549492437431
 20
625.2080424626593
 10
-74.65319755425253
 20
625.1933359614795
 10
-74.64017160454034
 20
625.1790992632424
 10
-74.62682996004719
 20
625.1657334606763
 10
-74.61282349841748
 20
625.1528344702031
 10
-74.59818921280767
 20
625.1404348948532
 10
-74.58296409637417
 20
625.1285673376567
 10
-74.56669077030831
 20
625.1169222144825
 10
-74.54982038610595
 20
625.1058618386473
 10
-74.53239996494918
 20
625.0954156139572
 10
-74.51447652802
 20
625.0856129442182
 10
-74.49661728559764
 20
625.076726249875
 10
-74.47831527204013
 20
625.0684614630131
 10
-74.45961838700202
 20
625.0608390786779
 10
-74.44057453013784
 20
625.0538795919144
 10
-74.42062999229289
 20
625.0474180011234
 10
-74.40035371397371
 20
625.0416707014032
 10
-74.37980179936837
 20
625.0366524274625
 10
-74.35903035266493
 20
625.0323779140109
 10
-74.3383932286069
 20
625.0289027667445
 10
-74.31758974570756
 20
625.0261554247481
 10
-74.2966753543543
 20
625.0241431801655
  0
LINE
  5
DB
330
1F
100
AcDbEntity
  8
1
  6
CONTINUOUS
 62
     7
100
AcDbLine
 10
-74.75000500000796
 20
625.4415553244818
 30
0.0
 11
-74.75000500000797
 21
630.0114545382704
 31
0.0
  0
LINE
  5
DC
330
1F
100
AcDbEntity
  8
1
  6
CONTINUOUS
 62
     7
100
AcDbLine
 10
-74.75000500000797
 20
630.0114545382705
 30
0.0
 11
-74.75000500000797
 21
630.261773891212
 31
0.0
  0
LWPOLYLINE
  5
DD
330
1F
100
AcDbEntity
  8
1
  6
CONTINUOUS
 62
     7
100
AcDbPolyline
 90
       37
 70
     0
 43
0.0
 10
74.75000500000797
 20
630.261773891212
 10
74.74957576850521
 20
630.2802405098059
 10
74.74828589039441
 20
630.2987108957607
 10
74.7461241882322
 20
630.3172172114985
 10
74.7430928837608
 20
630.3356629697649
 10
74.73911394199902
 20
630.3543475035812
 10
74.73423656124604
 20
630.3729014984785
 10
74.72844181058716
 20
630.3913576135456
 10
74.72175161632418
 20
630.4096123263414
 10
74.7144822736536
 20
630.4269397729447
 10
74.7064006895255
 20
630.4440163772377
 10
74.69748424879559
 20
630.4608690731761
 10
74.68777080271035
 20
630.4774071036605
 10
74.67707524222857
 20
630.493890352369
 10
74.6655812314125
 20
630.5099838171809
 10
74.65325858758192
 20
630.5257126224383
 10
74.6401663943686
 20
630.5409850921359
 10
74.62687865283263
 20
630.5552023906682
 10
74.61291859673013
 20
630.5689413456953
 10
74.59825471910722
 20
630.5822206023826
 10
74.58295638759802
 20
630.5949653900948
 10
74.56675191402975
 20
630.6073666092122
 10
74.5499393129461
 20
630.619161581936
 10
74.53248057794872
 20
630.6303650484107
 10
74.51446555473264
 20
630.6409076996114
 10
74.49667717479532
 20
630.6503842965865
 10
74.47843330596776
 20
630.6592095089951
 10
74.45954230967897
 20
630.6674555098856
 10
74.44028027631083
 20
630.6749846004163
 10
74.42053920127609
 20
630.6818285863842
 10
74.4004916628544
 20
630.6879189316137
 10
74.37989335114695
 20
630.6933115064634
 10
74.35901614343805
 20
630.6979153400422
 10
74.343594548584
 20
630.7007749827679
 10
74.32806427223865
 20
630.703200294141
 10
74.3124090447798
 20
630.7051910327107
 10
74.29667535435443
 20
630.7067385164303
210
0.0
220
0.0
230
-1.0
  0
LINE
  5
DE
330
1F
100
AcDbEntity
  8
1
  6
CONTINUOUS
 62
     7
100
AcDbLine
 10
-59.85113512891976
 20
625.8846991413355
 30
0.0
 11
-67.23870371089352
 21
624.7115884022539
 31
0.0
  0
LINE
  5
DF
330
1F
100
AcDbEntity
  8
1
  6
CONTINUOUS
 62
     7
100
AcDbLine
 10
-59.63823661075448
 20
625.8922418721551
 30
0.0
 11
-59.85113512891976
 21
625.8846991413355
 31
0.0
  0
LINE
  5
E0
330
1F
100
AcDbEntity
  8
1
  6
CONTINUOUS
 62
     7
100
AcDbLine
 10
-59.6382366107544
 20
702.2331431011081
 30
0.0
 11
-59.85113512891976
 21
702.2827989737143
 31
0.0
  0
ARC
  5
E1
330
1F
100
AcDbEntity
  8
1
  6
CONTINUOUS
 62
     7
100
AcDbCircle
 10
-69.39853467349758
 20
701.3129562579579
 30
0.0
 40
4.50583408969037
100
AcDbArc
 50
64.39963695318885
 51
89.60776477036121
  0
LINE
  5
E2
330
1F
100
AcDbEntity
  8
1
  6
CONTINUOUS
 62
     7
100
AcDbLine
 10
-69.36768889254273
 20
705.818684765271
 30
0.0
 11
-74.29667535435365
 21
705.8486711176321
 31
0.0
  0
LINE
  5
E3
330
1F
100
AcDbEntity
  8
1
  6
CONTINUOUS
 62
     7
100
AcDbLine
 10
-67.45160222905848
 20
705.3764516622382
 30
0.0
 11
-60.92427338926144
 21
702.2442526980166
 31
0.0
  0
LINE
  5
E4
330
1F
100
AcDbEntity
  8
1
  6
CONTINUOUS
 62
     7
100
AcDbLine
 10
-74.75000500000799
 20
706.3769945413071
 30
0.0
 11
-74.75000500000799
 21
706.4433348013531
 31
0.0
  0
LINE
  5
E5
330
1F
100
AcDbEntity
  8
1
  6
CONTINUOUS
 62
     7
100
AcDbLine
 10
-74.29667535435416
 20
705.8486711176322
 30
0.0
 11
-74.75000500000799
 21
705.8763558354243
 31
0.0
  0
LINE
  5
E6
330
1F
100
AcDbEntity
  8
1
  6
CONTINUOUS
 62
     7
100
AcDbLine
 10
-74.75000500000799
 20
705.8763558354243
 30
0.0
 11
-74.75000500000799
 21
706.3769945413071
 31
0.0
  0
LINE
  5
E7
330
1F
100
AcDbEntity
  8
1
  6
CONTINUOUS
 62
     7
100
AcDbLine
 10
-93.75000500000796
 20
581.9433348013532
 30
0.0
 11
-93.75000500000796
 21
725.3933348013531
 31
0.0
  0
ARC
  5
E8
330
1F
100
AcDbEntity
  8
1
  6
CONTINUOUS
 62
     7
100
AcDbCircle
 10
-94.25000500000796
 20
581.9433348013532
 30
0.0
 40
0.500000000000056
100
AcDbArc
 50
270.0
 51
0.0
  0
LINE
  5
E9
330
1F
100
AcDbEntity
  8
1
  6
CONTINUOUS
 62
     7
100
AcDbLine
 10
-152.7500050000079
 20
581.4433348013531
 30
0.0
 11
-94.25000500000796
 21
581.4433348013531
 31
0.0
  0
ARC
  5
EA
330
1F
100
AcDbEntity
  8
1
  6
CONTINUOUS
 62
     7
100
AcDbCircle
 10
-94.25000500000796
 20
725.3933348013531
 30
0.0
 40
0.5000000000000004
100
AcDbArc
 50
0.0
 51
90.00000000000006
  0
LINE
  5
EB
330
1F
100
AcDbEntity
  8
1
  6
CONTINUOUS
 62
     7
100
AcDbLine
 10
-153.7500050000079
 20
581.4433348013531
 30
0.0
 11
-153.7500050000079
 21
725.4433348013531
 31
0.0
  0
LINE
  5
EC
330
1F
100
AcDbEntity
  8
1
  6
CONTINUOUS
 62
     7
100
AcDbLine
 10
-153.6430335549825
 20
725.893334801353
 30
0.0
 11
-153.7500050000079
 21
725.4433348013531
 31
0.0
  0
LINE
  5
ED
330
1F
100
AcDbEntity
  8
1
  6
CONTINUOUS
 62
     7
100
AcDbLine
 10
-152.7500050000079
 20
581.4433348013531
 30
0.0
 11
-153.7500050000079
 21
581.4433348013531
 31
0.0
  0
LINE
  5
EE
330
1F
100
AcDbEntity
  8
1
  6
CONTINUOUS
 62
     7
100
AcDbLine
 10
-94.25000500000796
 20
726.4433348013531
 30
0.0
 11
-98.75000500000796
 21
726.4433348013531
 31
0.0
  0
LINE
  5
EF
330
1F
100
AcDbEntity
  8
1
  6
CONTINUOUS
 62
     7
100
AcDbLine
 10
-94.25000500000796
 20
726.4433348013531
 30
0.0
 11
-93.75000500000796
 21
726.4433348013531
 31
0.0
  0
LINE
  5
F0
330
1F
100
AcDbEntity
  8
1
  6
CONTINUOUS
 62
     7
100
AcDbLine
 10
-93.75000500000796
 20
726.4433348013531
 30
0.0
 11
-93.75000500000796
 21
725.9433348013531
 31
0.0
  0
LINE
  5
F1
330
1F
100
AcDbEntity
  8
1
  6
CONTINUOUS
 62
     7
100
AcDbLine
 10
-93.75000500000796
 20
725.9433348013531
 30
0.0
 11
-94.25000500000796
 21
725.9433348013531
 31
0.0
  0
ARC
  5
F2
330
1F
100
AcDbEntity
  8
1
  6
CONTINUOUS
 62
     7
100
AcDbCircle
 10
-152.7500050000079
 20
725.4433348013531
 30
0.0
 40
0.9999999999999746
100
AcDbArc
 50
90.0
 51
153.2563160495966
  0
LINE
  5
F3
330
1F
100
AcDbEntity
  8
1
  6
CONTINUOUS
 62
     7
100
AcDbLine
 10
-152.7500050000079
 20
726.4433348013531
 30
0.0
 11
-98.75000500000796
 21
726.4433348013531
 31
0.0
  0
LINE
  5
F4
330
1F
100
AcDbEntity
  8
1
  6
CONTINUOUS
 62
     7
100
AcDbLine
 10
-101.5699341730911
 20
556.0961811323766
 30
0.0
 11
-101.6726372518969
 21
556.1805338525786
 31
0.0
  0
LINE
  5
F5
330
1F
100
AcDbEntity
  8
1
  6
CONTINUOUS
 62
     7
100
AcDbLine
 10
-101.6726372518969
 20
556.1805338525786
 30
0.0
 11
-101.6736067367658
 21
556.1793784655031
 31
0.0
  0
LINE
  5
F6
330
1F
100
AcDbEntity
  8
1
  6
CONTINUOUS
 62
     7
100
AcDbLine
 10
-101.6736067367658
 20
556.1793784655031
 30
0.0
 11
-102.3370206849347
 21
556.7360488647295
 31
0.0
  0
LINE
  5
F7
330
1F
100
AcDbEntity
  8
1
  6
CONTINUOUS
 62
     7
100
AcDbLine
 10
-89.7730057205029
 20
571.7092588359985
 30
0.0
 11
-89.6908019642333
 21
571.6793391155716
 31
0.0
  0
LINE
  5
F8
330
1F
100
AcDbEntity
  8
1
  6
CONTINUOUS
 62
     7
100
AcDbLine
 10
-89.63302722156746
 20
571.7647286061964
 30
0.0
 11
-89.75000500000796
 21
571.8073050356193
 31
0.0
  0
LINE
  5
F9
330
1F
100
AcDbEntity
  8
1
  6
CONTINUOUS
 62
     7
100
AcDbLine
 10
-88.75000500000796
 20
580.9433348013531
 30
0.0
 11
-88.75000500000796
 21
571.7112839937843
 31
0.0
  0
LINE
  5
FA
330
1F
100
AcDbEntity
  8
1
  6
CONTINUOUS
 62
     7
100
AcDbLine
 10
-89.75000500000796
 20
580.9433348013531
 30
0.0
 11
-88.75000500000796
 21
580.9433348013531
 31
0.0
  0
LINE
  5
FB
330
1F
100
AcDbEntity
  8
1
  6
CONTINUOUS
 62
     7
100
AcDbLine
 10
-93.42101507167078
 20
573.143443431396
 30
0.0
 11
-89.75000500000796
 21
571.8073050356193
 31
0.0
  0
ARC
  5
FC
330
1F
100
AcDbEntity
  8
1
  6
CONTINUOUS
 62
     7
100
AcDbCircle
 10
-93.25000500000796
 20
573.6132897417889
 30
0.0
 40
0.5000000000000004
100
AcDbArc
 50
180.0
 51
250.000000000001
  0
LINE
  5
FD
330
1F
100
AcDbEntity
  8
1
  6
CONTINUOUS
 62
     7
100
AcDbLine
 10
-93.75000500000796
 20
577.9433348013532
 30
0.0
 11
-93.75000500000796
 21
573.6132897417889
 31
0.0
  0
ARC
  5
FE
330
1F
100
AcDbEntity
  8
1
  6
CONTINUOUS
 62
     7
100
AcDbCircle
 10
-90.75000500000796
 20
577.9433348013532
 30
0.0
 40
2.999999999999892
100
AcDbArc
 50
90.0
 51
180.0
  0
LINE
  5
FF
330
1F
100
AcDbEntity
  8
1
  6
CONTINUOUS
 62
     7
100
AcDbLine
 10
-90.75000500000796
 20
580.9433348013531
 30
0.0
 11
-89.75000500000796
 21
580.9433348013531
 31
0.0
  0
LINE
  5
100
330
1F
100
AcDbEntity
  8
1
  6
CONTINUOUS
 62
     7
100
AcDbLine
 10
-102.3370206849347
 20
556.7360488647295
 30
0.0
 11
-103.1378460799767
 21
557.4080211583466
 31
0.0
  0
ARC
  5
101
330
1F
100
AcDbEntity
  8
1
  6
CONTINUOUS
 62
     7
100
AcDbCircle
 10
-101.209483250917
 20
559.7061544877035
 30
0.0
 40
3.000000000000002
100
AcDbArc
 50
140.0
 51
230.0
  0
ARC
  5
102
330
1F
100
AcDbEntity
  8
1
  6
CONTINUOUS
 62
     7
100
AcDbCircle
 10
-93.66042917199874
 20
572.5920763740935
 30
0.0
 40
0.4999999999999696
100
AcDbArc
 50
69.99999999999979
 51
140.0000000000009
  0
LINE
  5
103
330
1F
100
AcDbEntity
  8
1
  6
CONTINUOUS
 62
     7
100
AcDbLine
 10
-93.48941910033592
 20
573.0619226844864
 30
0.0
 11
-89.7730057205029
 21
571.7092588359985
 31
0.0
  0
LINE
  5
104
330
1F
100
AcDbEntity
  8
1
  6
CONTINUOUS
 62
     7
100
AcDbLine
 10
-103.507616580274
 20
561.6345173167632
 30
0.0
 11
-94.04345139355824
 21
572.9134701789367
 31
0.0
  0
ARC
  5
105
330
1F
100
AcDbEntity
  8
1
  6
CONTINUOUS
 62
     7
100
AcDbCircle
 10
-89.75000500000796
 20
571.7112839937843
 30
0.0
 40
1.000000000000001
100
AcDbArc
 50
350.9576281553775
 51
0.0
  0
LINE
  5
106
330
1F
100
AcDbEntity
  8
1
  6
CONTINUOUS
 62
     7
100
AcDbLine
 10
-98.8013903234777
 20
554.066333636247
 30
0.0
 11
-101.5699341730911
 21
556.0961811323766
 31
0.0
  0
LINE
  5
107
330
1F
100
AcDbEntity
  8
1
  6
CONTINUOUS
 62
     7
100
AcDbLine
 10
-88.88397959622351
 20
571.2112839937843
 30
0.0
 11
-89.0364465948405
 21
570.9472034057021
 31
0.0
  0
LINE
  5
108
330
1F
100
AcDbEntity
  8
1
  6
CONTINUOUS
 62
     7
100
AcDbLine
 10
-89.0364465948405
 20
570.9472034057021
 30
0.0
 11
-98.78820337544141
 21
554.0566651986469
 31
0.0
  0
LINE
  5
109
330
1F
100
AcDbEntity
  8
1
  6
CONTINUOUS
 62
     7
100
AcDbLine
 10
-98.78820337544144
 20
554.0566651986469
 30
0.0
 11
-98.79399590014373
 21
554.0593662972757
 31
0.0
  0
LINE
  5
10A
330
1F
100
AcDbEntity
  8
1
  6
CONTINUOUS
 62
     7
100
AcDbLine
 10
-88.88397959622351
 20
571.2112839937843
 30
0.0
 11
-88.86181698117647
 21
571.251803805741
 31
0.0
  0
LINE
  5
10B
330
1F
100
AcDbEntity
  8
1
  6
CONTINUOUS
 62
     7
100
AcDbLine
 10
-98.79451882861945
 20
554.0614190076299
 30
0.0
 11
-98.8013903234777
 21
554.066333636247
 31
0.0
  0
ARC
  5
10C
330
1F
100
AcDbEntity
  8
1
  6
CONTINUOUS
 62
     7
100
AcDbCircle
 10
-89.75000500000796
 20
571.7112839937843
 30
0.0
 40
0.9999999999999954
100
AcDbArc
 50
332.6464299267035
 51
350.9576281553775
  0
LINE
  5
10D
330
1F
100
AcDbEntity
  8
1
  6
CONTINUOUS
 62
     7
100
AcDbLine
 10
-89.75000500000796
 20
581.4433348013531
 30
0.0
 11
-93.25000500000796
 21
581.4433348013531
 31
0.0
  0
ARC
  5
10E
330
1F
100
AcDbEntity
  8
1
  6
CONTINUOUS
 62
     7
100
AcDbCircle
 10
-93.25000500000796
 20
582.4433348013531
 30
0.0
 40
1.000000000000006
100
AcDbArc
 50
233.1301023527479
 51
270.0
  0
ARC
  5
10F
330
1F
100
AcDbEntity
  8
1
  6
CONTINUOUS
 62
     7
100
AcDbCircle
 10
-93.25000500000796
 20
582.4433348013531
 30
0.0
 40
0.4999999999999449
100
AcDbArc
 50
180.0
 51
270.0
  0
LINE
  5
110
330
1F
100
AcDbEntity
  8
1
  6
CONTINUOUS
 62
     7
100
AcDbLine
 10
-89.75000500000796
 20
581.9433348013532
 30
0.0
 11
-93.25000500000796
 21
581.9433348013532
 31
0.0
  0
ARC
  5
111
330
1F
100
AcDbEntity
  8
1
  6
CONTINUOUS
 62
     7
100
AcDbCircle
 10
-89.75000500000796
 20
580.9433348013531
 30
0.0
 40
0.500000000000056
100
AcDbArc
 50
0.0
 51
90.0
  0
ARC
  5
112
330
1F
100
AcDbEntity
  8
1
  6
CONTINUOUS
 62
     7
100
AcDbCircle
 10
-89.75000500000796
 20
580.9433348013531
 30
0.0
 40
1.000000000000001
100
AcDbArc
 50
0.0
 51
90.0
  0
LINE
  5
113
330
1F
100
AcDbEntity
  8
1
  6
CONTINUOUS
 62
     7
100
AcDbLine
 10
-98.7944415146845
 20
554.0613603192359
 30
0.0
 11
-98.79399590014357
 21
554.0593662972759
 31
0.0
  0
LINE
  5
114
330
1F
100
AcDbEntity
  8
1
  6
CONTINUOUS
 62
     7
100
AcDbLine
 10
-98.90634614220025
 20
554.1117560755422
 30
0.0
 11
-98.79399590014373
 21
554.0593662972757
 31
0.0
  0
LINE
  5
115
330
1F
100
AcDbEntity
  8
1
  6
CONTINUOUS
 62
     7
100
AcDbLine
 10
-98.90634614220025
 20
554.1117560755422
 30
0.0
 11
-99.24308824321514
 21
554.2687814960688
 31
0.0
  0
LINE
  5
116
330
1F
100
AcDbEntity
  8
1
  6
CONTINUOUS
 62
     7
100
AcDbLine
 10
-99.24308824321514
 20
554.2687814960688
 30
0.0
 11
-99.19484744296255
 21
554.3523370131039
 31
0.0
  0
ARC
  5
117
330
1F
100
AcDbEntity
  8
1
  6
CONTINUOUS
 62
     7
100
AcDbCircle
 10
-49.75000500000798
 20
698.9433348013532
 30
0.0
 40
3.500000000000003
100
AcDbArc
 50
0.0
 51
90.0
  0
ARC
  5
118
330
1F
100
AcDbEntity
  8
1
  6
CONTINUOUS
 62
     7
100
AcDbCircle
 10
-49.75000500000798
 20
608.9433348013531
 30
0.0
 40
3.499999999999948
100
AcDbArc
 50
270.0
 51
0.0
  0
LINE
  5
119
330
1F
100
AcDbEntity
  8
1
  6
CONTINUOUS
 62
     7
100
AcDbLine
 10
-75.75000500000789
 20
702.4433348013531
 30
0.0
 11
-88.75000500000797
 21
702.4433348013531
 31
0.0
  0
LINE
  5
11A
330
1F
100
AcDbEntity
  8
1
  6
CONTINUOUS
 62
     7
100
AcDbLine
 10
-49.75000500000798
 20
702.4433348013531
 30
0.0
 11
-59.63823661075443
 21
702.4433348013531
 31
0.0
  0
LINE
  5
11B
330
1F
100
AcDbEntity
  8
1
  6
CONTINUOUS
 62
     7
100
AcDbLine
 10
-88.75000500000796
 20
605.4433348013531
 30
0.0
 11
-49.75000500000798
 21
605.4433348013531
 31
0.0
  0
ARC
  5
11C
330
1F
100
AcDbEntity
  8
1
  6
CONTINUOUS
 62
     7
100
AcDbCircle
 10
-59.63823661075443
 20
702.9433348013532
 30
0.0
 40
0.500000000000056
100
AcDbArc
 50
244.7988763545287
 51
269.9999999999984
  0
LINE
  5
11D
330
1F
100
AcDbEntity
  8
1
  6
CONTINUOUS
 62
     7
100
AcDbLine
 10
-59.85113512891932
 20
702.4909254502526
 30
0.0
 11
-67.23870371089353
 21
705.9674283123582
 31
0.0
  0
ARC
  5
11E
330
1F
100
AcDbEntity
  8
1
  6
CONTINUOUS
 62
     7
100
AcDbCircle
 10
-69.36768889254293
 20
701.4433348013531
 30
0.0
 40
5.000000000000044
100
AcDbArc
 50
64.79887635452496
 51
89.99999999999991
  0
LINE
  5
11F
330
1F
100
AcDbEntity
  8
1
  6
CONTINUOUS
 62
     7
100
AcDbLine
 10
-69.36768889254294
 20
706.4433348013531
 30
0.0
 11
-74.75000500000797
 21
706.4433348013531
 31
0.0
  0
ARC
  5
120
330
1F
100
AcDbEntity
  8
1
  6
CONTINUOUS
 62
     7
100
AcDbCircle
 10
-280.0
 20
447.750005000008
 30
0.0
 40
1.49999999999998
100
AcDbArc
 50
166.5066011784483
 51
193.4933988215516
  0
ARC
  5
121
330
1F
100
AcDbEntity
  8
1
  6
CONTINUOUS
 62
     7
100
AcDbCircle
 10
-280.0
 20
447.750005000008
 30
0.0
 40
1.499999999999993
100
AcDbArc
 50
256.5066011784482
 51
283.4933988215516
  0
ARC
  5
122
330
1F
100
AcDbEntity
  8
1
  6
CONTINUOUS
 62
     7
100
AcDbCircle
 10
-280.0
 20
447.750005000008
 30
0.0
 40
1.49999999999998
100
AcDbArc
 50
346.5066011784484
 51
13.49339882155175
  0
ARC
  5
123
330
1F
100
AcDbEntity
  8
1
  6
CONTINUOUS
 62
     7
100
AcDbCircle
 10
-280.0
 20
447.750005000008
 30
0.0
 40
1.499999999999993
100
AcDbArc
 50
76.5066011784483
 51
103.4933988215517
  0
LINE
  5
124
330
1F
100
AcDbEntity
  8
1
  6
CONTINUOUS
 62
     7
100
AcDbLine
 10
-278.5414047854185
 20
447.400005000008
 30
0.0
 11
-279.65
 21
447.400005000008
 31
0.0
  0
LINE
  5
125
330
1F
100
AcDbEntity
  8
1
  6
CONTINUOUS
 62
     7
100
AcDbLine
 10
-279.65
 20
447.400005000008
 30
0.0
 11
-279.65
 21
446.2914097854265
 31
0.0
  0
LINE
  5
126
330
1F
100
AcDbEntity
  8
1
  6
CONTINUOUS
 62
     7
100
AcDbLine
 10
-280.35
 20
448.100005000008
 30
0.0
 11
-280.35
 21
449.2086002145895
 31
0.0
  0
LINE
  5
127
330
1F
100
AcDbEntity
  8
1
  6
CONTINUOUS
 62
     7
100
AcDbLine
 10
-279.65
 20
449.2086002145895
 30
0.0
 11
-279.65
 21
448.100005000008
 31
0.0
  0
LINE
  5
128
330
1F
100
AcDbEntity
  8
1
  6
CONTINUOUS
 62
     7
100
AcDbLine
 10
-279.65
 20
448.100005000008
 30
0.0
 11
-278.5414047854185
 21
448.100005000008
 31
0.0
  0
LINE
  5
129
330
1F
100
AcDbEntity
  8
1
  6
CONTINUOUS
 62
     7
100
AcDbLine
 10
-281.4585952145815
 20
448.100005000008
 30
0.0
 11
-280.35
 21
448.100005000008
 31
0.0
  0
LINE
  5
12A
330
1F
100
AcDbEntity
  8
1
  6
CONTINUOUS
 62
     7
100
AcDbLine
 10
-280.35
 20
447.400005000008
 30
0.0
 11
-281.4585952145815
 21
447.400005000008
 31
0.0
  0
LINE
  5
12B
330
1F
100
AcDbEntity
  8
1
  6
CONTINUOUS
 62
     7
100
AcDbLine
 10
-280.35
 20
446.2914097854265
 30
0.0
 11
-280.35
 21
447.400005000008
 31
0.0
  0
ARC
  5
12C
330
1F
100
AcDbEntity
  8
1
  6
CONTINUOUS
 62
     7
100
AcDbCircle
 10
-280.0
 20
447.750005000008
 30
0.0
 40
0.7344081032030533
100
AcDbArc
 50
151.5381003333582
 51
208.4618996666418
  0
ARC
  5
12D
330
1F
100
AcDbEntity
  8
1
  6
CONTINUOUS
 62
     7
100
AcDbCircle
 10
-280.0
 20
447.750005000008
 30
0.0
 40
0.7344081032030797
100
AcDbArc
 50
241.5381003333581
 51
298.4618996666418
  0
ARC
  5
12E
330
1F
100
AcDbEntity
  8
1
  6
CONTINUOUS
 62
     7
100
AcDbCircle
 10
-280.0
 20
447.750005000008
 30
0.0
 40
0.7344081032030797
100
AcDbArc
 50
61.53810033335824
 51
118.4618996666418
  0
ARC
  5
12F
330
1F
100
AcDbEntity
  8
1
  6
CONTINUOUS
 62
     7
100
AcDbCircle
 10
-280.0
 20
447.750005000008
 30
0.0
 40
0.7344081032030533
100
AcDbArc
 50
331.5381003333582
 51
28.46189966664178
  0
ARC
  5
130
330
1F
100
AcDbEntity
  8
1
  6
CONTINUOUS
 62
     7
100
AcDbCircle
 10
-280.0
 20
447.750005000008
 30
0.0
 40
2.749999999999975
100
AcDbArc
 50
316.6582417727776
 51
180.0
  0
ARC
  5
131
330
1F
100
AcDbEntity
  8
1
  6
CONTINUOUS
 62
     7
100
AcDbCircle
 10
-280.0
 20
447.750005000008
 30
0.0
 40
2.74999999999999
100
AcDbArc
 50
223.3417582272224
 51
316.6582417727776
  0
ARC
  5
132
330
1F
100
AcDbEntity
  8
1
  6
CONTINUOUS
 62
     7
100
AcDbCircle
 10
-280.0
 20
447.750005000008
 30
0.0
 40
2.74999999999999
100
AcDbArc
 50
180.0
 51
223.3417582272224
  0
LINE
  5
133
330
1F
100
AcDbEntity
  8
1
  6
CONTINUOUS
 62
     7
100
AcDbLine
 10
-319.6348657553615
 20
405.924273389229
 30
0.0
 11
-319.5649615882222
 21
404.6382366107548
 31
0.0
  0
LINE
  5
134
330
1F
100
AcDbEntity
  8
1
  6
CONTINUOUS
 62
     7
100
AcDbLine
 10
-240.4350384117778
 20
404.6382366107545
 30
0.0
 11
-240.3651342446367
 21
405.9242733892617
 31
0.0
  0
LINE
  5
135
330
1F
100
AcDbEntity
  8
1
  6
CONTINUOUS
 62
     7
100
AcDbLine
 10
-235.0000000000001
 20
391.250005000008
 30
0.0
 11
-324.9999999999999
 21
391.250005000008
 31
0.0
  0
ARC
  5
136
330
1F
100
AcDbEntity
  8
1
  6
CONTINUOUS
 62
     7
100
AcDbCircle
 10
-238.3634031582912
 20
414.1229343641048
 30
0.0
 40
5.527409900171743
100
AcDbArc
 50
340.0689824482629
 51
2.537895413089075
  0
ARC
  5
137
330
1F
100
AcDbEntity
  8
1
  6
CONTINUOUS
 62
     7
100
AcDbCircle
 10
-242.1103933967538
 20
414.6434620317104
 30
0.0
 40
5.2438496795464
100
AcDbArc
 50
335.2924508836031
 51
356.985434308873
  0
LINE
  5
138
330
1F
100
AcDbEntity
  8
1
  6
CONTINUOUS
 62
     7
100
AcDbLine
 10
-236.8738001685764
 20
414.3676888925432
 30
0.0
 11
-236.6167849852674
 21
419.2966753543541
 31
0.0
  0
LINE
  5
139
330
1F
100
AcDbEntity
  8
1
  6
CONTINUOUS
 62
     7
100
AcDbLine
 10
-240.4350384117778
 20
404.6382366107545
 30
0.0
 11
-240.3820555466147
 21
404.8511351289198
 31
0.0
  0
LINE
  5
13A
330
1F
100
AcDbEntity
  8
1
  6
CONTINUOUS
 62
     7
100
AcDbLine
 10
-237.3466018325481
 20
412.4516022290584
 30
0.0
 11
-240.3651342446368
 21
405.9242733892614
 31
0.0
  0
LINE
  5
13B
330
1F
100
AcDbEntity
  8
1
  6
CONTINUOUS
 62
     7
100
AcDbLine
 10
-323.3832150147325
 20
419.2966753543542
 30
0.0
 11
-323.1261998314235
 21
414.3676888925425
 31
0.0
  0
ARC
  5
13C
330
1F
100
AcDbEntity
  8
1
  6
CONTINUOUS
 62
     7
100
AcDbCircle
 10
-317.8908302674984
 20
414.643160087907
 30
0.0
 40
5.242611834796602
100
AcDbArc
 50
183.0119736527486
 51
204.7101411547724
  0
LINE
  5
13D
330
1F
100
AcDbEntity
  8
1
  6
CONTINUOUS
 62
     7
100
AcDbLine
 10
-319.6348657553528
 20
405.924273389239
 30
0.0
 11
-322.653398167452
 21
412.4516022290584
 31
0.0
  0
LINE
  5
13E
330
1F
100
AcDbEntity
  8
1
  6
CONTINUOUS
 62
     7
100
AcDbLine
 10
-319.6179444533851
 20
404.8511351289193
 30
0.0
 11
-319.5649615882222
 21
404.6382366107544
 31
0.0
  0
ARC
  5
13F
330
1F
100
AcDbEntity
  8
1
  6
CONTINUOUS
 62
     7
100
AcDbCircle
 10
-321.6463931566077
 20
414.121435919019
 30
0.0
 40
5.517689883133652
100
AcDbArc
 50
177.4420555687232
 51
199.9510665699249
  0
LINE
  5
140
330
1F
100
AcDbEntity
  8
1
  6
CONTINUOUS
 62
     7
100
AcDbLine
 10
-326.9532595474371
 20
419.2966753543541
 30
0.0
 11
-327.1585851996579
 21
414.3676888925428
 31
0.0
  0
LWPOLYLINE
  5
141
330
1F
100
AcDbEntity
  8
1
  6
CONTINUOUS
 62
     7
100
AcDbPolyline
 90
       36
 70
     0
 43
0.0
 10
-326.7280976188147
 20
419.7500050000079
 10
-326.7375846778449
 20
419.7495707611751
 10
-326.7470561880303
 20
419.7482710466953
 10
-326.7564877800021
 20
419.7461103595965
 10
-326.7658550843917
 20
419.7430932029066
 10
-326.7754185190034
 20
419.7390943252659
 10
-326.7848968417043
 20
419.7341949144849
 10
-326.7942644837169
 20
419.7284095736042
 10
-326.8034958762631
 20
419.7217529056643
 10
-326.8123281176152
 20
419.7144524123202
 10
-326.8210166157462
 20
419.7063410862492
 10
-326.8295394277129
 20
419.6974408611517
 10
-326.8378746105718
 20
419.6877736707283
 10
-326.8462481942494
 20
419.6770311511261
 10
-326.8544085230826
 20
419.6654949243743
 10
-326.86233396089
 20
419.6531975542526
 10
-326.8700028714905
 20
419.6401716045403
 10
-326.8771996376652
 20
419.6268299600472
 10
-326.8841422947161
 20
419.6128234984175
 10
-326.8908136043076
 20
419.5981892128077
 10
-326.897196328104
 20
419.5829640963742
 10
-326.9034571816346
 20
419.5666907703084
 10
-326.9094016053375
 20
419.549820386106
 10
-326.9150141201407
 20
419.5323999649491
 10
-326.9202792469722
 20
419.5144765280201
 10
-326.9250510389986
 20
419.4966172855977
 10
-326.9294877335524
 20
419.4783152720402
 10
-326.9335785790484
 20
419.459618387002
 10
-326.9373128239013
 20
419.4405745301378
 10
-326.9407792149522
 20
419.4206299922929
 10
-326.9438618419977
 20
419.4003537139737
 10
-326.9465529945849
 20
419.3798017993684
 10
-326.948844962261
 20
419.3590303526649
 10
-326.9507081048274
 20
419.3383932286069
 10
-326.9521809034295
 20
419.3175897457076
 10
-326.9532595474372
 20
419.2966753543543
  0
LINE
  5
142
330
1F
100
AcDbEntity
  8
1
  6
CONTINUOUS
 62
     7
100
AcDbLine
 10
-326.7280976188147
 20
419.7500050000079
 30
0.0
 11
-324.0896650775643
 21
419.7500050000079
 31
0.0
  0
LWPOLYLINE
  5
143
330
1F
100
AcDbEntity
  8
1
  6
CONTINUOUS
 62
     7
100
AcDbPolyline
 90
       36
 70
     0
 43
0.0
 10
-233.0467404525629
 20
419.2966753543544
 10
-233.0478013253818
 20
419.3172919689202
 10
-233.0492460797365
 20
419.3378099556176
 10
-233.0510706064738
 20
419.3581763825068
 10
-233.05327079644
 20
419.3783383176478
 10
-233.0559264872918
 20
419.3988535527962
 10
-233.05897594817
 20
419.4191149435562
 10
-233.0624105509151
 20
419.4390674496882
 10
-233.0662216673676
 20
419.4586560309526
 10
-233.070283873439
 20
419.4773244716076
 10
-233.0746953560131
 20
419.495616295488
 10
-233.0794446042157
 20
419.5134848754406
 10
-233.0845201071723
 20
419.5308835843123
 10
-233.090080037542
 20
419.5482786308683
 10
-233.0959764602538
 20
419.5651445289155
 10
-233.1021932520758
 20
419.5814361294873
 10
-233.1087142897755
 20
419.5971082836166
 10
-233.1153459050068
 20
419.6117452097096
 10
-233.1222548952328
 20
419.6257699413396
 10
-233.1294234999714
 20
419.6391472464024
 10
-233.1368339587407
 20
419.6518418927936
 10
-233.1447058097131
 20
419.6641777067562
 10
-233.1528206171205
 20
419.6757681059604
 10
-233.1611563505949
 20
419.6865826421927
 10
-233.1696909797683
 20
419.6965908672393
 10
-233.1781831125755
 20
419.7055474162696
 10
-233.1868496660458
 20
419.713723805149
 10
-233.1956683640868
 20
419.7211000150673
 10
-233.2046169306057
 20
419.7276560272143
 10
-233.213952960056
 20
419.7335372401164
 10
-233.2234103078982
 20
419.7385386764581
 10
-233.2329631965286
 20
419.7426478985136
 10
-233.2425858483435
 20
419.7458524685578
 10
-233.2523187005786
 20
419.7481568549569
 10
-233.2620998603709
 20
419.7495423198658
 10
-233.2719023811853
 20
419.7500050000079
  0
LINE
  5
144
330
1F
100
AcDbEntity
  8
1
  6
CONTINUOUS
 62
     7
100
AcDbLine
 10
-232.8414148003421
 20
414.367688892543
 30
0.0
 11
-233.0467404525628
 21
419.2966753543543
 31
0.0
  0
LINE
  5
145
330
1F
100
AcDbEntity
  8
1
  6
CONTINUOUS
 62
     7
100
AcDbLine
 10
-235.9103349224357
 20
419.750005000008
 30
0.0
 11
-233.2719023811853
 21
419.750005000008
 31
0.0
  0
LINE
  5
146
330
1F
100
AcDbEntity
  8
1
  6
CONTINUOUS
 62
     7
100
AcDbLine
 10
-324.1084635037997
 20
404.8511351289196
 30
0.0
 11
-326.8329354613539
 21
412.2387037108936
 31
0.0
  0
LINE
  5
147
330
1F
100
AcDbEntity
  8
1
  6
CONTINUOUS
 62
     7
100
AcDbLine
 10
-233.1670645386461
 20
412.2387037108936
 30
0.0
 11
-235.8915364962003
 21
404.8511351289194
 31
0.0
  0
LINE
  5
148
330
1F
100
AcDbEntity
  8
1
  6
CONTINUOUS
 62
     7
100
AcDbLine
 10
-236.343900759848
 20
419.7500050000079
 30
0.0
 11
-235.9103349224357
 21
419.7500050000079
 31
0.0
  0
LWPOLYLINE
  5
149
330
1F
100
AcDbEntity
  8
1
  6
CONTINUOUS
 62
     7
100
AcDbPolyline
 90
       36
 70
     0
 43
0.0
 10
236.6167849852674
 20
419.2966753543541
 10
236.6154776730555
 20
419.3172915688326
 10
236.613697664237
 20
419.3378091529281
 10
236.6114503649329
 20
419.3581751747673
 10
236.6087411812647
 20
419.3783367024763
 10
236.6054722601935
 20
419.3988515263831
 10
236.6017202653262
 20
419.4191125044225
 10
236.5974964987911
 20
419.4390645981779
 10
236.5928122627163
 20
419.4586527692328
 10
236.5878223372378
 20
419.4773208020827
 10
236.5824068194805
 20
419.4956122242861
 10
236.5765806823789
 20
419.5134804124968
 10
236.5703588988674
 20
419.5308787433685
 10
236.5635487179526
 20
419.5482733997838
 10
236.5563325726426
 20
419.5651389296078
 10
236.5487312367126
 20
419.5814301899111
 10
236.5407654839379
 20
419.5971020377647
 10
236.5326724654005
 20
419.6117390072403
 10
236.5242494549615
 20
419.6257637953887
 10
236.5155190704916
 20
419.6391411740083
 10
236.5065039298611
 20
419.651835914898
 10
236.4969384517837
 20
419.6641718308819
 10
236.4870894525897
 20
419.6757623630103
 10
236.4769846074331
 20
419.686577067237
 10
236.4666515914676
 20
419.696585499516
 10
236.45638275709
 20
419.705542565232
 10
236.445916307273
 20
419.7137194622492
 10
236.4352798080774
 20
419.7210961723471
 10
236.424500825564
 20
419.7276526773058
 10
236.4132704269821
 20
419.7335343852091
 10
236.4019098434273
 20
419.7385363117299
 10
236.3904504610325
 20
419.7426460185908
 10
236.3789236659303
 20
419.7458510675142
 10
236.3672796422047
 20
419.7481562301833
 10
236.3555945601415
 20
419.7495421631505
 10
236.343900759848
 20
419.7500050000079
210
0.0
220
0.0
230
-1.0
  0
LINE
  5
14A
330
1F
100
AcDbEntity
  8
1
  6
CONTINUOUS
 62
     7
100
AcDbLine
 10
-324.0896650775643
 20
419.7500050000079
 30
0.0
 11
-323.656099240152
 21
419.7500050000079
 31
0.0
  0
LWPOLYLINE
  5
14B
330
1F
100
AcDbEntity
  8
1
  6
CONTINUOUS
 62
     7
100
AcDbPolyline
 90
       36
 70
     0
 43
0.0
 10
323.656099240152
 20
419.7500050000079
 10
323.6447836452684
 20
419.7495707408598
 10
323.6334708655708
 20
419.7482709659257
 10
323.6221901901045
 20
419.7461101789708
 10
323.6109709079147
 20
419.7430928837608
 10
323.5995006111183
 20
419.7390938241037
 10
323.5881164379218
 20
419.7341941909031
 10
323.5768496365745
 20
419.7284085872723
 10
323.5657314553257
 20
419.7217516163242
 10
323.555079681821
 20
419.7144507883073
 10
323.544587678804
 20
419.7063390877871
 10
323.5342826966892
 20
419.6974384481321
 10
323.524191985891
 20
419.6877708027104
 10
323.5140421245266
 20
419.6770277670501
 10
323.5041386144386
 20
419.6654909778647
 10
323.4945087274616
 20
419.6531929990167
 10
323.4851797354299
 20
419.6401663943686
 10
323.4764154224699
 20
419.6268241782383
 10
323.4679516671
 20
419.6128171092232
 10
323.4598104876297
 20
419.5981821810881
 10
323.452013902368
 20
419.582956387598
 10
323.4443589432761
 20
419.5666823028606
 10
323.4370842629039
 20
419.5498111194456
 10
323.4302098564948
 20
419.5323898618905
 10
323.4237557192926
 20
419.5144655547326
 10
323.4179021265572
 20
419.4966059445899
 10
323.4124558655872
 20
419.4783035565395
 10
323.4074309487053
 20
419.4596062920681
 10
323.402841388234
 20
419.4405620526626
 10
323.3985787943138
 20
419.4206170827354
 10
323.3947862873797
 20
419.4003403685469
 10
323.3914739805135
 20
419.3797880191102
 10
323.388651986797
 20
419.3590161434381
 10
323.3863578726808
 20
419.3383836826363
 10
323.384543878017
 20
419.3175849477436
 10
323.3832150147326
 20
419.2966753543544
210
0.0
220
0.0
230
-1.0
  0
LINE
  5
14C
330
1F
100
AcDbEntity
  8
1
  6
CONTINUOUS
 62
     7
100
AcDbLine
 10
-235.8915364962003
 20
404.8511351289194
 30
0.0
 11
-235.9245601252854
 21
404.6382366107544
 31
0.0
  0
LINE
  5
14D
330
1F
100
AcDbEntity
  8
1
  6
CONTINUOUS
 62
     7
100
AcDbLine
 10
-324.0754398747147
 20
404.6382366107545
 30
0.0
 11
-324.1084635037997
 21
404.8511351289196
 31
0.0
  0
LINE
  5
14E
330
1F
100
AcDbEntity
  8
1
  6
CONTINUOUS
 62
     7
100
AcDbLine
 10
-289.0000000000001
 20
451.6339795962236
 30
0.0
 11
-289.0000000000001
 21
452.500005000008
 31
0.0
  0
LWPOLYLINE
  5
14F
330
1F
100
AcDbEntity
  8
1
  6
CONTINUOUS
 62
     7
100
AcDbPolyline
 90
        9
 70
     0
 43
0.0
 10
-287.5
 20
453.250005000008
 10
-287.7926354830242
 20
453.2355939603104
 10
-288.0740251485477
 20
453.1929146493915
 10
-288.3333553495294
 20
453.1236072092349
 10
-288.5606601717798
 20
453.0303350858979
 10
-288.7472044184538
 20
452.9166826747727
 10
-288.8858192987669
 20
452.7870175742818
 10
-288.9711779206049
 20
452.6463227415201
 10
-289.0
 20
452.500005000008
  0
LINE
  5
150
330
1F
100
AcDbEntity
  8
1
  6
CONTINUOUS
 62
     7
100
AcDbLine
 10
-287.5
 20
453.2500050000079
 30
0.0
 11
-272.5
 21
453.2500050000079
 31
0.0
  0
LINE
  5
151
330
1F
100
AcDbEntity
  8
1
  6
CONTINUOUS
 62
     7
100
AcDbLine
 10
-271.0
 20
451.6339795962236
 30
0.0
 11
-271.0
 21
451.4613298654131
 31
0.0
  0
LINE
  5
152
330
1F
100
AcDbEntity
  8
1
  6
CONTINUOUS
 62
     7
100
AcDbLine
 10
-289.0000000000001
 20
451.6339795962236
 30
0.0
 11
-289.0000000000001
 21
451.4613298654131
 31
0.0
  0
LINE
  5
153
330
1F
100
AcDbEntity
  8
1
  6
CONTINUOUS
 62
     7
100
AcDbLine
 10
-271.0
 20
452.500005000008
 30
0.0
 11
-271.0
 21
451.6339795962236
 31
0.0
  0
LWPOLYLINE
  5
154
330
1F
100
AcDbEntity
  8
1
  6
CONTINUOUS
 62
     7
100
AcDbPolyline
 90
        9
 70
     0
 43
0.0
 10
-271.0
 20
452.500005000008
 10
-271.0288220793951
 20
452.6463227415201
 10
-271.1141807012331
 20
452.7870175742818
 10
-271.2527955815462
 20
452.9166826747727
 10
-271.4393398282202
 20
453.0303350858979
 10
-271.6666446504706
 20
453.1236072092349
 10
-271.9259748514523
 20
453.1929146493915
 10
-272.2073645169758
 20
453.2355939603104
 10
-272.5
 20
453.250005000008
  0
LINE
  5
155
330
1F
100
AcDbEntity
  8
1
  6
CONTINUOUS
 62
     7
100
AcDbLine
 10
-271.0
 20
450.5953044616287
 30
0.0
 11
-271.0
 21
451.4613298654131
 31
0.0
  0
LINE
  5
156
330
1F
100
AcDbEntity
  8
1
  6
CONTINUOUS
 62
     7
100
AcDbLine
 10
-289.0000000000001
 20
451.4613298654131
 30
0.0
 11
-289.0000000000001
 21
450.5953044616287
 31
0.0
  0
LINE
  5
157
330
1F
100
AcDbEntity
  8
1
  6
CONTINUOUS
 62
     7
100
AcDbLine
 10
-278.0
 20
445.8625463911903
 30
0.0
 11
-278.0
 21
444.2500050000079
 31
0.0
  0
LINE
  5
158
330
1F
100
AcDbEntity
  8
1
  6
CONTINUOUS
 62
     7
100
AcDbLine
 10
-282.0
 20
444.2500050000079
 30
0.0
 11
-282.0
 21
445.8625463911903
 31
0.0
  0
LINE
  5
159
330
1F
100
AcDbEntity
  8
1
  6
CONTINUOUS
 62
     7
100
AcDbLine
 10
-285.5
 20
444.2500050000079
 30
0.0
 11
-282.0
 21
444.2500050000079
 31
0.0
  0
ARC
  5
15A
330
1F
100
AcDbEntity
  8
1
  6
CONTINUOUS
 62
     7
100
AcDbCircle
 10
-274.5
 20
443.2500050000079
 30
0.0
 40
1.000000000000001
100
AcDbArc
 50
72.16950512913667
 51
90.0
  0
LINE
  5
15B
330
1F
100
AcDbEntity
  8
1
  6
CONTINUOUS
 62
     7
100
AcDbLine
 10
-278.0
 20
444.2500050000079
 30
0.0
 11
-274.5
 21
444.2500050000079
 31
0.0
  0
ARC
  5
15C
330
1F
100
AcDbEntity
  8
1
  6
CONTINUOUS
 62
     7
100
AcDbCircle
 10
-285.5
 20
443.2500050000079
 30
0.0
 40
1.000000000000034
100
AcDbArc
 50
90.0
 51
107.8304948708633
  0
LINE
  5
15D
330
1F
100
AcDbEntity
  8
1
  6
CONTINUOUS
 62
     7
100
AcDbLine
 10
-271.0
 20
450.5953044616287
 30
0.0
 11
-271.0
 21
444.3219541918309
 31
0.0
  0
LINE
  5
15E
330
1F
100
AcDbEntity
  8
1
  6
CONTINUOUS
 62
     7
100
AcDbLine
 10
-289.0000000000001
 20
450.5953044616287
 30
0.0
 11
-289.0000000000001
 21
444.3219541918309
 31
0.0
  0
ARC
  5
15F
330
1F
100
AcDbEntity
  8
1
  6
CONTINUOUS
 62
     7
100
AcDbCircle
 10
-270.3433095715553
 20
426.5663289793393
 30
0.0
 40
23.1839931925766
100
AcDbArc
 50
52.21312546665968
 51
89.7002968121472
  0
ARC
  5
160
330
1F
100
AcDbEntity
  8
1
  6
CONTINUOUS
 62
     7
100
AcDbCircle
 10
-289.6754116936946
 20
426.6201941554265
 30
0.0
 40
23.13003817639452
100
AcDbArc
 50
90.25402702320889
 51
127.8458729553179
  0
LINE
  5
161
330
1F
100
AcDbEntity
  8
1
  6
CONTINUOUS
 62
     7
100
AcDbLine
 10
-289.7779608787324
 20
449.750005000008
 30
0.0
 11
-289.0000000000001
 21
449.750005000008
 31
0.0
  0
LINE
  5
162
330
1F
100
AcDbEntity
  8
1
  6
CONTINUOUS
 62
     7
100
AcDbLine
 10
-271.0
 20
449.750005000008
 30
0.0
 11
-270.2220391212676
 21
449.750005000008
 31
0.0
  0
ARC
  5
163
330
1F
100
AcDbEntity
  8
1
  6
CONTINUOUS
 62
     7
100
AcDbCircle
 10
-253.570012694249
 20
433.1235370849367
 30
0.0
 40
16.62652596657146
100
AcDbArc
 50
47.59202827932063
 51
90.15140622203319
  0
ARC
  5
164
330
1F
100
AcDbEntity
  8
1
  6
CONTINUOUS
 62
     7
100
AcDbCircle
 10
-306.4387506104902
 20
433.1462081828696
 30
0.0
 40
16.60388044941393
100
AcDbArc
 50
89.81814720918521
 51
132.4372804184587
  0
LINE
  5
165
330
1F
100
AcDbEntity
  8
1
  6
CONTINUOUS
 62
     7
100
AcDbLine
 10
-306.3860511454659
 20
449.750005000008
 30
0.0
 11
-289.7779608787324
 21
449.750005000008
 31
0.0
  0
LINE
  5
166
330
1F
100
AcDbEntity
  8
1
  6
CONTINUOUS
 62
     7
100
AcDbLine
 10
-270.2220391212691
 20
449.750005000008
 30
0.0
 11
-253.6139488545341
 21
449.750005000008
 31
0.0
  0
LINE
  5
167
330
1F
100
AcDbEntity
  8
1
  6
CONTINUOUS
 62
     7
100
AcDbLine
 10
-318.038901147195
 20
449.750005000008
 30
0.0
 11
-306.3860511454659
 21
449.750005000008
 31
0.0
  0
LINE
  5
168
330
1F
100
AcDbEntity
  8
1
  6
CONTINUOUS
 62
     7
100
AcDbLine
 10
-253.6139488545297
 20
449.750005000008
 30
0.0
 11
-241.9610988528051
 21
449.750005000008
 31
0.0
  0
ARC
  5
169
330
1F
100
AcDbEntity
  8
1
  6
CONTINUOUS
 62
     7
100
AcDbCircle
 10
-319.2571428386896
 20
440.3436637892842
 30
0.0
 40
9.408872642801947
100
AcDbArc
 50
88.6708875918963
 51
144.9414470931183
  0
ARC
  5
16A
330
1F
100
AcDbEntity
  8
1
  6
CONTINUOUS
 62
     7
100
AcDbCircle
 10
-240.7503194484032
 20
440.3289033389949
 30
0.0
 40
9.423459262100257
100
AcDbArc
 50
35.10529335624949
 51
91.28167132521251
  0
LINE
  5
16B
330
1F
100
AcDbEntity
  8
1
  6
CONTINUOUS
 62
     7
100
AcDbLine
 10
-319.038901147195
 20
449.750005000008
 30
0.0
 11
-318.038901147195
 21
449.750005000008
 31
0.0
  0
LINE
  5
16C
330
1F
100
AcDbEntity
  8
1
  6
CONTINUOUS
 62
     7
100
AcDbLine
 10
-241.9610988528084
 20
449.750005000008
 30
0.0
 11
-240.961098852805
 21
449.750005000008
 31
0.0
  0
LINE
  5
16D
330
1F
100
AcDbEntity
  8
1
  6
CONTINUOUS
 62
     7
100
AcDbLine
 10
-210.0
 20
497.7500050000079
 30
0.0
 11
-210.0
 21
446.6135646307127
 31
0.0
  0
LINE
  5
16E
330
1F
100
AcDbEntity
  8
1
  6
CONTINUOUS
 62
     7
100
AcDbLine
 10
-210.5
 20
497.7500050000079
 30
0.0
 11
-210.5
 21
446.5947809385906
 31
0.0
  0
LINE
  5
16F
330
1F
100
AcDbEntity
  8
1
  6
CONTINUOUS
 62
     7
100
AcDbLine
 10
-349.0
 20
498.250005000008
 30
0.0
 11
-211.0
 21
498.250005000008
 31
0.0
  0
LINE
  5
170
330
1F
100
AcDbEntity
  8
1
  6
CONTINUOUS
 62
     7
100
AcDbLine
 10
-349.5
 20
497.7500050000079
 30
0.0
 11
-349.5
 21
446.5947809385906
 31
0.0
  0
LINE
  5
171
330
1F
100
AcDbEntity
  8
1
  6
CONTINUOUS
 62
     7
100
AcDbLine
 10
-350.0
 20
497.7500050000079
 30
0.0
 11
-350.0
 21
446.6135646307127
 31
0.0
  0
ARC
  5
172
330
1F
100
AcDbEntity
  8
1
  6
CONTINUOUS
 62
     7
100
AcDbCircle
 10
-349.0
 20
497.7500050000079
 30
0.0
 40
1.000000000000001
100
AcDbArc
 50
90.0
 51
180.0
  0
ARC
  5
173
330
1F
100
AcDbEntity
  8
1
  6
CONTINUOUS
 62
     7
100
AcDbCircle
 10
-349.0
 20
497.7500050000079
 30
0.0
 40
0.500000000000056
100
AcDbArc
 50
90.0
 51
180.0
  0
ARC
  5
174
330
1F
100
AcDbEntity
  8
1
  6
CONTINUOUS
 62
     7
100
AcDbCircle
 10
-211.0
 20
497.7500050000079
 30
0.0
 40
1.000000000000001
100
AcDbArc
 50
0.0
 51
90.0
  0
ARC
  5
175
330
1F
100
AcDbEntity
  8
1
  6
CONTINUOUS
 62
     7
100
AcDbCircle
 10
-211.0
 20
497.7500050000079
 30
0.0
 40
0.5000000000000004
100
AcDbArc
 50
0.0
 51
90.0
  0
LINE
  5
176
330
1F
100
AcDbEntity
  8
1
  6
CONTINUOUS
 62
     7
100
AcDbLine
 10
-349.0
 20
498.7500050000079
 30
0.0
 11
-211.0
 21
498.7500050000079
 31
0.0
  0
LINE
  5
177
330
1F
100
AcDbEntity
  8
1
  6
CONTINUOUS
 62
     7
100
AcDbLine
 10
-201.0
 20
433.8618169811765
 30
0.0
 11
-201.0
 21
433.9440161979781
 31
0.0
  0
LINE
  5
178
330
1F
100
AcDbEntity
  8
1
  6
CONTINUOUS
 62
     7
100
AcDbLine
 10
-201.3510488941153
 20
433.8839795962236
 30
0.0
 11
-201.0
 21
433.8618169811765
 31
0.0
  0
LINE
  5
179
330
1F
100
AcDbEntity
  8
1
  6
CONTINUOUS
 62
     7
100
AcDbLine
 10
-359.0000000000001
 20
433.8618169811765
 30
0.0
 11
-358.6489511058847
 21
433.8839795962236
 31
0.0
  0
LINE
  5
17A
330
1F
100
AcDbEntity
  8
1
  6
CONTINUOUS
 62
     7
100
AcDbLine
 10
-359.0000000000001
 20
433.8618169811765
 30
0.0
 11
-359.0000000000001
 21
433.9440161979781
 31
0.0
  0
LINE
  5
17B
330
1F
100
AcDbEntity
  8
1
  6
CONTINUOUS
 62
     7
100
AcDbLine
 10
-275.0
 20
444.2430882432152
 30
0.0
 11
-285.0
 21
444.2430882432152
 31
0.0
  0
LINE
  5
17C
330
1F
100
AcDbEntity
  8
1
  6
CONTINUOUS
 62
     7
100
AcDbLine
 10
-274.6395707791751
 20
444.1948474429626
 30
0.0
 11
-274.383738840431
 21
444.1781224025585
 31
0.0
  0
LINE
  5
17D
330
1F
100
AcDbEntity
  8
1
  6
CONTINUOUS
 62
     7
100
AcDbLine
 10
-285.616261159569
 20
444.1781224025585
 30
0.0
 11
-285.360429220825
 21
444.1948474429626
 31
0.0
  0
LINE
  5
17E
330
1F
100
AcDbEntity
  8
1
  6
CONTINUOUS
 62
     7
100
AcDbLine
 10
-274.5771171826173
 20
444.1875712561458
 30
0.0
 11
-200.9767835366844
 21
446.9525432707065
 31
0.0
  0
LWPOLYLINE
  5
17F
330
1F
100
AcDbEntity
  8
1
  6
CONTINUOUS
 62
     7
100
AcDbPolyline
 90
       33
 70
     0
 43
0.0
 10
200.5
 20
447.3361299023325
 10
200.5005671859126
 20
447.3178879462683
 10
200.5022674568511
 20
447.2996851587521
 10
200.5050969553363
 20
447.2815628372425
 10
200.5090492619618
 20
447.2635620966411
 10
200.514115409957
 20
447.2457237760142
 10
200.5202839055306
 20
447.2280883459381
 10
200.5275407539475
 20
447.2106958166831
 10
200.5358694912791
 20
447.1935856474393
 10
200.5452512217553
 20
447.1767966567946
 10
200.5556646606347
 20
447.160366934665
 10
200.567086182494
 20
447.1443337558782
 10
200.5794898748279
 20
447.1287334956068
 10
200.5928475968383
 20
447.1136015468421
 10
200.6071290432781
 20
447.0989722400971
 10
200.6223018132064
 20
447.0848787655182
 10
200.6383314834978
 20
447.0713530975866
 10
200.6551816869396
 20
447.0584259225755
 10
200.6728141947397
 20
447.046126568931
 10
200.691189003258
 20
447.0344829407337
 10
200.7102644247644
 20
447.0235214543912
 10
200.7299971820175
 20
447.013266978706
 10
200.7503425064494
 20
447.0037427784546
 10
200.7712542397345
 20
446.9949704616059
 10
200.7926849385109
 20
446.9869699302981
 10
200.8145859820167
 20
446.9797593356857
 10
200.8369076823984
 20
446.9733550367596
 10
200.8595993974402
 20
446.9677715632322
 10
200.8826096454576
 20
446.9630215825738
 10
200.9058862220964
 20
446.9591158712725
 10
200.9293763187713
 20
446.9560632903863
 10
200.9530266424746
 20
446.9538707654386
 10
200.9767835366844
 20
446.9525432707065
210
0.0
220
0.0
230
-1.0
  0
LINE
  5
180
330
1F
100
AcDbEntity
  8
1
  6
CONTINUOUS
 62
     7
100
AcDbLine
 10
-200.9535670733688
 20
446.5699341730912
 30
0.0
 11
-200.5
 21
446.6726372518969
 31
0.0
  0
LWPOLYLINE
  5
181
330
1F
100
AcDbEntity
  8
1
  6
CONTINUOUS
 62
     7
100
AcDbPolyline
 90
       33
 70
     0
 43
0.0
 10
359.0232164633156
 20
446.9525432707065
 10
359.0469733575255
 20
446.9538707654386
 10
359.0706236812288
 20
446.9560632903863
 10
359.0941137779037
 20
446.9591158712725
 10
359.1173903545425
 20
446.9630215825738
 10
359.1404006025599
 20
446.9677715632322
 10
359.1630923176016
 20
446.9733550367596
 10
359.1854140179834
 20
446.9797593356857
 10
359.2073150614892
 20
446.9869699302981
 10
359.2287457602656
 20
446.9949704616059
 10
359.2496574935507
 20
447.0037427784546
 10
359.2700028179826
 20
447.013266978706
 10
359.2897355752356
 20
447.0235214543912
 10
359.308810996742
 20
447.0344829407337
 10
359.3271858052603
 20
447.046126568931
 10
359.3448183130604
 20
447.0584259225755
 10
359.3616685165022
 20
447.0713530975866
 10
359.3776981867937
 20
447.0848787655182
 10
359.392870956722
 20
447.0989722400971
 10
359.4071524031618
 20
447.1136015468421
 10
359.4205101251721
 20
447.1287334956068
 10
359.4329138175061
 20
447.1443337558782
 10
359.4443353393654
 20
447.160366934665
 10
359.4547487782447
 20
447.1767966567946
 10
359.4641305087209
 20
447.1935856474393
 10
359.4724592460526
 20
447.2106958166831
 10
359.4797160944695
 20
447.2280883459381
 10
359.4858845900431
 20
447.2457237760142
 10
359.4909507380382
 20
447.2635620966411
 10
359.4949030446637
 20
447.2815628372425
 10
359.497732543149
 20
447.2996851587521
 10
359.4994328140874
 20
447.3178879462683
 10
359.5000000000001
 20
447.3361299023325
210
0.0
220
0.0
230
-1.0
  0
LINE
  5
182
330
1F
100
AcDbEntity
  8
1
  6
CONTINUOUS
 62
     7
100
AcDbLine
 10
-285.4228828173827
 20
444.1875712561458
 30
0.0
 11
-359.0232164633156
 21
446.9525432707065
 31
0.0
  0
LINE
  5
183
330
1F
100
AcDbEntity
  8
1
  6
CONTINUOUS
 62
     7
100
AcDbLine
 10
-359.0000000000001
 20
433.9440161979781
 30
0.0
 11
-359.0000000000001
 21
434.0855249457999
 31
0.0
  0
LINE
  5
184
330
1F
100
AcDbEntity
  8
1
  6
CONTINUOUS
 62
     7
100
AcDbLine
 10
-359.0000000000001
 20
434.0855249457999
 30
0.0
 11
-359.0464329266312
 21
434.0894841652035
 31
0.0
  0
LINE
  5
185
330
1F
100
AcDbEntity
  8
1
  6
CONTINUOUS
 62
     7
100
AcDbLine
 10
-200.9535670733686
 20
434.0894841652035
 30
0.0
 11
-201.0
 21
434.0855249457999
 31
0.0
  0
LINE
  5
186
330
1F
100
AcDbEntity
  8
1
  6
CONTINUOUS
 62
     7
100
AcDbLine
 10
-201.0
 20
433.9440161979781
 30
0.0
 11
-201.0
 21
434.0855249457999
 31
0.0
  0
LINE
  5
187
330
1F
100
AcDbEntity
  8
1
  6
CONTINUOUS
 62
     7
100
AcDbLine
 10
-275.0
 20
444.2430882432152
 30
0.0
 11
-274.6395707791751
 21
444.1948474429626
 31
0.0
  0
ARC
  5
188
330
1F
100
AcDbEntity
  8
1
  6
CONTINUOUS
 62
     7
100
AcDbCircle
 10
-359.0000000000001
 20
434.773005720503
 30
0.0
 40
1.000000000000005
100
AcDbArc
 50
180.0
 51
184.7152490132603
  0
LINE
  5
189
330
1F
100
AcDbEntity
  8
1
  6
CONTINUOUS
 62
     7
100
AcDbLine
 10
-360.0000000000001
 20
434.773005720503
 30
0.0
 11
-360.0000000000001
 21
447.3370206849348
 31
0.0
  0
LINE
  5
18A
330
1F
100
AcDbEntity
  8
1
  6
CONTINUOUS
 62
     7
100
AcDbLine
 10
-359.5000000000001
 20
446.6736067367659
 30
0.0
 11
-359.5000000000001
 21
446.6726372518969
 31
0.0
  0
LWPOLYLINE
  5
18B
330
1F
100
AcDbEntity
  8
1
  6
CONTINUOUS
 62
     7
100
AcDbPolyline
 90
        3
 70
     0
 43
0.0
 10
359.0464329266313
 20
434.0894841652035
 10
359.169708186831
 20
434.1132145226308
 10
359.2909378428429
 20
434.1598829466698
210
0.0
220
0.0
230
-1.0
  0
ARC
  5
18C
330
1F
100
AcDbEntity
  8
1
  6
CONTINUOUS
 62
     7
100
AcDbCircle
 10
-358.1855235487847
 20
436.1542649255774
 30
0.0
 40
2.280241267782757
100
AcDbArc
 50
218.0128585671319
 51
241.0019710598399
  0
LINE
  5
18D
330
1F
100
AcDbEntity
  8
1
  6
CONTINUOUS
 62
     7
100
AcDbLine
 10
-200.5
 20
446.6726372518969
 30
0.0
 11
-200.5
 21
446.6736067367659
 31
0.0
  0
LWPOLYLINE
  5
18E
330
1F
100
AcDbEntity
  8
1
  6
CONTINUOUS
 62
     7
100
AcDbPolyline
 90
        6
 70
     0
 43
0.0
 10
-200.5
 20
446.6736067367659
 10
-200.3308693936412
 20
446.7677387209452
 10
-200.1909830056251
 20
446.8867510586688
 10
-200.0864545423574
 20
447.0254423396937
 10
-200.0218523992662
 20
447.1777510895243
 10
-200.0
 20
447.3370206849348
  0
LINE
  5
18F
330
1F
100
AcDbEntity
  8
1
  6
CONTINUOUS
 62
     7
100
AcDbLine
 10
-200.0
 20
447.3370206849348
 30
0.0
 11
-200.0
 21
434.773005720503
 31
0.0
  0
ARC
  5
190
330
1F
100
AcDbEntity
  8
1
  6
CONTINUOUS
 62
     7
100
AcDbCircle
 10
-201.0
 20
434.773005720503
 30
0.0
 40
1.000000000000005
100
AcDbArc
 50
355.2847509867394
 51
0.0
  0
LWPOLYLINE
  5
191
330
1F
100
AcDbEntity
  8
1
  6
CONTINUOUS
 62
     7
100
AcDbPolyline
 90
        3
 70
     0
 43
0.0
 10
-200.9535670733688
 20
434.0894841652035
 10
-200.8302918131691
 20
434.1132145226308
 10
-200.7090621571571
 20
434.1598829466698
  0
ARC
  5
192
330
1F
100
AcDbEntity
  8
1
  6
CONTINUOUS
 62
     7
100
AcDbCircle
 10
-201.7881066199766
 20
436.1173829589893
 30
0.0
 40
2.235205415833698
100
AcDbArc
 50
298.8651355563686
 51
322.2745902743333
  0
LINE
  5
193
330
1F
100
AcDbEntity
  8
1
  6
CONTINUOUS
 62
     7
100
AcDbLine
 10
-360.0000000000001
 20
447.3370206849348
 30
0.0
 11
-360.0000000000001
 21
448.1378460799767
 31
0.0
  0
LINE
  5
194
330
1F
100
AcDbEntity
  8
1
  6
CONTINUOUS
 62
     7
100
AcDbLine
 10
-359.5000000000001
 20
446.6736067367659
 30
0.0
 11
-359.5000000000001
 21
448.1378460799767
 31
0.0
  0
LINE
  5
195
330
1F
100
AcDbEntity
  8
1
  6
CONTINUOUS
 62
     7
100
AcDbLine
 10
-200.0
 20
447.3370206849348
 30
0.0
 11
-200.0
 21
448.1378460799767
 31
0.0
  0
LINE
  5
196
330
1F
100
AcDbEntity
  8
1
  6
CONTINUOUS
 62
     7
100
AcDbLine
 10
-200.5
 20
446.6736067367659
 30
0.0
 11
-200.5
 21
448.1378460799767
 31
0.0
  0
LINE
  5
197
330
1F
100
AcDbEntity
  8
1
  6
CONTINUOUS
 62
     7
100
AcDbLine
 10
-359.5000000000001
 20
449.2094832509171
 30
0.0
 11
-359.5000000000001
 21
448.1378460799767
 31
0.0
  0
LINE
  5
198
330
1F
100
AcDbEntity
  8
1
  6
CONTINUOUS
 62
     7
100
AcDbLine
 10
-360.0000000000001
 20
448.1378460799767
 30
0.0
 11
-360.0000000000001
 21
449.2094832509171
 31
0.0
  0
LINE
  5
199
330
1F
100
AcDbEntity
  8
1
  6
CONTINUOUS
 62
     7
100
AcDbLine
 10
-200.0
 20
449.2094832509171
 30
0.0
 11
-200.0
 21
448.1378460799767
 31
0.0
  0
LINE
  5
19A
330
1F
100
AcDbEntity
  8
1
  6
CONTINUOUS
 62
     7
100
AcDbLine
 10
-200.5
 20
448.1378460799767
 30
0.0
 11
-200.5
 21
449.2094832509171
 31
0.0
  0
LINE
  5
19B
330
1F
100
AcDbEntity
  8
1
  6
CONTINUOUS
 62
     7
100
AcDbLine
 10
-200.0201658601976
 20
434.7497102200329
 30
0.0
 11
-200.0033844560438
 21
434.6908019642333
 31
0.0
  0
LINE
  5
19C
330
1F
100
AcDbEntity
  8
1
  6
CONTINUOUS
 62
     7
100
AcDbLine
 10
-200.0033844560438
 20
434.6908019642333
 30
0.0
 11
-200.0773331091077
 21
434.6908019642333
 31
0.0
  0
LINE
  5
19D
330
1F
100
AcDbEntity
  8
1
  6
CONTINUOUS
 62
     7
100
AcDbLine
 10
-359.9820630837626
 20
434.7500050000077
 30
0.0
 11
-359.9897606631454
 21
434.7437717499785
 31
0.0
  0
LINE
  5
19E
330
1F
100
AcDbEntity
  8
1
  6
CONTINUOUS
 62
     7
100
AcDbLine
 10
-359.9897606631454
 20
434.7437717499785
 30
0.0
 11
-359.992870696514
 21
434.7334379511585
 31
0.0
  0
LINE
  5
19F
330
1F
100
AcDbEntity
  8
1
  6
CONTINUOUS
 62
     7
100
AcDbLine
 10
-359.992870696514
 20
434.7334379511585
 30
0.0
 11
-359.9953647543555
 21
434.7137487702544
 31
0.0
  0
LINE
  5
1A0
330
1F
100
AcDbEntity
  8
1
  6
CONTINUOUS
 62
     7
100
AcDbLine
 10
-359.9953647543555
 20
434.7137487702544
 30
0.0
 11
-359.9966155439563
 21
434.6908019642333
 31
0.0
  0
LINE
  5
1A1
330
1F
100
AcDbEntity
  8
1
  6
CONTINUOUS
 62
     7
100
AcDbLine
 10
-359.9966155439563
 20
434.6908019642333
 30
0.0
 11
-359.9226669195871
 21
434.6908019642333
 31
0.0
  0
LINE
  5
1A2
330
1F
100
AcDbEntity
  8
1
  6
CONTINUOUS
 62
     7
100
AcDbLine
 10
-201.0
 20
433.750005000008
 30
0.0
 11
-359.0000000000001
 21
433.750005000008
 31
0.0
  0
LINE
  5
1A3
330
1F
100
AcDbEntity
  8
1
  6
CONTINUOUS
 62
     7
100
AcDbLine
 10
-359.0000000000001
 20
433.7624326171847
 30
0.0
 11
-359.0000000000001
 21
433.8618169811765
 31
0.0
  0
LINE
  5
1A4
330
1F
100
AcDbEntity
  8
1
  6
CONTINUOUS
 62
     7
100
AcDbLine
 10
-201.0
 20
433.7624326171847
 30
0.0
 11
-201.0
 21
433.8618169811765
 31
0.0
  0
ARC
  5
1A5
330
1F
100
AcDbEntity
  8
1
  6
CONTINUOUS
 62
     7
100
AcDbCircle
 10
-201.0
 20
434.750005000008
 30
0.0
 40
1.000000000000025
100
AcDbArc
 50
270.0
 51
292.758847659785
  0
LINE
  5
1A6
330
1F
100
AcDbEntity
  8
1
  6
CONTINUOUS
 62
     7
100
AcDbLine
 10
-201.0
 20
433.7624326171847
 30
0.0
 11
-200.6131466359679
 21
433.8278637555464
 31
0.0
  0
LINE
  5
1A7
330
1F
100
AcDbEntity
  8
1
  6
CONTINUOUS
 62
     7
100
AcDbLine
 10
-200.0068654676475
 20
434.6330272215674
 30
0.0
 11
-200.1253667382053
 21
434.6330272215674
 31
0.0
  0
LWPOLYLINE
  5
1A8
330
1F
100
AcDbEntity
  8
1
  6
CONTINUOUS
 62
     7
100
AcDbPolyline
 90
       40
 70
     0
 43
0.0
 10
-200.6131466359679
 20
433.8278637555464
 10
-200.5682950276325
 20
433.8479908336889
 10
-200.5239441763374
 20
433.8705905942065
 10
-200.4802399975979
 20
433.8956926801255
 10
-200.4437361230958
 20
433.9190005333695
 10
-200.4078106218352
 20
433.9442074315773
 10
-200.3725913657727
 20
433.9713148140567
 10
-200.3460445079974
 20
433.9934749511365
 10
-200.3199840874479
 20
434.0168130692316
 10
-200.2944935200944
 20
434.0413046648951
 10
-200.2696562219069
 20
434.0669252346798
 10
-200.2468377958769
 20
434.0921728012907
 10
-200.2246855155014
 20
434.1184323913471
 10
-200.2032921220101
 20
434.1456404104192
 10
-200.187379364737
 20
434.1672161963749
 10
-200.1719663088302
 20
434.1893344511237
 10
-200.1571016388442
 20
434.211936756643
 10
-200.1428340393335
 20
434.2349646949108
 10
-200.1295874446239
 20
434.2577022496357
 10
-200.1169226728117
 20
434.2808320276106
 10
-200.1048782966348
 20
434.3042556869812
 10
-200.0934928888307
 20
434.327874885893
 10
-200.0828050221371
 20
434.3515912824918
 10
-200.0728532692917
 20
434.3753065349232
 10
-200.0659204926645
 20
434.3929434445017
 10
-200.0593827787632
 20
434.410542510567
 10
-200.0532460368943
 20
434.4280509112553
 10
-200.0475161763645
 20
434.4454158247024
 10
-200.0420395736398
 20
434.463108912331
 10
-200.0369757168495
 20
434.4805984339089
 10
-200.0323205930331
 20
434.4978261949777
 10
-200.0280701892303
 20
434.514734001079
 10
-200.0243164832081
 20
434.5308243350722
 10
-200.0209134514772
 20
434.5465673387764
 10
-200.0178488742957
 20
434.5619153960718
 10
-200.0151105319219
 20
434.5768208908383
 10
-200.0126140404245
 20
434.5916757600974
 10
-200.0104203886787
 20
434.6060231131519
 10
-200.0085105424859
 20
434.6198209377319
 10
-200.0068654676475
 20
434.6330272215674
  0
ARC
  5
1A9
330
1F
100
AcDbEntity
  8
1
  6
CONTINUOUS
 62
     7
100
AcDbCircle
 10
-359.0000000000001
 20
434.750005000008
 30
0.0
 40
1.000000000000001
100
AcDbArc
 50
247.2411523402136
 51
270.0
  0
LINE
  5
1AA
330
1F
100
AcDbEntity
  8
1
  6
CONTINUOUS
 62
     7
100
AcDbLine
 10
-359.3868533640322
 20
433.8278637555464
 30
0.0
 11
-359.0561307159573
 21
433.7633835059788
 31
0.0
  0
LINE
  5
1AB
330
1F
100
AcDbEntity
  8
1
  6
CONTINUOUS
 62
     7
100
AcDbLine
 10
-359.0561307159573
 20
433.7633835059788
 30
0.0
 11
-358.9999999999852
 21
433.762432617177
 31
0.0
  0
LWPOLYLINE
  5
1AC
330
1F
100
AcDbEntity
  8
1
  6
CONTINUOUS
 62
     7
100
AcDbPolyline
 90
       40
 70
     0
 43
0.0
 10
-359.9931345323526
 20
434.6330272215674
 10
-359.9915392202524
 20
434.6202001391349
 10
-359.9896944333071
 20
434.6068139007059
 10
-359.9875826448745
 20
434.5929069390776
 10
-359.9851863283124
 20
434.5785176870471
 10
-359.9824014716976
 20
434.5632278137257
 10
-359.9792727102654
 20
434.5474660833449
 10
-359.9757866284711
 20
434.531284233323
 10
-359.9719298107698
 20
434.514734001079
 10
-359.9678055915132
 20
434.4983103614368
 10
-359.9632997007761
 20
434.4815839899493
 10
-359.9584083180752
 20
434.4646082333821
 10
-359.9531276229274
 20
434.4474364385003
 10
-359.9472725466059
 20
434.4295804027188
 10
-359.9409865080476
 20
434.4115683141669
 10
-359.9342758038745
 20
434.3934578118875
 10
-359.9271467307083
 20
434.3753065349232
 10
-359.917194977863
 20
434.3515912824918
 10
-359.9065071111694
 20
434.327874885893
 10
-359.8951217033653
 20
434.3042556869812
 10
-359.8830773271883
 20
434.2808320276106
 10
-359.8704125553762
 20
434.2577022496357
 10
-359.8571659606666
 20
434.2349646949108
 10
-359.8432874222137
 20
434.2125462758921
 10
-359.8288427844138
 20
434.1905304779529
 10
-359.8138769809657
 20
434.1689715925245
 10
-359.7984349455681
 20
434.1479239110377
 10
-359.7765097563523
 20
434.119902885836
 10
-359.7537790834556
 20
434.0928800753431
 10
-359.7303437780932
 20
434.0669252346798
 10
-359.7061531780247
 20
434.0419487603216
 10
-359.681341487653
 20
434.0180442576454
 10
-359.6559861988574
 20
433.9952348324489
 10
-359.6301648035176
 20
433.9735435905298
 10
-359.5940668214367
 20
433.9455907178703
 10
-359.557218910987
 20
433.9196407748583
 10
-359.5197600024022
 20
433.8956926801255
 10
-359.4760558236627
 20
433.8705905942065
 10
-359.4317049723676
 20
433.8479908336889
 10
-359.3868533640322
 20
433.8278637555464
  0
LINE
  5
1AD
330
1F
100
AcDbEntity
  8
1
  6
CONTINUOUS
 62
     7
100
AcDbLine
 10
-359.9931345323526
 20
434.6330272215674
 30
0.0
 11
-359.8746331803937
 21
434.6330272215674
 31
0.0
  0
LINE
  5
1AE
330
1F
100
AcDbEntity
  8
1
  6
CONTINUOUS
 62
     7
100
AcDbLine
 10
-200.0
 20
434.773005720503
 30
0.0
 11
-200.0
 21
434.750005000008
 31
0.0
  0
ARC
  5
1AF
330
1F
100
AcDbEntity
  8
1
  6
CONTINUOUS
 62
     7
100
AcDbCircle
 10
-201.0
 20
434.750005000008
 30
0.0
 40
1.0
100
AcDbArc
 50
353.2822865358171
 51
0.0
  0
LINE
  5
1B0
330
1F
100
AcDbEntity
  8
1
  6
CONTINUOUS
 62
     7
100
AcDbLine
 10
-360.0000000000001
 20
434.773005720503
 30
0.0
 11
-360.0000000000001
 21
434.750005000008
 31
0.0
  0
ARC
  5
1B1
330
1F
100
AcDbEntity
  8
1
  6
CONTINUOUS
 62
     7
100
AcDbCircle
 10
-359.0000000000001
 20
434.750005000008
 30
0.0
 40
1.0
100
AcDbArc
 50
180.0
 51
186.7177134641829
  0
LINE
  5
1B2
330
1F
100
AcDbEntity
  8
1
  6
CONTINUOUS
 62
     7
100
AcDbLine
 10
-285.0
 20
444.2500050000079
 30
0.0
 11
-285.0
 21
444.2430882432152
 31
0.0
  0
LINE
  5
1B3
330
1F
100
AcDbEntity
  8
1
  6
CONTINUOUS
 62
     7
100
AcDbLine
 10
-275.0
 20
444.2500050000079
 30
0.0
 11
-275.0
 21
444.2430882432152
 31
0.0
  0
LINE
  5
1B4
330
1F
100
AcDbEntity
  8
1
  6
CONTINUOUS
 62
     7
100
AcDbLine
 10
-231.5
 20
394.750005000008
 30
0.0
 11
-231.5
 21
433.750005000008
 31
0.0
  0
LINE
  5
1B5
330
1F
100
AcDbEntity
  8
1
  6
CONTINUOUS
 62
     7
100
AcDbLine
 10
-328.5
 20
433.750005000008
 30
0.0
 11
-328.5
 21
394.750005000008
 31
0.0
  0
ARC
  5
1B6
330
1F
100
AcDbEntity
  8
1
  6
CONTINUOUS
 62
     7
100
AcDbCircle
 10
-235.0
 20
394.750005000008
 30
0.0
 40
3.500000000000003
100
AcDbArc
 50
270.0
 51
0.0
  0
ARC
  5
1B7
330
1F
100
AcDbEntity
  8
1
  6
CONTINUOUS
 62
     7
100
AcDbCircle
 10
-325.0
 20
394.750005000008
 30
0.0
 40
3.500000000000003
100
AcDbArc
 50
180.0
 51
270.0
  0
LINE
  5
1B8
330
1F
100
AcDbEntity
  8
1
  6
CONTINUOUS
 62
     7
100
AcDbLine
 10
-359.5000000000001
 20
449.2094832509171
 30
0.0
 11
-360.0000000000001
 21
449.2094832509171
 31
0.0
  0
LINE
  5
1B9
330
1F
100
AcDbEntity
  8
1
  6
CONTINUOUS
 62
     7
100
AcDbLine
 10
-200.0
 20
449.2094832509171
 30
0.0
 11
-200.5
 21
449.2094832509171
 31
0.0
  0
ENDSEC
  0
SECTION
  2
OBJECTS
  0
DICTIONARY
  5
C
330
0
100
AcDbDictionary
  3
ACAD_GROUP
350
D
  3
ACAD_LAYOUT
350
1A
  3
ACAD_MATERIAL
350
43
  3
ACAD_MLEADERSTYLE
350
6B
  3
ACAD_MLINESTYLE
350
17
  3
ACAD_PLOTSETTINGS
350
19
  3
ACAD_SCALELIST
350
47
  3
ACAD_VISUALSTYLE
350
2A
  3
ACDBHEADERROUNDTRIPXREC
350
1BA
  3
ACDBVARIABLEDICTIONARY
350
1DB
  0
DICTIONARY
  5
1E2
330
8
100
AcDbDictionary
280
     1
  3
ACAD_XREC_ROUNDTRIP
360
1E3
  0
DICTIONARY
  5
D
102
{ACAD_REACTORS
330
C
102
}
330
C
100
AcDbDictionary
  0
DICTIONARY
  5
1A
102
{ACAD_REACTORS
330
C
102
}
330
C
100
AcDbDictionary
  0
DICTIONARY
  5
43
102
{ACAD_REACTORS
330
C
102
}
330
C
100
AcDbDictionary
  3
BYBLOCK
350
45
  3
BYLAYER
350
44
  3
GLOBAL
350
46
  0
DICTIONARY
  5
6B
102
{ACAD_REACTORS
330
C
102
}
330
C
100
AcDbDictionary
  3
STANDARD
350
6C
  0
DICTIONARY
  5
17
102
{ACAD_REACTORS
330
C
102
}
330
C
100
AcDbDictionary
  3
STANDARD
350
18
  0
DICTIONARY
  5
19
102
{ACAD_REACTORS
330
C
102
}
330
C
100
AcDbDictionary
  0
DICTIONARY
  5
47
102
{ACAD_REACTORS
330
C
102
}
330
C
100
AcDbDictionary
  3
A0
350
48
  3
A1
350
49
  3
A2
350
4A
  3
A3
350
4B
  3
A4
350
4C
  3
A5
350
4D
  3
A6
350
4E
  3
A7
350
4F
  3
A8
350
50
  3
A9
350
51
  3
B0
350
52
  3
B1
350
53
  3
B2
350
54
  3
B3
350
55
  3
B4
350
56
  3
B5
350
57
  3
B6
350
58
  3
B7
350
59
  3
B8
350
5A
  3
B9
350
5B
  3
C0
350
5C
  3
C1
350
5D
  3
C2
350
5E
  3
C3
350
5F
  3
C4
350
60
  3
C5
350
61
  3
C6
350
62
  3
C7
350
63
  3
C8
350
64
  3
C9
350
65
  3
D0
350
66
  3
D1
350
67
  3
D2
350
68
  0
DICTIONARY
  5
2A
102
{ACAD_REACTORS
330
C
102
}
330
C
100
AcDbDictionary
  3
2DWIREFRAME
350
2F
  3
BASIC
350
32
  3
BRIGHTEN
350
36
  3
COLORCHANGE
350
3A
  3
CONCEPTUAL
350
34
  3
DIM
350
35
  3
EDGECOLOROFF
350
3D
  3
FACEPATTERN
350
39
  3
FLAT
350
2B
  3
FLATWITHEDGES
350
2C
  3
GOURAUD
350
2D
  3
GOURAUDWITHEDGES
350
2E
  3
HIDDEN
350
31
  3
JITTEROFF
350
3B
  3
LINEPATTERN
350
38
  3
OVERHANGOFF
350
3C
  3
REALISTIC
350
33
  3
SHADED
350
42
  3
SHADED_WITH_EDGES
350
41
  3
SHADES_OF_GRAY
350
3E
  3
SKETCHY
350
3F
  3
THICKEN
350
37
  3
WIREFRAME
350
30
  3
X-RAY
350
40
  0
DICTIONARY
  5
1BA
102
{ACAD_REACTORS
330
C
102
}
330
C
100
AcDbDictionary
  3
CEPSNID
350
1C4
  3
CEPSNTYPE
350
1C3
  3
DIMSTYLEDATA
350
1DA
  3
FINGERPRINTGUID
350
1C5
  3
HYPERLINKBASE
350
1BD
  3
INSUNITS
350
1C2
  3
LAYOUTDICT
350
1BF
  3
LWETCUNION
350
1C1
  3
PLOTSETDICT
350
1C0
  3
PSVPSCALE
350
1C7
  3
PUCSBASE
350
1CA
  3
PUCSORGBACK
350
1D0
  3
PUCSORGBOTTOM
350
1CC
  3
PUCSORGFRONT
350
1CF
  3
PUCSORGLEFT
350
1CD
  3
PUCSORGRIGHT
350
1CE
  3
PUCSORGTOP
350
1CB
  3
PUCSORTHOREF
350
1C8
  3
PUCSORTHOVIEW
350
1C9
  3
STYLESHEET
350
1BE
  3
TSTACKALIGN
350
1BB
  3
TSTACKSIZE
350
1BC
  3
UCSBASE
350
1D3
  3
UCSORGBACK
350
1D9
  3
UCSORGBOTTOM
350
1D5
  3
UCSORGFRONT
350
1D8
  3
UCSORGLEFT
350
1D6
  3
UCSORGRIGHT
350
1D7
  3
UCSORGTOP
350
1D4
  3
UCSORTHOREF
350
1D1
  3
UCSORTHOVIEW
350
1D2
  3
VERSIONGUID
350
1C6
  0
DICTIONARY
  5
1DB
102
{ACAD_REACTORS
330
C
102
}
330
C
100
AcDbDictionary
  3
CANNOSCALE
350
1E4
  3
CMLEADERSTYLE
350
1DD
  3
CTABLESTYLE
350
1DC
  3
DIMASSOC
350
1E0
  3
HIDETEXT
350
1E1
  3
MSLTSCALE
350
1E5
  0
XRECORD
  5
1E3
102
{ACAD_REACTORS
330
1E2
102
}
330
1E2
100
AcDbXrecord
102
VTR_0.000_0.000_1.000_1.000_VISUALSTYLE
340
2F
102
VTR_0.000_0.000_1.000_1.000_GRIDDISPLAY
 70
     3
102
VTR_0.000_0.000_1.000_1.000_GRIDMAJOR
 70
     5
102
VTR_0.000_0.000_1.000_1.000_DEFAULTLIGHTING
280
     1
102
VTR_0.000_0.000_1.000_1.000_DEFAULTLIGHTINGTYPE
 70
     1
102
VTR_0.000_0.000_1.000_1.000_BRIGHTNESS
141
0.0
102
VTR_0.000_0.000_1.000_1.000_CONTRAST
142
0.0
  0
MATERIAL
  5
45
102
{ACAD_REACTORS
330
43
102
}
102
{ACAD_XDICTIONARY
360
1E8
102
}
330
43
100
AcDbMaterial
  1
BYBLOCK
  0
MATERIAL
  5
44
102
{ACAD_REACTORS
330
43
102
}
102
{ACAD_XDICTIONARY
360
1E6
102
}
330
43
100
AcDbMaterial
  1
BYLAYER
  0
MATERIAL
  5
46
102
{ACAD_REACTORS
330
43
102
}
102
{ACAD_XDICTIONARY
360
1EA
102
}
330
43
100
AcDbMaterial
  1
GLOBAL
  0
ACAD_PROXY_OBJECT
  5
6C
102
{ACAD_REACTORS
330
6B
102
}
330
6B
100
AcDbProxyObject
 90
      499
 91
      505
 93
      610
310
40901902A4063FBFFFFFE056BD1B81E855B9FC0AD7A3703D0AD73F4214DD185B99185C9900AD7A3703D0AC73F90141901A02B5E8DC0F42B1CFC02B5E8DC0F42B1CFE5764000000000000300FC0
340
14
340
0
340
11
340
0
 94
        0
1001
ACAD_MLEADERVER
1070
     2
  0
MLINESTYLE
  5
18
102
{ACAD_REACTORS
330
17
102
}
330
17
100
AcDbMlineStyle
  2
Standard
 70
     0
  3

 62
   256
 51
90.0
 52
90.0
 71
     2
 49
0.5
 62
   256
  6
BYLAYER
 49
-0.5
 62
   256
  6
BYLAYER
  0
ACAD_PROXY_OBJECT
  5
48
102
{ACAD_REACTORS
330
47
102
}
330
47
100
AcDbProxyObject
 90
      499
 91
      503
 93
       41
310
903313A31580
  0
ACAD_PROXY_OBJECT
  5
49
102
{ACAD_REACTORS
330
47
102
}
330
47
100
AcDbProxyObject
 90
      499
 91
      503
 93
      105
310
903313A324000000000000004000
  0
ACAD_PROXY_OBJECT
  5
4A
102
{ACAD_REACTORS
330
47
102
}
330
47
100
AcDbProxyObject
 90
      499
 91
      503
 93
      105
310
903313A344000000000000104000
  0
ACAD_PROXY_OBJECT
  5
4B
102
{ACAD_REACTORS
330
47
102
}
330
47
100
AcDbProxyObject
 90
      499
 91
      503
 93
      105
310
903313A354000000000000144000
  0
ACAD_PROXY_OBJECT
  5
4C
102
{ACAD_REACTORS
330
47
102
}
330
47
100
AcDbProxyObject
 90
      499
 91
      503
 93
      105
310
903313A384000000000000204000
  0
ACAD_PROXY_OBJECT
  5
4D
102
{ACAD_REACTORS
330
47
102
}
330
47
100
AcDbProxyObject
 90
      499
 91
      503
 93
      113
310
904313A31304000000000000244000
  0
ACAD_PROXY_OBJECT
  5
4E
102
{ACAD_REACTORS
330
47
102
}
330
47
100
AcDbProxyObject
 90
      499
 91
      503
 93
      113
310
904313A31364000000000000304000
  0
ACAD_PROXY_OBJECT
  5
4F
102
{ACAD_REACTORS
330
47
102
}
330
47
100
AcDbProxyObject
 90
      499
 91
      503
 93
      113
310
904313A32304000000000000344000
  0
ACAD_PROXY_OBJECT
  5
50
102
{ACAD_REACTORS
330
47
102
}
330
47
100
AcDbProxyObject
 90
      499
 91
      503
 93
      113
310
904313A333040000000000003E4000
  0
ACAD_PROXY_OBJECT
  5
51
102
{ACAD_REACTORS
330
47
102
}
330
47
100
AcDbProxyObject
 90
      499
 91
      503
 93
      113
310
904313A34304000000000000444000
  0
ACAD_PROXY_OBJECT
  5
52
102
{ACAD_REACTORS
330
47
102
}
330
47
100
AcDbProxyObject
 90
      499
 91
      503
 93
      113
310
904313A35304000000000000494000
  0
ACAD_PROXY_OBJECT
  5
53
102
{ACAD_REACTORS
330
47
102
}
330
47
100
AcDbProxyObject
 90
      499
 91
      503
 93
      121
310
905313A3130304000000000000594000
  0
ACAD_PROXY_OBJECT
  5
54
102
{ACAD_REACTORS
330
47
102
}
330
47
100
AcDbProxyObject
 90
      499
 91
      503
 93
      105
310
903323A310000000000000010100
  0
ACAD_PROXY_OBJECT
  5
55
102
{ACAD_REACTORS
330
47
102
}
330
47
100
AcDbProxyObject
 90
      499
 91
      503
 93
      105
310
903343A310000000000000410100
  0
ACAD_PROXY_OBJECT
  5
56
102
{ACAD_REACTORS
330
47
102
}
330
47
100
AcDbProxyObject
 90
      499
 91
      503
 93
      105
310
903383A310000000000000810100
  0
ACAD_PROXY_OBJECT
  5
57
102
{ACAD_REACTORS
330
47
102
}
330
47
100
AcDbProxyObject
 90
      499
 91
      503
 93
      113
310
90431303A310000000000000910100
  0
ACAD_PROXY_OBJECT
  5
58
102
{ACAD_REACTORS
330
47
102
}
330
47
100
AcDbProxyObject
 90
      499
 91
      503
 93
      121
310
9053130303A310000000000001650100
  0
ACAD_PROXY_OBJECT
  5
59
102
{ACAD_REACTORS
330
47
102
}
330
47
100
AcDbProxyObject
 90
      499
 91
      503
 93
      257
310
90E312F31323822203D2031272D3022000000000000200FC000000000000284000
  0
ACAD_PROXY_OBJECT
  5
5A
102
{ACAD_REACTORS
330
47
102
}
330
47
100
AcDbProxyObject
 90
      499
 91
      503
 93
      249
310
90D312F363422203D2031272D3022000000000000240FC000000000000284000
  0
ACAD_PROXY_OBJECT
  5
5B
102
{ACAD_REACTORS
330
47
102
}
330
47
100
AcDbProxyObject
 90
      499
 91
      503
 93
      249
310
90D312F333222203D2031272D3022000000000000280FC000000000000284000
  0
ACAD_PROXY_OBJECT
  5
5C
102
{ACAD_REACTORS
330
47
102
}
330
47
100
AcDbProxyObject
 90
      499
 91
      503
 93
      249
310
90D312F313622203D2031272D30220000000000002C0FC000000000000284000
  0
ACAD_PROXY_OBJECT
  5
5D
102
{ACAD_REACTORS
330
47
102
}
330
47
100
AcDbProxyObject
 90
      499
 91
      503
 93
      249
310
90D332F333222203D2031272D30220000000000002E0FC000000000000284000
  0
ACAD_PROXY_OBJECT
  5
5E
102
{ACAD_REACTORS
330
47
102
}
330
47
100
AcDbProxyObject
 90
      499
 91
      503
 93
      241
310
90C312F3822203D2031272D3022000000000000300FC000000000000284000
  0
ACAD_PROXY_OBJECT
  5
5F
102
{ACAD_REACTORS
330
47
102
}
330
47
100
AcDbProxyObject
 90
      499
 91
      503
 93
      249
310
90D332F313622203D2031272D3022000000000000320FC000000000000284000
  0
ACAD_PROXY_OBJECT
  5
60
102
{ACAD_REACTORS
330
47
102
}
330
47
100
AcDbProxyObject
 90
      499
 91
      503
 93
      241
310
90C312F3422203D2031272D3022000000000000340FC000000000000284000
  0
ACAD_PROXY_OBJECT
  5
61
102
{ACAD_REACTORS
330
47
102
}
330
47
100
AcDbProxyObject
 90
      499
 91
      503
 93
      241
310
90C332F3822203D2031272D3022000000000000360FC000000000000284000
  0
ACAD_PROXY_OBJECT
  5
62
102
{ACAD_REACTORS
330
47
102
}
330
47
100
AcDbProxyObject
 90
      499
 91
      503
 93
      241
310
90C312F3222203D2031272D3022000000000000380FC000000000000284000
  0
ACAD_PROXY_OBJECT
  5
63
102
{ACAD_REACTORS
330
47
102
}
330
47
100
AcDbProxyObject
 90
      499
 91
      503
 93
      241
310
90C332F3422203D2031272D30220000000000003A0FC000000000000284000
  0
ACAD_PROXY_OBJECT
  5
64
102
{ACAD_REACTORS
330
47
102
}
330
47
100
AcDbProxyObject
 90
      499
 91
      503
 93
      161
310
90A3122203D2031272D30224000000000000284000
  0
ACAD_PROXY_OBJECT
  5
65
102
{ACAD_REACTORS
330
47
102
}
330
47
100
AcDbProxyObject
 90
      499
 91
      503
 93
      257
310
90E312D312F3222203D2031272D30220000000000003E0FC000000000000284000
  0
ACAD_PROXY_OBJECT
  5
66
102
{ACAD_REACTORS
330
47
102
}
330
47
100
AcDbProxyObject
 90
      499
 91
      503
 93
      225
310
90A3322203D2031272D302200000000000002100000000000000284000
  0
ACAD_PROXY_OBJECT
  5
67
102
{ACAD_REACTORS
330
47
102
}
330
47
100
AcDbProxyObject
 90
      499
 91
      503
 93
      225
310
90A3622203D2031272D302200000000000006100000000000000284000
  0
ACAD_PROXY_OBJECT
  5
68
102
{ACAD_REACTORS
330
47
102
}
330
47
100
AcDbProxyObject
 90
      499
 91
      503
 93
      249
310
90D31272D3022203D2031272D30220000000000000A100000000000000284000
  0
ACAD_PROXY_OBJECT
  5
2F
102
{ACAD_REACTORS
330
2A
102
}
330
2A
100
AcDbProxyObject
 90
      499
 91
      501
 93
      436
310
42CC9915DA5C99599C985B595049028333333333333E33F0000000000000F90107901411070040501600405405064090741402480A0340
1001
ACAD
1000
AcDbSavedByObjectVersion
1070
     0
  0
ACAD_PROXY_OBJECT
  5
32
102
{ACAD_REACTORS
330
2A
102
}
330
2A
100
AcDbProxyObject
 90
      499
 91
      501
 93
      388
310
4150985CDA58D07406404333333333333E33F0000000000000F90107A41107004050150841D405064090741402480A0350
1001
ACAD
1000
AcDbSavedByObjectVersion
1070
     0
  0
ACAD_PROXY_OBJECT
  5
36
102
{ACAD_REACTORS
330
2A
102
}
330
2A
100
AcDbProxyObject
 90
      499
 91
      501
 93
      428
310
42109C9A59DA1D195B90C409028333333333333E33F0000000000000F9010790141107004050150841D405064090741402480A029950
1001
ACAD
1000
AcDbSavedByObjectVersion
1070
     0
  0
ACAD_PROXY_OBJECT
  5
3A
102
{ACAD_REACTORS
330
2A
102
}
330
2A
100
AcDbProxyObject
 90
      499
 91
      501
 93
      452
310
42D0DBDB1BDC90DA185B99D95104090240C333333333333E33F0000000000000F90108901411070040501508421405064090741402480A0350
1001
ACAD
1000
AcDbSavedByObjectVersion
1070
     0
  0
ACAD_PROXY_OBJECT
  5
34
102
{ACAD_REACTORS
330
2A
102
}
330
2A
100
AcDbProxyObject
 90
      499
 91
      501
 93
      500
310
4290DBDB98D95C1D1D585B10940D028333333333333E33F0000000000000F90107902409070040501000000000018199010841D405064090740C02480A0340
1001
ACAD
1000
AcDbSavedByObjectVersion
1070
     0
  0
ACAD_PROXY_OBJECT
  5
35
102
{ACAD_REACTORS
330
2A
102
}
330
2A
100
AcDbProxyObject
 90
      499
 91
      501
 93
      412
310
40D11A5B50B409028333333333333E33F0000000000000F9010790141107004050150841D405064090741402480A02677FFFFFD0
1001
ACAD
1000
AcDbSavedByObjectVersion
1070
     0
  0
ACAD_PROXY_OBJECT
  5
3D
102
{ACAD_REACTORS
330
2A
102
}
330
2A
100
AcDbProxyObject
 90
      499
 91
      501
 93
      452
310
43115919D950DBDB1BDC93D999916409028333333333333E33F0000000000000F9010790141107004050150841D405064090741402480A0350
1001
ACAD
1000
AcDbSavedByObjectVersion
1070
     0
  0
ACAD_PROXY_OBJECT
  5
39
102
{ACAD_REACTORS
330
2A
102
}
330
2A
100
AcDbProxyObject
 90
      499
 91
      501
 93
      444
310
42D19858D95C185D1D195C9B90F409028333333333333E33F0000000000000F9010790141107004050150841D405064090741402480A0350
1001
ACAD
1000
AcDbSavedByObjectVersion
1070
     0
  0
ACAD_PROXY_OBJECT
  5
2B
102
{ACAD_REACTORS
330
2A
102
}
330
2A
100
AcDbProxyObject
 90
      499
 91
      501
 93
      380
310
41119B185D240901404333333333333E33F0000000000000F9010740A907004050150841D405064090741402480A1B50
1001
ACAD
1000
AcDbSavedByObjectVersion
1070
     0
  0
ACAD_PROXY_OBJECT
  5
2C
102
{ACAD_REACTORS
330
2A
102
}
330
2A
100
AcDbProxyObject
 90
      499
 91
      501
 93
      468
310
43519B185D15DA5D1A115919D95CD0140901404333333333333E33F0000000000000F90107409019070040501600405405064090741402480A1B50
1001
ACAD
1000
AcDbSavedByObjectVersion
1070
     0
  0
ACAD_PROXY_OBJECT
  5
2D
102
{ACAD_REACTORS
330
2A
102
}
330
2A
100
AcDbProxyObject
 90
      499
 91
      501
 93
      404
310
41D1DBDD5C985D5910240902404333333333333E33F0000000000000F9010740A9070040501641D405064090741402480A1B50
1001
ACAD
1000
AcDbSavedByObjectVersion
1070
     0
  0
ACAD_PROXY_OBJECT
  5
2E
102
{ACAD_REACTORS
330
2A
102
}
330
2A
100
AcDbProxyObject
 90
      499
 91
      501
 93
      492
310
4411DBDD5C985D5915DA5D1A115919D95CD0340902404333333333333E33F0000000000000F90107409019070040501600405405064090741402480A1B50
1001
ACAD
1000
AcDbSavedByObjectVersion
1070
     0
  0
ACAD_PROXY_OBJECT
  5
31
102
{ACAD_REACTORS
330
2A
102
}
330
2A
100
AcDbProxyObject
 90
      499
 91
      501
 93
      476
310
41921A5919195B90640502408333333333333E33F0000000000000F901079024090700405020000000000001110200405405064090740C02480A0340
1001
ACAD
1000
AcDbSavedByObjectVersion
1070
     0
  0
ACAD_PROXY_OBJECT
  5
3B
102
{ACAD_REACTORS
330
2A
102
}
330
2A
100
AcDbProxyObject
 90
      499
 91
      501
 93
      428
310
42529A5D1D195C93D999914409028333333333333E33F0000000000000F9010790141107004050150A41D405064090741402480A0350
1001
ACAD
1000
AcDbSavedByObjectVersion
1070
     0
  0
ACAD_PROXY_OBJECT
  5
38
102
{ACAD_REACTORS
330
2A
102
}
330
2A
100
AcDbProxyObject
 90
      499
 91
      501
 93
      444
310
42D31A5B995C185D1D195C9B90E409028333333333333E33F0000000000000F9010790141107004050750841D405064090741402483A0350
1001
ACAD
1000
AcDbSavedByObjectVersion
1070
     0
  0
ACAD_PROXY_OBJECT
  5
3C
102
{ACAD_REACTORS
330
2A
102
}
330
2A
100
AcDbProxyObject
 90
      499
 91
      501
 93
      444
310
42D3DD995C9A185B99D3D999915409028333333333333E33F0000000000000F9010790141107004050150941D405064090741402480A0350
1001
ACAD
1000
AcDbSavedByObjectVersion
1070
     0
  0
ACAD_PROXY_OBJECT
  5
33
102
{ACAD_REACTORS
330
2A
102
}
330
2A
100
AcDbProxyObject
 90
      499
 91
      501
 93
      428
310
425499585B1A5CDD1A58D08409038333333333333E33F0000000000000F9010740A907004050150800405405064090740C02480A1B40
1001
ACAD
1000
AcDbSavedByObjectVersion
1070
     0
  0
ACAD_PROXY_OBJECT
  5
42
102
{ACAD_REACTORS
330
2A
102
}
330
2A
100
AcDbProxyObject
 90
      499
 91
      501
 93
      420
310
4194DA1859195911B40902404333333333333E33F0000000000000F9010740A41107004050150800405405064090840C02480A0B40
1001
ACAD
1000
AcDbSavedByObjectVersion
1070
     0
  0
ACAD_PROXY_OBJECT
  5
41
102
{ACAD_REACTORS
330
2A
102
}
330
2A
100
AcDbProxyObject
 90
      499
 91
      501
 93
      516
310
4454DA18591959081DDA5D1A08195919D95CD1A40902404333333333333E33F0000000000000F901074090142907004050250800405405064090740C02480A0B40
1001
ACAD
1000
AcDbSavedByObjectVersion
1070
     0
  0
ACAD_PROXY_OBJECT
  5
3E
102
{ACAD_REACTORS
330
2A
102
}
330
2A
100
AcDbProxyObject
 90
      499
 91
      501
 93
      532
310
4394DA1859195CC81BD98811DC985E5174090240C333333333333E33F0000000000000F901079024090741D01000000000000111010841D405064090740C02480A0340
1001
ACAD
1000
AcDbSavedByObjectVersion
1070
     0
  0
ACAD_PROXY_OBJECT
  5
3F
102
{ACAD_REACTORS
330
2A
102
}
330
2A
100
AcDbProxyObject
 90
      499
 91
      501
 93
      476
310
41D4DAD95D18DA1E51840502408333333333333E33F0000000000000F901079024090741D01000000000000111010B41D405064090741802480A0340
1001
ACAD
1000
AcDbSavedByObjectVersion
1070
     0
  0
ACAD_PROXY_OBJECT
  5
37
102
{ACAD_REACTORS
330
2A
102
}
330
2A
100
AcDbProxyObject
 90
      499
 91
      501
 93
      412
310
41D51A1A58DAD95B90D409028333333333333E33F0000000000000F9010790141107004050150C41D405064090741402480A0350
1001
ACAD
1000
AcDbSavedByObjectVersion
1070
     0
  0
ACAD_PROXY_OBJECT
  5
30
102
{ACAD_REACTORS
330
2A
102
}
330
2A
100
AcDbProxyObject
 90
      499
 91
      501
 93
      420
310
4255DA5C99599C985B595059028333333333333E33F0000000000000F90107901411070040501600405405064090740C02480A0340
1001
ACAD
1000
AcDbSavedByObjectVersion
1070
     0
  0
ACAD_PROXY_OBJECT
  5
40
102
{ACAD_REACTORS
330
2A
102
}
330
2A
100
AcDbProxyObject
 90
      499
 91
      501
 93
      404
310
41560B54985E51940902404000000000000E03F0000000000000F9010740501907004050150841D405064090740C02480A1B40
1001
ACAD
1000
AcDbSavedByObjectVersion
1070
     0
  0
XRECORD
  5
1C4
102
{ACAD_REACTORS
330
1BA
102
}
330
1BA
100
AcDbXrecord
340
0
  0
XRECORD
  5
1C3
102
{ACAD_REACTORS
330
1BA
102
}
330
1BA
100
AcDbXrecord
 90
        0
  0
XRECORD
  5
1DA
102
{ACAD_REACTORS
330
1BA
102
}
330
1BA
100
AcDbXrecord
1000
DSTYLE
1002
{
1070
   179
 70
     2
1070
   171
 70
     2
1070
   143
 40
25.4
1070
   274
 70
     2
1070
    41
 40
3.0
1070
   141
 40
0.09
1070
    43
 40
0.38
1070
   278
 70
    46
1070
    44
 40
1.5
1070
    42
 40
0.0625
1070
   147
 40
1.5
1070
   272
 70
     4
1070
    73
 70
     1
1070
   172
 70
     0
1070
    74
 70
     1
1070
   283
 70
     1
1070
   340
340
6F
1070
   140
 40
3.0
1070
   284
 70
     0
1070
    78
 70
     0
1002
}
  0
XRECORD
  5
1C5
102
{ACAD_REACTORS
330
1BA
102
}
330
1BA
100
AcDbXrecord
  1
{F31E1D0D-6C71-43E9-9862-A7DFFBF1E793}
  0
XRECORD
  5
1BD
102
{ACAD_REACTORS
330
1BA
102
}
330
1BA
100
AcDbXrecord
  1

  0
XRECORD
  5
1C2
102
{ACAD_REACTORS
330
1BA
102
}
330
1BA
100
AcDbXrecord
 90
        4
  0
XRECORD
  5
1BF
102
{ACAD_REACTORS
330
1BA
102
}
330
1BA
100
AcDbXrecord
340
1A
  0
XRECORD
  5
1C1
102
{ACAD_REACTORS
330
1BA
102
}
330
1BA
100
AcDbXrecord
 90
    10269
  0
XRECORD
  5
1C0
102
{ACAD_REACTORS
330
1BA
102
}
330
1BA
100
AcDbXrecord
340
19
  0
XRECORD
  5
1C7
102
{ACAD_REACTORS
330
1BA
102
}
330
1BA
100
AcDbXrecord
 40
0.0
  0
XRECORD
  5
1CA
102
{ACAD_REACTORS
330
1BA
102
}
330
1BA
100
AcDbXrecord
340
0
  0
XRECORD
  5
1D0
102
{ACAD_REACTORS
330
1BA
102
}
330
1BA
100
AcDbXrecord
 10
0.0
 20
0.0
 30
0.0
  0
XRECORD
  5
1CC
102
{ACAD_REACTORS
330
1BA
102
}
330
1BA
100
AcDbXrecord
 10
0.0
 20
0.0
 30
0.0
  0
XRECORD
  5
1CF
102
{ACAD_REACTORS
330
1BA
102
}
330
1BA
100
AcDbXrecord
 10
0.0
 20
0.0
 30
0.0
  0
XRECORD
  5
1CD
102
{ACAD_REACTORS
330
1BA
102
}
330
1BA
100
AcDbXrecord
 10
0.0
 20
0.0
 30
0.0
  0
XRECORD
  5
1CE
102
{ACAD_REACTORS
330
1BA
102
}
330
1BA
100
AcDbXrecord
 10
0.0
 20
0.0
 30
0.0
  0
XRECORD
  5
1CB
102
{ACAD_REACTORS
330
1BA
102
}
330
1BA
100
AcDbXrecord
 10
0.0
 20
0.0
 30
0.0
  0
XRECORD
  5
1C8
102
{ACAD_REACTORS
330
1BA
102
}
330
1BA
100
AcDbXrecord
340
0
  0
XRECORD
  5
1C9
102
{ACAD_REACTORS
330
1BA
102
}
330
1BA
100
AcDbXrecord
 70
     0
  0
XRECORD
  5
1BE
102
{ACAD_REACTORS
330
1BA
102
}
330
1BA
100
AcDbXrecord
  1

  0
XRECORD
  5
1BB
102
{ACAD_REACTORS
330
1BA
102
}
330
1BA
100
AcDbXrecord
 90
        1
  0
XRECORD
  5
1BC
102
{ACAD_REACTORS
330
1BA
102
}
330
1BA
100
AcDbXrecord
 90
       70
  0
XRECORD
  5
1D3
102
{ACAD_REACTORS
330
1BA
102
}
330
1BA
100
AcDbXrecord
340
0
  0
XRECORD
  5
1D9
102
{ACAD_REACTORS
330
1BA
102
}
330
1BA
100
AcDbXrecord
 10
0.0
 20
0.0
 30
0.0
  0
XRECORD
  5
1D5
102
{ACAD_REACTORS
330
1BA
102
}
330
1BA
100
AcDbXrecord
 10
0.0
 20
0.0
 30
0.0
  0
XRECORD
  5
1D8
102
{ACAD_REACTORS
330
1BA
102
}
330
1BA
100
AcDbXrecord
 10
0.0
 20
0.0
 30
0.0
  0
XRECORD
  5
1D6
102
{ACAD_REACTORS
330
1BA
102
}
330
1BA
100
AcDbXrecord
 10
0.0
 20
0.0
 30
0.0
  0
XRECORD
  5
1D7
102
{ACAD_REACTORS
330
1BA
102
}
330
1BA
100
AcDbXrecord
 10
0.0
 20
0.0
 30
0.0
  0
XRECORD
  5
1D4
102
{ACAD_REACTORS
330
1BA
102
}
330
1BA
100
AcDbXrecord
 10
0.0
 20
0.0
 30
0.0
  0
XRECORD
  5
1D1
102
{ACAD_REACTORS
330
1BA
102
}
330
1BA
100
AcDbXrecord
340
0
  0
XRECORD
  5
1D2
102
{ACAD_REACTORS
330
1BA
102
}
330
1BA
100
AcDbXrecord
 70
     0
  0
XRECORD
  5
1C6
102
{ACAD_REACTORS
330
1BA
102
}
330
1BA
100
AcDbXrecord
  1
{FAEB1C32-E019-11D5-929B-00C0DF256EC4}
  0
DICTIONARYVAR
  5
1E4
102
{ACAD_REACTORS
330
1DB
102
}
330
1DB
100
DictionaryVariables
280
     0
  1
1:1
  0
DICTIONARYVAR
  5
1DD
102
{ACAD_REACTORS
330
1DB
102
}
330
1DB
100
DictionaryVariables
280
     0
  1
Standard
  0
DICTIONARYVAR
  5
1DC
102
{ACAD_REACTORS
330
1DB
102
}
330
1DB
100
DictionaryVariables
280
     0
  1
Standard
  0
DICTIONARYVAR
  5
1E0
102
{ACAD_REACTORS
330
1DB
102
}
330
1DB
100
DictionaryVariables
280
     0
  1
2
  0
DICTIONARYVAR
  5
1E1
102
{ACAD_REACTORS
330
1DB
102
}
330
1DB
100
DictionaryVariables
280
     0
  1
1
  0
DICTIONARYVAR
  5
1E5
102
{ACAD_REACTORS
330
1DB
102
}
330
1DB
100
DictionaryVariables
280
     0
  1
1
  0
DICTIONARY
  5
1E8
330
45
100
AcDbDictionary
280
     1
  3
ACAD_XREC_ROUNDTRIP
360
1E9
  0
DICTIONARY
  5
1E6
330
44
100
AcDbDictionary
280
     1
  3
ACAD_XREC_ROUNDTRIP
360
1E7
  0
DICTIONARY
  5
1EA
330
46
100
AcDbDictionary
280
     1
  3
ACAD_XREC_ROUNDTRIP
360
1EB
  0
XRECORD
  5
1E9
102
{ACAD_REACTORS
330
1E8
102
}
330
1E8
100
AcDbXrecord
102
MATERIAL
148
0.0
149
0.0
149
0.0
 93
        0
 94
      127
282
     0
 72
     1
 77
     1
171
     1
175
     1
179
     1
273
     0
  0
XRECORD
  5
1E7
102
{ACAD_REACTORS
330
1E6
102
}
330
1E6
100
AcDbXrecord
102
MATERIAL
148
0.0
149
0.0
149
0.0
 93
        0
 94
      127
282
     0
 72
     1
 77
     1
171
     1
175
     1
179
     1
273
     0
  0
XRECORD
  5
1EB
102
{ACAD_REACTORS
330
1EA
102
}
330
1EA
100
AcDbXrecord
102
MATERIAL
148
0.0
149
0.0
149
0.0
 93
        0
 94
      127
282
     0
 72
     1
 77
     1
171
     1
175
     1
179
     1
273
     0
  0
ENDSEC
  0
EOF
