  0
SECTION
  2
HEADER
  9
$ACADVER
  1
AC1014
  9
$ACADMAINTVER
 70
     9
  9
$DWGCODEPAGE
  3
ANSI_932
  9
$INSBASE
 10
0.0
 20
0.0
 30
0.0
  9
$EXTMIN
 10
-354.9999999999999
 20
-760.0
 30
0.0
  9
$EXTMAX
 10
-19.99999999999996
 20
-370.0
 30
0.0
  9
$LIMMIN
 10
0.0
 20
0.0
  9
$LIMMAX
 10
12.0
 20
9.0
  9
$ORTHOMODE
 70
     0
  9
$REGENMODE
 70
     1
  9
$FILLMODE
 70
     1
  9
$QTEXTMODE
 70
     0
  9
$MIRRTEXT
 70
     1
  9
$DRAGMODE
 70
     2
  9
$LTSCALE
 40
1.0
  9
$OSMODE
 70
    37
  9
$ATTMODE
 70
     1
  9
$TEXTSIZE
 40
0.2
  9
$TRACEWID
 40
0.05
  9
$TEXTSTYLE
  7
STANDARD
  9
$CLAYER
  8
0
  9
$CELTYPE
  6
BYLAYER
  9
$CECOLOR
 62
   256
  9
$CELTSCALE
 40
1.0
  9
$DELOBJ
 70
     1
  9
$DISPSILH
 70
     0
  9
$DIMSCALE
 40
1.0
  9
$DIMASZ
 40
3.0
  9
$DIMEXO
 40
0.0625
  9
$DIMDLI
 40
0.38
  9
$DIMRND
 40
0.0
  9
$DIMDLE
 40
0.0
  9
$DIMEXE
 40
1.5
  9
$DIMTP
 40
0.0
  9
$DIMTM
 40
0.0
  9
$DIMTXT
 40
3.0
  9
$DIMCEN
 40
0.09
  9
$DIMTSZ
 40
0.0
  9
$DIMTOL
 70
     0
  9
$DIMLIM
 70
     0
  9
$DIMTIH
 70
     1
  9
$DIMTOH
 70
     1
  9
$DIMSE1
 70
     0
  9
$DIMSE2
 70
     0
  9
$DIMTAD
 70
     1
  9
$DIMZIN
 70
     0
  9
$DIMBLK
  1

  9
$DIMASO
 70
     1
  9
$DIMSHO
 70
     1
  9
$DIMPOST
  1

  9
$DIMAPOST
  1

  9
$DIMALT
 70
     0
  9
$DIMALTD
 70
     2
  9
$DIMALTF
 40
25.4
  9
$DIMLFAC
 40
1.0
  9
$DIMTOFL
 70
     0
  9
$DIMTVP
 40
0.0
  9
$DIMTIX
 70
     0
  9
$DIMSOXD
 70
     0
  9
$DIMSAH
 70
     0
  9
$DIMBLK1
  1

  9
$DIMBLK2
  1

  9
$DIMSTYLE
  2
STANDARD
  9
$DIMCLRD
 70
     0
  9
$DIMCLRE
 70
     0
  9
$DIMCLRT
 70
     0
  9
$DIMTFAC
 40
1.0
  9
$DIMGAP
 40
1.5
  9
$DIMJUST
 70
     0
  9
$DIMSD1
 70
     0
  9
$DIMSD2
 70
     0
  9
$DIMTOLJ
 70
     1
  9
$DIMTZIN
 70
     0
  9
$DIMALTZ
 70
     0
  9
$DIMALTTZ
 70
     0
  9
$DIMFIT
 70
     3
  9
$DIMUPT
 70
     0
  9
$DIMUNIT
 70
     2
  9
$DIMDEC
 70
     2
  9
$DIMTDEC
 70
     4
  9
$DIMALTU
 70
     2
  9
$DIMALTTD
 70
     2
  9
$DIMTXSTY
  7
ＭＳ_ゴシック
  9
$DIMAUNIT
 70
     0
  9
$LUNITS
 70
     2
  9
$LUPREC
 70
     4
  9
$SKETCHINC
 40
0.1
  9
$FILLETRAD
 40
0.5
  9
$AUNITS
 70
     0
  9
$AUPREC
 70
     0
  9
$MENU
  1
.
  9
$ELEVATION
 40
0.0
  9
$PELEVATION
 40
0.0
  9
$THICKNESS
 40
0.0
  9
$LIMCHECK
 70
     0
  9
$CHAMFERA
 40
0.0
  9
$CHAMFERB
 40
0.0
  9
$CHAMFERC
 40
0.0
  9
$CHAMFERD
 40
0.0
  9
$SKPOLY
 70
     0
  9
$TDCREATE
 40
2459870.46987581
  9
$TDUPDATE
 40
2459870.469876042
  9
$TDINDWG
 40
0.0000000116
  9
$TDUSRTIMER
 40
0.0000000116
  9
$USRTIMER
 70
     1
  9
$ANGBASE
 50
0.0
  9
$ANGDIR
 70
     0
  9
$PDMODE
 70
     0
  9
$PDSIZE
 40
0.0
  9
$PLINEWID
 40
0.0
  9
$COORDS
 70
     1
  9
$SPLFRAME
 70
     0
  9
$SPLINETYPE
 70
     6
  9
$SPLINESEGS
 70
     8
  9
$ATTDIA
 70
     0
  9
$ATTREQ
 70
     1
  9
$HANDLING
 70
     1
  9
$HANDSEED
  5
1DE
  9
$SURFTAB1
 70
     6
  9
$SURFTAB2
 70
     6
  9
$SURFTYPE
 70
     6
  9
$SURFU
 70
     6
  9
$SURFV
 70
     6
  9
$UCSNAME
  2

  9
$UCSORG
 10
0.0
 20
0.0
 30
0.0
  9
$UCSXDIR
 10
1.0
 20
0.0
 30
0.0
  9
$UCSYDIR
 10
0.0
 20
1.0
 30
0.0
  9
$PUCSNAME
  2

  9
$PUCSORG
 10
0.0
 20
0.0
 30
0.0
  9
$PUCSXDIR
 10
1.0
 20
0.0
 30
0.0
  9
$PUCSYDIR
 10
0.0
 20
1.0
 30
0.0
  9
$USERI1
 70
     0
  9
$USERI2
 70
     0
  9
$USERI3
 70
     0
  9
$USERI4
 70
     0
  9
$USERI5
 70
     0
  9
$USERR1
 40
0.0
  9
$USERR2
 40
0.0
  9
$USERR3
 40
0.0
  9
$USERR4
 40
0.0
  9
$USERR5
 40
0.0
  9
$WORLDVIEW
 70
     1
  9
$SHADEDGE
 70
     3
  9
$SHADEDIF
 70
    70
  9
$TILEMODE
 70
     1
  9
$MAXACTVP
 70
    64
  9
$PINSBASE
 10
0.0
 20
0.0
 30
0.0
  9
$PLIMCHECK
 70
     0
  9
$PEXTMIN
 10
1.000000000000000E+20
 20
1.000000000000000E+20
 30
1.000000000000000E+20
  9
$PEXTMAX
 10
-1.000000000000000E+20
 20
-1.000000000000000E+20
 30
-1.000000000000000E+20
  9
$PLIMMIN
 10
0.0
 20
0.0
  9
$PLIMMAX
 10
12.0
 20
9.0
  9
$UNITMODE
 70
     0
  9
$VISRETAIN
 70
     1
  9
$PLINEGEN
 70
     0
  9
$PSLTSCALE
 70
     1
  9
$TREEDEPTH
 70
  3020
  9
$PICKSTYLE
 70
     1
  9
$CMLSTYLE
  2
STANDARD
  9
$CMLJUST
 70
     0
  9
$CMLSCALE
 40
1.0
  9
$PROXYGRAPHICS
 70
     1
  9
$MEASUREMENT
 70
     1
  0
ENDSEC
  0
SECTION
  2
CLASSES
  0
CLASS
  1
ACDBDICTIONARYWDFLT
  2
AcDbDictionaryWithDefault
  3
ObjectDBX Classes
 90
        0
280
     0
281
     0
  0
CLASS
  1
VISUALSTYLE
  2
AcDbVisualStyle
  3
ObjectDBX Classes
 90
     4095
280
     0
281
     0
  0
CLASS
  1
MATERIAL
  2
AcDbMaterial
  3
ObjectDBX Classes
 90
     1153
280
     0
281
     0
  0
CLASS
  1
SCALE
  2
AcDbScale
  3
ObjectDBX Classes
 90
     1153
280
     0
281
     0
  0
CLASS
  1
TABLESTYLE
  2
AcDbTableStyle
  3
ObjectDBX Classes
 90
     4095
280
     0
281
     0
  0
CLASS
  1
MLEADERSTYLE
  2
AcDbMLeaderStyle
  3
ACDB_MLEADERSTYLE_CLASS
 90
     4095
280
     0
281
     0
  0
CLASS
  1
SUN
  2
AcDbSun
  3
SCENEOE
 90
     1153
280
     0
281
     0
  0
CLASS
  1
DICTIONARYVAR
  2
AcDbDictionaryVar
  3
ObjectDBX Classes
 90
        0
280
     0
281
     0
  0
CLASS
  1
XRECORD
  2
AcDbXrecord
  3
ObjectDBX Classes
 90
        0
280
     0
281
     0
  0
CLASS
  1
LWPOLYLINE
  2
AcDbPolyline
  3
ObjectDBX Classes
 90
        0
280
     0
281
     1
  0
CLASS
  1
HATCH
  2
AcDbHatch
  3
ObjectDBX Classes
 90
        0
280
     0
281
     1
  0
CLASS
  1
ACDBPLACEHOLDER
  2
AcDbPlaceHolder
  3
ObjectDBX Classes
 90
        0
280
     0
281
     0
  0
CLASS
  1
LAYOUT
  2
AcDbLayout
  3
ObjectDBX Classes
 90
        0
280
     0
281
     0
  0
ENDSEC
  0
SECTION
  2
TABLES
  0
TABLE
  2
VPORT
  5
8
102
{ACAD_XDICTIONARY
360
1D3
102
}
330
0
100
AcDbSymbolTable
 70
     1
  0
VPORT
  5
29
330
8
100
AcDbSymbolTableRecord
100
AcDbViewportTableRecord
  2
*ACTIVE
 70
     0
 10
0.0
 20
0.0
 11
1.0
 21
1.0
 12
-187.4999999999999
 22
-565.0
 13
0.0
 23
0.0
 14
0.5
 24
0.5
 15
0.5
 25
0.5
 16
0.0
 26
0.0
 36
1.0
 17
0.0
 27
0.0
 37
0.0
 40
390.0
 41
1.6
 42
50.0
 43
0.0
 44
0.0
 50
0.0
 51
0.0
 71
     0
 72
   100
 73
     1
 74
     3
 75
     0
 76
     0
 77
     0
 78
     0
  0
ENDTAB
  0
TABLE
  2
LTYPE
  5
5
330
0
100
AcDbSymbolTable
 70
     2
  0
LTYPE
  5
14
330
5
100
AcDbSymbolTableRecord
100
AcDbLinetypeTableRecord
  2
BYBLOCK
 70
     0
  3

 72
    65
 73
     0
 40
0.0
  0
LTYPE
  5
15
330
5
100
AcDbSymbolTableRecord
100
AcDbLinetypeTableRecord
  2
BYLAYER
 70
     0
  3

 72
    65
 73
     0
 40
0.0
  0
LTYPE
  5
16
330
5
100
AcDbSymbolTableRecord
100
AcDbLinetypeTableRecord
  2
CONTINUOUS
 70
     0
  3
Solid line
 72
    65
 73
     0
 40
0.0
  0
LTYPE
  5
1A8
330
5
100
AcDbSymbolTableRecord
100
AcDbLinetypeTableRecord
  2
CENTER
 70
     0
  3

 72
    65
 73
     0
 40
0.0
  0
ENDTAB
  0
TABLE
  2
LAYER
  5
2
330
0
100
AcDbSymbolTable
 70
     2
  0
LAYER
  5
10
330
2
100
AcDbSymbolTableRecord
100
AcDbLayerTableRecord
  2
0
 70
     0
 62
     7
  6
CONTINUOUS
  0
LAYER
  5
6E
330
2
100
AcDbSymbolTableRecord
100
AcDbLayerTableRecord
  2
1
 70
     0
 62
     7
  6
CONTINUOUS
  0
ENDTAB
  0
TABLE
  2
STYLE
  5
3
330
0
100
AcDbSymbolTable
 70
     2
  0
STYLE
  5
11
330
3
100
AcDbSymbolTableRecord
100
AcDbTextStyleTableRecord
  2
STANDARD
 70
     0
 40
0.0
 41
1.0
 50
0.0
 71
     0
 42
0.2
  3
txt
  4

  0
STYLE
  5
6F
330
3
100
AcDbSymbolTableRecord
100
AcDbTextStyleTableRecord
  2
ＭＳ_ゴシック
 70
     0
 40
0.0
 41
1.0
 50
0.0
 71
     0
 42
0.2
  3
ＭＳ ゴシック.shx
  4

  0
ENDTAB
  0
TABLE
  2
VIEW
  5
6
330
0
100
AcDbSymbolTable
 70
     0
  0
ENDTAB
  0
TABLE
  2
UCS
  5
7
330
0
100
AcDbSymbolTable
 70
     0
  0
ENDTAB
  0
TABLE
  2
APPID
  5
9
330
0
100
AcDbSymbolTable
 70
     2
  0
APPID
  5
12
330
9
100
AcDbSymbolTableRecord
100
AcDbRegAppTableRecord
  2
ACAD
 70
     0
  0
APPID
  5
1DD
330
9
100
AcDbSymbolTableRecord
100
AcDbRegAppTableRecord
  2
ACAD_MLEADERVER
 70
     0
  0
ENDTAB
  0
TABLE
  2
DIMSTYLE
  5
A
330
0
100
AcDbSymbolTable
 70
     1
  0
DIMSTYLE
105
27
330
A
100
AcDbSymbolTableRecord
100
AcDbDimStyleTableRecord
  2
STANDARD
 70
     0
  3

  4

  5

  6

  7

 40
1.0
 41
0.18
 42
0.0625
 43
0.38
 44
0.18
 45
0.0
 46
0.0
 47
0.0
 48
0.0
140
0.18
141
0.09
142
0.0
143
25.4
144
1.0
145
0.0
146
1.0
147
0.09
 71
     0
 72
     0
 73
     1
 74
     1
 75
     0
 76
     0
 77
     0
 78
     0
170
     0
171
     2
172
     0
173
     0
174
     0
175
     0
176
     0
177
     0
178
     0
270
     2
271
     4
272
     4
273
     2
274
     2
340
11
275
     0
280
     0
281
     0
282
     0
283
     1
284
     0
285
     0
286
     0
287
     3
288
     0
  0
ENDTAB
  0
TABLE
  2
BLOCK_RECORD
  5
1
330
0
100
AcDbSymbolTable
 70
     0
  0
BLOCK_RECORD
  5
1F
330
1
100
AcDbSymbolTableRecord
100
AcDbBlockTableRecord
  2
*MODEL_SPACE
  0
BLOCK_RECORD
  5
1B
330
1
100
AcDbSymbolTableRecord
100
AcDbBlockTableRecord
  2
*PAPER_SPACE
  0
ENDTAB
  0
ENDSEC
  0
SECTION
  2
BLOCKS
  0
BLOCK
  5
20
330
1F
100
AcDbEntity
  8
0
100
AcDbBlockBegin
  2
*MODEL_SPACE
 70
     0
 10
0.0
 20
0.0
 30
0.0
  3
*MODEL_SPACE
  1

  0
ENDBLK
  5
21
330
1F
100
AcDbEntity
  8
0
100
AcDbBlockEnd
  0
BLOCK
  5
1C
330
1B
100
AcDbEntity
 67
     1
  8
0
100
AcDbBlockBegin
  2
*PAPER_SPACE
 70
     0
 10
0.0
 20
0.0
 30
0.0
  3
*PAPER_SPACE
  1

  0
ENDBLK
  5
1D
330
1B
100
AcDbEntity
 67
     1
  8
0
100
AcDbBlockEnd
  0
ENDSEC
  0
SECTION
  2
ENTITIES
  0
MTEXT
  5
70
330
1F
100
AcDbEntity
  8
1
 62
     7
100
AcDbMText
 10
-114.424584219082
 20
-628.985216331124
 30
0.0
 40
3.0
 41
0.0
 71
     1
 72
     1
  1
{\fＭＳ ゴシック;PYE-S100GAL}
  0
ARC
  5
71
330
1F
100
AcDbEntity
  8
1
  6
CONTINUOUS
 62
     7
100
AcDbCircle
 10
-274.9999999999999
 20
-394.0566651986469
 30
0.0
 40
5.000000000000004
100
AcDbArc
 50
90.0
 51
180.0
  0
ARC
  5
72
330
1F
100
AcDbEntity
  8
1
  6
CONTINUOUS
 62
     7
100
AcDbCircle
 10
-274.9999999999999
 20
-394.0566651986469
 30
0.0
 40
5.0
100
AcDbArc
 50
0.0
 51
90.0
  0
CIRCLE
  5
73
330
1F
100
AcDbEntity
  8
1
  6
CONTINUOUS
 62
     7
100
AcDbCircle
 10
-274.9999999999999
 20
-394.0566651986469
 30
0.0
 40
2.5
  0
LINE
  5
74
330
1F
100
AcDbEntity
  8
1
  6
CONTINUOUS
 62
     7
100
AcDbLine
 10
-269.9999999999999
 20
-394.0566651986469
 30
0.0
 11
-269.9999999999999
 21
-398.556665198647
 31
0.0
  0
LINE
  5
75
330
1F
100
AcDbEntity
  8
1
  6
CONTINUOUS
 62
     7
100
AcDbLine
 10
-279.9999999999999
 20
-398.5566651986469
 30
0.0
 11
-279.9999999999999
 21
-394.0566651986468
 31
0.0
  0
LINE
  5
76
330
1F
100
AcDbEntity
  8
1
  6
CONTINUOUS
 62
     7
100
AcDbLine
 10
-205.9999999999999
 20
-398.556665198647
 30
0.0
 11
-343.9999999999998
 21
-398.556665198647
 31
0.0
  0
LINE
  5
77
330
1F
100
AcDbEntity
  8
1
  6
CONTINUOUS
 62
     7
100
AcDbLine
 10
-343.9999999999998
 20
-543.556665198647
 30
0.0
 11
-205.9999999999999
 21
-543.556665198647
 31
0.0
  0
LINE
  5
78
330
1F
100
AcDbEntity
  8
1
  6
CONTINUOUS
 62
     7
100
AcDbLine
 10
-205.9999999999999
 20
-398.556665198647
 30
0.0
 11
-204.9999999999999
 21
-398.556665198647
 31
0.0
  0
LINE
  5
79
330
1F
100
AcDbEntity
  8
1
  6
CONTINUOUS
 62
     7
100
AcDbLine
 10
-204.9999999999999
 20
-398.556665198647
 30
0.0
 11
-204.9999999999999
 21
-543.556665198647
 31
0.0
  0
LINE
  5
7A
330
1F
100
AcDbEntity
  8
1
  6
CONTINUOUS
 62
     7
100
AcDbLine
 10
-204.9999999999999
 20
-543.556665198647
 30
0.0
 11
-205.9999999999999
 21
-543.556665198647
 31
0.0
  0
LINE
  5
7B
330
1F
100
AcDbEntity
  8
1
  6
CONTINUOUS
 62
     7
100
AcDbLine
 10
-344.9999999999998
 20
-543.556665198647
 30
0.0
 11
-344.9999999999998
 21
-398.556665198647
 31
0.0
  0
LINE
  5
7C
330
1F
100
AcDbEntity
  8
1
  6
CONTINUOUS
 62
     7
100
AcDbLine
 10
-344.9999999999998
 20
-398.556665198647
 30
0.0
 11
-343.9999999999998
 21
-398.556665198647
 31
0.0
  0
LINE
  5
7D
330
1F
100
AcDbEntity
  8
1
  6
CONTINUOUS
 62
     7
100
AcDbLine
 10
-343.9999999999998
 20
-543.556665198647
 30
0.0
 11
-344.9999999999998
 21
-543.556665198647
 31
0.0
  0
LINE
  5
7E
330
1F
100
AcDbEntity
  8
1
  6
CONTINUOUS
 62
     7
100
AcDbLine
 10
-354.9999999999999
 20
-567.5919788416535
 30
0.0
 11
-354.9999999999999
 21
-563.3654826832369
 31
0.0
  0
LINE
  5
7F
330
1F
100
AcDbEntity
  8
1
  6
CONTINUOUS
 62
     7
100
AcDbLine
 10
-194.9999999999999
 20
-563.3654826832368
 30
0.0
 11
-194.9999999999999
 21
-567.5919788416534
 31
0.0
  0
LINE
  5
80
330
1F
100
AcDbEntity
  8
1
  6
CONTINUOUS
 62
     7
100
AcDbLine
 10
-354.9999999999999
 20
-563.3654826832368
 30
0.0
 11
-354.9999999999999
 21
-552.0865298210633
 31
0.0
  0
LINE
  5
81
330
1F
100
AcDbEntity
  8
1
  6
CONTINUOUS
 62
     7
100
AcDbLine
 10
-194.9999999999999
 20
-563.3654826832368
 30
0.0
 11
-194.9999999999999
 21
-552.0865298210633
 31
0.0
  0
LWPOLYLINE
  5
82
330
1F
100
AcDbEntity
  8
1
  6
CONTINUOUS
 62
     7
100
AcDbPolyline
 90
        6
 70
     0
 43
0.0
 10
-195.4999999999999
 20
-568.8206215344969
 10
-195.330869393641
 20
-568.7416354212901
 10
-195.1909830056249
 20
-568.6417722126006
 10
-195.0864545423573
 20
-568.5253964098451
 10
-195.0218523992661
 20
-568.3975941940372
 10
-194.9999999999999
 20
-568.2639511352705
  0
LINE
  5
83
330
1F
100
AcDbEntity
  8
1
  6
CONTINUOUS
 62
     7
100
AcDbLine
 10
-194.9999999999999
 20
-568.2639511352705
 30
0.0
 11
-194.9999999999999
 21
-567.5919788416535
 31
0.0
  0
LWPOLYLINE
  5
84
330
1F
100
AcDbEntity
  8
1
  6
CONTINUOUS
 62
     7
100
AcDbPolyline
 90
        6
 70
     0
 43
0.0
 10
-354.9999999999999
 20
-568.2639511352705
 10
-354.9781476007337
 20
-568.3975941940372
 10
-354.9135454576425
 20
-568.5253964098451
 10
-354.8090169943748
 20
-568.6417722126006
 10
-354.6691306063587
 20
-568.7416354212901
 10
-354.4999999999999
 20
-568.8206215344969
  0
LINE
  5
85
330
1F
100
AcDbEntity
  8
1
  6
CONTINUOUS
 62
     7
100
AcDbLine
 10
-354.9999999999999
 20
-568.2639511352705
 30
0.0
 11
-354.9999999999999
 21
-567.5919788416535
 31
0.0
  0
LINE
  5
86
330
1F
100
AcDbEntity
  8
1
  6
CONTINUOUS
 62
     7
100
AcDbLine
 10
-354.4999999999999
 20
-568.8194661474215
 30
0.0
 11
-354.0464329266312
 21
-568.9038188676235
 31
0.0
  0
LINE
  5
87
330
1F
100
AcDbEntity
  8
1
  6
CONTINUOUS
 62
     7
100
AcDbLine
 10
-195.9535670733686
 20
-568.9038188676234
 30
0.0
 11
-195.4999999999999
 21
-568.8194661474214
 31
0.0
  0
LINE
  5
88
330
1F
100
AcDbEntity
  8
1
  6
CONTINUOUS
 62
     7
100
AcDbLine
 10
-280.3510211930286
 20
-570.933666363753
 30
0.0
 11
-354.0464329266312
 21
-568.9038188676234
 31
0.0
  0
LINE
  5
89
330
1F
100
AcDbEntity
  8
1
  6
CONTINUOUS
 62
     7
100
AcDbLine
 10
-280.3510211930286
 20
-570.933666363753
 30
0.0
 11
-280.1370191703813
 21
-570.9385809923702
 31
0.0
  0
LINE
  5
8A
330
1F
100
AcDbEntity
  8
1
  6
CONTINUOUS
 62
     7
100
AcDbLine
 10
-269.6489788069711
 20
-570.933666363753
 30
0.0
 11
-195.9535670733686
 21
-568.9038188676234
 31
0.0
  0
LINE
  5
8B
330
1F
100
AcDbEntity
  8
1
  6
CONTINUOUS
 62
     7
100
AcDbLine
 10
-269.8629808296185
 20
-570.9385809923702
 30
0.0
 11
-269.6489788069711
 21
-570.933666363753
 31
0.0
  0
LINE
  5
8C
330
1F
100
AcDbEntity
  8
1
  6
CONTINUOUS
 62
     7
100
AcDbLine
 10
-354.0232164633156
 20
-553.8893289162909
 30
0.0
 11
-353.9999999999999
 21
-553.8901421662804
 31
0.0
  0
LINE
  5
8D
330
1F
100
AcDbEntity
  8
1
  6
CONTINUOUS
 62
     7
100
AcDbLine
 10
-280.0835623588545
 20
-570.9406337027243
 30
0.0
 11
-279.6499369741014
 21
-570.9433348013531
 31
0.0
  0
LINE
  5
8E
330
1F
100
AcDbEntity
  8
1
  6
CONTINUOUS
 62
     7
100
AcDbLine
 10
-270.3500630258983
 20
-570.9433348013531
 30
0.0
 11
-269.9164376411451
 21
-570.9406337027243
 31
0.0
  0
LINE
  5
8F
330
1F
100
AcDbEntity
  8
1
  6
CONTINUOUS
 62
     7
100
AcDbLine
 10
-270.3500630258982
 20
-570.9433348013531
 30
0.0
 11
-279.6499369741014
 21
-570.9433348013531
 31
0.0
  0
LINE
  5
90
330
1F
100
AcDbEntity
  8
1
  6
CONTINUOUS
 62
     7
100
AcDbLine
 10
-269.8629808296185
 20
-570.9385809923702
 30
0.0
 11
-269.9164376411451
 21
-570.9406337027243
 31
0.0
  0
LINE
  5
91
330
1F
100
AcDbEntity
  8
1
  6
CONTINUOUS
 62
     7
100
AcDbLine
 10
-280.0835623588545
 20
-570.9406337027243
 30
0.0
 11
-280.1370191703812
 21
-570.9385809923701
 31
0.0
  0
LINE
  5
92
330
1F
100
AcDbEntity
  8
1
  6
CONTINUOUS
 62
     7
100
AcDbLine
 10
-194.9999999999999
 20
-551.9079236259065
 30
0.0
 11
-194.9999999999999
 21
-552.0865298210633
 31
0.0
  0
LINE
  5
93
330
1F
100
AcDbEntity
  8
1
  6
CONTINUOUS
 62
     7
100
AcDbLine
 10
-354.9999999999999
 20
-552.0865298210633
 30
0.0
 11
-354.9999999999999
 21
-551.9079236259065
 31
0.0
  0
LINE
  5
94
330
1F
100
AcDbEntity
  8
1
  6
CONTINUOUS
 62
     7
100
AcDbLine
 10
-194.9999999999999
 20
-551.3867102582111
 30
0.0
 11
-194.9999999999999
 21
-551.8565565686041
 31
0.0
  0
LINE
  5
95
330
1F
100
AcDbEntity
  8
1
  6
CONTINUOUS
 62
     7
100
AcDbLine
 10
-354.9999999999999
 20
-551.8565565686041
 30
0.0
 11
-354.9999999999999
 21
-551.3867102582111
 31
0.0
  0
LINE
  5
96
330
1F
100
AcDbEntity
  8
1
  6
CONTINUOUS
 62
     7
100
AcDbLine
 10
-195.4999999999999
 20
-544.0566651986469
 30
0.0
 11
-194.9999999999999
 21
-544.0566651986469
 31
0.0
  0
LINE
  5
97
330
1F
100
AcDbEntity
  8
1
  6
CONTINUOUS
 62
     7
100
AcDbLine
 10
-194.9999999999999
 20
-544.0566651986469
 30
0.0
 11
-194.9999999999999
 21
-547.0566651986469
 31
0.0
  0
LINE
  5
98
330
1F
100
AcDbEntity
  8
1
  6
CONTINUOUS
 62
     7
100
AcDbLine
 10
-354.9999999999999
 20
-547.0566651986469
 30
0.0
 11
-354.9999999999999
 21
-551.3867102582111
 31
0.0
  0
LINE
  5
99
330
1F
100
AcDbEntity
  8
1
  6
CONTINUOUS
 62
     7
100
AcDbLine
 10
-354.9999999999999
 20
-544.0566651986469
 30
0.0
 11
-354.4999999999999
 21
-544.0566651986469
 31
0.0
  0
LINE
  5
9A
330
1F
100
AcDbEntity
  8
1
  6
CONTINUOUS
 62
     7
100
AcDbLine
 10
-354.9999999999999
 20
-547.0566651986469
 30
0.0
 11
-354.9999999999999
 21
-544.0566651986469
 31
0.0
  0
LINE
  5
9B
330
1F
100
AcDbEntity
  8
1
  6
CONTINUOUS
 62
     7
100
AcDbLine
 10
-194.9999999999999
 20
-547.0566651986469
 30
0.0
 11
-194.9999999999999
 21
-551.3867102582111
 31
0.0
  0
LINE
  5
9C
330
1F
100
AcDbEntity
  8
1
  6
CONTINUOUS
 62
     7
100
AcDbLine
 10
-194.9999999999999
 20
-551.8565565686041
 30
0.0
 11
-194.9999999999999
 21
-551.9079236259065
 31
0.0
  0
LINE
  5
9D
330
1F
100
AcDbEntity
  8
1
  6
CONTINUOUS
 62
     7
100
AcDbLine
 10
-354.486123646155
 20
-553.2352713938037
 30
0.0
 11
-354.4999999999999
 21
-553.1926949643807
 31
0.0
  0
LINE
  5
9E
330
1F
100
AcDbEntity
  8
1
  6
CONTINUOUS
 62
     7
100
AcDbLine
 10
-354.4999999999999
 20
-553.2352713938037
 30
0.0
 11
-354.486123646155
 21
-553.2352713938037
 31
0.0
  0
LINE
  5
9F
330
1F
100
AcDbEntity
  8
1
  6
CONTINUOUS
 62
     7
100
AcDbLine
 10
-354.9999999999999
 20
-551.8565565686041
 30
0.0
 11
-354.9999999999999
 21
-551.9079236259065
 31
0.0
  0
LINE
  5
A0
330
1F
100
AcDbEntity
  8
1
  6
CONTINUOUS
 62
     7
100
AcDbLine
 10
-354.486123646155
 20
-553.2352713938037
 30
0.0
 11
-354.4776911356444
 21
-553.2018766652272
 31
0.0
  0
LINE
  5
A1
330
1F
100
AcDbEntity
  8
1
  6
CONTINUOUS
 62
     7
100
AcDbLine
 10
-353.9999999999999
 20
-544.0566651986469
 30
0.0
 11
-354.4999999999999
 21
-544.0566651986469
 31
0.0
  0
LINE
  5
A2
330
1F
100
AcDbEntity
  8
1
  6
CONTINUOUS
 62
     7
100
AcDbLine
 10
-343.4999999999999
 20
-543.556665198647
 30
0.0
 11
-343.4999999999999
 21
-544.0566651986469
 31
0.0
  0
LINE
  5
A3
330
1F
100
AcDbEntity
  8
1
  6
CONTINUOUS
 62
     7
100
AcDbLine
 10
-206.4999999999999
 20
-544.0566651986469
 30
0.0
 11
-206.4999999999999
 21
-543.556665198647
 31
0.0
  0
LINE
  5
A4
330
1F
100
AcDbEntity
  8
1
  6
CONTINUOUS
 62
     7
100
AcDbLine
 10
-195.4999999999999
 20
-544.0566651986469
 30
0.0
 11
-195.9999999999999
 21
-544.0566651986469
 31
0.0
  0
CIRCLE
  5
A5
330
1F
100
AcDbEntity
  8
1
  6
CONTINUOUS
 62
     7
100
AcDbCircle
 10
-214.9999999999999
 20
-548.556665198647
 30
0.0
 40
2.500000000000002
  0
CIRCLE
  5
A6
330
1F
100
AcDbEntity
  8
1
  6
CONTINUOUS
 62
     7
100
AcDbCircle
 10
-334.9999999999999
 20
-548.556665198647
 30
0.0
 40
2.500000000000002
  0
LINE
  5
A7
330
1F
100
AcDbEntity
  8
1
  6
CONTINUOUS
 62
     7
100
AcDbLine
 10
-353.9999999999999
 20
-544.0566651986469
 30
0.0
 11
-343.4999999999998
 21
-544.0566651986469
 31
0.0
  0
LINE
  5
A8
330
1F
100
AcDbEntity
  8
1
  6
CONTINUOUS
 62
     7
100
AcDbLine
 10
-206.4999999999999
 20
-544.0566651986469
 30
0.0
 11
-195.9999999999999
 21
-544.0566651986469
 31
0.0
  0
LINE
  5
A9
330
1F
100
AcDbEntity
  8
1
  6
CONTINUOUS
 62
     7
100
AcDbLine
 10
-205.4999999999999
 20
-677.9197115466424
 30
0.0
 11
-271.297897725207
 21
-654.2499949999919
 31
0.0
  0
LINE
  5
AA
330
1F
100
AcDbEntity
  8
1
  6
CONTINUOUS
 62
     7
100
AcDbLine
 10
-271.297897725207
 20
-654.2499949999919
 30
0.0
 11
-206.7550432552565
 21
-654.2499949999919
 31
0.0
  0
LINE
  5
AB
330
1F
100
AcDbEntity
  8
1
  6
CONTINUOUS
 62
     7
100
AcDbLine
 10
-205.4999999999999
 20
-654.3720169635318
 30
0.0
 11
-206.7550432552565
 21
-654.2499949999919
 31
0.0
  0
LINE
  5
AC
330
1F
100
AcDbEntity
  8
1
  6
CONTINUOUS
 62
     7
100
AcDbLine
 10
-278.7021022747929
 20
-654.2499949999919
 30
0.0
 11
-343.2449567447433
 21
-654.2499949999919
 31
0.0
  0
LINE
  5
AD
330
1F
100
AcDbEntity
  8
1
  6
CONTINUOUS
 62
     7
100
AcDbLine
 10
-344.4999999999999
 20
-677.9197115466424
 30
0.0
 11
-278.7021022747929
 21
-654.2499949999919
 31
0.0
  0
LINE
  5
AE
330
1F
100
AcDbEntity
  8
1
  6
CONTINUOUS
 62
     7
100
AcDbLine
 10
-344.4999999999999
 20
-654.3720169635318
 30
0.0
 11
-343.2449567447433
 21
-654.2499949999919
 31
0.0
  0
LINE
  5
AF
330
1F
100
AcDbEntity
  8
1
  6
CONTINUOUS
 62
     7
100
AcDbLine
 10
-344.4999999999998
 20
-654.2499949999919
 30
0.0
 11
-343.2449567447433
 21
-654.2499949999919
 31
0.0
  0
LINE
  5
B0
330
1F
100
AcDbEntity
  8
1
  6
CONTINUOUS
 62
     7
100
AcDbLine
 10
-205.5000000000001
 20
-654.2499949999919
 30
0.0
 11
-206.7550432552565
 21
-654.2499949999919
 31
0.0
  0
LINE
  5
B1
330
1F
100
AcDbEntity
  8
1
  6
CONTINUOUS
 62
     7
100
AcDbLine
 10
-279.4999999999999
 20
-654.2499949999919
 30
0.0
 11
-279.4999999999999
 21
-653.7499949999919
 31
0.0
  0
LINE
  5
B2
330
1F
100
AcDbEntity
  8
1
  6
CONTINUOUS
 62
     7
100
AcDbLine
 10
-344.4999999999998
 20
-653.7499949999919
 30
0.0
 11
-279.4999999999999
 21
-653.7499949999919
 31
0.0
  0
LINE
  5
B3
330
1F
100
AcDbEntity
  8
1
  6
CONTINUOUS
 62
     7
100
AcDbLine
 10
-270.4999999999999
 20
-654.2499949999919
 30
0.0
 11
-270.4999999999999
 21
-653.7499949999919
 31
0.0
  0
LINE
  5
B4
330
1F
100
AcDbEntity
  8
1
  6
CONTINUOUS
 62
     7
100
AcDbLine
 10
-205.5000000000001
 20
-653.7499949999919
 30
0.0
 11
-270.4999999999999
 21
-653.7499949999919
 31
0.0
  0
LINE
  5
B5
330
1F
100
AcDbEntity
  8
1
  6
CONTINUOUS
 62
     7
100
AcDbLine
 10
-205.4999999999999
 20
-678.3910022161996
 30
0.0
 11
-344.4999999999999
 21
-678.3910022161996
 31
0.0
  0
LINE
  5
B6
330
1F
100
AcDbEntity
  8
1
  6
CONTINUOUS
 62
     7
100
AcDbLine
 10
-271.297897725207
 20
-654.2499949999919
 30
0.0
 11
-278.7021022747929
 21
-654.2499949999919
 31
0.0
  0
LINE
  5
B7
330
1F
100
AcDbEntity
  8
1
  6
CONTINUOUS
 62
     7
100
AcDbLine
 10
-279.4999999999999
 20
-653.7499949999919
 30
0.0
 11
-270.4999999999999
 21
-653.7499949999919
 31
0.0
  0
LINE
  5
B8
330
1F
100
AcDbEntity
  8
1
  6
CONTINUOUS
 62
     7
100
AcDbLine
 10
-344.4999999999999
 20
-637.249994999992
 30
0.0
 11
-344.4999999999999
 21
-688.4052190614093
 31
0.0
  0
LINE
  5
B9
330
1F
100
AcDbEntity
  8
1
  6
CONTINUOUS
 62
     7
100
AcDbLine
 10
-205.4999999999999
 20
-637.249994999992
 30
0.0
 11
-205.4999999999999
 21
-688.4052190614093
 31
0.0
  0
LINE
  5
BA
330
1F
100
AcDbEntity
  8
1
  6
CONTINUOUS
 62
     7
100
AcDbLine
 10
-204.9999999999999
 20
-637.249994999992
 30
0.0
 11
-204.9999999999999
 21
-688.3864353692873
 31
0.0
  0
ARC
  5
BB
330
1F
100
AcDbEntity
  8
1
  6
CONTINUOUS
 62
     7
100
AcDbCircle
 10
-205.9999999999999
 20
-637.249994999992
 30
0.0
 40
0.5000000000000004
100
AcDbArc
 50
0.0
 51
90.0
  0
LINE
  5
BC
330
1F
100
AcDbEntity
  8
1
  6
CONTINUOUS
 62
     7
100
AcDbLine
 10
-344.9999999999999
 20
-637.249994999992
 30
0.0
 11
-344.9999999999999
 21
-688.3864353692873
 31
0.0
  0
LINE
  5
BD
330
1F
100
AcDbEntity
  8
1
  6
CONTINUOUS
 62
     7
100
AcDbLine
 10
-343.9999999999999
 20
-636.7499949999919
 30
0.0
 11
-205.9999999999999
 21
-636.7499949999919
 31
0.0
  0
ARC
  5
BE
330
1F
100
AcDbEntity
  8
1
  6
CONTINUOUS
 62
     7
100
AcDbCircle
 10
-343.9999999999999
 20
-637.249994999992
 30
0.0
 40
0.500000000000056
100
AcDbArc
 50
90.0
 51
180.0
  0
ARC
  5
BF
330
1F
100
AcDbEntity
  8
1
  6
CONTINUOUS
 62
     7
100
AcDbCircle
 10
-343.9999999999999
 20
-637.249994999992
 30
0.0
 40
1.000000000000001
100
AcDbArc
 50
90.0
 51
180.0
  0
ARC
  5
C0
330
1F
100
AcDbEntity
  8
1
  6
CONTINUOUS
 62
     7
100
AcDbCircle
 10
-205.9999999999999
 20
-637.249994999992
 30
0.0
 40
1.000000000000001
100
AcDbArc
 50
0.0
 51
90.0
  0
LINE
  5
C1
330
1F
100
AcDbEntity
  8
1
  6
CONTINUOUS
 62
     7
100
AcDbLine
 10
-343.9999999999999
 20
-636.249994999992
 30
0.0
 11
-205.9999999999999
 21
-636.249994999992
 31
0.0
  0
ARC
  5
C2
330
1F
100
AcDbEntity
  8
1
  6
CONTINUOUS
 62
     7
100
AcDbCircle
 10
-274.9999999999999
 20
-687.2999949999919
 30
0.0
 40
1.500000000000006
100
AcDbArc
 50
166.5066011784483
 51
193.4933988215516
  0
ARC
  5
C3
330
1F
100
AcDbEntity
  8
1
  6
CONTINUOUS
 62
     7
100
AcDbCircle
 10
-274.9999999999999
 20
-687.2999949999919
 30
0.0
 40
1.499999999999993
100
AcDbArc
 50
256.5066011784482
 51
283.4933988215516
  0
LINE
  5
C4
330
1F
100
AcDbEntity
  8
1
  6
CONTINUOUS
 62
     7
100
AcDbLine
 10
-274.6499999999999
 20
-687.649994999992
 30
0.0
 11
-274.6499999999999
 21
-688.7585902145734
 31
0.0
  0
LINE
  5
C5
330
1F
100
AcDbEntity
  8
1
  6
CONTINUOUS
 62
     7
100
AcDbLine
 10
-273.5414047854184
 20
-687.649994999992
 30
0.0
 11
-274.6499999999999
 21
-687.649994999992
 31
0.0
  0
ARC
  5
C6
330
1F
100
AcDbEntity
  8
1
  6
CONTINUOUS
 62
     7
100
AcDbCircle
 10
-274.9999999999999
 20
-687.2999949999919
 30
0.0
 40
1.49999999999998
100
AcDbArc
 50
346.5066011784484
 51
13.49339882155175
  0
LINE
  5
C7
330
1F
100
AcDbEntity
  8
1
  6
CONTINUOUS
 62
     7
100
AcDbLine
 10
-274.6499999999999
 20
-686.949994999992
 30
0.0
 11
-273.5414047854184
 21
-686.949994999992
 31
0.0
  0
ARC
  5
C8
330
1F
100
AcDbEntity
  8
1
  6
CONTINUOUS
 62
     7
100
AcDbCircle
 10
-274.9999999999999
 20
-687.2999949999919
 30
0.0
 40
1.499999999999993
100
AcDbArc
 50
76.5066011784483
 51
103.4933988215517
  0
LINE
  5
C9
330
1F
100
AcDbEntity
  8
1
  6
CONTINUOUS
 62
     7
100
AcDbLine
 10
-274.6499999999999
 20
-685.8413997854104
 30
0.0
 11
-274.6499999999999
 21
-686.949994999992
 31
0.0
  0
LINE
  5
CA
330
1F
100
AcDbEntity
  8
1
  6
CONTINUOUS
 62
     7
100
AcDbLine
 10
-275.3499999999999
 20
-686.949994999992
 30
0.0
 11
-275.3499999999999
 21
-685.8413997854104
 31
0.0
  0
LINE
  5
CB
330
1F
100
AcDbEntity
  8
1
  6
CONTINUOUS
 62
     7
100
AcDbLine
 10
-275.3499999999999
 20
-687.649994999992
 30
0.0
 11
-276.4585952145814
 21
-687.649994999992
 31
0.0
  0
LINE
  5
CC
330
1F
100
AcDbEntity
  8
1
  6
CONTINUOUS
 62
     7
100
AcDbLine
 10
-276.4585952145814
 20
-686.949994999992
 30
0.0
 11
-275.3499999999999
 21
-686.949994999992
 31
0.0
  0
LINE
  5
CD
330
1F
100
AcDbEntity
  8
1
  6
CONTINUOUS
 62
     7
100
AcDbLine
 10
-275.3499999999999
 20
-688.7585902145734
 30
0.0
 11
-275.3499999999999
 21
-687.6499949999919
 31
0.0
  0
ARC
  5
CE
330
1F
100
AcDbEntity
  8
1
  6
CONTINUOUS
 62
     7
100
AcDbCircle
 10
-274.9999999999999
 20
-687.2999949999919
 30
0.0
 40
0.7344081032030797
100
AcDbArc
 50
241.5381003333582
 51
298.4618996666418
  0
ARC
  5
CF
330
1F
100
AcDbEntity
  8
1
  6
CONTINUOUS
 62
     7
100
AcDbCircle
 10
-274.9999999999999
 20
-687.2999949999919
 30
0.0
 40
0.7344081032030797
100
AcDbArc
 50
61.53810033335824
 51
118.4618996666418
  0
ARC
  5
D0
330
1F
100
AcDbEntity
  8
1
  6
CONTINUOUS
 62
     7
100
AcDbCircle
 10
-274.9999999999999
 20
-687.2999949999919
 30
0.0
 40
0.7344081032030533
100
AcDbArc
 50
151.5381003333581
 51
208.4618996666418
  0
ARC
  5
D1
330
1F
100
AcDbEntity
  8
1
  6
CONTINUOUS
 62
     7
100
AcDbCircle
 10
-274.9999999999999
 20
-687.2999949999919
 30
0.0
 40
0.7344081032031062
100
AcDbArc
 50
331.5381003333582
 51
28.4618996666419
  0
CIRCLE
  5
D2
330
1F
100
AcDbEntity
  8
1
  6
CONTINUOUS
 62
     7
100
AcDbCircle
 10
-274.9999999999999
 20
-687.2999949999919
 30
0.0
 40
2.749999999999975
  0
LINE
  5
D3
330
1F
100
AcDbEntity
  8
1
  6
CONTINUOUS
 62
     7
100
AcDbLine
 10
-229.9999999999999
 20
-743.7499949999919
 30
0.0
 11
-319.9999999999998
 21
-743.7499949999919
 31
0.0
  0
LINE
  5
D4
330
1F
100
AcDbEntity
  8
1
  6
CONTINUOUS
 62
     7
100
AcDbLine
 10
-314.6348657553614
 20
-729.0757266107709
 30
0.0
 11
-314.564961588222
 21
-730.3617633892451
 31
0.0
  0
LINE
  5
D5
330
1F
100
AcDbEntity
  8
1
  6
CONTINUOUS
 62
     7
100
AcDbLine
 10
-235.4350384117776
 20
-730.3617633892454
 30
0.0
 11
-235.3651342446366
 21
-729.0757266107382
 31
0.0
  0
ARC
  5
D6
330
1F
100
AcDbEntity
  8
1
  6
CONTINUOUS
 62
     7
100
AcDbCircle
 10
-237.1103933967538
 20
-720.3565379682894
 30
0.0
 40
5.243849679546488
100
AcDbArc
 50
335.2924508836029
 51
356.9854343088718
  0
LINE
  5
D7
330
1F
100
AcDbEntity
  8
1
  6
CONTINUOUS
 62
     7
100
AcDbLine
 10
-231.8738001685763
 20
-720.6323111074569
 30
0.0
 11
-231.6167849852673
 21
-715.7033246456458
 31
0.0
  0
LINE
  5
D8
330
1F
100
AcDbEntity
  8
1
  6
CONTINUOUS
 62
     7
100
AcDbLine
 10
-235.4350384117777
 20
-730.3617633892454
 30
0.0
 11
-235.3820555466146
 21
-730.14886487108
 31
0.0
  0
LINE
  5
D9
330
1F
100
AcDbEntity
  8
1
  6
CONTINUOUS
 62
     7
100
AcDbLine
 10
-232.3466018325479
 20
-722.5483977709415
 30
0.0
 11
-235.3651342446367
 21
-729.0757266107385
 31
0.0
  0
ARC
  5
DA
330
1F
100
AcDbEntity
  8
1
  6
CONTINUOUS
 62
     7
100
AcDbCircle
 10
-233.3634031582911
 20
-720.8770656358953
 30
0.0
 40
5.527409900171746
100
AcDbArc
 50
340.0689824482635
 51
2.537895413089643
  0
LINE
  5
DB
330
1F
100
AcDbEntity
  8
1
  6
CONTINUOUS
 62
     7
100
AcDbLine
 10
-318.3832150147324
 20
-715.7033246456457
 30
0.0
 11
-318.1261998314234
 21
-720.6323111074574
 31
0.0
  0
ARC
  5
DC
330
1F
100
AcDbEntity
  8
1
  6
CONTINUOUS
 62
     7
100
AcDbCircle
 10
-312.8908302674982
 20
-720.3568399120928
 30
0.0
 40
5.242611834796675
100
AcDbArc
 50
183.0119736527497
 51
204.7101411547726
  0
LINE
  5
DD
330
1F
100
AcDbEntity
  8
1
  6
CONTINUOUS
 62
     7
100
AcDbLine
 10
-314.6348657553527
 20
-729.0757266107609
 30
0.0
 11
-317.6533981674519
 21
-722.5483977709415
 31
0.0
  0
ARC
  5
DE
330
1F
100
AcDbEntity
  8
1
  6
CONTINUOUS
 62
     7
100
AcDbCircle
 10
-316.6463931566066
 20
-720.8785640809808
 30
0.0
 40
5.517689883134596
100
AcDbArc
 50
177.4420555687253
 51
199.9510665699231
  0
LINE
  5
DF
330
1F
100
AcDbEntity
  8
1
  6
CONTINUOUS
 62
     7
100
AcDbLine
 10
-321.953259547437
 20
-715.7033246456458
 30
0.0
 11
-322.1585851996578
 21
-720.6323111074571
 31
0.0
  0
LWPOLYLINE
  5
E0
330
1F
100
AcDbEntity
  8
1
  6
CONTINUOUS
 62
     7
100
AcDbPolyline
 90
       36
 70
     0
 43
0.0
 10
-321.7280976188146
 20
-715.2499949999919
 10
-321.7375846778448
 20
-715.2504292388247
 10
-321.7470561880302
 20
-715.2517289533046
 10
-321.756487780002
 20
-715.2538896404035
 10
-321.7658550843916
 20
-715.2569067970934
 10
-321.7754185190033
 20
-715.260905674734
 10
-321.7848968417042
 20
-715.2658050855149
 10
-321.7942644837167
 20
-715.2715904263956
 10
-321.803495876263
 20
-715.2782470943355
 10
-321.812328117615
 20
-715.2855475876797
 10
-321.8210166157461
 20
-715.2936589137507
 10
-321.8295394277127
 20
-715.3025591388482
 10
-321.8378746105716
 20
-715.3122263292715
 10
-321.8462481942493
 20
-715.3229688488738
 10
-321.8544085230824
 20
-715.3345050756257
 10
-321.8623339608899
 20
-715.3468024457475
 10
-321.8700028714904
 20
-715.3598283954597
 10
-321.8771996376651
 20
-715.3731700399527
 10
-321.884142294716
 20
-715.3871765015824
 10
-321.8908136043075
 20
-715.4018107871922
 10
-321.8971963281039
 20
-715.4170359036257
 10
-321.9034571816345
 20
-715.4333092296916
 10
-321.9094016053374
 20
-715.450179613894
 10
-321.9150141201405
 20
-715.4676000350507
 10
-321.9202792469721
 20
-715.48552347198
 10
-321.9250510389985
 20
-715.5033827144023
 10
-321.9294877335523
 20
-715.5216847279598
 10
-321.9335785790483
 20
-715.5403816129979
 10
-321.9373128239012
 20
-715.559425469862
 10
-321.940779214952
 20
-715.5793700077071
 10
-321.9438618419975
 20
-715.5996462860262
 10
-321.9465529945848
 20
-715.6201982006316
 10
-321.9488449622609
 20
-715.640969647335
 10
-321.9507081048273
 20
-715.6616067713929
 10
-321.9521809034293
 20
-715.6824102542923
 10
-321.9532595474371
 20
-715.7033246456457
  0
LINE
  5
E1
330
1F
100
AcDbEntity
  8
1
  6
CONTINUOUS
 62
     7
100
AcDbLine
 10
-321.7280976188146
 20
-715.2499949999919
 30
0.0
 11
-319.0896650775642
 21
-715.2499949999919
 31
0.0
  0
LWPOLYLINE
  5
E2
330
1F
100
AcDbEntity
  8
1
  6
CONTINUOUS
 62
     7
100
AcDbPolyline
 90
       36
 70
     0
 43
0.0
 10
-228.0467404525627
 20
-715.7033246456456
 10
-228.0478013253817
 20
-715.6827080310796
 10
-228.0492460797364
 20
-715.6621900443822
 10
-228.0510706064736
 20
-715.6418236174932
 10
-228.0532707964398
 20
-715.6216616823522
 10
-228.0559264872917
 20
-715.6011464472037
 10
-228.0589759481699
 20
-715.5808850564437
 10
-228.062410550915
 20
-715.5609325503117
 10
-228.0662216673674
 20
-715.5413439690474
 10
-228.0702838734389
 20
-715.5226755283923
 10
-228.074695356013
 20
-715.504383704512
 10
-228.0794446042156
 20
-715.4865151245594
 10
-228.0845201071722
 20
-715.4691164156875
 10
-228.0900800375418
 20
-715.4517213691317
 10
-228.0959764602537
 20
-715.4348554710845
 10
-228.1021932520756
 20
-715.4185638705127
 10
-228.1087142897754
 20
-715.4028917163832
 10
-228.1153459050067
 20
-715.3882547902904
 10
-228.1222548952327
 20
-715.3742300586603
 10
-228.1294234999713
 20
-715.3608527535974
 10
-228.1368339587406
 20
-715.3481581072062
 10
-228.1447058097129
 20
-715.3358222932437
 10
-228.1528206171203
 20
-715.3242318940396
 10
-228.1611563505948
 20
-715.3134173578072
 10
-228.1696909797682
 20
-715.3034091327606
 10
-228.1781831125754
 20
-715.2944525837304
 10
-228.1868496660457
 20
-715.2862761948509
 10
-228.1956683640867
 20
-715.2788999849327
 10
-228.2046169306056
 20
-715.2723439727856
 10
-228.2139529600559
 20
-715.2664627598834
 10
-228.2234103078981
 20
-715.261461323542
 10
-228.2329631965285
 20
-715.2573521014863
 10
-228.2425858483433
 20
-715.2541475314421
 10
-228.2523187005785
 20
-715.2518431450429
 10
-228.2620998603707
 20
-715.2504576801342
 10
-228.2719023811852
 20
-715.2499949999919
  0
LINE
  5
E3
330
1F
100
AcDbEntity
  8
1
  6
CONTINUOUS
 62
     7
100
AcDbLine
 10
-227.841414800342
 20
-720.632311107457
 30
0.0
 11
-228.0467404525627
 21
-715.7033246456456
 31
0.0
  0
LINE
  5
E4
330
1F
100
AcDbEntity
  8
1
  6
CONTINUOUS
 62
     7
100
AcDbLine
 10
-230.9103349224356
 20
-715.2499949999919
 30
0.0
 11
-228.2719023811852
 21
-715.2499949999919
 31
0.0
  0
LINE
  5
E5
330
1F
100
AcDbEntity
  8
1
  6
CONTINUOUS
 62
     7
100
AcDbLine
 10
-319.1084635037996
 20
-730.1488648710803
 30
0.0
 11
-321.8329354613538
 21
-722.7612962891064
 31
0.0
  0
LINE
  5
E6
330
1F
100
AcDbEntity
  8
1
  6
CONTINUOUS
 62
     7
100
AcDbLine
 10
-228.1670645386459
 20
-722.7612962891064
 30
0.0
 11
-230.8915364962002
 21
-730.1488648710805
 31
0.0
  0
LINE
  5
E7
330
1F
100
AcDbEntity
  8
1
  6
CONTINUOUS
 62
     7
100
AcDbLine
 10
-231.3439007598479
 20
-715.2499949999919
 30
0.0
 11
-230.9103349224356
 21
-715.2499949999919
 31
0.0
  0
LWPOLYLINE
  5
E8
330
1F
100
AcDbEntity
  8
1
  6
CONTINUOUS
 62
     7
100
AcDbPolyline
 90
       36
 70
     0
 43
0.0
 10
231.6167849852673
 20
-715.7033246456458
 10
231.6154776730554
 20
-715.6827084311673
 10
231.6136976642368
 20
-715.6621908470718
 10
231.6114503649328
 20
-715.6418248252328
 10
231.6087411812645
 20
-715.6216632975236
 10
231.6054722601934
 20
-715.6011484736168
 10
231.6017202653261
 20
-715.5808874955775
 10
231.597496498791
 20
-715.5609354018221
 10
231.5928122627162
 20
-715.5413472307671
 10
231.5878223372377
 20
-715.5226791979173
 10
231.5824068194804
 20
-715.5043877757139
 10
231.5765806823788
 20
-715.4865195875032
 10
231.5703588988673
 20
-715.4691212566315
 10
231.5635487179525
 20
-715.4517266002161
 10
231.5563325726425
 20
-715.4348610703921
 10
231.5487312367125
 20
-715.4185698100888
 10
231.5407654839378
 20
-715.4028979622352
 10
231.5326724654004
 20
-715.3882609927597
 10
231.5242494549614
 20
-715.3742362046113
 10
231.5155190704915
 20
-715.3608588259916
 10
231.506503929861
 20
-715.3481640851019
 10
231.4969384517836
 20
-715.335828169118
 10
231.4870894525896
 20
-715.3242376369897
 10
231.4769846074329
 20
-715.313422932763
 10
231.4666515914674
 20
-715.303414500484
 10
231.4563827570899
 20
-715.2944574347679
 10
231.4459163072729
 20
-715.2862805377508
 10
231.4352798080773
 20
-715.2789038276528
 10
231.4245008255639
 20
-715.272347322694
 10
231.413270426982
 20
-715.2664656147908
 10
231.4019098434272
 20
-715.26146368827
 10
231.3904504610323
 20
-715.2573539814091
 10
231.3789236659302
 20
-715.2541489324857
 10
231.3672796422046
 20
-715.2518437698167
 10
231.3555945601414
 20
-715.2504578368495
 10
231.3439007598479
 20
-715.2499949999919
210
0.0
220
0.0
230
-1.0
  0
LINE
  5
E9
330
1F
100
AcDbEntity
  8
1
  6
CONTINUOUS
 62
     7
100
AcDbLine
 10
-319.0896650775642
 20
-715.2499949999919
 30
0.0
 11
-318.6560992401519
 21
-715.2499949999919
 31
0.0
  0
LWPOLYLINE
  5
EA
330
1F
100
AcDbEntity
  8
1
  6
CONTINUOUS
 62
     7
100
AcDbPolyline
 90
       36
 70
     0
 43
0.0
 10
318.6560992401519
 20
-715.2499949999919
 10
318.6447836452683
 20
-715.2504292591401
 10
318.6334708655707
 20
-715.2517290340743
 10
318.6221901901044
 20
-715.2538898210291
 10
318.6109709079146
 20
-715.2569071162391
 10
318.5995006111182
 20
-715.2609061758963
 10
318.5881164379217
 20
-715.2658058090968
 10
318.5768496365744
 20
-715.2715914127276
 10
318.5657314553256
 20
-715.2782483836756
 10
318.5550796818209
 20
-715.2855492116926
 10
318.5445876788039
 20
-715.2936609122128
 10
318.5342826966891
 20
-715.3025615518678
 10
318.5241919858909
 20
-715.3122291972895
 10
318.5140421245264
 20
-715.3229722329498
 10
318.5041386144385
 20
-715.3345090221352
 10
318.4945087274614
 20
-715.3468070009833
 10
318.4851797354298
 20
-715.3598336056314
 10
318.4764154224698
 20
-715.3731758217616
 10
318.4679516670999
 20
-715.3871828907767
 10
318.4598104876296
 20
-715.4018178189118
 10
318.4520139023679
 20
-715.4170436124018
 10
318.444358943276
 20
-715.4333176971394
 10
318.4370842629037
 20
-715.4501888805544
 10
318.4302098564947
 20
-715.4676101381094
 10
318.4237557192924
 20
-715.4855344452673
 10
318.4179021265571
 20
-715.50339405541
 10
318.4124558655871
 20
-715.5216964434605
 10
318.4074309487052
 20
-715.5403937079319
 10
318.4028413882339
 20
-715.5594379473372
 10
318.3985787943137
 20
-715.5793829172645
 10
318.3947862873796
 20
-715.5996596314529
 10
318.3914739805134
 20
-715.6202119808897
 10
318.3886519867969
 20
-715.6409838565618
 10
318.3863578726807
 20
-715.6616163173637
 10
318.3845438780169
 20
-715.6824150522564
 10
318.3832150147324
 20
-715.7033246456455
210
0.0
220
0.0
230
-1.0
  0
LINE
  5
EB
330
1F
100
AcDbEntity
  8
1
  6
CONTINUOUS
 62
     7
100
AcDbLine
 10
-230.8915364962002
 20
-730.1488648710805
 30
0.0
 11
-230.9245601252852
 21
-730.3617633892455
 31
0.0
  0
LINE
  5
EC
330
1F
100
AcDbEntity
  8
1
  6
CONTINUOUS
 62
     7
100
AcDbLine
 10
-319.0754398747145
 20
-730.3617633892455
 30
0.0
 11
-319.1084635037996
 21
-730.1488648710803
 31
0.0
  0
LINE
  5
ED
330
1F
100
AcDbEntity
  8
1
  6
CONTINUOUS
 62
     7
100
AcDbLine
 10
-282.4999999999999
 20
-681.7499949999919
 30
0.0
 11
-267.4999999999999
 21
-681.7499949999919
 31
0.0
  0
LINE
  5
EE
330
1F
100
AcDbEntity
  8
1
  6
CONTINUOUS
 62
     7
100
AcDbLine
 10
-283.9999999999999
 20
-683.3660204037764
 30
0.0
 11
-283.9999999999999
 21
-682.4999949999919
 31
0.0
  0
LWPOLYLINE
  5
EF
330
1F
100
AcDbEntity
  8
1
  6
CONTINUOUS
 62
     7
100
AcDbPolyline
 90
        9
 70
     0
 43
0.0
 10
-282.4999999999999
 20
-681.7499949999919
 10
-282.7926354830241
 20
-681.7644060396896
 10
-283.0740251485475
 20
-681.8070853506085
 10
-283.3333553495293
 20
-681.8763927907651
 10
-283.5606601717797
 20
-681.969664914102
 10
-283.7472044184537
 20
-682.0833173252272
 10
-283.8858192987668
 20
-682.2129824257181
 10
-283.9711779206048
 20
-682.3536772584798
 10
-283.9999999999999
 20
-682.4999949999919
  0
LINE
  5
F0
330
1F
100
AcDbEntity
  8
1
  6
CONTINUOUS
 62
     7
100
AcDbLine
 10
-265.9999999999999
 20
-682.4999949999919
 30
0.0
 11
-265.9999999999999
 21
-683.3660204037764
 31
0.0
  0
LWPOLYLINE
  5
F1
330
1F
100
AcDbEntity
  8
1
  6
CONTINUOUS
 62
     7
100
AcDbPolyline
 90
        9
 70
     0
 43
0.0
 10
-265.9999999999999
 20
-682.4999949999919
 10
-266.028822079395
 20
-682.3536772584798
 10
-266.114180701233
 20
-682.2129824257181
 10
-266.2527955815461
 20
-682.0833173252272
 10
-266.4393398282201
 20
-681.969664914102
 10
-266.6666446504705
 20
-681.8763927907651
 10
-266.9259748514522
 20
-681.8070853506084
 10
-267.2073645169757
 20
-681.7644060396896
 10
-267.4999999999999
 20
-681.7499949999919
  0
LINE
  5
F2
330
1F
100
AcDbEntity
  8
1
  6
CONTINUOUS
 62
     7
100
AcDbLine
 10
-265.9999999999999
 20
-683.3660204037764
 30
0.0
 11
-265.9999999999999
 21
-683.5386701345868
 31
0.0
  0
LINE
  5
F3
330
1F
100
AcDbEntity
  8
1
  6
CONTINUOUS
 62
     7
100
AcDbLine
 10
-283.9999999999999
 20
-683.3660204037764
 30
0.0
 11
-283.9999999999999
 21
-683.5386701345868
 31
0.0
  0
LINE
  5
F4
330
1F
100
AcDbEntity
  8
1
  6
CONTINUOUS
 62
     7
100
AcDbLine
 10
-283.9999999999999
 20
-683.5386701345868
 30
0.0
 11
-283.9999999999999
 21
-684.4046955383712
 31
0.0
  0
LINE
  5
F5
330
1F
100
AcDbEntity
  8
1
  6
CONTINUOUS
 62
     7
100
AcDbLine
 10
-265.9999999999999
 20
-684.4046955383712
 30
0.0
 11
-265.9999999999999
 21
-683.5386701345868
 31
0.0
  0
LINE
  5
F6
330
1F
100
AcDbEntity
  8
1
  6
CONTINUOUS
 62
     7
100
AcDbLine
 10
-272.9999999999999
 20
-689.1874536088096
 30
0.0
 11
-272.9999999999999
 21
-690.7499949999919
 31
0.0
  0
ARC
  5
F7
330
1F
100
AcDbEntity
  8
1
  6
CONTINUOUS
 62
     7
100
AcDbCircle
 10
-280.4999999999999
 20
-691.749994999992
 30
0.0
 40
1.000000000000034
100
AcDbArc
 50
90.0
 51
107.8304948708633
  0
LINE
  5
F8
330
1F
100
AcDbEntity
  8
1
  6
CONTINUOUS
 62
     7
100
AcDbLine
 10
-280.4999999999999
 20
-690.7499949999919
 30
0.0
 11
-276.9999999999999
 21
-690.7499949999919
 31
0.0
  0
ARC
  5
F9
330
1F
100
AcDbEntity
  8
1
  6
CONTINUOUS
 62
     7
100
AcDbCircle
 10
-269.4999999999999
 20
-691.749994999992
 30
0.0
 40
1.000000000000001
100
AcDbArc
 50
72.16950512913667
 51
90.0
  0
LINE
  5
FA
330
1F
100
AcDbEntity
  8
1
  6
CONTINUOUS
 62
     7
100
AcDbLine
 10
-272.9999999999999
 20
-690.7499949999919
 30
0.0
 11
-269.4999999999999
 21
-690.7499949999919
 31
0.0
  0
LINE
  5
FB
330
1F
100
AcDbEntity
  8
1
  6
CONTINUOUS
 62
     7
100
AcDbLine
 10
-276.9999999999999
 20
-690.7499949999919
 30
0.0
 11
-276.9999999999999
 21
-689.1874536088096
 31
0.0
  0
LINE
  5
FC
330
1F
100
AcDbEntity
  8
1
  6
CONTINUOUS
 62
     7
100
AcDbLine
 10
-283.9999999999999
 20
-684.4046955383712
 30
0.0
 11
-283.9999999999999
 21
-690.678045808169
 31
0.0
  0
LINE
  5
FD
330
1F
100
AcDbEntity
  8
1
  6
CONTINUOUS
 62
     7
100
AcDbLine
 10
-265.9999999999999
 20
-684.4046955383712
 30
0.0
 11
-265.9999999999999
 21
-690.678045808169
 31
0.0
  0
ARC
  5
FE
330
1F
100
AcDbEntity
  8
1
  6
CONTINUOUS
 62
     7
100
AcDbCircle
 10
-265.3433095715552
 20
-708.4336710206605
 30
0.0
 40
23.1839931925766
100
AcDbArc
 50
52.21312546665968
 51
89.7002968121472
  0
ARC
  5
FF
330
1F
100
AcDbEntity
  8
1
  6
CONTINUOUS
 62
     7
100
AcDbCircle
 10
-284.6754116936945
 20
-708.3798058445734
 30
0.0
 40
23.13003817639452
100
AcDbArc
 50
90.25402702320889
 51
127.8458729553179
  0
LINE
  5
100
330
1F
100
AcDbEntity
  8
1
  6
CONTINUOUS
 62
     7
100
AcDbLine
 10
-284.7779608787323
 20
-685.2499949999919
 30
0.0
 11
-283.9999999999999
 21
-685.2499949999919
 31
0.0
  0
LINE
  5
101
330
1F
100
AcDbEntity
  8
1
  6
CONTINUOUS
 62
     7
100
AcDbLine
 10
-265.9999999999999
 20
-685.2499949999919
 30
0.0
 11
-265.2220391212675
 21
-685.2499949999919
 31
0.0
  0
ARC
  5
102
330
1F
100
AcDbEntity
  8
1
  6
CONTINUOUS
 62
     7
100
AcDbCircle
 10
-248.5700126942489
 20
-701.8764629150633
 30
0.0
 40
16.62652596657146
100
AcDbArc
 50
47.59202827932052
 51
90.15140622203316
  0
ARC
  5
103
330
1F
100
AcDbEntity
  8
1
  6
CONTINUOUS
 62
     7
100
AcDbCircle
 10
-301.4387506104901
 20
-701.8537918171304
 30
0.0
 40
16.60388044941393
100
AcDbArc
 50
89.81814720918521
 51
132.4372804184587
  0
LINE
  5
104
330
1F
100
AcDbEntity
  8
1
  6
CONTINUOUS
 62
     7
100
AcDbLine
 10
-301.3860511454658
 20
-685.2499949999919
 30
0.0
 11
-284.7779608787323
 21
-685.2499949999919
 31
0.0
  0
LINE
  5
105
330
1F
100
AcDbEntity
  8
1
  6
CONTINUOUS
 62
     7
100
AcDbLine
 10
-265.2220391212689
 20
-685.2499949999919
 30
0.0
 11
-248.613948854534
 21
-685.2499949999919
 31
0.0
  0
LINE
  5
106
330
1F
100
AcDbEntity
  8
1
  6
CONTINUOUS
 62
     7
100
AcDbLine
 10
-313.0389011471948
 20
-685.2499949999919
 30
0.0
 11
-301.3860511454658
 21
-685.2499949999919
 31
0.0
  0
LINE
  5
107
330
1F
100
AcDbEntity
  8
1
  6
CONTINUOUS
 62
     7
100
AcDbLine
 10
-248.6139488545296
 20
-685.2499949999919
 30
0.0
 11
-236.961098852805
 21
-685.2499949999919
 31
0.0
  0
ARC
  5
108
330
1F
100
AcDbEntity
  8
1
  6
CONTINUOUS
 62
     7
100
AcDbCircle
 10
-314.2571428386895
 20
-694.6563362107157
 30
0.0
 40
9.408872642801947
100
AcDbArc
 50
88.6708875918963
 51
144.9414470931183
  0
ARC
  5
109
330
1F
100
AcDbEntity
  8
1
  6
CONTINUOUS
 62
     7
100
AcDbCircle
 10
-235.7503194484031
 20
-694.671096661005
 30
0.0
 40
9.423459262100257
100
AcDbArc
 50
35.10529335624949
 51
91.28167132521251
  0
LINE
  5
10A
330
1F
100
AcDbEntity
  8
1
  6
CONTINUOUS
 62
     7
100
AcDbLine
 10
-314.0389011471949
 20
-685.2499949999919
 30
0.0
 11
-313.0389011471948
 21
-685.2499949999919
 31
0.0
  0
LINE
  5
10B
330
1F
100
AcDbEntity
  8
1
  6
CONTINUOUS
 62
     7
100
AcDbLine
 10
-236.9610988528083
 20
-685.2499949999919
 30
0.0
 11
-235.9610988528049
 21
-685.2499949999919
 31
0.0
  0
LINE
  5
10C
330
1F
100
AcDbEntity
  8
1
  6
CONTINUOUS
 62
     7
100
AcDbLine
 10
-269.9999999999999
 20
-690.7569117567848
 30
0.0
 11
-279.9999999999999
 21
-690.7569117567848
 31
0.0
  0
LINE
  5
10D
330
1F
100
AcDbEntity
  8
1
  6
CONTINUOUS
 62
     7
100
AcDbLine
 10
-195.9999999999999
 20
-701.1381830188235
 30
0.0
 11
-195.9999999999999
 21
-701.0559838020218
 31
0.0
  0
LINE
  5
10E
330
1F
100
AcDbEntity
  8
1
  6
CONTINUOUS
 62
     7
100
AcDbLine
 10
-196.3510488941151
 20
-701.1160204037764
 30
0.0
 11
-195.9999999999999
 21
-701.1381830188234
 31
0.0
  0
LINE
  5
10F
330
1F
100
AcDbEntity
  8
1
  6
CONTINUOUS
 62
     7
100
AcDbLine
 10
-269.639570779175
 20
-690.8051525570373
 30
0.0
 11
-269.3837388404309
 21
-690.8218775974414
 31
0.0
  0
LINE
  5
110
330
1F
100
AcDbEntity
  8
1
  6
CONTINUOUS
 62
     7
100
AcDbLine
 10
-269.5771171826172
 20
-690.8124287438542
 30
0.0
 11
-195.9767835366843
 21
-688.0474567292935
 31
0.0
  0
LWPOLYLINE
  5
111
330
1F
100
AcDbEntity
  8
1
  6
CONTINUOUS
 62
     7
100
AcDbPolyline
 90
       33
 70
     0
 43
0.0
 10
195.4999999999999
 20
-687.6638700976674
 10
195.5005671859125
 20
-687.6821120537317
 10
195.5022674568509
 20
-687.7003148412479
 10
195.5050969553362
 20
-687.7184371627575
 10
195.5090492619617
 20
-687.7364379033588
 10
195.5141154099568
 20
-687.7542762239858
 10
195.5202839055304
 20
-687.7719116540618
 10
195.5275407539474
 20
-687.7893041833169
 10
195.535869491279
 20
-687.8064143525606
 10
195.5452512217552
 20
-687.8232033432054
 10
195.5556646606346
 20
-687.8396330653349
 10
195.5670861824939
 20
-687.8556662441217
 10
195.5794898748277
 20
-687.8712665043931
 10
195.5928475968381
 20
-687.8863984531578
 10
195.607129043278
 20
-687.901027759903
 10
195.6223018132063
 20
-687.9151212344817
 10
195.6383314834977
 20
-687.9286469024133
 10
195.6551816869395
 20
-687.9415740774245
 10
195.6728141947396
 20
-687.9538734310689
 10
195.6911890032579
 20
-687.9655170592662
 10
195.7102644247643
 20
-687.9764785456088
 10
195.7299971820173
 20
-687.986733021294
 10
195.7503425064492
 20
-687.9962572215453
 10
195.7712542397344
 20
-688.0050295383941
 10
195.7926849385107
 20
-688.0130300697018
 10
195.8145859820166
 20
-688.0202406643142
 10
195.8369076823983
 20
-688.0266449632403
 10
195.8595993974401
 20
-688.0322284367677
 10
195.8826096454574
 20
-688.0369784174262
 10
195.9058862220963
 20
-688.0408841287274
 10
195.9293763187711
 20
-688.0439367096136
 10
195.9530266424744
 20
-688.0461292345614
 10
195.9767835366843
 20
-688.0474567292935
210
0.0
220
0.0
230
-1.0
  0
LWPOLYLINE
  5
112
330
1F
100
AcDbEntity
  8
1
  6
CONTINUOUS
 62
     7
100
AcDbPolyline
 90
       33
 70
     0
 43
0.0
 10
354.0232164633155
 20
-688.0474567292935
 10
354.0469733575254
 20
-688.0461292345614
 10
354.0706236812287
 20
-688.0439367096136
 10
354.0941137779035
 20
-688.0408841287274
 10
354.1173903545424
 20
-688.0369784174262
 10
354.1404006025597
 20
-688.0322284367677
 10
354.1630923176015
 20
-688.0266449632403
 10
354.1854140179832
 20
-688.0202406643142
 10
354.2073150614891
 20
-688.0130300697018
 10
354.2287457602654
 20
-688.0050295383941
 10
354.2496574935506
 20
-687.9962572215453
 10
354.2700028179825
 20
-687.986733021294
 10
354.2897355752355
 20
-687.9764785456088
 10
354.3088109967419
 20
-687.9655170592662
 10
354.3271858052602
 20
-687.9538734310689
 10
354.3448183130603
 20
-687.9415740774245
 10
354.361668516502
 20
-687.9286469024133
 10
354.3776981867935
 20
-687.9151212344817
 10
354.3928709567219
 20
-687.901027759903
 10
354.4071524031617
 20
-687.8863984531578
 10
354.420510125172
 20
-687.8712665043931
 10
354.4329138175059
 20
-687.8556662441217
 10
354.4443353393652
 20
-687.8396330653349
 10
354.4547487782446
 20
-687.8232033432054
 10
354.4641305087208
 20
-687.8064143525606
 10
354.4724592460524
 20
-687.7893041833169
 10
354.4797160944694
 20
-687.7719116540618
 10
354.485884590043
 20
-687.7542762239858
 10
354.4909507380381
 20
-687.7364379033588
 10
354.4949030446635
 20
-687.7184371627575
 10
354.4977325431489
 20
-687.7003148412479
 10
354.4994328140873
 20
-687.6821120537317
 10
354.4999999999999
 20
-687.6638700976674
210
0.0
220
0.0
230
-1.0
  0
LINE
  5
113
330
1F
100
AcDbEntity
  8
1
  6
CONTINUOUS
 62
     7
100
AcDbLine
 10
-280.4228828173826
 20
-690.8124287438542
 30
0.0
 11
-354.0232164633155
 21
-688.0474567292935
 31
0.0
  0
LINE
  5
114
330
1F
100
AcDbEntity
  8
1
  6
CONTINUOUS
 62
     7
100
AcDbLine
 10
-195.9535670733685
 20
-700.9105158347966
 30
0.0
 11
-195.9999999999999
 21
-700.9144750542001
 31
0.0
  0
LINE
  5
115
330
1F
100
AcDbEntity
  8
1
  6
CONTINUOUS
 62
     7
100
AcDbLine
 10
-195.9999999999999
 20
-701.0559838020218
 30
0.0
 11
-195.9999999999999
 21
-700.9144750542
 31
0.0
  0
LINE
  5
116
330
1F
100
AcDbEntity
  8
1
  6
CONTINUOUS
 62
     7
100
AcDbLine
 10
-269.9999999999999
 20
-690.7569117567848
 30
0.0
 11
-269.639570779175
 21
-690.8051525570373
 31
0.0
  0
ARC
  5
117
330
1F
100
AcDbEntity
  8
1
  6
CONTINUOUS
 62
     7
100
AcDbCircle
 10
-353.9999999999999
 20
-700.2269942794969
 30
0.0
 40
1.000000000000005
100
AcDbArc
 50
180.0
 51
184.7152490132603
  0
LINE
  5
118
330
1F
100
AcDbEntity
  8
1
  6
CONTINUOUS
 62
     7
100
AcDbLine
 10
-354.9999999999999
 20
-700.2269942794969
 30
0.0
 11
-354.9999999999999
 21
-687.6629793150652
 31
0.0
  0
LINE
  5
119
330
1F
100
AcDbEntity
  8
1
  6
CONTINUOUS
 62
     7
100
AcDbLine
 10
-195.4999999999999
 20
-688.327362748103
 30
0.0
 11
-195.4999999999999
 21
-688.3263932632341
 31
0.0
  0
LINE
  5
11A
330
1F
100
AcDbEntity
  8
1
  6
CONTINUOUS
 62
     7
100
AcDbLine
 10
-194.9999999999999
 20
-687.6629793150652
 30
0.0
 11
-194.9999999999999
 21
-700.2269942794969
 31
0.0
  0
ARC
  5
11B
330
1F
100
AcDbEntity
  8
1
  6
CONTINUOUS
 62
     7
100
AcDbCircle
 10
-195.9999999999999
 20
-700.2269942794969
 30
0.0
 40
1.000000000000005
100
AcDbArc
 50
355.2847509867394
 51
0.0
  0
LWPOLYLINE
  5
11C
330
1F
100
AcDbEntity
  8
1
  6
CONTINUOUS
 62
     7
100
AcDbPolyline
 90
        3
 70
     0
 43
0.0
 10
-195.9535670733686
 20
-700.9105158347965
 10
-195.830291813169
 20
-700.8867854773691
 10
-195.709062157157
 20
-700.8401170533301
  0
ARC
  5
11D
330
1F
100
AcDbEntity
  8
1
  6
CONTINUOUS
 62
     7
100
AcDbCircle
 10
-196.7881450987049
 20
-698.8825632144092
 30
0.0
 40
2.235271130537345
100
AcDbArc
 50
298.8653332682543
 51
322.2741789850218
  0
LINE
  5
11E
330
1F
100
AcDbEntity
  8
1
  6
CONTINUOUS
 62
     7
100
AcDbLine
 10
-354.9999999999999
 20
-687.6629793150652
 30
0.0
 11
-354.9999999999999
 21
-686.8621539200233
 31
0.0
  0
LINE
  5
11F
330
1F
100
AcDbEntity
  8
1
  6
CONTINUOUS
 62
     7
100
AcDbLine
 10
-354.4999999999999
 20
-688.3263932632342
 30
0.0
 11
-354.4999999999999
 21
-686.8621539200233
 31
0.0
  0
LINE
  5
120
330
1F
100
AcDbEntity
  8
1
  6
CONTINUOUS
 62
     7
100
AcDbLine
 10
-194.9999999999999
 20
-687.6629793150652
 30
0.0
 11
-194.9999999999999
 21
-686.8621539200233
 31
0.0
  0
LINE
  5
121
330
1F
100
AcDbEntity
  8
1
  6
CONTINUOUS
 62
     7
100
AcDbLine
 10
-195.4999999999999
 20
-688.3263932632341
 30
0.0
 11
-195.4999999999999
 21
-686.8621539200233
 31
0.0
  0
LINE
  5
122
330
1F
100
AcDbEntity
  8
1
  6
CONTINUOUS
 62
     7
100
AcDbLine
 10
-194.9999999999999
 20
-685.7905167490828
 30
0.0
 11
-194.9999999999999
 21
-686.8621539200233
 31
0.0
  0
LINE
  5
123
330
1F
100
AcDbEntity
  8
1
  6
CONTINUOUS
 62
     7
100
AcDbLine
 10
-195.4999999999999
 20
-686.8621539200233
 30
0.0
 11
-195.4999999999999
 21
-685.7905167490828
 31
0.0
  0
LINE
  5
124
330
1F
100
AcDbEntity
  8
1
  6
CONTINUOUS
 62
     7
100
AcDbLine
 10
-354.4999999999999
 20
-685.7905167490828
 30
0.0
 11
-354.4999999999999
 21
-686.8621539200233
 31
0.0
  0
LINE
  5
125
330
1F
100
AcDbEntity
  8
1
  6
CONTINUOUS
 62
     7
100
AcDbLine
 10
-354.9999999999999
 20
-686.8621539200233
 30
0.0
 11
-354.9999999999999
 21
-685.7905167490828
 31
0.0
  0
LINE
  5
126
330
1F
100
AcDbEntity
  8
1
  6
CONTINUOUS
 62
     7
100
AcDbLine
 10
-195.0201621797045
 20
-700.250288853979
 30
0.0
 11
-195.0033844560437
 21
-700.3091980357666
 31
0.0
  0
LINE
  5
127
330
1F
100
AcDbEntity
  8
1
  6
CONTINUOUS
 62
     7
100
AcDbLine
 10
-195.0033844560437
 20
-700.3091980357666
 30
0.0
 11
-195.0773333284055
 21
-700.3091980357666
 31
0.0
  0
LINE
  5
128
330
1F
100
AcDbEntity
  8
1
  6
CONTINUOUS
 62
     7
100
AcDbLine
 10
-354.9904844020938
 20
-700.2579209906874
 30
0.0
 11
-354.9966155439562
 21
-700.3091980357666
 31
0.0
  0
LINE
  5
129
330
1F
100
AcDbEntity
  8
1
  6
CONTINUOUS
 62
     7
100
AcDbLine
 10
-195.9999999999999
 20
-701.2499949999919
 30
0.0
 11
-353.9999999999999
 21
-701.2499949999919
 31
0.0
  0
LINE
  5
12A
330
1F
100
AcDbEntity
  8
1
  6
CONTINUOUS
 62
     7
100
AcDbLine
 10
-195.9999999999999
 20
-701.2375673828152
 30
0.0
 11
-195.9999999999999
 21
-701.1381830188235
 31
0.0
  0
LINE
  5
12B
330
1F
100
AcDbEntity
  8
1
  6
CONTINUOUS
 62
     7
100
AcDbLine
 10
-195.0068654676474
 20
-700.3669727784325
 30
0.0
 11
-195.1253666809301
 21
-700.3669727784325
 31
0.0
  0
LWPOLYLINE
  5
12C
330
1F
100
AcDbEntity
  8
1
  6
CONTINUOUS
 62
     7
100
AcDbPolyline
 90
       40
 70
     0
 43
0.0
 10
-195.6131466359678
 20
-701.1721362444536
 10
-195.5682950276324
 20
-701.152009166311
 10
-195.5239441763373
 20
-701.1294094057935
 10
-195.4802399975978
 20
-701.1043073198744
 10
-195.4437361230957
 20
-701.0809994666305
 10
-195.407810621835
 20
-701.0557925684226
 10
-195.3725913657726
 20
-701.0286851859432
 10
-195.3460445079972
 20
-701.0065250488634
 10
-195.3199840874478
 20
-700.9831869307683
 10
-195.2944935200943
 20
-700.958695335105
 10
-195.2696562219068
 20
-700.93307476532
 10
-195.2468377958768
 20
-700.9078271987092
 10
-195.2246855155013
 20
-700.8815676086529
 10
-195.20329212201
 20
-700.8543595895807
 10
-195.1873793647369
 20
-700.832783803625
 10
-195.1719663088301
 20
-700.8106655488763
 10
-195.1571016388441
 20
-700.788063243357
 10
-195.1428340393334
 20
-700.7650353050891
 10
-195.1295874446238
 20
-700.7422977503642
 10
-195.1169226728116
 20
-700.7191679723893
 10
-195.1048782966347
 20
-700.6957443130187
 10
-195.0934928888306
 20
-700.672125114107
 10
-195.082805022137
 20
-700.6484087175081
 10
-195.0728532692916
 20
-700.6246934650767
 10
-195.0659204926644
 20
-700.6070565554983
 10
-195.0593827787631
 20
-700.5894574894329
 10
-195.0532460368942
 20
-700.5719490887446
 10
-195.0475161763643
 20
-700.5545841752976
 10
-195.0420395736397
 20
-700.5368910876689
 10
-195.0369757168494
 20
-700.519401566091
 10
-195.0323205930329
 20
-700.5021738050222
 10
-195.0280701892302
 20
-700.4852659989209
 10
-195.024316483208
 20
-700.4691756649277
 10
-195.0209134514771
 20
-700.4534326612235
 10
-195.0178488742956
 20
-700.4380846039281
 10
-195.0151105319218
 20
-700.4231791091617
 10
-195.0126140404244
 20
-700.4083242399025
 10
-195.0104203886786
 20
-700.393976886848
 10
-195.0085105424858
 20
-700.380179062268
 10
-195.0068654676474
 20
-700.3669727784325
  0
LINE
  5
12D
330
1F
100
AcDbEntity
  8
1
  6
CONTINUOUS
 62
     7
100
AcDbLine
 10
-195.9999999999999
 20
-701.2375673828152
 30
0.0
 11
-195.6131466359678
 21
-701.1721362444536
 31
0.0
  0
ARC
  5
12E
330
1F
100
AcDbEntity
  8
1
  6
CONTINUOUS
 62
     7
100
AcDbCircle
 10
-195.9999999999999
 20
-700.2499949999919
 30
0.0
 40
1.000000000000025
100
AcDbArc
 50
270.0
 51
292.758847659785
  0
LWPOLYLINE
  5
12F
330
1F
100
AcDbEntity
  8
1
  6
CONTINUOUS
 62
     7
100
AcDbPolyline
 90
       40
 70
     0
 43
0.0
 10
-354.9931345323525
 20
-700.3669727784325
 10
-354.9915392202523
 20
-700.3797998608651
 10
-354.989694433307
 20
-700.393186099294
 10
-354.9875826448744
 20
-700.4070930609223
 10
-354.9851863283122
 20
-700.4214823129529
 10
-354.9824014716975
 20
-700.4367721862742
 10
-354.9792727102653
 20
-700.452533916655
 10
-354.975786628471
 20
-700.4687157666768
 10
-354.9719298107697
 20
-700.4852659989209
 10
-354.9678055915131
 20
-700.5016896385632
 10
-354.963299700776
 20
-700.5184160100506
 10
-354.9584083180751
 20
-700.5353917666179
 10
-354.9531276229273
 20
-700.5525635614996
 10
-354.9472725466058
 20
-700.5704195972811
 10
-354.9409865080475
 20
-700.588431685833
 10
-354.9342758038744
 20
-700.6065421881125
 10
-354.9271467307082
 20
-700.6246934650767
 10
-354.9171949778629
 20
-700.6484087175081
 10
-354.9065071111693
 20
-700.672125114107
 10
-354.8951217033652
 20
-700.6957443130187
 10
-354.8830773271882
 20
-700.7191679723893
 10
-354.8704125553761
 20
-700.7422977503642
 10
-354.8571659606665
 20
-700.7650353050891
 10
-354.8432874222136
 20
-700.7874537241079
 10
-354.8288427844137
 20
-700.809469522047
 10
-354.8138769809656
 20
-700.8310284074754
 10
-354.798434945568
 20
-700.8520760889622
 10
-354.7765097563522
 20
-700.8800971141638
 10
-354.7537790834555
 20
-700.9071199246569
 10
-354.7303437780931
 20
-700.93307476532
 10
-354.7061531780246
 20
-700.9580512396783
 10
-354.6813414876528
 20
-700.9819557423546
 10
-354.6559861988572
 20
-701.004765167551
 10
-354.6301648035175
 20
-701.0264564094701
 10
-354.5940668214366
 20
-701.0544092821295
 10
-354.5572189109869
 20
-701.0803592251417
 10
-354.5197600024021
 20
-701.1043073198744
 10
-354.4760558236626
 20
-701.1294094057935
 10
-354.4317049723675
 20
-701.152009166311
 10
-354.386853364032
 20
-701.1721362444536
  0
ARC
  5
130
330
1F
100
AcDbEntity
  8
1
  6
CONTINUOUS
 62
     7
100
AcDbCircle
 10
-353.9999999999999
 20
-700.2499949999919
 30
0.0
 40
1.000000000000001
100
AcDbArc
 50
247.2411523402136
 51
270.0
  0
LINE
  5
131
330
1F
100
AcDbEntity
  8
1
  6
CONTINUOUS
 62
     7
100
AcDbLine
 10
-354.9999999999999
 20
-700.2269942794969
 30
0.0
 11
-354.9999999999999
 21
-700.2499949999919
 31
0.0
  0
ARC
  5
132
330
1F
100
AcDbEntity
  8
1
  6
CONTINUOUS
 62
     7
100
AcDbCircle
 10
-353.9999999999999
 20
-700.2499949999919
 30
0.0
 40
1.0
100
AcDbArc
 50
180.0
 51
186.7177134641829
  0
LINE
  5
133
330
1F
100
AcDbEntity
  8
1
  6
CONTINUOUS
 62
     7
100
AcDbLine
 10
-194.9999999999999
 20
-700.2269942794969
 30
0.0
 11
-194.9999999999999
 21
-700.2499949999919
 31
0.0
  0
ARC
  5
134
330
1F
100
AcDbEntity
  8
1
  6
CONTINUOUS
 62
     7
100
AcDbCircle
 10
-195.9999999999999
 20
-700.2499949999919
 30
0.0
 40
1.0
100
AcDbArc
 50
353.2822865358171
 51
0.0
  0
LINE
  5
135
330
1F
100
AcDbEntity
  8
1
  6
CONTINUOUS
 62
     7
100
AcDbLine
 10
-279.9999999999999
 20
-690.7499949999919
 30
0.0
 11
-279.9999999999999
 21
-690.7569117567848
 31
0.0
  0
LINE
  5
136
330
1F
100
AcDbEntity
  8
1
  6
CONTINUOUS
 62
     7
100
AcDbLine
 10
-269.9999999999999
 20
-690.7499949999919
 30
0.0
 11
-269.9999999999999
 21
-690.7569117567848
 31
0.0
  0
ARC
  5
137
330
1F
100
AcDbEntity
  8
1
  6
CONTINUOUS
 62
     7
100
AcDbCircle
 10
-229.9999999999999
 20
-740.2499949999918
 30
0.0
 40
3.500000000000059
100
AcDbArc
 50
270.0
 51
0.0
  0
ARC
  5
138
330
1F
100
AcDbEntity
  8
1
  6
CONTINUOUS
 62
     7
100
AcDbCircle
 10
-319.9999999999999
 20
-740.2499949999919
 30
0.0
 40
3.500000000000003
100
AcDbArc
 50
180.0
 51
270.0
  0
LINE
  5
139
330
1F
100
AcDbEntity
  8
1
  6
CONTINUOUS
 62
     7
100
AcDbLine
 10
-226.4999999999999
 20
-740.2499949999918
 30
0.0
 11
-226.4999999999999
 21
-701.2499949999919
 31
0.0
  0
LINE
  5
13A
330
1F
100
AcDbEntity
  8
1
  6
CONTINUOUS
 62
     7
100
AcDbLine
 10
-323.4999999999999
 20
-701.2499949999919
 30
0.0
 11
-323.4999999999999
 21
-740.2499949999919
 31
0.0
  0
LINE
  5
13B
330
1F
100
AcDbEntity
  8
1
  6
CONTINUOUS
 62
     7
100
AcDbLine
 10
-194.9999999999999
 20
-685.7905167490828
 30
0.0
 11
-195.4999999999999
 21
-685.7905167490828
 31
0.0
  0
LINE
  5
13C
330
1F
100
AcDbEntity
  8
1
  6
CONTINUOUS
 62
     7
100
AcDbLine
 10
-354.4999999999999
 20
-685.7905167490828
 30
0.0
 11
-354.9999999999999
 21
-685.7905167490828
 31
0.0
  0
LINE
  5
13D
330
1F
100
AcDbEntity
  8
1
  6
CONTINUOUS
 62
     7
100
AcDbLine
 10
-78.25000500000792
 20
-404.0566651986468
 30
0.0
 11
-78.75000500000792
 21
-404.0566651986468
 31
0.0
  0
LINE
  5
13E
330
1F
100
AcDbEntity
  8
1
  6
CONTINUOUS
 62
     7
100
AcDbLine
 10
-78.75000500000792
 20
-403.0566651986468
 30
0.0
 11
-78.25000500000792
 21
-403.0566651986468
 31
0.0
  0
LINE
  5
13F
330
1F
100
AcDbEntity
  8
1
  6
CONTINUOUS
 62
     7
100
AcDbLine
 10
-74.75000500000792
 20
-394.0566651986468
 30
0.0
 11
-74.75000500000792
 21
-402.5566651986468
 31
0.0
  0
LINE
  5
140
330
1F
100
AcDbEntity
  8
1
  6
CONTINUOUS
 62
     7
100
AcDbLine
 10
-73.75000500000792
 20
-394.0566651986468
 30
0.0
 11
-73.75000500000792
 21
-403.0566651986468
 31
0.0
  0
ARC
  5
141
330
1F
100
AcDbEntity
  8
1
  6
CONTINUOUS
 62
     7
100
AcDbCircle
 10
-74.75000500000792
 20
-403.0566651986468
 30
0.0
 40
1.000000000000001
100
AcDbArc
 50
270.0
 51
0.0
  0
LINE
  5
142
330
1F
100
AcDbEntity
  8
1
  6
CONTINUOUS
 62
     7
100
AcDbLine
 10
-78.25000500000792
 20
-404.0566651986468
 30
0.0
 11
-77.75000500000792
 21
-404.0566651986468
 31
0.0
  0
LINE
  5
143
330
1F
100
AcDbEntity
  8
1
  6
CONTINUOUS
 62
     7
100
AcDbLine
 10
-75.25000500000792
 20
-403.0566651986468
 30
0.0
 11
-78.25000500000792
 21
-403.0566651986468
 31
0.0
  0
ARC
  5
144
330
1F
100
AcDbEntity
  8
1
  6
CONTINUOUS
 62
     7
100
AcDbCircle
 10
-75.25000500000792
 20
-402.5566651986468
 30
0.0
 40
0.5000000000000004
100
AcDbArc
 50
270.0000000000001
 51
0.0
  0
LINE
  5
145
330
1F
100
AcDbEntity
  8
1
  6
CONTINUOUS
 62
     7
100
AcDbLine
 10
-73.75000500000792
 20
-389.0566651986468
 30
0.0
 11
-74.75000500000792
 21
-389.0566651986468
 31
0.0
  0
LINE
  5
146
330
1F
100
AcDbEntity
  8
1
  6
CONTINUOUS
 62
     7
100
AcDbLine
 10
-73.75000500000792
 20
-389.0566651986468
 30
0.0
 11
-73.75000500000792
 21
-394.0566651986468
 31
0.0
  0
LINE
  5
147
330
1F
100
AcDbEntity
  8
1
  6
CONTINUOUS
 62
     7
100
AcDbLine
 10
-74.75000500000792
 20
-394.0566651986468
 30
0.0
 11
-74.75000500000792
 21
-389.0566651986468
 31
0.0
  0
LINE
  5
148
330
1F
100
AcDbEntity
  8
1
  6
CONTINUOUS
 62
     7
100
AcDbLine
 10
-77.25000500000792
 20
-404.0566651986469
 30
0.0
 11
-74.25000500000792
 21
-404.0566651986469
 31
0.0
  0
LINE
  5
149
330
1F
100
AcDbEntity
  8
1
  6
CONTINUOUS
 62
     7
100
AcDbLine
 10
-74.25000500000792
 20
-404.5566651986469
 30
0.0
 11
-77.25000500000792
 21
-404.5566651986469
 31
0.0
  0
LINE
  5
14A
330
1F
100
AcDbEntity
  8
1
  6
CONTINUOUS
 62
     7
100
AcDbLine
 10
-77.75000500000792
 20
-404.0566651986469
 30
0.0
 11
-77.25000500000792
 21
-404.0566651986469
 31
0.0
  0
LINE
  5
14B
330
1F
100
AcDbEntity
  8
1
  6
CONTINUOUS
 62
     7
100
AcDbLine
 10
-73.75000500000792
 20
-404.0566651986469
 30
0.0
 11
-73.75000500000792
 21
-404.5566651986469
 31
0.0
  0
LINE
  5
14C
330
1F
100
AcDbEntity
  8
1
  6
CONTINUOUS
 62
     7
100
AcDbLine
 10
-73.75000500000792
 20
-404.5566651986469
 30
0.0
 11
-74.25000500000792
 21
-404.5566651986469
 31
0.0
  0
LINE
  5
14D
330
1F
100
AcDbEntity
  8
1
  6
CONTINUOUS
 62
     7
100
AcDbLine
 10
-74.25000500000792
 20
-404.0566651986469
 30
0.0
 11
-73.75000500000792
 21
-404.0566651986469
 31
0.0
  0
LINE
  5
14E
330
1F
100
AcDbEntity
  8
1
  6
CONTINUOUS
 62
     7
100
AcDbLine
 10
-78.75000500000792
 20
-404.5566651986469
 30
0.0
 11
-77.75000500000792
 21
-404.5566651986469
 31
0.0
  0
LINE
  5
14F
330
1F
100
AcDbEntity
  8
1
  6
CONTINUOUS
 62
     7
100
AcDbLine
 10
-78.75000500000792
 20
-542.0566651986469
 30
0.0
 11
-77.75000500000792
 21
-542.0566651986469
 31
0.0
  0
ARC
  5
150
330
1F
100
AcDbEntity
  8
1
  6
CONTINUOUS
 62
     7
100
AcDbCircle
 10
-74.25000500000792
 20
-405.0566651986469
 30
0.0
 40
0.5000000000000004
100
AcDbArc
 50
0.0
 51
90.0
  0
LINE
  5
151
330
1F
100
AcDbEntity
  8
1
  6
CONTINUOUS
 62
     7
100
AcDbLine
 10
-73.75000500000792
 20
-405.0566651986469
 30
0.0
 11
-73.75000500000792
 21
-541.556665198647
 31
0.0
  0
ARC
  5
152
330
1F
100
AcDbEntity
  8
1
  6
CONTINUOUS
 62
     7
100
AcDbCircle
 10
-74.25000500000792
 20
-541.556665198647
 30
0.0
 40
0.5000000000000004
100
AcDbArc
 50
270.0
 51
0.0
  0
LINE
  5
153
330
1F
100
AcDbEntity
  8
1
  6
CONTINUOUS
 62
     7
100
AcDbLine
 10
-77.75000500000792
 20
-542.0566651986469
 30
0.0
 11
-74.25000500000792
 21
-542.0566651986469
 31
0.0
  0
LINE
  5
154
330
1F
100
AcDbEntity
  8
1
  6
CONTINUOUS
 62
     7
100
AcDbLine
 10
-77.75000500000792
 20
-404.5566651986469
 30
0.0
 11
-74.25000500000792
 21
-404.5566651986469
 31
0.0
  0
LINE
  5
155
330
1F
100
AcDbEntity
  8
1
  6
CONTINUOUS
 62
     7
100
AcDbLine
 10
-78.75000500000792
 20
-543.5566651986469
 30
0.0
 11
-78.75000500000792
 21
-398.5566651986469
 31
0.0
  0
LINE
  5
156
330
1F
100
AcDbEntity
  8
1
  6
CONTINUOUS
 62
     7
100
AcDbLine
 10
-137.7500050000079
 20
-543.5566651986469
 30
0.0
 11
-78.75000500000792
 21
-543.5566651986469
 31
0.0
  0
LINE
  5
157
330
1F
100
AcDbEntity
  8
1
  6
CONTINUOUS
 62
     7
100
AcDbLine
 10
-137.7500050000079
 20
-398.5566651986469
 30
0.0
 11
-78.75000500000792
 21
-398.5566651986469
 31
0.0
  0
LINE
  5
158
330
1F
100
AcDbEntity
  8
1
  6
CONTINUOUS
 62
     7
100
AcDbLine
 10
-138.7500050000079
 20
-543.5566651986469
 30
0.0
 11
-138.7500050000079
 21
-398.5566651986469
 31
0.0
  0
LINE
  5
159
330
1F
100
AcDbEntity
  8
1
  6
CONTINUOUS
 62
     7
100
AcDbLine
 10
-138.7500050000079
 20
-398.5566651986469
 30
0.0
 11
-137.7500050000079
 21
-398.5566651986469
 31
0.0
  0
LINE
  5
15A
330
1F
100
AcDbEntity
  8
1
  6
CONTINUOUS
 62
     7
100
AcDbLine
 10
-137.7500050000079
 20
-543.5566651986469
 30
0.0
 11
-138.7500050000079
 21
-543.5566651986469
 31
0.0
  0
LINE
  5
15B
330
1F
100
AcDbEntity
  8
1
  6
CONTINUOUS
 62
     7
100
AcDbLine
 10
-60.75000500000785
 20
-422.5566651986468
 30
0.0
 11
-60.75000500000785
 21
-422.623468001226
 31
0.0
  0
LINE
  5
15C
330
1F
100
AcDbEntity
  8
1
  6
CONTINUOUS
 62
     7
100
AcDbLine
 10
-45.92427338926141
 20
-491.4053485414444
 30
0.0
 11
-44.63823661075469
 21
-491.2953805692038
 31
0.0
  0
LINE
  5
15D
330
1F
100
AcDbEntity
  8
1
  6
CONTINUOUS
 62
     7
100
AcDbLine
 10
-60.75000500000785
 20
-422.6234680012261
 30
0.0
 11
-60.29667535435437
 21
-422.6521902417413
 31
0.0
  0
LINE
  5
15E
330
1F
100
AcDbEntity
  8
1
  6
CONTINUOUS
 62
     7
100
AcDbLine
 10
-45.92427338926127
 20
-422.7557473019834
 30
0.0
 11
-60.29667535435454
 21
-422.6521902417412
 31
0.0
  0
LINE
  5
15F
330
1F
100
AcDbEntity
  8
1
  6
CONTINUOUS
 62
     7
100
AcDbLine
 10
-44.63823661075458
 20
-422.7668568988919
 30
0.0
 11
-45.92427338926127
 21
-422.7557473019834
 31
0.0
  0
LINE
  5
160
330
1F
100
AcDbEntity
  8
1
  6
CONTINUOUS
 62
     7
100
AcDbLine
 10
-31.25000500000792
 20
-426.056665198647
 30
0.0
 11
-31.25000500000792
 21
-516.0566651986469
 31
0.0
  0
ARC
  5
161
330
1F
100
AcDbEntity
  8
1
  6
CONTINUOUS
 62
     7
100
AcDbCircle
 10
-53.61450650356511
 20
-491.2181573997657
 30
0.0
 40
9.17400373557278
100
AcDbArc
 50
265.2907367365128
 51
278.6250455890224
  0
LINE
  5
162
330
1F
100
AcDbEntity
  8
1
  6
CONTINUOUS
 62
     7
100
AcDbLine
 10
-59.2966753543545
 20
-494.2932614835697
 30
0.0
 11
-54.36768889254267
 21
-493.878084480123
 31
0.0
  0
ARC
  5
163
330
1F
100
AcDbEntity
  8
1
  6
CONTINUOUS
 62
     7
100
AcDbCircle
 10
-55.08370897740278
 20
-485.1742345863973
 30
0.0
 40
8.733251841921856
100
AcDbArc
 50
274.7028335869367
 51
287.5410536714019
  0
LINE
  5
164
330
1F
100
AcDbEntity
  8
1
  6
CONTINUOUS
 62
     7
100
AcDbLine
 10
-45.92427338926142
 20
-491.4053485414444
 30
0.0
 11
-52.45160222905842
 21
-493.5014010792538
 31
0.0
  0
LINE
  5
165
330
1F
100
AcDbEntity
  8
1
  6
CONTINUOUS
 62
     7
100
AcDbLine
 10
-44.85113512891933
 20
-491.3374937109904
 30
0.0
 11
-44.63823661075439
 21
-491.2953805692038
 31
0.0
  0
LINE
  5
166
330
1F
100
AcDbEntity
  8
1
  6
CONTINUOUS
 62
     7
100
AcDbLine
 10
-59.2966753543542
 20
-499.9758568198345
 30
0.0
 11
-54.36768889254297
 21
-500.3611908585931
 31
0.0
  0
LWPOLYLINE
  5
167
330
1F
100
AcDbEntity
  8
1
  6
CONTINUOUS
 62
     7
100
AcDbPolyline
 90
       36
 70
     0
 43
0.0
 10
-59.75000500000793
 20
-499.5584446755182
 10
-59.74957076117509
 20
-499.5759272324205
 10
-59.74827104669528
 20
-499.5933901766928
 10
-59.74611035959643
 20
-499.610788472897
 10
-59.74309320290646
 20
-499.6280770855949
 10
-59.73909432526586
 20
-499.6457369408347
 10
-59.7341949144849
 20
-499.6632487997161
 10
-59.7284095736042
 20
-499.6805651127892
 10
-59.72175290566434
 20
-499.6976383306039
 10
-59.71445241232021
 20
-499.7139815605557
 10
-59.70634108624914
 20
-499.7300666147331
 10
-59.69744086115167
 20
-499.7458524377842
 10
-59.68777367072825
 20
-499.7612979743576
 10
-59.67703115112604
 20
-499.7768219452694
 10
-59.66549492437426
 20
-499.7919575373407
 10
-59.65319755425246
 20
-499.8066640385205
 10
-59.6401716045403
 20
-499.8209007367577
 10
-59.62682996004715
 20
-499.8342665393238
 10
-59.61282349841746
 20
-499.8471655297969
 10
-59.59818921280763
 20
-499.8595651051468
 10
-59.58296409637415
 20
-499.8714326623433
 10
-59.56669077030826
 20
-499.8830777855175
 10
-59.5498203861059
 20
-499.8941381613527
 10
-59.53239996494914
 20
-499.9045843860428
 10
-59.51447652801997
 20
-499.9143870557819
 10
-59.4966172855976
 20
-499.923273750125
 10
-59.47831527204008
 20
-499.9315385369869
 10
-59.45961838700197
 20
-499.9391609213222
 10
-59.44057453013779
 20
-499.9461204080856
 10
-59.42062999229286
 20
-499.9525819988765
 10
-59.40035371397367
 20
-499.9583292985968
 10
-59.37980179936833
 20
-499.9633475725374
 10
-59.3590303526649
 20
-499.9676220859891
 10
-59.33839322860685
 20
-499.9710972332555
 10
-59.31758974570753
 20
-499.9738445752519
 10
-59.29667535435426
 20
-499.9758568198346
  0
LINE
  5
168
330
1F
100
AcDbEntity
  8
1
  6
CONTINUOUS
 62
     7
100
AcDbLine
 10
-59.75000500000793
 20
-499.5584446755182
 30
0.0
 11
-59.75000500000793
 21
-494.9885454617295
 31
0.0
  0
LINE
  5
169
330
1F
100
AcDbEntity
  8
1
  6
CONTINUOUS
 62
     7
100
AcDbLine
 10
-59.75000500000793
 20
-494.9885454617295
 30
0.0
 11
-59.75000500000793
 21
-494.7382261087881
 31
0.0
  0
LWPOLYLINE
  5
16A
330
1F
100
AcDbEntity
  8
1
  6
CONTINUOUS
 62
     7
100
AcDbPolyline
 90
       41
 70
     0
 43
0.0
 10
59.75000500000793
 20
-494.7382261087881
 10
59.74957367435204
 20
-494.7197145114747
 10
59.74827749230005
 20
-494.701199128428
 10
59.74609903259459
 20
-494.6826040274223
 10
59.74304254649146
 20
-494.6640702302854
 10
59.7390713083141
 20
-494.6454733792532
 10
59.73420998918752
 20
-494.6270063472677
 10
59.72842628050903
 20
-494.6085967238427
 10
59.72175161632415
 20
-494.5903876736587
 10
59.71682801423886
 20
-494.5784179111837
 10
59.71151916116296
 20
-494.5665671010735
 10
59.7008351300298
 20
-494.545253650171
 10
59.6950125509623
 20
-494.5347605193872
 10
59.68888407694531
 20
-494.5244058119656
 10
59.67764993152421
 20
-494.5069555343607
 10
59.66552185825763
 20
-494.4899368499366
 10
59.65322693667013
 20
-494.4742487703705
 10
59.64016639436856
 20
-494.4590149078641
 10
59.63107960237751
 20
-494.4491644660386
 10
59.62167393630213
 20
-494.4395408652471
 10
59.60368702010632
 20
-494.4225704740731
 10
59.59430131069168
 20
-494.4143827710662
 10
59.58467865762373
 20
-494.4064169240493
 10
59.56760747932094
 20
-494.3932618507436
 10
59.54985368658594
 20
-494.3807809551052
 10
59.53243630232821
 20
-494.3696078103674
 10
59.51446555473261
 20
-494.3590923003887
 10
59.49771201033113
 20
-494.3501428308379
 10
59.4805539781974
 20
-494.3417718001726
 10
59.46469070093874
 20
-494.3347049720358
 10
59.44855719916342
 20
-494.3281450001614
 10
59.43208974828304
 20
-494.3220712814401
 10
59.41539067880031
 20
-494.3165260083801
 10
59.40150515427286
 20
-494.3123687834383
 10
59.38748934946691
 20
-494.3085772253585
 10
59.37330614305331
 20
-494.3051436356133
 10
59.35901614343803
 20
-494.3020846599579
 10
59.34359454858395
 20
-494.2992250172321
 10
59.32806427223861
 20
-494.2967997058591
 10
59.31240904477974
 20
-494.2948089672893
 10
59.2966753543544
 20
-494.2932614835697
210
0.0
220
0.0
230
-1.0
  0
LINE
  5
16B
330
1F
100
AcDbEntity
  8
1
  6
CONTINUOUS
 62
     7
100
AcDbLine
 10
-44.85113512891972
 20
-499.1153008586645
 30
0.0
 11
-52.23870371089348
 21
-500.2884115977462
 31
0.0
  0
LINE
  5
16C
330
1F
100
AcDbEntity
  8
1
  6
CONTINUOUS
 62
     7
100
AcDbLine
 10
-44.63823661075445
 20
-499.1077581278449
 30
0.0
 11
-44.85113512891972
 21
-499.1153008586645
 31
0.0
  0
ARC
  5
16D
330
1F
100
AcDbEntity
  8
1
  6
CONTINUOUS
 62
     7
100
AcDbCircle
 10
-54.39853467349725
 20
-423.687043742042
 30
0.0
 40
4.505834089690257
100
AcDbArc
 50
64.39963695319193
 51
89.60776477036455
  0
LINE
  5
16E
330
1F
100
AcDbEntity
  8
1
  6
CONTINUOUS
 62
     7
100
AcDbLine
 10
-54.36768889254269
 20
-419.1813152347291
 30
0.0
 11
-59.2966753543536
 21
-419.1513288823679
 31
0.0
  0
LINE
  5
16F
330
1F
100
AcDbEntity
  8
1
  6
CONTINUOUS
 62
     7
100
AcDbLine
 10
-44.63823661075436
 20
-422.766856898892
 30
0.0
 11
-44.85113512891972
 21
-422.7172010262857
 31
0.0
  0
LINE
  5
170
330
1F
100
AcDbEntity
  8
1
  6
CONTINUOUS
 62
     7
100
AcDbLine
 10
-52.45160222905842
 20
-419.6235483377618
 30
0.0
 11
-45.9242733892614
 21
-422.7557473019835
 31
0.0
  0
LINE
  5
171
330
1F
100
AcDbEntity
  8
1
  6
CONTINUOUS
 62
     7
100
AcDbLine
 10
-59.75000500000793
 20
-418.6230054586929
 30
0.0
 11
-59.75000500000793
 21
-418.5566651986468
 31
0.0
  0
LINE
  5
172
330
1F
100
AcDbEntity
  8
1
  6
CONTINUOUS
 62
     7
100
AcDbLine
 10
-59.29667535435412
 20
-419.1513288823679
 30
0.0
 11
-59.75000500000793
 21
-419.1236441645758
 31
0.0
  0
LINE
  5
173
330
1F
100
AcDbEntity
  8
1
  6
CONTINUOUS
 62
     7
100
AcDbLine
 10
-59.75000500000793
 20
-419.1236441645758
 30
0.0
 11
-59.75000500000793
 21
-418.6230054586929
 31
0.0
  0
LINE
  5
174
330
1F
100
AcDbEntity
  8
1
  6
CONTINUOUS
 62
     7
100
AcDbLine
 10
-86.56993417309106
 20
-568.9038188676234
 30
0.0
 11
-86.67263725189686
 21
-568.8194661474215
 31
0.0
  0
LINE
  5
175
330
1F
100
AcDbEntity
  8
1
  6
CONTINUOUS
 62
     7
100
AcDbLine
 10
-86.67263725189686
 20
-568.8194661474215
 30
0.0
 11
-86.67360673676578
 21
-568.8206215344969
 31
0.0
  0
LINE
  5
176
330
1F
100
AcDbEntity
  8
1
  6
CONTINUOUS
 62
     7
100
AcDbLine
 10
-86.67360673676578
 20
-568.8206215344969
 30
0.0
 11
-87.33702068493467
 21
-568.2639511352705
 31
0.0
  0
LINE
  5
177
330
1F
100
AcDbEntity
  8
1
  6
CONTINUOUS
 62
     7
100
AcDbLine
 10
-74.77300572050285
 20
-553.2907411640015
 30
0.0
 11
-74.69080196423324
 21
-553.3206608844285
 31
0.0
  0
LWPOLYLINE
  5
178
330
1F
100
AcDbEntity
  8
1
  6
CONTINUOUS
 62
     7
100
AcDbPolyline
 90
       65
 70
     0
 43
0.0
 10
74.08948416520344
 20
-554.0301977335309
 10
74.09124680167788
 20
-554.0307915894574
 10
74.09355116877686
 20
-554.031556974416
 10
74.0969557595435
 20
-554.0326651251105
 10
74.10106675295694
 20
-554.033967407489
 10
74.10671134442256
 20
-554.0356922628814
 10
74.11321452263073
 20
-554.0375896888727
 10
74.12306069352736
 20
-554.040281930215
 10
74.13418602389518
 20
-554.043066231512
 10
74.14650751344068
 20
-554.0458362017474
 10
74.15988294666973
 20
-554.0484761536918
 10
74.18051094256464
 20
-554.0518122232572
 10
74.2028492695748
 20
-554.054436568944
 10
74.22679092493745
 20
-554.0561260146462
 10
74.25209829276932
 20
-554.0566608167532
 10
74.27910710192647
 20
-554.0558175477989
 10
74.30725462379465
 20
-554.0533768660922
 10
74.33653833673063
 20
-554.0491202540942
 10
74.36671924443361
 20
-554.0428521844337
 10
74.3854971988435
 20
-554.0379570685707
 10
74.40451353896604
 20
-554.0321934432224
 10
74.42381958692454
 20
-554.0254812493267
 10
74.44328798338834
 20
-554.0177960784799
 10
74.46295167183698
 20
-554.0090518860692
 10
74.48281688338612
 20
-553.9991565849563
 10
74.5027594659775
 20
-553.9880758845744
 10
74.52264651769522
 20
-553.9757911974028
 10
74.53790596083171
 20
-553.9654598130398
 10
74.55307946218511
 20
-553.9543407829816
 10
74.56809132273509
 20
-553.9424385664342
 10
74.58297817468079
 20
-553.9296650176124
 10
74.59760815987687
 20
-553.9160703227744
 10
74.61200798151104
 20
-553.9015620547979
 10
74.62603933493722
 20
-553.8862075767324
 10
74.63967371852564
 20
-553.869967432614
 10
74.65246614423384
 20
-553.8533553187863
 10
74.66467755750894
 20
-553.8360335398304
 10
74.67630733173073
 20
-553.8179434449049
 10
74.68687003415434
 20
-553.7998707535593
 10
74.69678586310638
 20
-553.7811353756615
 10
74.70503983149621
 20
-553.763892856387
 10
74.7126991436339
 20
-553.7461754343974
 10
74.71888050331177
 20
-553.7303193445853
 10
74.72455736936016
 20
-553.7141455108837
 10
74.73035287053817
 20
-553.6954669395476
 10
74.73546018406695
 20
-553.6763868101888
 10
74.73983617907744
 20
-553.6569917455392
 10
74.74347838762496
 20
-553.6371885847764
 10
74.74633380187248
 20
-553.6171442895767
 10
74.74839437170222
 20
-553.5967655001688
 10
74.74962223530108
 20
-553.576225827421
 10
74.75000366949727
 20
-553.555511721787
 10
74.74958160905456
 20
-553.5360930890456
 10
74.74839716346219
 20
-553.5165996098283
 10
74.74644579558137
 20
-553.4971123944274
 10
74.74370686283402
 20
-553.4775547022382
 10
74.74018831383702
 20
-553.4580735212927
 10
74.73586395264078
 20
-553.4385928557953
 10
74.73075400750298
 20
-553.4192592606657
 10
74.72484757628997
 20
-553.4000621087993
 10
74.71942290546401
 20
-553.384482650062
 10
74.71328538685704
 20
-553.3685926510465
 10
74.70660095338476
 20
-553.3529002964682
 10
74.69899641690245
 20
-553.3366499547318
 10
74.69080196423324
 20
-553.3206608844284
210
0.0
220
0.0
230
-1.0
  0
LINE
  5
179
330
1F
100
AcDbEntity
  8
1
  6
CONTINUOUS
 62
     7
100
AcDbLine
 10
-75.75000500000792
 20
-544.0566651986469
 30
0.0
 11
-74.75000500000792
 21
-544.0566651986469
 31
0.0
  0
LINE
  5
17A
330
1F
100
AcDbEntity
  8
1
  6
CONTINUOUS
 62
     7
100
AcDbLine
 10
-78.42101507167074
 20
-551.8565565686041
 30
0.0
 11
-74.75000500000792
 21
-553.1926949643807
 31
0.0
  0
ARC
  5
17B
330
1F
100
AcDbEntity
  8
1
  6
CONTINUOUS
 62
     7
100
AcDbCircle
 10
-78.25000500000792
 20
-551.3867102582111
 30
0.0
 40
0.5000000000000004
100
AcDbArc
 50
180.0
 51
250.000000000001
  0
LINE
  5
17C
330
1F
100
AcDbEntity
  8
1
  6
CONTINUOUS
 62
     7
100
AcDbLine
 10
-78.75000500000792
 20
-547.0566651986469
 30
0.0
 11
-78.75000500000792
 21
-551.3867102582111
 31
0.0
  0
ARC
  5
17D
330
1F
100
AcDbEntity
  8
1
  6
CONTINUOUS
 62
     7
100
AcDbCircle
 10
-75.75000500000792
 20
-547.0566651986469
 30
0.0
 40
3.000000000000003
100
AcDbArc
 50
90.0
 51
180.0
  0
LWPOLYLINE
  5
17E
330
1F
100
AcDbEntity
  8
1
  6
CONTINUOUS
 62
     7
100
AcDbPolyline
 90
       40
 70
     0
 43
0.0
 10
-73.82786375554639
 20
-553.2887160062157
 10
-73.84799083368887
 20
-553.2593689795208
 10
-73.87059059420636
 20
-553.231019162893
 10
-73.89569268012544
 20
-553.2038723699505
 10
-73.91900053336938
 20
-553.1819170478022
 10
-73.94420743157723
 20
-553.16107939896
 10
-73.97131481405656
 20
-553.1415365676728
 10
-73.99347495113642
 20
-553.1274895960825
 10
-74.01681306923155
 20
-553.1143749977555
 10
-74.041304664895
 20
-553.1023043304841
 10
-74.06692523467986
 20
-553.0913891520602
 10
-74.0921728012906
 20
-553.0822307035961
 10
-74.11843239134707
 20
-553.0742879603755
 10
-74.14564041041918
 20
-553.0676784580905
 10
-74.16721619637492
 20
-553.0635686492127
 10
-74.18933445112357
 20
-553.06036293219
 10
-74.21193675664291
 20
-553.0581182287497
 10
-74.2349646949107
 20
-553.0568914606189
 10
-74.25770224963568
 20
-553.0567347104434
 10
-74.28083202761063
 20
-553.0576425628552
 10
-74.30425568698115
 20
-553.0596500297623
 10
-74.32787488589298
 20
-553.0627921230724
 10
-74.35159128249174
 20
-553.0671038546934
 10
-74.37530653492318
 20
-553.072620236533
 10
-74.39294344450158
 20
-553.0775338149773
 10
-74.41054251056694
 20
-553.0831415338579
 10
-74.4280509112552
 20
-553.0894415415597
 10
-74.44541582470232
 20
-553.0964319864675
 10
-74.46310891233091
 20
-553.1043549401419
 10
-74.48059843390884
 20
-553.1130179875004
 10
-74.49782619497769
 20
-553.1224043185952
 10
-74.51473400107893
 20
-553.1324971234786
 10
-74.53082433507213
 20
-553.142976174156
 10
-74.54656733877634
 20
-553.1541140601887
 10
-74.56191539607171
 20
-553.1658839065883
 10
-74.5768208908383
 20
-553.1782588383664
 10
-74.59167576009737
 20
-553.1916184088269
 10
-74.60602311315186
 20
-553.2055987255577
 10
-74.61982093773187
 20
-553.2201622375524
 10
-74.63302722156742
 20
-553.2352713938037
  0
LINE
  5
17F
330
1F
100
AcDbEntity
  8
1
  6
CONTINUOUS
 62
     7
100
AcDbLine
 10
-74.63302722156742
 20
-553.2352713938037
 30
0.0
 11
-74.75000500000792
 21
-553.1926949643807
 31
0.0
  0
LINE
  5
180
330
1F
100
AcDbEntity
  8
1
  6
CONTINUOUS
 62
     7
100
AcDbLine
 10
-74.75000500000792
 20
-544.0566651986469
 30
0.0
 11
-73.75000500000792
 21
-544.0566651986469
 31
0.0
  0
LINE
  5
181
330
1F
100
AcDbEntity
  8
1
  6
CONTINUOUS
 62
     7
100
AcDbLine
 10
-73.75000500000792
 20
-544.0566651986469
 30
0.0
 11
-73.75000500000792
 21
-553.2887160062157
 31
0.0
  0
LINE
  5
182
330
1F
100
AcDbEntity
  8
1
  6
CONTINUOUS
 62
     7
100
AcDbLine
 10
-87.33702068493467
 20
-568.2639511352705
 30
0.0
 11
-88.13784607997663
 21
-567.5919788416535
 31
0.0
  0
ARC
  5
183
330
1F
100
AcDbEntity
  8
1
  6
CONTINUOUS
 62
     7
100
AcDbCircle
 10
-86.20948325091702
 20
-565.2938455122965
 30
0.0
 40
3.000000000000002
100
AcDbArc
 50
140.0
 51
230.0
  0
LINE
  5
184
330
1F
100
AcDbEntity
  8
1
  6
CONTINUOUS
 62
     7
100
AcDbLine
 10
-88.50761658027395
 20
-563.3654826832368
 30
0.0
 11
-79.0434513935582
 21
-552.0865298210633
 31
0.0
  0
ARC
  5
185
330
1F
100
AcDbEntity
  8
1
  6
CONTINUOUS
 62
     7
100
AcDbCircle
 10
-78.6604291719987
 20
-552.4079236259066
 30
0.0
 40
0.5000000000000742
100
AcDbArc
 50
69.99999999999979
 51
140.0000000000009
  0
LINE
  5
186
330
1F
100
AcDbEntity
  8
1
  6
CONTINUOUS
 62
     7
100
AcDbLine
 10
-78.48941910033588
 20
-551.9380773155136
 30
0.0
 11
-74.77300572050285
 21
-553.2907411640015
 31
0.0
  0
ARC
  5
187
330
1F
100
AcDbEntity
  8
1
  6
CONTINUOUS
 62
     7
100
AcDbCircle
 10
-74.75000500000792
 20
-553.2887160062157
 30
0.0
 40
1.000000000000001
100
AcDbArc
 50
350.9576281553775
 51
0.0
  0
LINE
  5
188
330
1F
100
AcDbEntity
  8
1
  6
CONTINUOUS
 62
     7
100
AcDbLine
 10
-73.76243261717688
 20
-553.4458808517868
 30
0.0
 11
-73.77628557101379
 21
-553.3966967561541
 31
0.0
  0
LINE
  5
189
330
1F
100
AcDbEntity
  8
1
  6
CONTINUOUS
 62
     7
100
AcDbLine
 10
-73.77628557101379
 20
-553.3966967561541
 30
0.0
 11
-73.82786375554639
 21
-553.2887160062157
 31
0.0
  0
LINE
  5
18A
330
1F
100
AcDbEntity
  8
1
  6
CONTINUOUS
 62
     7
100
AcDbLine
 10
-73.94401619797804
 20
-553.8601935491728
 30
0.0
 11
-74.08552494579989
 21
-554.0288371077729
 31
0.0
  0
LINE
  5
18B
330
1F
100
AcDbEntity
  8
1
  6
CONTINUOUS
 62
     7
100
AcDbLine
 10
-83.80139032347766
 20
-570.933666363753
 30
0.0
 11
-86.56993417309106
 21
-568.9038188676234
 31
0.0
  0
LINE
  5
18C
330
1F
100
AcDbEntity
  8
1
  6
CONTINUOUS
 62
     7
100
AcDbLine
 10
-74.08552494579989
 20
-554.0288371077729
 30
0.0
 11
-74.08948416520344
 21
-554.0301977335309
 31
0.0
  0
LINE
  5
18D
330
1F
100
AcDbEntity
  8
1
  6
CONTINUOUS
 62
     7
100
AcDbLine
 10
-73.88397959622347
 20
-553.7887160062159
 30
0.0
 11
-74.0364487504539
 21
-554.05280032793
 31
0.0
  0
LINE
  5
18E
330
1F
100
AcDbEntity
  8
1
  6
CONTINUOUS
 62
     7
100
AcDbLine
 10
-74.0364487504539
 20
-554.05280032793
 30
0.0
 11
-83.7882033754414
 21
-570.9433348013531
 31
0.0
  0
LINE
  5
18F
330
1F
100
AcDbEntity
  8
1
  6
CONTINUOUS
 62
     7
100
AcDbLine
 10
-83.7882033754414
 20
-570.9433348013531
 30
0.0
 11
-83.79399590014368
 21
-570.9406337027243
 31
0.0
  0
LINE
  5
190
330
1F
100
AcDbEntity
  8
1
  6
CONTINUOUS
 62
     7
100
AcDbLine
 10
-73.94401619797804
 20
-553.8601935491729
 30
0.0
 11
-73.86181698117643
 21
-553.748196194259
 31
0.0
  0
LINE
  5
191
330
1F
100
AcDbEntity
  8
1
  6
CONTINUOUS
 62
     7
100
AcDbLine
 10
-73.88397959622347
 20
-553.7887160062159
 30
0.0
 11
-73.86181698117645
 21
-553.748196194259
 31
0.0
  0
LINE
  5
192
330
1F
100
AcDbEntity
  8
1
  6
CONTINUOUS
 62
     7
100
AcDbLine
 10
-83.7945188286194
 20
-570.9385809923702
 30
0.0
 11
-83.80139032347766
 21
-570.933666363753
 31
0.0
  0
ARC
  5
193
330
1F
100
AcDbEntity
  8
1
  6
CONTINUOUS
 62
     7
100
AcDbCircle
 10
-74.75000500000792
 20
-553.2887160062157
 30
0.0
 40
0.9999999999999991
100
AcDbArc
 50
332.6464299267035
 51
350.9576281553775
  0
LINE
  5
194
330
1F
100
AcDbEntity
  8
1
  6
CONTINUOUS
 62
     7
100
AcDbLine
 10
-74.75000500000792
 20
-543.0566651986469
 30
0.0
 11
-78.25000500000792
 21
-543.0566651986469
 31
0.0
  0
ARC
  5
195
330
1F
100
AcDbEntity
  8
1
  6
CONTINUOUS
 62
     7
100
AcDbCircle
 10
-74.75000500000792
 20
-544.0566651986469
 30
0.0
 40
1.000000000000001
100
AcDbArc
 50
0.0
 51
90.0
  0
LINE
  5
196
330
1F
100
AcDbEntity
  8
1
  6
CONTINUOUS
 62
     7
100
AcDbLine
 10
-74.75000500000792
 20
-543.556665198647
 30
0.0
 11
-78.25000500000792
 21
-543.556665198647
 31
0.0
  0
ARC
  5
197
330
1F
100
AcDbEntity
  8
1
  6
CONTINUOUS
 62
     7
100
AcDbCircle
 10
-78.25000500000792
 20
-542.5566651986469
 30
0.0
 40
0.500000000000056
100
AcDbArc
 50
180.0
 51
270.0
  0
ARC
  5
198
330
1F
100
AcDbEntity
  8
1
  6
CONTINUOUS
 62
     7
100
AcDbCircle
 10
-78.25000500000792
 20
-542.5566651986469
 30
0.0
 40
1.000000000000004
100
AcDbArc
 50
239.9999999999992
 51
270.0000000000001
  0
ARC
  5
199
330
1F
100
AcDbEntity
  8
1
  6
CONTINUOUS
 62
     7
100
AcDbCircle
 10
-74.75000500000792
 20
-544.0566651986469
 30
0.0
 40
0.4999999999999449
100
AcDbArc
 50
0.0
 51
90.0
  0
LINE
  5
19A
330
1F
100
AcDbEntity
  8
1
  6
CONTINUOUS
 62
     7
100
AcDbLine
 10
-83.79444151468445
 20
-570.938639680764
 30
0.0
 11
-83.79399590014353
 21
-570.9406337027241
 31
0.0
  0
LINE
  5
19B
330
1F
100
AcDbEntity
  8
1
  6
CONTINUOUS
 62
     7
100
AcDbLine
 10
-83.90634614220022
 20
-570.8882439244578
 30
0.0
 11
-83.79399590014368
 21
-570.9406337027243
 31
0.0
  0
LINE
  5
19C
330
1F
100
AcDbEntity
  8
1
  6
CONTINUOUS
 62
     7
100
AcDbLine
 10
-83.90634614220022
 20
-570.8882439244578
 30
0.0
 11
-84.24308824321511
 21
-570.7312185039314
 31
0.0
  0
LINE
  5
19D
330
1F
100
AcDbEntity
  8
1
  6
CONTINUOUS
 62
     7
100
AcDbLine
 10
-84.24308824321511
 20
-570.7312185039314
 30
0.0
 11
-84.19484744296251
 21
-570.6476629868962
 31
0.0
  0
LINE
  5
19E
330
1F
100
AcDbEntity
  8
1
  6
CONTINUOUS
 62
     7
100
AcDbLine
 10
-60.75000500000785
 20
-422.5566651986469
 30
0.0
 11
-73.75000500000792
 21
-422.5566651986469
 31
0.0
  0
LINE
  5
19F
330
1F
100
AcDbEntity
  8
1
  6
CONTINUOUS
 62
     7
100
AcDbLine
 10
-34.75000500000794
 20
-422.5566651986469
 30
0.0
 11
-44.63823661075439
 21
-422.5566651986469
 31
0.0
  0
LINE
  5
1A0
330
1F
100
AcDbEntity
  8
1
  6
CONTINUOUS
 62
     7
100
AcDbLine
 10
-73.75000500000792
 20
-519.5566651986469
 30
0.0
 11
-34.75000500000794
 21
-519.5566651986469
 31
0.0
  0
ARC
  5
1A1
330
1F
100
AcDbEntity
  8
1
  6
CONTINUOUS
 62
     7
100
AcDbCircle
 10
-34.75000500000794
 20
-426.0566651986469
 30
0.0
 40
3.500000000000003
100
AcDbArc
 50
0.0
 51
90.0
  0
ARC
  5
1A2
330
1F
100
AcDbEntity
  8
1
  6
CONTINUOUS
 62
     7
100
AcDbCircle
 10
-34.75000500000794
 20
-516.0566651986469
 30
0.0
 40
3.500000000000059
100
AcDbArc
 50
270.0
 51
0.0
  0
ARC
  5
1A3
330
1F
100
AcDbEntity
  8
1
  6
CONTINUOUS
 62
     7
100
AcDbCircle
 10
-44.63823661075439
 20
-422.0566651986469
 30
0.0
 40
0.5000000000000004
100
AcDbArc
 50
244.7988763545287
 51
269.9999999999984
  0
LINE
  5
1A4
330
1F
100
AcDbEntity
  8
1
  6
CONTINUOUS
 62
     7
100
AcDbLine
 10
-44.85113512891927
 20
-422.5090745497474
 30
0.0
 11
-52.23870371089348
 21
-419.0325716876419
 31
0.0
  0
ARC
  5
1A5
330
1F
100
AcDbEntity
  8
1
  6
CONTINUOUS
 62
     7
100
AcDbCircle
 10
-54.36768889254289
 20
-423.5566651986468
 30
0.0
 40
4.999999999999944
100
AcDbArc
 50
64.79887635452496
 51
89.99999999999991
  0
LINE
  5
1A6
330
1F
100
AcDbEntity
  8
1
  6
CONTINUOUS
 62
     7
100
AcDbLine
 10
-54.36768889254289
 20
-418.5566651986468
 30
0.0
 11
-59.75000500000793
 21
-418.5566651986468
 31
0.0
  0
LINE
  5
1A7
330
1F
100
AcDbEntity
  8
1
  6
CENTER
 62
     1
100
AcDbLine
 10
-19.99999999999996
 20
-471.056665198647
 30
0.0
 11
-155.0
 21
-471.056665198647
 31
0.0
  0
LINE
  5
1A9
330
1F
100
AcDbEntity
  8
1
  6
CENTER
 62
     1
100
AcDbLine
 10
-274.9999999999998
 20
-600.0
 30
0.0
 11
-274.9999999999998
 21
-370.0
 31
0.0
  0
LINE
  5
1AA
330
1F
100
AcDbEntity
  8
1
  6
CENTER
 62
     1
100
AcDbLine
 10
-274.9999999999999
 20
-625.0
 30
0.0
 11
-274.9999999999999
 21
-760.0
 31
0.0
  0
ENDSEC
  0
SECTION
  2
OBJECTS
  0
DICTIONARY
  5
C
330
0
100
AcDbDictionary
  3
ACAD_GROUP
350
D
  3
ACAD_LAYOUT
350
1A
  3
ACAD_MATERIAL
350
43
  3
ACAD_MLEADERSTYLE
350
6B
  3
ACAD_MLINESTYLE
350
17
  3
ACAD_PLOTSETTINGS
350
19
  3
ACAD_SCALELIST
350
47
  3
ACAD_VISUALSTYLE
350
2A
  3
ACDBHEADERROUNDTRIPXREC
350
1AB
  3
ACDBVARIABLEDICTIONARY
350
1CC
  0
DICTIONARY
  5
1D3
330
8
100
AcDbDictionary
280
     1
  3
ACAD_XREC_ROUNDTRIP
360
1D4
  0
DICTIONARY
  5
D
102
{ACAD_REACTORS
330
C
102
}
330
C
100
AcDbDictionary
  0
DICTIONARY
  5
1A
102
{ACAD_REACTORS
330
C
102
}
330
C
100
AcDbDictionary
  0
DICTIONARY
  5
43
102
{ACAD_REACTORS
330
C
102
}
330
C
100
AcDbDictionary
  3
BYBLOCK
350
45
  3
BYLAYER
350
44
  3
GLOBAL
350
46
  0
DICTIONARY
  5
6B
102
{ACAD_REACTORS
330
C
102
}
330
C
100
AcDbDictionary
  3
STANDARD
350
6C
  0
DICTIONARY
  5
17
102
{ACAD_REACTORS
330
C
102
}
330
C
100
AcDbDictionary
  3
STANDARD
350
18
  0
DICTIONARY
  5
19
102
{ACAD_REACTORS
330
C
102
}
330
C
100
AcDbDictionary
  0
DICTIONARY
  5
47
102
{ACAD_REACTORS
330
C
102
}
330
C
100
AcDbDictionary
  3
A0
350
48
  3
A1
350
49
  3
A2
350
4A
  3
A3
350
4B
  3
A4
350
4C
  3
A5
350
4D
  3
A6
350
4E
  3
A7
350
4F
  3
A8
350
50
  3
A9
350
51
  3
B0
350
52
  3
B1
350
53
  3
B2
350
54
  3
B3
350
55
  3
B4
350
56
  3
B5
350
57
  3
B6
350
58
  3
B7
350
59
  3
B8
350
5A
  3
B9
350
5B
  3
C0
350
5C
  3
C1
350
5D
  3
C2
350
5E
  3
C3
350
5F
  3
C4
350
60
  3
C5
350
61
  3
C6
350
62
  3
C7
350
63
  3
C8
350
64
  3
C9
350
65
  3
D0
350
66
  3
D1
350
67
  3
D2
350
68
  0
DICTIONARY
  5
2A
102
{ACAD_REACTORS
330
C
102
}
330
C
100
AcDbDictionary
  3
2DWIREFRAME
350
2F
  3
BASIC
350
32
  3
BRIGHTEN
350
36
  3
COLORCHANGE
350
3A
  3
CONCEPTUAL
350
34
  3
DIM
350
35
  3
EDGECOLOROFF
350
3D
  3
FACEPATTERN
350
39
  3
FLAT
350
2B
  3
FLATWITHEDGES
350
2C
  3
GOURAUD
350
2D
  3
GOURAUDWITHEDGES
350
2E
  3
HIDDEN
350
31
  3
JITTEROFF
350
3B
  3
LINEPATTERN
350
38
  3
OVERHANGOFF
350
3C
  3
REALISTIC
350
33
  3
SHADED
350
42
  3
SHADED_WITH_EDGES
350
41
  3
SHADES_OF_GRAY
350
3E
  3
SKETCHY
350
3F
  3
THICKEN
350
37
  3
WIREFRAME
350
30
  3
X-RAY
350
40
  0
DICTIONARY
  5
1AB
102
{ACAD_REACTORS
330
C
102
}
330
C
100
AcDbDictionary
  3
CEPSNID
350
1B5
  3
CEPSNTYPE
350
1B4
  3
DIMSTYLEDATA
350
1CB
  3
FINGERPRINTGUID
350
1B6
  3
HYPERLINKBASE
350
1AE
  3
INSUNITS
350
1B3
  3
LAYOUTDICT
350
1B0
  3
LWETCUNION
350
1B2
  3
PLOTSETDICT
350
1B1
  3
PSVPSCALE
350
1B8
  3
PUCSBASE
350
1BB
  3
PUCSORGBACK
350
1C1
  3
PUCSORGBOTTOM
350
1BD
  3
PUCSORGFRONT
350
1C0
  3
PUCSORGLEFT
350
1BE
  3
PUCSORGRIGHT
350
1BF
  3
PUCSORGTOP
350
1BC
  3
PUCSORTHOREF
350
1B9
  3
PUCSORTHOVIEW
350
1BA
  3
STYLESHEET
350
1AF
  3
TSTACKALIGN
350
1AC
  3
TSTACKSIZE
350
1AD
  3
UCSBASE
350
1C4
  3
UCSORGBACK
350
1CA
  3
UCSORGBOTTOM
350
1C6
  3
UCSORGFRONT
350
1C9
  3
UCSORGLEFT
350
1C7
  3
UCSORGRIGHT
350
1C8
  3
UCSORGTOP
350
1C5
  3
UCSORTHOREF
350
1C2
  3
UCSORTHOVIEW
350
1C3
  3
VERSIONGUID
350
1B7
  0
DICTIONARY
  5
1CC
102
{ACAD_REACTORS
330
C
102
}
330
C
100
AcDbDictionary
  3
CANNOSCALE
350
1D5
  3
CMLEADERSTYLE
350
1CE
  3
CTABLESTYLE
350
1CD
  3
DIMASSOC
350
1D1
  3
HIDETEXT
350
1D2
  3
MSLTSCALE
350
1D6
  0
XRECORD
  5
1D4
102
{ACAD_REACTORS
330
1D3
102
}
330
1D3
100
AcDbXrecord
102
VTR_0.000_0.000_1.000_1.000_VISUALSTYLE
340
2F
102
VTR_0.000_0.000_1.000_1.000_GRIDDISPLAY
 70
     3
102
VTR_0.000_0.000_1.000_1.000_GRIDMAJOR
 70
     5
102
VTR_0.000_0.000_1.000_1.000_DEFAULTLIGHTING
280
     1
102
VTR_0.000_0.000_1.000_1.000_DEFAULTLIGHTINGTYPE
 70
     1
102
VTR_0.000_0.000_1.000_1.000_BRIGHTNESS
141
0.0
102
VTR_0.000_0.000_1.000_1.000_CONTRAST
142
0.0
  0
MATERIAL
  5
45
102
{ACAD_REACTORS
330
43
102
}
102
{ACAD_XDICTIONARY
360
1D9
102
}
330
43
100
AcDbMaterial
  1
BYBLOCK
  0
MATERIAL
  5
44
102
{ACAD_REACTORS
330
43
102
}
102
{ACAD_XDICTIONARY
360
1D7
102
}
330
43
100
AcDbMaterial
  1
BYLAYER
  0
MATERIAL
  5
46
102
{ACAD_REACTORS
330
43
102
}
102
{ACAD_XDICTIONARY
360
1DB
102
}
330
43
100
AcDbMaterial
  1
GLOBAL
  0
ACAD_PROXY_OBJECT
  5
6C
102
{ACAD_REACTORS
330
6B
102
}
330
6B
100
AcDbProxyObject
 90
      499
 91
      505
 93
      610
310
40901902A4063FBFFFFFE056BD1B81E855B9FC0AD7A3703D0AD73F4214DD185B99185C9900AD7A3703D0AC73F90141901A02B5E8DC0F42B1CFC02B5E8DC0F42B1CFE5764000000000000300FC0
340
14
340
0
340
11
340
0
 94
        0
1001
ACAD_MLEADERVER
1070
     2
  0
MLINESTYLE
  5
18
102
{ACAD_REACTORS
330
17
102
}
330
17
100
AcDbMlineStyle
  2
Standard
 70
     0
  3

 62
   256
 51
90.0
 52
90.0
 71
     2
 49
0.5
 62
   256
  6
BYLAYER
 49
-0.5
 62
   256
  6
BYLAYER
  0
ACAD_PROXY_OBJECT
  5
48
102
{ACAD_REACTORS
330
47
102
}
330
47
100
AcDbProxyObject
 90
      499
 91
      503
 93
       41
310
903313A31580
  0
ACAD_PROXY_OBJECT
  5
49
102
{ACAD_REACTORS
330
47
102
}
330
47
100
AcDbProxyObject
 90
      499
 91
      503
 93
      105
310
903313A324000000000000004000
  0
ACAD_PROXY_OBJECT
  5
4A
102
{ACAD_REACTORS
330
47
102
}
330
47
100
AcDbProxyObject
 90
      499
 91
      503
 93
      105
310
903313A344000000000000104000
  0
ACAD_PROXY_OBJECT
  5
4B
102
{ACAD_REACTORS
330
47
102
}
330
47
100
AcDbProxyObject
 90
      499
 91
      503
 93
      105
310
903313A354000000000000144000
  0
ACAD_PROXY_OBJECT
  5
4C
102
{ACAD_REACTORS
330
47
102
}
330
47
100
AcDbProxyObject
 90
      499
 91
      503
 93
      105
310
903313A384000000000000204000
  0
ACAD_PROXY_OBJECT
  5
4D
102
{ACAD_REACTORS
330
47
102
}
330
47
100
AcDbProxyObject
 90
      499
 91
      503
 93
      113
310
904313A31304000000000000244000
  0
ACAD_PROXY_OBJECT
  5
4E
102
{ACAD_REACTORS
330
47
102
}
330
47
100
AcDbProxyObject
 90
      499
 91
      503
 93
      113
310
904313A31364000000000000304000
  0
ACAD_PROXY_OBJECT
  5
4F
102
{ACAD_REACTORS
330
47
102
}
330
47
100
AcDbProxyObject
 90
      499
 91
      503
 93
      113
310
904313A32304000000000000344000
  0
ACAD_PROXY_OBJECT
  5
50
102
{ACAD_REACTORS
330
47
102
}
330
47
100
AcDbProxyObject
 90
      499
 91
      503
 93
      113
310
904313A333040000000000003E4000
  0
ACAD_PROXY_OBJECT
  5
51
102
{ACAD_REACTORS
330
47
102
}
330
47
100
AcDbProxyObject
 90
      499
 91
      503
 93
      113
310
904313A34304000000000000444000
  0
ACAD_PROXY_OBJECT
  5
52
102
{ACAD_REACTORS
330
47
102
}
330
47
100
AcDbProxyObject
 90
      499
 91
      503
 93
      113
310
904313A35304000000000000494000
  0
ACAD_PROXY_OBJECT
  5
53
102
{ACAD_REACTORS
330
47
102
}
330
47
100
AcDbProxyObject
 90
      499
 91
      503
 93
      121
310
905313A3130304000000000000594000
  0
ACAD_PROXY_OBJECT
  5
54
102
{ACAD_REACTORS
330
47
102
}
330
47
100
AcDbProxyObject
 90
      499
 91
      503
 93
      105
310
903323A310000000000000010100
  0
ACAD_PROXY_OBJECT
  5
55
102
{ACAD_REACTORS
330
47
102
}
330
47
100
AcDbProxyObject
 90
      499
 91
      503
 93
      105
310
903343A310000000000000410100
  0
ACAD_PROXY_OBJECT
  5
56
102
{ACAD_REACTORS
330
47
102
}
330
47
100
AcDbProxyObject
 90
      499
 91
      503
 93
      105
310
903383A310000000000000810100
  0
ACAD_PROXY_OBJECT
  5
57
102
{ACAD_REACTORS
330
47
102
}
330
47
100
AcDbProxyObject
 90
      499
 91
      503
 93
      113
310
90431303A310000000000000910100
  0
ACAD_PROXY_OBJECT
  5
58
102
{ACAD_REACTORS
330
47
102
}
330
47
100
AcDbProxyObject
 90
      499
 91
      503
 93
      121
310
9053130303A310000000000001650100
  0
ACAD_PROXY_OBJECT
  5
59
102
{ACAD_REACTORS
330
47
102
}
330
47
100
AcDbProxyObject
 90
      499
 91
      503
 93
      257
310
90E312F31323822203D2031272D3022000000000000200FC000000000000284000
  0
ACAD_PROXY_OBJECT
  5
5A
102
{ACAD_REACTORS
330
47
102
}
330
47
100
AcDbProxyObject
 90
      499
 91
      503
 93
      249
310
90D312F363422203D2031272D3022000000000000240FC000000000000284000
  0
ACAD_PROXY_OBJECT
  5
5B
102
{ACAD_REACTORS
330
47
102
}
330
47
100
AcDbProxyObject
 90
      499
 91
      503
 93
      249
310
90D312F333222203D2031272D3022000000000000280FC000000000000284000
  0
ACAD_PROXY_OBJECT
  5
5C
102
{ACAD_REACTORS
330
47
102
}
330
47
100
AcDbProxyObject
 90
      499
 91
      503
 93
      249
310
90D312F313622203D2031272D30220000000000002C0FC000000000000284000
  0
ACAD_PROXY_OBJECT
  5
5D
102
{ACAD_REACTORS
330
47
102
}
330
47
100
AcDbProxyObject
 90
      499
 91
      503
 93
      249
310
90D332F333222203D2031272D30220000000000002E0FC000000000000284000
  0
ACAD_PROXY_OBJECT
  5
5E
102
{ACAD_REACTORS
330
47
102
}
330
47
100
AcDbProxyObject
 90
      499
 91
      503
 93
      241
310
90C312F3822203D2031272D3022000000000000300FC000000000000284000
  0
ACAD_PROXY_OBJECT
  5
5F
102
{ACAD_REACTORS
330
47
102
}
330
47
100
AcDbProxyObject
 90
      499
 91
      503
 93
      249
310
90D332F313622203D2031272D3022000000000000320FC000000000000284000
  0
ACAD_PROXY_OBJECT
  5
60
102
{ACAD_REACTORS
330
47
102
}
330
47
100
AcDbProxyObject
 90
      499
 91
      503
 93
      241
310
90C312F3422203D2031272D3022000000000000340FC000000000000284000
  0
ACAD_PROXY_OBJECT
  5
61
102
{ACAD_REACTORS
330
47
102
}
330
47
100
AcDbProxyObject
 90
      499
 91
      503
 93
      241
310
90C332F3822203D2031272D3022000000000000360FC000000000000284000
  0
ACAD_PROXY_OBJECT
  5
62
102
{ACAD_REACTORS
330
47
102
}
330
47
100
AcDbProxyObject
 90
      499
 91
      503
 93
      241
310
90C312F3222203D2031272D3022000000000000380FC000000000000284000
  0
ACAD_PROXY_OBJECT
  5
63
102
{ACAD_REACTORS
330
47
102
}
330
47
100
AcDbProxyObject
 90
      499
 91
      503
 93
      241
310
90C332F3422203D2031272D30220000000000003A0FC000000000000284000
  0
ACAD_PROXY_OBJECT
  5
64
102
{ACAD_REACTORS
330
47
102
}
330
47
100
AcDbProxyObject
 90
      499
 91
      503
 93
      161
310
90A3122203D2031272D30224000000000000284000
  0
ACAD_PROXY_OBJECT
  5
65
102
{ACAD_REACTORS
330
47
102
}
330
47
100
AcDbProxyObject
 90
      499
 91
      503
 93
      257
310
90E312D312F3222203D2031272D30220000000000003E0FC000000000000284000
  0
ACAD_PROXY_OBJECT
  5
66
102
{ACAD_REACTORS
330
47
102
}
330
47
100
AcDbProxyObject
 90
      499
 91
      503
 93
      225
310
90A3322203D2031272D302200000000000002100000000000000284000
  0
ACAD_PROXY_OBJECT
  5
67
102
{ACAD_REACTORS
330
47
102
}
330
47
100
AcDbProxyObject
 90
      499
 91
      503
 93
      225
310
90A3622203D2031272D302200000000000006100000000000000284000
  0
ACAD_PROXY_OBJECT
  5
68
102
{ACAD_REACTORS
330
47
102
}
330
47
100
AcDbProxyObject
 90
      499
 91
      503
 93
      249
310
90D31272D3022203D2031272D30220000000000000A100000000000000284000
  0
ACAD_PROXY_OBJECT
  5
2F
102
{ACAD_REACTORS
330
2A
102
}
330
2A
100
AcDbProxyObject
 90
      499
 91
      501
 93
      436
310
42CC9915DA5C99599C985B595049028333333333333E33F0000000000000F90107901411070040501600405405064090741402480A0340
1001
ACAD
1000
AcDbSavedByObjectVersion
1070
     0
  0
ACAD_PROXY_OBJECT
  5
32
102
{ACAD_REACTORS
330
2A
102
}
330
2A
100
AcDbProxyObject
 90
      499
 91
      501
 93
      388
310
4150985CDA58D07406404333333333333E33F0000000000000F90107A41107004050150841D405064090741402480A0350
1001
ACAD
1000
AcDbSavedByObjectVersion
1070
     0
  0
ACAD_PROXY_OBJECT
  5
36
102
{ACAD_REACTORS
330
2A
102
}
330
2A
100
AcDbProxyObject
 90
      499
 91
      501
 93
      428
310
42109C9A59DA1D195B90C409028333333333333E33F0000000000000F9010790141107004050150841D405064090741402480A029950
1001
ACAD
1000
AcDbSavedByObjectVersion
1070
     0
  0
ACAD_PROXY_OBJECT
  5
3A
102
{ACAD_REACTORS
330
2A
102
}
330
2A
100
AcDbProxyObject
 90
      499
 91
      501
 93
      452
310
42D0DBDB1BDC90DA185B99D95104090240C333333333333E33F0000000000000F90108901411070040501508421405064090741402480A0350
1001
ACAD
1000
AcDbSavedByObjectVersion
1070
     0
  0
ACAD_PROXY_OBJECT
  5
34
102
{ACAD_REACTORS
330
2A
102
}
330
2A
100
AcDbProxyObject
 90
      499
 91
      501
 93
      500
310
4290DBDB98D95C1D1D585B10940D028333333333333E33F0000000000000F90107902409070040501000000000018199010841D405064090740C02480A0340
1001
ACAD
1000
AcDbSavedByObjectVersion
1070
     0
  0
ACAD_PROXY_OBJECT
  5
35
102
{ACAD_REACTORS
330
2A
102
}
330
2A
100
AcDbProxyObject
 90
      499
 91
      501
 93
      412
310
40D11A5B50B409028333333333333E33F0000000000000F9010790141107004050150841D405064090741402480A02677FFFFFD0
1001
ACAD
1000
AcDbSavedByObjectVersion
1070
     0
  0
ACAD_PROXY_OBJECT
  5
3D
102
{ACAD_REACTORS
330
2A
102
}
330
2A
100
AcDbProxyObject
 90
      499
 91
      501
 93
      452
310
43115919D950DBDB1BDC93D999916409028333333333333E33F0000000000000F9010790141107004050150841D405064090741402480A0350
1001
ACAD
1000
AcDbSavedByObjectVersion
1070
     0
  0
ACAD_PROXY_OBJECT
  5
39
102
{ACAD_REACTORS
330
2A
102
}
330
2A
100
AcDbProxyObject
 90
      499
 91
      501
 93
      444
310
42D19858D95C185D1D195C9B90F409028333333333333E33F0000000000000F9010790141107004050150841D405064090741402480A0350
1001
ACAD
1000
AcDbSavedByObjectVersion
1070
     0
  0
ACAD_PROXY_OBJECT
  5
2B
102
{ACAD_REACTORS
330
2A
102
}
330
2A
100
AcDbProxyObject
 90
      499
 91
      501
 93
      380
310
41119B185D240901404333333333333E33F0000000000000F9010740A907004050150841D405064090741402480A1B50
1001
ACAD
1000
AcDbSavedByObjectVersion
1070
     0
  0
ACAD_PROXY_OBJECT
  5
2C
102
{ACAD_REACTORS
330
2A
102
}
330
2A
100
AcDbProxyObject
 90
      499
 91
      501
 93
      468
310
43519B185D15DA5D1A115919D95CD0140901404333333333333E33F0000000000000F90107409019070040501600405405064090741402480A1B50
1001
ACAD
1000
AcDbSavedByObjectVersion
1070
     0
  0
ACAD_PROXY_OBJECT
  5
2D
102
{ACAD_REACTORS
330
2A
102
}
330
2A
100
AcDbProxyObject
 90
      499
 91
      501
 93
      404
310
41D1DBDD5C985D5910240902404333333333333E33F0000000000000F9010740A9070040501641D405064090741402480A1B50
1001
ACAD
1000
AcDbSavedByObjectVersion
1070
     0
  0
ACAD_PROXY_OBJECT
  5
2E
102
{ACAD_REACTORS
330
2A
102
}
330
2A
100
AcDbProxyObject
 90
      499
 91
      501
 93
      492
310
4411DBDD5C985D5915DA5D1A115919D95CD0340902404333333333333E33F0000000000000F90107409019070040501600405405064090741402480A1B50
1001
ACAD
1000
AcDbSavedByObjectVersion
1070
     0
  0
ACAD_PROXY_OBJECT
  5
31
102
{ACAD_REACTORS
330
2A
102
}
330
2A
100
AcDbProxyObject
 90
      499
 91
      501
 93
      476
310
41921A5919195B90640502408333333333333E33F0000000000000F901079024090700405020000000000001110200405405064090740C02480A0340
1001
ACAD
1000
AcDbSavedByObjectVersion
1070
     0
  0
ACAD_PROXY_OBJECT
  5
3B
102
{ACAD_REACTORS
330
2A
102
}
330
2A
100
AcDbProxyObject
 90
      499
 91
      501
 93
      428
310
42529A5D1D195C93D999914409028333333333333E33F0000000000000F9010790141107004050150A41D405064090741402480A0350
1001
ACAD
1000
AcDbSavedByObjectVersion
1070
     0
  0
ACAD_PROXY_OBJECT
  5
38
102
{ACAD_REACTORS
330
2A
102
}
330
2A
100
AcDbProxyObject
 90
      499
 91
      501
 93
      444
310
42D31A5B995C185D1D195C9B90E409028333333333333E33F0000000000000F9010790141107004050750841D405064090741402483A0350
1001
ACAD
1000
AcDbSavedByObjectVersion
1070
     0
  0
ACAD_PROXY_OBJECT
  5
3C
102
{ACAD_REACTORS
330
2A
102
}
330
2A
100
AcDbProxyObject
 90
      499
 91
      501
 93
      444
310
42D3DD995C9A185B99D3D999915409028333333333333E33F0000000000000F9010790141107004050150941D405064090741402480A0350
1001
ACAD
1000
AcDbSavedByObjectVersion
1070
     0
  0
ACAD_PROXY_OBJECT
  5
33
102
{ACAD_REACTORS
330
2A
102
}
330
2A
100
AcDbProxyObject
 90
      499
 91
      501
 93
      428
310
425499585B1A5CDD1A58D08409038333333333333E33F0000000000000F9010740A907004050150800405405064090740C02480A1B40
1001
ACAD
1000
AcDbSavedByObjectVersion
1070
     0
  0
ACAD_PROXY_OBJECT
  5
42
102
{ACAD_REACTORS
330
2A
102
}
330
2A
100
AcDbProxyObject
 90
      499
 91
      501
 93
      420
310
4194DA1859195911B40902404333333333333E33F0000000000000F9010740A41107004050150800405405064090840C02480A0B40
1001
ACAD
1000
AcDbSavedByObjectVersion
1070
     0
  0
ACAD_PROXY_OBJECT
  5
41
102
{ACAD_REACTORS
330
2A
102
}
330
2A
100
AcDbProxyObject
 90
      499
 91
      501
 93
      516
310
4454DA18591959081DDA5D1A08195919D95CD1A40902404333333333333E33F0000000000000F901074090142907004050250800405405064090740C02480A0B40
1001
ACAD
1000
AcDbSavedByObjectVersion
1070
     0
  0
ACAD_PROXY_OBJECT
  5
3E
102
{ACAD_REACTORS
330
2A
102
}
330
2A
100
AcDbProxyObject
 90
      499
 91
      501
 93
      532
310
4394DA1859195CC81BD98811DC985E5174090240C333333333333E33F0000000000000F901079024090741D01000000000000111010841D405064090740C02480A0340
1001
ACAD
1000
AcDbSavedByObjectVersion
1070
     0
  0
ACAD_PROXY_OBJECT
  5
3F
102
{ACAD_REACTORS
330
2A
102
}
330
2A
100
AcDbProxyObject
 90
      499
 91
      501
 93
      476
310
41D4DAD95D18DA1E51840502408333333333333E33F0000000000000F901079024090741D01000000000000111010B41D405064090741802480A0340
1001
ACAD
1000
AcDbSavedByObjectVersion
1070
     0
  0
ACAD_PROXY_OBJECT
  5
37
102
{ACAD_REACTORS
330
2A
102
}
330
2A
100
AcDbProxyObject
 90
      499
 91
      501
 93
      412
310
41D51A1A58DAD95B90D409028333333333333E33F0000000000000F9010790141107004050150C41D405064090741402480A0350
1001
ACAD
1000
AcDbSavedByObjectVersion
1070
     0
  0
ACAD_PROXY_OBJECT
  5
30
102
{ACAD_REACTORS
330
2A
102
}
330
2A
100
AcDbProxyObject
 90
      499
 91
      501
 93
      420
310
4255DA5C99599C985B595059028333333333333E33F0000000000000F90107901411070040501600405405064090740C02480A0340
1001
ACAD
1000
AcDbSavedByObjectVersion
1070
     0
  0
ACAD_PROXY_OBJECT
  5
40
102
{ACAD_REACTORS
330
2A
102
}
330
2A
100
AcDbProxyObject
 90
      499
 91
      501
 93
      404
310
41560B54985E51940902404000000000000E03F0000000000000F9010740501907004050150841D405064090740C02480A1B40
1001
ACAD
1000
AcDbSavedByObjectVersion
1070
     0
  0
XRECORD
  5
1B5
102
{ACAD_REACTORS
330
1AB
102
}
330
1AB
100
AcDbXrecord
340
0
  0
XRECORD
  5
1B4
102
{ACAD_REACTORS
330
1AB
102
}
330
1AB
100
AcDbXrecord
 90
        0
  0
XRECORD
  5
1CB
102
{ACAD_REACTORS
330
1AB
102
}
330
1AB
100
AcDbXrecord
1000
DSTYLE
1002
{
1070
   179
 70
     2
1070
   171
 70
     2
1070
   143
 40
25.4
1070
   274
 70
     2
1070
    41
 40
3.0
1070
   141
 40
0.09
1070
    43
 40
0.38
1070
   278
 70
    46
1070
    44
 40
1.5
1070
    42
 40
0.0625
1070
   147
 40
1.5
1070
   272
 70
     4
1070
    73
 70
     1
1070
   172
 70
     0
1070
    74
 70
     1
1070
   283
 70
     1
1070
   340
340
6F
1070
   140
 40
3.0
1070
   284
 70
     0
1070
    78
 70
     0
1002
}
  0
XRECORD
  5
1B6
102
{ACAD_REACTORS
330
1AB
102
}
330
1AB
100
AcDbXrecord
  1
{D3C3386C-6BE2-4761-87C2-50AADC457E28}
  0
XRECORD
  5
1AE
102
{ACAD_REACTORS
330
1AB
102
}
330
1AB
100
AcDbXrecord
  1

  0
XRECORD
  5
1B3
102
{ACAD_REACTORS
330
1AB
102
}
330
1AB
100
AcDbXrecord
 90
        4
  0
XRECORD
  5
1B0
102
{ACAD_REACTORS
330
1AB
102
}
330
1AB
100
AcDbXrecord
340
1A
  0
XRECORD
  5
1B2
102
{ACAD_REACTORS
330
1AB
102
}
330
1AB
100
AcDbXrecord
 90
    10269
  0
XRECORD
  5
1B1
102
{ACAD_REACTORS
330
1AB
102
}
330
1AB
100
AcDbXrecord
340
19
  0
XRECORD
  5
1B8
102
{ACAD_REACTORS
330
1AB
102
}
330
1AB
100
AcDbXrecord
 40
0.0
  0
XRECORD
  5
1BB
102
{ACAD_REACTORS
330
1AB
102
}
330
1AB
100
AcDbXrecord
340
0
  0
XRECORD
  5
1C1
102
{ACAD_REACTORS
330
1AB
102
}
330
1AB
100
AcDbXrecord
 10
0.0
 20
0.0
 30
0.0
  0
XRECORD
  5
1BD
102
{ACAD_REACTORS
330
1AB
102
}
330
1AB
100
AcDbXrecord
 10
0.0
 20
0.0
 30
0.0
  0
XRECORD
  5
1C0
102
{ACAD_REACTORS
330
1AB
102
}
330
1AB
100
AcDbXrecord
 10
0.0
 20
0.0
 30
0.0
  0
XRECORD
  5
1BE
102
{ACAD_REACTORS
330
1AB
102
}
330
1AB
100
AcDbXrecord
 10
0.0
 20
0.0
 30
0.0
  0
XRECORD
  5
1BF
102
{ACAD_REACTORS
330
1AB
102
}
330
1AB
100
AcDbXrecord
 10
0.0
 20
0.0
 30
0.0
  0
XRECORD
  5
1BC
102
{ACAD_REACTORS
330
1AB
102
}
330
1AB
100
AcDbXrecord
 10
0.0
 20
0.0
 30
0.0
  0
XRECORD
  5
1B9
102
{ACAD_REACTORS
330
1AB
102
}
330
1AB
100
AcDbXrecord
340
0
  0
XRECORD
  5
1BA
102
{ACAD_REACTORS
330
1AB
102
}
330
1AB
100
AcDbXrecord
 70
     0
  0
XRECORD
  5
1AF
102
{ACAD_REACTORS
330
1AB
102
}
330
1AB
100
AcDbXrecord
  1

  0
XRECORD
  5
1AC
102
{ACAD_REACTORS
330
1AB
102
}
330
1AB
100
AcDbXrecord
 90
        1
  0
XRECORD
  5
1AD
102
{ACAD_REACTORS
330
1AB
102
}
330
1AB
100
AcDbXrecord
 90
       70
  0
XRECORD
  5
1C4
102
{ACAD_REACTORS
330
1AB
102
}
330
1AB
100
AcDbXrecord
340
0
  0
XRECORD
  5
1CA
102
{ACAD_REACTORS
330
1AB
102
}
330
1AB
100
AcDbXrecord
 10
0.0
 20
0.0
 30
0.0
  0
XRECORD
  5
1C6
102
{ACAD_REACTORS
330
1AB
102
}
330
1AB
100
AcDbXrecord
 10
0.0
 20
0.0
 30
0.0
  0
XRECORD
  5
1C9
102
{ACAD_REACTORS
330
1AB
102
}
330
1AB
100
AcDbXrecord
 10
0.0
 20
0.0
 30
0.0
  0
XRECORD
  5
1C7
102
{ACAD_REACTORS
330
1AB
102
}
330
1AB
100
AcDbXrecord
 10
0.0
 20
0.0
 30
0.0
  0
XRECORD
  5
1C8
102
{ACAD_REACTORS
330
1AB
102
}
330
1AB
100
AcDbXrecord
 10
0.0
 20
0.0
 30
0.0
  0
XRECORD
  5
1C5
102
{ACAD_REACTORS
330
1AB
102
}
330
1AB
100
AcDbXrecord
 10
0.0
 20
0.0
 30
0.0
  0
XRECORD
  5
1C2
102
{ACAD_REACTORS
330
1AB
102
}
330
1AB
100
AcDbXrecord
340
0
  0
XRECORD
  5
1C3
102
{ACAD_REACTORS
330
1AB
102
}
330
1AB
100
AcDbXrecord
 70
     0
  0
XRECORD
  5
1B7
102
{ACAD_REACTORS
330
1AB
102
}
330
1AB
100
AcDbXrecord
  1
{FAEB1C32-E019-11D5-929B-00C0DF256EC4}
  0
DICTIONARYVAR
  5
1D5
102
{ACAD_REACTORS
330
1CC
102
}
330
1CC
100
DictionaryVariables
280
     0
  1
1:1
  0
DICTIONARYVAR
  5
1CE
102
{ACAD_REACTORS
330
1CC
102
}
330
1CC
100
DictionaryVariables
280
     0
  1
Standard
  0
DICTIONARYVAR
  5
1CD
102
{ACAD_REACTORS
330
1CC
102
}
330
1CC
100
DictionaryVariables
280
     0
  1
Standard
  0
DICTIONARYVAR
  5
1D1
102
{ACAD_REACTORS
330
1CC
102
}
330
1CC
100
DictionaryVariables
280
     0
  1
2
  0
DICTIONARYVAR
  5
1D2
102
{ACAD_REACTORS
330
1CC
102
}
330
1CC
100
DictionaryVariables
280
     0
  1
1
  0
DICTIONARYVAR
  5
1D6
102
{ACAD_REACTORS
330
1CC
102
}
330
1CC
100
DictionaryVariables
280
     0
  1
1
  0
DICTIONARY
  5
1D9
330
45
100
AcDbDictionary
280
     1
  3
ACAD_XREC_ROUNDTRIP
360
1DA
  0
DICTIONARY
  5
1D7
330
44
100
AcDbDictionary
280
     1
  3
ACAD_XREC_ROUNDTRIP
360
1D8
  0
DICTIONARY
  5
1DB
330
46
100
AcDbDictionary
280
     1
  3
ACAD_XREC_ROUNDTRIP
360
1DC
  0
XRECORD
  5
1DA
102
{ACAD_REACTORS
330
1D9
102
}
330
1D9
100
AcDbXrecord
102
MATERIAL
148
0.0
149
0.0
149
0.0
 93
        0
 94
      127
282
     0
 72
     1
 77
     1
171
     1
175
     1
179
     1
273
     0
  0
XRECORD
  5
1D8
102
{ACAD_REACTORS
330
1D7
102
}
330
1D7
100
AcDbXrecord
102
MATERIAL
148
0.0
149
0.0
149
0.0
 93
        0
 94
      127
282
     0
 72
     1
 77
     1
171
     1
175
     1
179
     1
273
     0
  0
XRECORD
  5
1DC
102
{ACAD_REACTORS
330
1DB
102
}
330
1DB
100
AcDbXrecord
102
MATERIAL
148
0.0
149
0.0
149
0.0
 93
        0
 94
      127
282
     0
 72
     1
 77
     1
171
     1
175
     1
179
     1
273
     0
  0
ENDSEC
  0
EOF
