  0
SECTION
  2
HEADER
  9
$ACADVER
  1
AC1014
  9
$ACADMAINTVER
 70
     9
  9
$DWGCODEPAGE
  3
ANSI_932
  9
$INSBASE
 10
0.0
 20
0.0
 30
0.0
  9
$EXTMIN
 10
240.0
 20
325.0000000000001
 30
0.0
  9
$EXTMAX
 10
695.0
 20
775.0
 30
0.0
  9
$LIMMIN
 10
0.0
 20
0.0
  9
$LIMMAX
 10
12.0
 20
9.0
  9
$ORTHOMODE
 70
     0
  9
$REGENMODE
 70
     1
  9
$FILLMODE
 70
     1
  9
$QTEXTMODE
 70
     0
  9
$MIRRTEXT
 70
     1
  9
$DRAGMODE
 70
     2
  9
$LTSCALE
 40
1.0
  9
$OSMODE
 70
    37
  9
$ATTMODE
 70
     1
  9
$TEXTSIZE
 40
0.2
  9
$TRACEWID
 40
0.05
  9
$TEXTSTYLE
  7
STANDARD
  9
$CLAYER
  8
0
  9
$CELTYPE
  6
BYLAYER
  9
$CECOLOR
 62
   256
  9
$CELTSCALE
 40
1.0
  9
$DELOBJ
 70
     1
  9
$DISPSILH
 70
     0
  9
$DIMSCALE
 40
1.0
  9
$DIMASZ
 40
3.0
  9
$DIMEXO
 40
0.0625
  9
$DIMDLI
 40
0.38
  9
$DIMRND
 40
0.0
  9
$DIMDLE
 40
0.0
  9
$DIMEXE
 40
1.5
  9
$DIMTP
 40
0.0
  9
$DIMTM
 40
0.0
  9
$DIMTXT
 40
3.0
  9
$DIMCEN
 40
0.09
  9
$DIMTSZ
 40
0.0
  9
$DIMTOL
 70
     0
  9
$DIMLIM
 70
     0
  9
$DIMTIH
 70
     1
  9
$DIMTOH
 70
     1
  9
$DIMSE1
 70
     0
  9
$DIMSE2
 70
     0
  9
$DIMTAD
 70
     1
  9
$DIMZIN
 70
     0
  9
$DIMBLK
  1

  9
$DIMASO
 70
     1
  9
$DIMSHO
 70
     1
  9
$DIMPOST
  1

  9
$DIMAPOST
  1

  9
$DIMALT
 70
     0
  9
$DIMALTD
 70
     2
  9
$DIMALTF
 40
25.4
  9
$DIMLFAC
 40
1.0
  9
$DIMTOFL
 70
     0
  9
$DIMTVP
 40
0.0
  9
$DIMTIX
 70
     0
  9
$DIMSOXD
 70
     0
  9
$DIMSAH
 70
     0
  9
$DIMBLK1
  1

  9
$DIMBLK2
  1

  9
$DIMSTYLE
  2
STANDARD
  9
$DIMCLRD
 70
     0
  9
$DIMCLRE
 70
     0
  9
$DIMCLRT
 70
     0
  9
$DIMTFAC
 40
1.0
  9
$DIMGAP
 40
1.5
  9
$DIMJUST
 70
     0
  9
$DIMSD1
 70
     0
  9
$DIMSD2
 70
     0
  9
$DIMTOLJ
 70
     1
  9
$DIMTZIN
 70
     0
  9
$DIMALTZ
 70
     0
  9
$DIMALTTZ
 70
     0
  9
$DIMFIT
 70
     3
  9
$DIMUPT
 70
     0
  9
$DIMUNIT
 70
     2
  9
$DIMDEC
 70
     2
  9
$DIMTDEC
 70
     4
  9
$DIMALTU
 70
     2
  9
$DIMALTTD
 70
     2
  9
$DIMTXSTY
  7
ＭＳ_ゴシック
  9
$DIMAUNIT
 70
     0
  9
$LUNITS
 70
     2
  9
$LUPREC
 70
     4
  9
$SKETCHINC
 40
0.1
  9
$FILLETRAD
 40
0.5
  9
$AUNITS
 70
     0
  9
$AUPREC
 70
     0
  9
$MENU
  1
.
  9
$ELEVATION
 40
0.0
  9
$PELEVATION
 40
0.0
  9
$THICKNESS
 40
0.0
  9
$LIMCHECK
 70
     0
  9
$CHAMFERA
 40
0.0
  9
$CHAMFERB
 40
0.0
  9
$CHAMFERC
 40
0.0
  9
$CHAMFERD
 40
0.0
  9
$SKPOLY
 70
     0
  9
$TDCREATE
 40
2459870.468805023
  9
$TDUPDATE
 40
2459870.468805243
  9
$TDINDWG
 40
0.0000000116
  9
$TDUSRTIMER
 40
0.0000000116
  9
$USRTIMER
 70
     1
  9
$ANGBASE
 50
0.0
  9
$ANGDIR
 70
     0
  9
$PDMODE
 70
     0
  9
$PDSIZE
 40
0.0
  9
$PLINEWID
 40
0.0
  9
$COORDS
 70
     1
  9
$SPLFRAME
 70
     0
  9
$SPLINETYPE
 70
     6
  9
$SPLINESEGS
 70
     8
  9
$ATTDIA
 70
     0
  9
$ATTREQ
 70
     1
  9
$HANDLING
 70
     1
  9
$HANDSEED
  5
1EF
  9
$SURFTAB1
 70
     6
  9
$SURFTAB2
 70
     6
  9
$SURFTYPE
 70
     6
  9
$SURFU
 70
     6
  9
$SURFV
 70
     6
  9
$UCSNAME
  2

  9
$UCSORG
 10
0.0
 20
0.0
 30
0.0
  9
$UCSXDIR
 10
1.0
 20
0.0
 30
0.0
  9
$UCSYDIR
 10
0.0
 20
1.0
 30
0.0
  9
$PUCSNAME
  2

  9
$PUCSORG
 10
0.0
 20
0.0
 30
0.0
  9
$PUCSXDIR
 10
1.0
 20
0.0
 30
0.0
  9
$PUCSYDIR
 10
0.0
 20
1.0
 30
0.0
  9
$USERI1
 70
     0
  9
$USERI2
 70
     0
  9
$USERI3
 70
     0
  9
$USERI4
 70
     0
  9
$USERI5
 70
     0
  9
$USERR1
 40
0.0
  9
$USERR2
 40
0.0
  9
$USERR3
 40
0.0
  9
$USERR4
 40
0.0
  9
$USERR5
 40
0.0
  9
$WORLDVIEW
 70
     1
  9
$SHADEDGE
 70
     3
  9
$SHADEDIF
 70
    70
  9
$TILEMODE
 70
     1
  9
$MAXACTVP
 70
    64
  9
$PINSBASE
 10
0.0
 20
0.0
 30
0.0
  9
$PLIMCHECK
 70
     0
  9
$PEXTMIN
 10
1.000000000000000E+20
 20
1.000000000000000E+20
 30
1.000000000000000E+20
  9
$PEXTMAX
 10
-1.000000000000000E+20
 20
-1.000000000000000E+20
 30
-1.000000000000000E+20
  9
$PLIMMIN
 10
0.0
 20
0.0
  9
$PLIMMAX
 10
12.0
 20
9.0
  9
$UNITMODE
 70
     0
  9
$VISRETAIN
 70
     1
  9
$PLINEGEN
 70
     0
  9
$PSLTSCALE
 70
     1
  9
$TREEDEPTH
 70
  3020
  9
$PICKSTYLE
 70
     1
  9
$CMLSTYLE
  2
STANDARD
  9
$CMLJUST
 70
     0
  9
$CMLSCALE
 40
1.0
  9
$PROXYGRAPHICS
 70
     1
  9
$MEASUREMENT
 70
     1
  0
ENDSEC
  0
SECTION
  2
CLASSES
  0
CLASS
  1
ACDBDICTIONARYWDFLT
  2
AcDbDictionaryWithDefault
  3
ObjectDBX Classes
 90
        0
280
     0
281
     0
  0
CLASS
  1
VISUALSTYLE
  2
AcDbVisualStyle
  3
ObjectDBX Classes
 90
     4095
280
     0
281
     0
  0
CLASS
  1
MATERIAL
  2
AcDbMaterial
  3
ObjectDBX Classes
 90
     1153
280
     0
281
     0
  0
CLASS
  1
SCALE
  2
AcDbScale
  3
ObjectDBX Classes
 90
     1153
280
     0
281
     0
  0
CLASS
  1
TABLESTYLE
  2
AcDbTableStyle
  3
ObjectDBX Classes
 90
     4095
280
     0
281
     0
  0
CLASS
  1
MLEADERSTYLE
  2
AcDbMLeaderStyle
  3
ACDB_MLEADERSTYLE_CLASS
 90
     4095
280
     0
281
     0
  0
CLASS
  1
SUN
  2
AcDbSun
  3
SCENEOE
 90
     1153
280
     0
281
     0
  0
CLASS
  1
DICTIONARYVAR
  2
AcDbDictionaryVar
  3
ObjectDBX Classes
 90
        0
280
     0
281
     0
  0
CLASS
  1
XRECORD
  2
AcDbXrecord
  3
ObjectDBX Classes
 90
        0
280
     0
281
     0
  0
CLASS
  1
LWPOLYLINE
  2
AcDbPolyline
  3
ObjectDBX Classes
 90
        0
280
     0
281
     1
  0
CLASS
  1
HATCH
  2
AcDbHatch
  3
ObjectDBX Classes
 90
        0
280
     0
281
     1
  0
CLASS
  1
ACDBPLACEHOLDER
  2
AcDbPlaceHolder
  3
ObjectDBX Classes
 90
        0
280
     0
281
     0
  0
CLASS
  1
LAYOUT
  2
AcDbLayout
  3
ObjectDBX Classes
 90
        0
280
     0
281
     0
  0
ENDSEC
  0
SECTION
  2
TABLES
  0
TABLE
  2
VPORT
  5
8
102
{ACAD_XDICTIONARY
360
1E4
102
}
330
0
100
AcDbSymbolTable
 70
     1
  0
VPORT
  5
29
330
8
100
AcDbSymbolTableRecord
100
AcDbViewportTableRecord
  2
*ACTIVE
 70
     0
 10
0.0
 20
0.0
 11
1.0
 21
1.0
 12
467.5
 22
550.0
 13
0.0
 23
0.0
 14
0.5
 24
0.5
 15
0.5
 25
0.5
 16
0.0
 26
0.0
 36
1.0
 17
0.0
 27
0.0
 37
0.0
 40
449.9999999999999
 41
1.6
 42
50.0
 43
0.0
 44
0.0
 50
0.0
 51
0.0
 71
     0
 72
   100
 73
     1
 74
     3
 75
     0
 76
     0
 77
     0
 78
     0
  0
ENDTAB
  0
TABLE
  2
LTYPE
  5
5
330
0
100
AcDbSymbolTable
 70
     2
  0
LTYPE
  5
14
330
5
100
AcDbSymbolTableRecord
100
AcDbLinetypeTableRecord
  2
BYBLOCK
 70
     0
  3

 72
    65
 73
     0
 40
0.0
  0
LTYPE
  5
15
330
5
100
AcDbSymbolTableRecord
100
AcDbLinetypeTableRecord
  2
BYLAYER
 70
     0
  3

 72
    65
 73
     0
 40
0.0
  0
LTYPE
  5
16
330
5
100
AcDbSymbolTableRecord
100
AcDbLinetypeTableRecord
  2
CONTINUOUS
 70
     0
  3
Solid line
 72
    65
 73
     0
 40
0.0
  0
LTYPE
  5
72
330
5
100
AcDbSymbolTableRecord
100
AcDbLinetypeTableRecord
  2
CENTER
 70
     0
  3

 72
    65
 73
     0
 40
0.0
  0
ENDTAB
  0
TABLE
  2
LAYER
  5
2
330
0
100
AcDbSymbolTable
 70
     2
  0
LAYER
  5
10
330
2
100
AcDbSymbolTableRecord
100
AcDbLayerTableRecord
  2
0
 70
     0
 62
     7
  6
CONTINUOUS
  0
LAYER
  5
6E
330
2
100
AcDbSymbolTableRecord
100
AcDbLayerTableRecord
  2
1
 70
     0
 62
     7
  6
CONTINUOUS
  0
ENDTAB
  0
TABLE
  2
STYLE
  5
3
330
0
100
AcDbSymbolTable
 70
     2
  0
STYLE
  5
11
330
3
100
AcDbSymbolTableRecord
100
AcDbTextStyleTableRecord
  2
STANDARD
 70
     0
 40
0.0
 41
1.0
 50
0.0
 71
     0
 42
0.2
  3
txt
  4

  0
STYLE
  5
6F
330
3
100
AcDbSymbolTableRecord
100
AcDbTextStyleTableRecord
  2
ＭＳ_ゴシック
 70
     0
 40
0.0
 41
1.0
 50
0.0
 71
     0
 42
0.2
  3
ＭＳ ゴシック.shx
  4

  0
ENDTAB
  0
TABLE
  2
VIEW
  5
6
330
0
100
AcDbSymbolTable
 70
     0
  0
ENDTAB
  0
TABLE
  2
UCS
  5
7
330
0
100
AcDbSymbolTable
 70
     0
  0
ENDTAB
  0
TABLE
  2
APPID
  5
9
330
0
100
AcDbSymbolTable
 70
     2
  0
APPID
  5
12
330
9
100
AcDbSymbolTableRecord
100
AcDbRegAppTableRecord
  2
ACAD
 70
     0
  0
APPID
  5
1EE
330
9
100
AcDbSymbolTableRecord
100
AcDbRegAppTableRecord
  2
ACAD_MLEADERVER
 70
     0
  0
ENDTAB
  0
TABLE
  2
DIMSTYLE
  5
A
330
0
100
AcDbSymbolTable
 70
     1
  0
DIMSTYLE
105
27
330
A
100
AcDbSymbolTableRecord
100
AcDbDimStyleTableRecord
  2
STANDARD
 70
     0
  3

  4

  5

  6

  7

 40
1.0
 41
0.18
 42
0.0625
 43
0.38
 44
0.18
 45
0.0
 46
0.0
 47
0.0
 48
0.0
140
0.18
141
0.09
142
0.0
143
25.4
144
1.0
145
0.0
146
1.0
147
0.09
 71
     0
 72
     0
 73
     1
 74
     1
 75
     0
 76
     0
 77
     0
 78
     0
170
     0
171
     2
172
     0
173
     0
174
     0
175
     0
176
     0
177
     0
178
     0
270
     2
271
     4
272
     4
273
     2
274
     2
340
11
275
     0
280
     0
281
     0
282
     0
283
     1
284
     0
285
     0
286
     0
287
     3
288
     0
  0
ENDTAB
  0
TABLE
  2
BLOCK_RECORD
  5
1
330
0
100
AcDbSymbolTable
 70
     0
  0
BLOCK_RECORD
  5
1F
330
1
100
AcDbSymbolTableRecord
100
AcDbBlockTableRecord
  2
*MODEL_SPACE
  0
BLOCK_RECORD
  5
1B
330
1
100
AcDbSymbolTableRecord
100
AcDbBlockTableRecord
  2
*PAPER_SPACE
  0
ENDTAB
  0
ENDSEC
  0
SECTION
  2
BLOCKS
  0
BLOCK
  5
20
330
1F
100
AcDbEntity
  8
0
100
AcDbBlockBegin
  2
*MODEL_SPACE
 70
     0
 10
0.0
 20
0.0
 30
0.0
  3
*MODEL_SPACE
  1

  0
ENDBLK
  5
21
330
1F
100
AcDbEntity
  8
0
100
AcDbBlockEnd
  0
BLOCK
  5
1C
330
1B
100
AcDbEntity
 67
     1
  8
0
100
AcDbBlockBegin
  2
*PAPER_SPACE
 70
     0
 10
0.0
 20
0.0
 30
0.0
  3
*PAPER_SPACE
  1

  0
ENDBLK
  5
1D
330
1B
100
AcDbEntity
 67
     1
  8
0
100
AcDbBlockEnd
  0
ENDSEC
  0
SECTION
  2
ENTITIES
  0
MTEXT
  5
70
330
1F
100
AcDbEntity
  8
1
 62
     7
100
AcDbMText
 10
556.448143053645
 20
456.0147836688759
 30
0.0
 40
3.0
 41
0.0
 71
     1
 72
     1
  1
{\fＭＳ ゴシック;PYE-S150AL}
  0
LINE
  5
71
330
1F
100
AcDbEntity
  8
1
  6
CENTER
 62
     1
100
AcDbLine
 10
695.0
 20
653.9433348013531
 30
0.0
 11
495.0000000000001
 21
653.9433348013531
 31
0.0
  0
LINE
  5
73
330
1F
100
AcDbEntity
  8
1
  6
CENTER
 62
     1
100
AcDbLine
 10
344.9999999999999
 20
510.0
 30
0.0
 11
344.9999999999999
 21
775.0
 31
0.0
  0
LINE
  5
74
330
1F
100
AcDbEntity
  8
1
  6
CENTER
 62
     1
100
AcDbLine
 10
344.9999999999999
 20
505.0
 30
0.0
 11
344.9999999999999
 21
325.0000000000001
 31
0.0
  0
LINE
  5
75
330
1F
100
AcDbEntity
  8
1
  6
CONTINUOUS
 62
     7
100
AcDbLine
 10
604.9999949999922
 20
758.9433348013531
 30
0.0
 11
604.9999949999922
 21
750.4433348013531
 31
0.0
  0
LINE
  5
76
330
1F
100
AcDbEntity
  8
1
  6
CONTINUOUS
 62
     7
100
AcDbLine
 10
605.9999949999922
 20
758.9433348013531
 30
0.0
 11
605.9999949999922
 21
749.9433348013531
 31
0.0
  0
ARC
  5
77
330
1F
100
AcDbEntity
  8
1
  6
CONTINUOUS
 62
     7
100
AcDbCircle
 10
604.9999949999922
 20
749.9433348013531
 30
0.0
 40
1.000000000000001
100
AcDbArc
 50
270.0
 51
0.0
  0
LINE
  5
78
330
1F
100
AcDbEntity
  8
1
  6
CONTINUOUS
 62
     7
100
AcDbLine
 10
601.4999949999922
 20
748.9433348013531
 30
0.0
 11
601.9999949999922
 21
748.9433348013531
 31
0.0
  0
ARC
  5
79
330
1F
100
AcDbEntity
  8
1
  6
CONTINUOUS
 62
     7
100
AcDbCircle
 10
604.499994999992
 20
750.4433348013531
 30
0.0
 40
0.5000000000000004
100
AcDbArc
 50
270.0000000000001
 51
0.0
  0
LINE
  5
7A
330
1F
100
AcDbEntity
  8
1
  6
CONTINUOUS
 62
     7
100
AcDbLine
 10
604.499994999992
 20
749.9433348013531
 30
0.0
 11
601.499994999992
 21
749.9433348013531
 31
0.0
  0
LINE
  5
7B
330
1F
100
AcDbEntity
  8
1
  6
CONTINUOUS
 62
     7
100
AcDbLine
 10
605.9999949999922
 20
763.9433348013531
 30
0.0
 11
604.9999949999922
 21
763.9433348013531
 31
0.0
  0
LINE
  5
7C
330
1F
100
AcDbEntity
  8
1
  6
CONTINUOUS
 62
     7
100
AcDbLine
 10
605.9999949999922
 20
763.9433348013531
 30
0.0
 11
605.9999949999922
 21
758.9433348013531
 31
0.0
  0
LINE
  5
7D
330
1F
100
AcDbEntity
  8
1
  6
CONTINUOUS
 62
     7
100
AcDbLine
 10
604.9999949999922
 20
758.9433348013531
 30
0.0
 11
604.9999949999922
 21
763.9433348013531
 31
0.0
  0
LINE
  5
7E
330
1F
100
AcDbEntity
  8
1
  6
CONTINUOUS
 62
     7
100
AcDbLine
 10
601.4999949999922
 20
748.4433348013531
 30
0.0
 11
601.9999949999922
 21
748.4433348013531
 31
0.0
  0
LINE
  5
7F
330
1F
100
AcDbEntity
  8
1
  6
CONTINUOUS
 62
     7
100
AcDbLine
 10
601.4999949999922
 20
554.9433348013531
 30
0.0
 11
601.9999949999922
 21
554.9433348013531
 31
0.0
  0
LINE
  5
80
330
1F
100
AcDbEntity
  8
1
  6
CONTINUOUS
 62
     7
100
AcDbLine
 10
601.9999949999922
 20
554.9433348013531
 30
0.0
 11
605.499994999992
 21
554.9433348013531
 31
0.0
  0
LINE
  5
81
330
1F
100
AcDbEntity
  8
1
  6
CONTINUOUS
 62
     7
100
AcDbLine
 10
601.9999949999922
 20
748.4433348013531
 30
0.0
 11
605.499994999992
 21
748.4433348013531
 31
0.0
  0
ARC
  5
82
330
1F
100
AcDbEntity
  8
1
  6
CONTINUOUS
 62
     7
100
AcDbCircle
 10
605.4999949999922
 20
555.4433348013531
 30
0.0
 40
0.5000000000000004
100
AcDbArc
 50
270.0
 51
0.0
  0
ARC
  5
83
330
1F
100
AcDbEntity
  8
1
  6
CONTINUOUS
 62
     7
100
AcDbCircle
 10
605.4999949999922
 20
747.9433348013531
 30
0.0
 40
0.500000000000056
100
AcDbArc
 50
0.0
 51
90.0
  0
LINE
  5
84
330
1F
100
AcDbEntity
  8
1
  6
CONTINUOUS
 62
     7
100
AcDbLine
 10
605.9999949999922
 20
747.9433348013531
 30
0.0
 11
605.9999949999922
 21
555.4433348013531
 31
0.0
  0
LINE
  5
85
330
1F
100
AcDbEntity
  8
1
  6
CONTINUOUS
 62
     7
100
AcDbLine
 10
605.9999949999922
 20
748.9433348013531
 30
0.0
 11
605.9999949999922
 21
748.4433348013531
 31
0.0
  0
LINE
  5
86
330
1F
100
AcDbEntity
  8
1
  6
CONTINUOUS
 62
     7
100
AcDbLine
 10
605.9999949999922
 20
748.4433348013531
 30
0.0
 11
605.4999949999922
 21
748.4433348013531
 31
0.0
  0
LINE
  5
87
330
1F
100
AcDbEntity
  8
1
  6
CONTINUOUS
 62
     7
100
AcDbLine
 10
605.4999949999922
 20
748.9433348013531
 30
0.0
 11
605.9999949999922
 21
748.9433348013531
 31
0.0
  0
LINE
  5
88
330
1F
100
AcDbEntity
  8
1
  6
CONTINUOUS
 62
     7
100
AcDbLine
 10
601.9999949999922
 20
748.9433348013531
 30
0.0
 11
602.499994999992
 21
748.9433348013531
 31
0.0
  0
LINE
  5
89
330
1F
100
AcDbEntity
  8
1
  6
CONTINUOUS
 62
     7
100
AcDbLine
 10
602.499994999992
 20
748.9433348013531
 30
0.0
 11
605.499994999992
 21
748.9433348013531
 31
0.0
  0
LINE
  5
8A
330
1F
100
AcDbEntity
  8
1
  6
CONTINUOUS
 62
     7
100
AcDbLine
 10
605.4999949999922
 20
748.4433348013531
 30
0.0
 11
602.4999949999922
 21
748.4433348013531
 31
0.0
  0
LINE
  5
8B
330
1F
100
AcDbEntity
  8
1
  6
CONTINUOUS
 62
     7
100
AcDbLine
 10
624.499994999992
 20
726.4433348013531
 30
0.0
 11
624.499994999992
 21
726.3790986802741
 31
0.0
  0
LINE
  5
8C
330
1F
100
AcDbEntity
  8
1
  6
CONTINUOUS
 62
     7
100
AcDbLine
 10
643.499994999992
 20
613.4495174287074
 30
0.0
 11
643.499994999992
 21
622.1097714665517
 31
0.0
  0
LINE
  5
8D
330
1F
100
AcDbEntity
  8
1
  6
CONTINUOUS
 62
     7
100
AcDbLine
 10
641.6799675276387
 20
622.0235349434014
 30
0.0
 11
643.4999949999917
 21
622.1097714665517
 31
0.0
  0
LINE
  5
8E
330
1F
100
AcDbEntity
  8
1
  6
CONTINUOUS
 62
     7
100
AcDbLine
 10
625.4474361668688
 20
614.242649319873
 30
0.0
 11
625.4999949999923
 21
614.240331082424
 31
0.0
  0
LINE
  5
8F
330
1F
100
AcDbEntity
  8
1
  6
CONTINUOUS
 62
     7
100
AcDbLine
 10
624.499994999992
 20
726.3790986802741
 30
0.0
 11
625.4474361668694
 21
726.3301332583427
 31
0.0
  0
LINE
  5
90
330
1F
100
AcDbEntity
  8
1
  6
CONTINUOUS
 62
     7
100
AcDbLine
 10
641.6799675276723
 20
726.2772738154541
 30
0.0
 11
625.4474361668687
 21
726.3301332583427
 31
0.0
  0
LINE
  5
91
330
1F
100
AcDbEntity
  8
1
  6
CONTINUOUS
 62
     7
100
AcDbLine
 10
643.4999949999926
 20
726.2707155088003
 30
0.0
 11
641.6799675276723
 21
726.2772738154541
 31
0.0
  0
LINE
  5
92
330
1F
100
AcDbEntity
  8
1
  6
CONTINUOUS
 62
     7
100
AcDbLine
 10
643.499994999992
 20
726.2707155088004
 30
0.0
 11
643.499994999992
 21
726.4433348013532
 31
0.0
  0
LINE
  5
93
330
1F
100
AcDbEntity
  8
1
  6
CONTINUOUS
 62
     7
100
AcDbLine
 10
658.499994999992
 20
723.4433348013531
 30
0.0
 11
658.499994999992
 21
584.4433348013531
 31
0.0
  0
LINE
  5
94
330
1F
100
AcDbEntity
  8
1
  6
CONTINUOUS
 62
     7
100
AcDbLine
 10
625.4474361668698
 20
614.4930430019027
 30
0.0
 11
625.4999949999924
 21
614.4907253037186
 31
0.0
  0
LINE
  5
95
330
1F
100
AcDbEntity
  8
1
  6
CONTINUOUS
 62
     7
100
AcDbLine
 10
625.9737155834318
 20
619.5293409687927
 30
0.0
 11
628.7997202767913
 21
619.6622199500127
 31
0.0
  0
LINE
  5
96
330
1F
100
AcDbEntity
  8
1
  6
CONTINUOUS
 62
     7
100
AcDbLine
 10
630.0359653523291
 20
619.8071040437062
 30
0.0
 11
628.7997202767908
 21
619.6622199500127
 31
0.0
  0
LINE
  5
97
330
1F
100
AcDbEntity
  8
1
  6
CONTINUOUS
 62
     7
100
AcDbLine
 10
641.6799675276478
 20
622.0235349433983
 30
0.0
 11
630.0359653523291
 21
619.8071040437062
 31
0.0
  0
LINE
  5
98
330
1F
100
AcDbEntity
  8
1
  6
CONTINUOUS
 62
     7
100
AcDbLine
 10
630.1733259162777
 20
612.1274170164294
 30
0.0
 11
628.7997202767908
 21
612.0916664087954
 31
0.0
  0
LINE
  5
99
330
1F
100
AcDbEntity
  8
1
  6
CONTINUOUS
 62
     7
100
AcDbLine
 10
625.9737155834326
 20
612.2164342957707
 30
0.0
 11
628.7997202767913
 21
612.0916664087953
 31
0.0
  0
LWPOLYLINE
  5
9A
330
1F
100
AcDbEntity
  8
1
  6
CONTINUOUS
 62
     7
100
AcDbPolyline
 90
       37
 70
     0
 43
0.0
 10
625.4999949999922
 20
612.636340545976
 10
625.5004290494883
 20
612.6188248423357
 10
625.5017282076636
 20
612.6013273555653
 10
625.5038879890487
 20
612.583893224433
 10
625.5069039081742
 20
612.5665675877076
 10
625.5109011767288
 20
612.5488684618658
 10
625.5157986516084
 20
612.531316209024
 10
625.5215817410764
 20
612.5139585402196
 10
625.5282358533963
 20
612.4968431664901
 10
625.5355335887858
 20
612.4804582635459
 10
625.5436418752739
 20
612.4643309692465
 10
625.5525387800492
 20
612.4485025149045
 10
625.562202370301
 20
612.4330141318325
 10
625.5729408884423
 20
612.4174459517711
 10
625.5844727982633
 20
612.4022661550986
 10
625.5967655321066
 20
612.387515652301
 10
625.6097865223147
 20
612.3732353538642
 10
625.6231230937298
 20
612.3598276317477
 10
625.6371241542181
 20
612.3468873263836
 10
625.6517527130322
 20
612.334447209572
 10
625.6669717794247
 20
612.3225400531129
 10
625.6832383276006
 20
612.3108554078609
 10
625.7001015507692
 20
612.2997567039292
 10
625.7175144531918
 20
612.2892734978878
 10
625.73543003913
 20
612.279435346307
 10
625.753285558975
 20
612.2705137357327
 10
625.7715837382298
 20
612.2622158954206
 10
625.7902766950846
 20
612.2545624401411
 10
625.809316547729
 20
612.2475739846643
 10
625.8292565129993
 20
612.2410849639076
 10
625.849528130962
 20
612.235312561088
 10
625.8700753485097
 20
612.23027159699
 10
625.8908421125357
 20
612.2259768923985
 10
625.9113543790138
 20
612.2225033389136
 10
625.9320404469947
 20
612.2197508723425
 10
625.95284571547
 20
612.2177257666425
 10
625.973715583431
 20
612.2164342957708
  0
LINE
  5
9B
330
1F
100
AcDbEntity
  8
1
  6
CONTINUOUS
 62
     7
100
AcDbLine
 10
625.4999949999922
 20
612.636340545976
 30
0.0
 11
625.4999949999922
 21
618.8340605740448
 31
0.0
  0
LINE
  5
9C
330
1F
100
AcDbEntity
  8
1
  6
CONTINUOUS
 62
     7
100
AcDbLine
 10
625.4999949999922
 20
618.8340605740447
 30
0.0
 11
625.4999949999922
 21
619.0843363114562
 31
0.0
  0
LWPOLYLINE
  5
9D
330
1F
100
AcDbEntity
  8
1
  6
CONTINUOUS
 62
     7
100
AcDbPolyline
 90
       37
 70
     0
 43
0.0
 10
-625.4999949999922
 20
619.0843363114562
 10
-625.5004240351277
 20
619.1027600524458
 10
-625.5017133348683
 20
619.1211863873975
 10
-625.5038740875628
 20
619.139647396517
 10
-625.5069040878443
 20
619.1580468391917
 10
-625.5108813480208
 20
619.1766832682563
 10
-625.5157567039087
 20
619.1951883219867
 10
-625.5215490872658
 20
619.2135945954878
 10
-625.5282365849812
 20
619.2317988704035
 10
-625.5355030368469
 20
619.2490774095604
 10
-625.543581432011
 20
619.2661048118471
 10
-625.5524943724687
 20
619.2829079777383
 10
-625.5622040115371
 20
619.2993964617614
 10
-625.5728953747627
 20
619.3158294061152
 10
-625.5843848531669
 20
619.3318728725184
 10
-625.5967025962366
 20
619.3475519755789
 10
-625.6097895257515
 20
619.3627754120016
 10
-625.6230719829848
 20
619.376946531137
 10
-625.6370264082047
 20
619.3906402707088
 10
-625.6516842606359
 20
619.4038752911196
 10
-625.6669761945935
 20
619.4165771792642
 10
-625.6831736353463
 20
619.428936192574
 10
-625.699978794241
 20
619.4406907492987
 10
-625.7174296062411
 20
619.4518556291835
 10
-625.7354362954212
 20
619.4623619087123
 10
-625.7532208391564
 20
619.4718081633299
 10
-625.7714607498039
 20
619.4806051125584
 10
-625.7903474820689
 20
619.4888247414165
 10
-625.8096051545491
 20
619.4963299617551
 10
-625.8293416557503
 20
619.5031525438964
 10
-625.8493845572403
 20
619.5092242956201
 10
-625.8699779215125
 20
619.5146009619106
 10
-625.8908501291634
 20
619.519191990847
 10
-625.9112787385013
 20
619.5228744471203
 10
-625.9318979952806
 20
619.5257981913919
 10
-625.9527464617676
 20
619.527960260318
 10
-625.9737155834309
 20
619.5293409687928
210
0.0
220
0.0
230
-1.0
  0
LINE
  5
9E
330
1F
100
AcDbEntity
  8
1
  6
CONTINUOUS
 62
     7
100
AcDbLine
 10
643.499994999992
 20
613.4495174287073
 30
0.0
 11
630.1733259162777
 21
612.1274170164294
 31
0.0
  0
LINE
  5
9F
330
1F
100
AcDbEntity
  8
1
  6
CONTINUOUS
 62
     7
100
AcDbLine
 10
630.0359653523291
 20
729.648661753209
 30
0.0
 11
641.6799675276719
 21
726.2772738154541
 31
0.0
  0
LINE
  5
A0
330
1F
100
AcDbEntity
  8
1
  6
CONTINUOUS
 62
     7
100
AcDbLine
 10
628.7997202767908
 20
729.8257331363096
 30
0.0
 11
630.0359653523291
 21
729.648661753209
 31
0.0
  0
LINE
  5
A1
330
1F
100
AcDbEntity
  8
1
  6
CONTINUOUS
 62
     7
100
AcDbLine
 10
628.7997202767915
 20
729.8257331363096
 30
0.0
 11
625.9737155834317
 21
729.8338709034166
 31
0.0
  0
LINE
  5
A2
330
1F
100
AcDbEntity
  8
1
  6
CONTINUOUS
 62
     7
100
AcDbLine
 10
625.9737155834316
 20
729.8338709034167
 30
0.0
 11
625.499994999992
 21
729.8590518092158
 31
0.0
  0
LINE
  5
A3
330
1F
100
AcDbEntity
  8
1
  6
CONTINUOUS
 62
     7
100
AcDbLine
 10
625.499994999992
 20
730.3596032840387
 30
0.0
 11
625.499994999992
 21
730.4433348013531
 31
0.0
  0
LINE
  5
A4
330
1F
100
AcDbEntity
  8
1
  6
CONTINUOUS
 62
     7
100
AcDbLine
 10
625.499994999992
 20
729.8590518092158
 30
0.0
 11
625.499994999992
 21
730.3596032840387
 31
0.0
  0
LINE
  5
A5
330
1F
100
AcDbEntity
  8
1
  6
CONTINUOUS
 62
     7
100
AcDbLine
 10
593.1714366768296
 20
528.1025078729426
 30
0.0
 11
593.0685817445409
 21
528.1874130726642
 31
0.0
  0
LINE
  5
A6
330
1F
100
AcDbEntity
  8
1
  6
CONTINUOUS
 62
     7
100
AcDbLine
 10
593.0685817445409
 20
528.1874130726642
 30
0.0
 11
593.0678530041824
 21
528.1865445937239
 31
0.0
  0
LINE
  5
A7
330
1F
100
AcDbEntity
  8
1
  6
CONTINUOUS
 62
     7
100
AcDbLine
 10
593.0678530041823
 20
528.1865445937239
 30
0.0
 11
592.4044390560133
 21
528.7432149929502
 31
0.0
  0
LINE
  5
A8
330
1F
100
AcDbEntity
  8
1
  6
CONTINUOUS
 62
     7
100
AcDbLine
 10
604.9658457630779
 20
543.7133165641314
 30
0.0
 11
605.0591980357669
 21
543.6793391155716
 31
0.0
  0
LWPOLYLINE
  5
A9
330
1F
100
AcDbEntity
  8
1
  6
CONTINUOUS
 62
     7
100
AcDbPolyline
 90
       58
 70
     0
 43
0.0
 10
-605.6415286444128
 20
542.9637847752902
 10
-605.6387784163184
 20
542.9629774519046
 10
-605.6343894922513
 20
542.9617283550489
 10
-605.6284627235449
 20
542.9601169289751
 10
-605.6210989615319
 20
542.9582226179364
 10
-605.6087519674243
 20
542.9553080849591
 10
-605.5941438504473
 20
542.9522810940213
 10
-605.5775623353941
 20
542.9493881357315
 10
-605.558174797657
 20
542.9467384954104
 10
-605.5370570108498
 20
542.9447235629304
 10
-605.5144133744712
 20
542.9435503702608
 10
-605.4904482880206
 20
542.9434259493706
 10
-605.464568627915
 20
542.9445949143126
 10
-605.437545686142
 20
542.9472559769908
 10
-605.4095453349488
 20
542.9515871360745
 10
-605.380733446582
 20
542.9577663902323
 10
-605.3556550968833
 20
542.9646225103721
 10
-605.3301539559587
 20
542.973065128685
 10
-605.3043613477496
 20
542.9831962633992
 10
-605.2844445230464
 20
542.9921841183607
 10
-605.2644569912694
 20
543.0022904892729
 10
-605.2444848889393
 20
543.0135515312567
 10
-605.224614352577
 20
543.0260033994322
 10
-605.2044640844556
 20
543.0400232481035
 10
-605.1845665713771
 20
543.055386771136
 10
-605.1650499136815
 20
543.0721046986454
 10
-605.1503499537936
 20
543.085918566818
 10
-605.1359746327853
 20
543.1005729395415
 10
-605.1219961117421
 20
543.1160506632519
 10
-605.1084865517487
 20
543.1323345843855
 10
-605.0957951154154
 20
543.1490228200056
 10
-605.0836417115045
 20
543.1664868461648
 10
-605.0720980716535
 20
543.1846818664089
 10
-605.0612359275004
 20
543.203563084284
 10
-605.0507173168278
 20
543.2239149045902
 10
-605.0410327630391
 20
543.2449772022733
 10
-605.0322512374872
 20
543.266667510093
 10
-605.0244417115255
 20
543.2889033608091
 10
-605.0187618334543
 20
543.3076424619786
 10
-605.0137900493098
 20
543.3267123741454
 10
-605.0095516155749
 20
543.3460565035118
 10
-605.0060717887316
 20
543.3656182562805
 10
-605.0032953183057
 20
543.3860021673001
 10
-605.0013527127727
 20
543.4065704778245
 10
-605.0002558952463
 20
543.4272587642763
 10
-605.0000167888398
 20
543.448002603078
 10
-605.0005767342371
 20
543.4674128221111
 10
-605.0018935087529
 20
543.4868317183052
 10
-605.0039655707368
 20
543.5062089880649
 10
-605.0067913785387
 20
543.5254943277948
 10
-605.0104810422046
 20
543.5451897390873
 10
-605.0149638636499
 20
543.5647508277548
 10
-605.0202285300908
 20
543.5841271271761
 10
-605.0262637287425
 20
543.6032681707296
 10
-605.0332777676888
 20
543.6227082379062
 10
-605.0410907576777
 20
543.6418465047509
 10
-605.0497535586086
 20
543.6607800783188
 10
-605.0591980357668
 20
543.6793391155717
210
0.0
220
0.0
230
-1.0
  0
ARC
  5
AA
330
1F
100
AcDbEntity
  8
1
  6
CONTINUOUS
 62
     7
100
AcDbCircle
 10
603.9999949999922
 20
549.9433348013531
 30
0.0
 40
3.000000000000003
100
AcDbArc
 50
90.0
 51
180.0
  0
LINE
  5
AB
330
1F
100
AcDbEntity
  8
1
  6
CONTINUOUS
 62
     7
100
AcDbLine
 10
603.9999949999922
 20
552.9433348013531
 30
0.0
 11
604.9999949999922
 21
552.9433348013531
 31
0.0
  0
ARC
  5
AC
330
1F
100
AcDbEntity
  8
1
  6
CONTINUOUS
 62
     7
100
AcDbCircle
 10
601.4999949999922
 20
545.613289741789
 30
0.0
 40
0.5000000000000004
100
AcDbArc
 50
180.0
 51
250.0000000000003
  0
LINE
  5
AD
330
1F
100
AcDbEntity
  8
1
  6
CONTINUOUS
 62
     7
100
AcDbLine
 10
601.3289849283293
 20
545.1434434313961
 30
0.0
 11
604.9999949999922
 21
543.8073050356194
 31
0.0
  0
LINE
  5
AE
330
1F
100
AcDbEntity
  8
1
  6
CONTINUOUS
 62
     7
100
AcDbLine
 10
600.9999949999922
 20
549.9433348013531
 30
0.0
 11
600.9999949999922
 21
545.613289741789
 31
0.0
  0
LINE
  5
AF
330
1F
100
AcDbEntity
  8
1
  6
CONTINUOUS
 62
     7
100
AcDbLine
 10
592.4044390560133
 20
528.7432149929502
 30
0.0
 11
591.6121539200234
 21
529.4080211583467
 31
0.0
  0
ARC
  5
B0
330
1F
100
AcDbEntity
  8
1
  6
CONTINUOUS
 62
     7
100
AcDbCircle
 10
593.540516749083
 20
531.7061544877037
 30
0.0
 40
3.000000000000023
100
AcDbArc
 50
140.0
 51
230.0000000000001
  0
LINE
  5
B1
330
1F
100
AcDbEntity
  8
1
  6
CONTINUOUS
 62
     7
100
AcDbLine
 10
591.242383419726
 20
533.6345173167632
 30
0.0
 11
600.7065486064417
 21
544.9134701789368
 31
0.0
  0
LINE
  5
B2
330
1F
100
AcDbEntity
  8
1
  6
CONTINUOUS
 62
     7
100
AcDbLine
 10
601.2605808996642
 20
545.0619226844865
 30
0.0
 11
604.9658457630779
 21
543.7133165641314
 31
0.0
  0
ARC
  5
B3
330
1F
100
AcDbEntity
  8
1
  6
CONTINUOUS
 62
     7
100
AcDbCircle
 10
601.0895708280012
 20
544.5920763740935
 30
0.0
 40
0.5000000000000931
100
AcDbArc
 50
70.00000000000044
 51
140.0000000000002
  0
LINE
  5
B4
330
1F
100
AcDbEntity
  8
1
  6
CONTINUOUS
 62
     7
100
AcDbLine
 10
604.9999949999922
 20
552.9433348013531
 30
0.0
 11
605.9999949999922
 21
552.9433348013531
 31
0.0
  0
LINE
  5
B5
330
1F
100
AcDbEntity
  8
1
  6
CONTINUOUS
 62
     7
100
AcDbLine
 10
605.9999949999922
 20
552.9433348013531
 30
0.0
 11
605.9999949999922
 21
543.7540140399083
 31
0.0
  0
LWPOLYLINE
  5
B6
330
1F
100
AcDbEntity
  8
1
  6
CONTINUOUS
 62
     7
100
AcDbPolyline
 90
       37
 70
     0
 43
0.0
 10
-605.1169727784327
 20
543.7647286061964
 10
-605.132892123938
 20
543.7827812883585
 10
-605.1496865427983
 20
543.8000619994694
 10
-605.1672761973167
 20
543.8165110934765
 10
-605.1855812497961
 20
543.8320689243259
 10
-605.2045218625397
 20
543.8466758459646
 10
-605.2240181978506
 20
543.8602722123392
 10
-605.2402446909267
 20
543.8705675741022
 10
-605.2568008299842
 20
543.8802022272923
 10
-605.2736336267407
 20
543.8891582936538
 10
-605.2906900929139
 20
543.8974178949308
 10
-605.3084608252246
 20
543.9051926466524
 10
-605.3264167229319
 20
543.9122346103604
 10
-605.3444991967057
 20
543.9185390235758
 10
-605.362649657216
 20
543.9241011238194
 10
-605.3862915975272
 20
543.9302239751318
 10
-605.4099785254426
 20
543.9351375704873
 10
-605.4336085813994
 20
543.9388731861193
 10
-605.4570799058343
 20
543.9414620982616
 10
-605.4802906391848
 20
543.9429355831475
 10
-605.5031389218871
 20
543.9433249170106
 10
-605.5276569103518
 20
543.9425639183763
 10
-605.55174204368
 20
543.9406362788208
 10
-605.5753317818992
 20
543.9376088384573
 10
-605.5983635850375
 20
543.9335484373995
 10
-605.6207749131223
 20
543.9285219157609
 10
-605.6425032261812
 20
543.9225961136549
 10
-605.6671405647046
 20
543.9145689649527
 10
-605.690887158564
 20
543.9054589537225
 10
-605.7137099396015
 20
543.8953580524992
 10
-605.7355758396595
 20
543.8843582338176
 10
-605.7640215985657
 20
543.8679404773696
 10
-605.7907322105775
 20
543.8501170053796
 10
-605.8156912535503
 20
543.8310665069041
 10
-605.8434552799594
 20
543.8067018750872
 10
-605.868804589393
 20
543.7809438369663
 10
-605.8917582074668
 20
543.7540140399083
210
0.0
220
0.0
230
-1.0
  0
LINE
  5
B7
330
1F
100
AcDbEntity
  8
1
  6
CONTINUOUS
 62
     7
100
AcDbLine
 10
605.1169727784327
 20
543.7647286061964
 30
0.0
 11
604.9999949999923
 21
543.8073050356194
 31
0.0
  0
LINE
  5
B8
330
1F
100
AcDbEntity
  8
1
  6
CONTINUOUS
 62
     7
100
AcDbLine
 10
605.8917582074668
 20
543.7540140399083
 30
0.0
 11
605.9832065820276
 21
543.5718126865582
 31
0.0
  0
LINE
  5
B9
330
1F
100
AcDbEntity
  8
1
  6
CONTINUOUS
 62
     7
100
AcDbLine
 10
605.7655743495618
 20
543.1097270427683
 30
0.0
 11
605.643641831368
 21
542.9644135261567
 31
0.0
  0
LINE
  5
BA
330
1F
100
AcDbEntity
  8
1
  6
CONTINUOUS
 62
     7
100
AcDbLine
 10
593.1714366768296
 20
528.1025078729426
 30
0.0
 11
595.9489863476427
 21
526.0660574676284
 31
0.0
  0
LINE
  5
BB
330
1F
100
AcDbEntity
  8
1
  6
CONTINUOUS
 62
     7
100
AcDbLine
 10
605.643641831368
 20
542.9644135261567
 30
0.0
 11
605.6415286444129
 21
542.9637847752902
 31
0.0
  0
LINE
  5
BC
330
1F
100
AcDbEntity
  8
1
  6
CONTINUOUS
 62
     7
100
AcDbLine
 10
605.9999949999922
 20
543.7540140399083
 30
0.0
 11
605.9999949999922
 21
543.7112839937841
 31
0.0
  0
LWPOLYLINE
  5
BD
330
1F
100
AcDbEntity
  8
1
  6
CONTINUOUS
 62
     7
100
AcDbPolyline
 90
        4
 70
     0
 43
0.0
 10
605.7655743495618
 20
543.1097270427684
 10
605.864333843754
 20
543.2503650187672
 10
605.9376174107971
 20
543.405847781465
 10
605.983265056577
 20
543.5715925592276
  0
LINE
  5
BE
330
1F
100
AcDbEntity
  8
1
  6
CONTINUOUS
 62
     7
100
AcDbLine
 10
605.9832065820276
 20
543.5718126865582
 30
0.0
 11
605.9832650565613
 21
543.5715925592305
 31
0.0
  0
ARC
  5
BF
330
1F
100
AcDbEntity
  8
1
  6
CONTINUOUS
 62
     7
100
AcDbCircle
 10
604.9999949999922
 20
543.7112839937841
 30
0.0
 40
1.000000000000001
100
AcDbArc
 50
351.9991255017311
 51
0.0
  0
ARC
  5
C0
330
1F
100
AcDbEntity
  8
1
  6
CONTINUOUS
 62
     7
100
AcDbCircle
 10
604.9999949999922
 20
543.7112839937841
 30
0.0
 40
1.000000000000024
100
AcDbArc
 50
330.0
 51
351.9991255017311
  0
LINE
  5
C1
330
1F
100
AcDbEntity
  8
1
  6
CONTINUOUS
 62
     7
100
AcDbLine
 10
605.8660204037766
 20
543.2112839937843
 30
0.0
 11
595.9617966245587
 21
526.056665198647
 31
0.0
  0
LINE
  5
C2
330
1F
100
AcDbEntity
  8
1
  6
CONTINUOUS
 62
     7
100
AcDbLine
 10
595.9617966245586
 20
526.056665198647
 30
0.0
 11
595.956661742968
 21
526.0590596332564
 31
0.0
  0
LINE
  5
C3
330
1F
100
AcDbEntity
  8
1
  6
CONTINUOUS
 62
     7
100
AcDbLine
 10
595.9563319334022
 20
526.0608234123841
 30
0.0
 11
595.9489863476426
 21
526.0660574676283
 31
0.0
  0
ARC
  5
C4
330
1F
100
AcDbEntity
  8
1
  6
CONTINUOUS
 62
     7
100
AcDbCircle
 10
601.4999949999922
 20
554.4433348013531
 30
0.0
 40
0.4999999999999449
100
AcDbArc
 50
262.577207581754
 51
270.0
  0
ARC
  5
C5
330
1F
100
AcDbEntity
  8
1
  6
CONTINUOUS
 62
     7
100
AcDbCircle
 10
604.9999949999922
 20
552.9433348013531
 30
0.0
 40
0.4999999999999449
100
AcDbArc
 50
0.0
 51
90.0
  0
LINE
  5
C6
330
1F
100
AcDbEntity
  8
1
  6
CONTINUOUS
 62
     7
100
AcDbLine
 10
604.9999949999922
 20
553.9433348013531
 30
0.0
 11
601.4999949999922
 21
553.9433348013531
 31
0.0
  0
LINE
  5
C7
330
1F
100
AcDbEntity
  8
1
  6
CONTINUOUS
 62
     7
100
AcDbLine
 10
604.9999949999922
 20
553.4433348013531
 30
0.0
 11
601.4999949999922
 21
553.4433348013531
 31
0.0
  0
ARC
  5
C8
330
1F
100
AcDbEntity
  8
1
  6
CONTINUOUS
 62
     7
100
AcDbCircle
 10
601.4999949999922
 20
554.4433348013531
 30
0.0
 40
1.000000000000003
100
AcDbArc
 50
228.5903778907316
 51
270.0000000000001
  0
ARC
  5
C9
330
1F
100
AcDbEntity
  8
1
  6
CONTINUOUS
 62
     7
100
AcDbCircle
 10
604.9999949999922
 20
552.9433348013531
 30
0.0
 40
1.000000000000001
100
AcDbArc
 50
0.0
 51
90.0
  0
LINE
  5
CA
330
1F
100
AcDbEntity
  8
1
  6
CONTINUOUS
 62
     7
100
AcDbLine
 10
595.9563885404788
 20
526.0607806782516
 30
0.0
 11
595.9566617429683
 21
526.0590596332567
 31
0.0
  0
LINE
  5
CB
330
1F
100
AcDbEntity
  8
1
  6
CONTINUOUS
 62
     7
100
AcDbLine
 10
595.8685150182362
 20
526.1001631260401
 30
0.0
 11
595.9566617429681
 21
526.0590596332564
 31
0.0
  0
LINE
  5
CC
330
1F
100
AcDbEntity
  8
1
  6
CONTINUOUS
 62
     7
100
AcDbLine
 10
595.8685150182362
 20
526.1001631260401
 30
0.0
 11
595.5069117567849
 21
526.2687814960686
 31
0.0
  0
LINE
  5
CD
330
1F
100
AcDbEntity
  8
1
  6
CONTINUOUS
 62
     7
100
AcDbLine
 10
595.5069117567849
 20
526.2687814960686
 30
0.0
 11
595.5561554804717
 21
526.3540741274479
 31
0.0
  0
ARC
  5
CE
330
1F
100
AcDbEntity
  8
1
  6
CONTINUOUS
 62
     7
100
AcDbCircle
 10
600.9999949999922
 20
753.143334801353
 30
0.0
 40
0.5000000000000004
100
AcDbArc
 50
359.9999999999936
 51
90.00000000000006
  0
LINE
  5
CF
330
1F
100
AcDbEntity
  8
1
  6
CONTINUOUS
 62
     7
100
AcDbLine
 10
601.4999949999922
 20
554.1933348013531
 30
0.0
 11
601.4999949999922
 21
753.1433348013529
 31
0.0
  0
ARC
  5
D0
330
1F
100
AcDbEntity
  8
1
  6
CONTINUOUS
 62
     7
100
AcDbCircle
 10
600.9999949999922
 20
554.1933348013531
 30
0.0
 40
0.500000000000056
100
AcDbArc
 50
269.9999999999968
 51
0.0
  0
LINE
  5
D1
330
1F
100
AcDbEntity
  8
1
  6
CONTINUOUS
 62
     7
100
AcDbLine
 10
522.499994999992
 20
553.6933348013531
 30
0.0
 11
600.999994999992
 21
553.6933348013531
 31
0.0
  0
LINE
  5
D2
330
1F
100
AcDbEntity
  8
1
  6
CONTINUOUS
 62
     7
100
AcDbLine
 10
521.499994999992
 20
553.6933348013531
 30
0.0
 11
521.499994999992
 21
753.193334801353
 31
0.0
  0
LINE
  5
D3
330
1F
100
AcDbEntity
  8
1
  6
CONTINUOUS
 62
     7
100
AcDbLine
 10
521.6069664450175
 20
753.643334801353
 30
0.0
 11
521.499994999992
 21
753.1933348013531
 31
0.0
  0
LINE
  5
D4
330
1F
100
AcDbEntity
  8
1
  6
CONTINUOUS
 62
     7
100
AcDbLine
 10
522.499994999992
 20
553.6933348013531
 30
0.0
 11
521.499994999992
 21
553.6933348013531
 31
0.0
  0
LINE
  5
D5
330
1F
100
AcDbEntity
  8
1
  6
CONTINUOUS
 62
     7
100
AcDbLine
 10
600.9999949999922
 20
754.1933348013531
 30
0.0
 11
596.499994999992
 21
754.1933348013531
 31
0.0
  0
LINE
  5
D6
330
1F
100
AcDbEntity
  8
1
  6
CONTINUOUS
 62
     7
100
AcDbLine
 10
601.4999949999922
 20
754.193334801353
 30
0.0
 11
601.4999949999922
 21
753.693334801353
 31
0.0
  0
LINE
  5
D7
330
1F
100
AcDbEntity
  8
1
  6
CONTINUOUS
 62
     7
100
AcDbLine
 10
601.4999949999922
 20
753.693334801353
 30
0.0
 11
600.9999949999922
 21
753.693334801353
 31
0.0
  0
LINE
  5
D8
330
1F
100
AcDbEntity
  8
1
  6
CONTINUOUS
 62
     7
100
AcDbLine
 10
600.9999949999922
 20
754.193334801353
 30
0.0
 11
601.4999949999922
 21
754.193334801353
 31
0.0
  0
ARC
  5
D9
330
1F
100
AcDbEntity
  8
1
  6
CONTINUOUS
 62
     7
100
AcDbCircle
 10
522.499994999992
 20
753.1933348013531
 30
0.0
 40
0.9999999999999252
100
AcDbArc
 50
90.0
 51
153.2563160495948
  0
LINE
  5
DA
330
1F
100
AcDbEntity
  8
1
  6
CONTINUOUS
 62
     7
100
AcDbLine
 10
522.499994999992
 20
754.193334801353
 30
0.0
 11
596.499994999992
 21
754.1933348013531
 31
0.0
  0
LINE
  5
DB
330
1F
100
AcDbEntity
  8
1
  6
CONTINUOUS
 62
     7
100
AcDbLine
 10
624.4999949999919
 20
726.4433348013531
 30
0.0
 11
605.9999949999922
 21
726.4433348013531
 31
0.0
  0
LINE
  5
DC
330
1F
100
AcDbEntity
  8
1
  6
CONTINUOUS
 62
     7
100
AcDbLine
 10
655.4999949999919
 20
726.4433348013531
 30
0.0
 11
643.4999949999919
 21
726.4433348013531
 31
0.0
  0
LINE
  5
DD
330
1F
100
AcDbEntity
  8
1
  6
CONTINUOUS
 62
     7
100
AcDbLine
 10
605.9999949999922
 20
581.4433348013531
 30
0.0
 11
655.4999949999919
 21
581.4433348013531
 31
0.0
  0
ARC
  5
DE
330
1F
100
AcDbEntity
  8
1
  6
CONTINUOUS
 62
     7
100
AcDbCircle
 10
655.499994999992
 20
723.4433348013531
 30
0.0
 40
3.000000000000003
100
AcDbArc
 50
0.000000000000265
 51
90.0
  0
ARC
  5
DF
330
1F
100
AcDbEntity
  8
1
  6
CONTINUOUS
 62
     7
100
AcDbCircle
 10
655.499994999992
 20
584.4433348013531
 30
0.0
 40
3.000000000000003
100
AcDbArc
 50
270.0
 51
359.9999999999997
  0
LINE
  5
E0
330
1F
100
AcDbEntity
  8
1
  6
CONTINUOUS
 62
     7
100
AcDbLine
 10
643.499994999992
 20
726.4433348013531
 30
0.0
 11
630.1733259162777
 21
730.2509545395573
 31
0.0
  0
ARC
  5
E1
330
1F
100
AcDbEntity
  8
1
  6
CONTINUOUS
 62
     7
100
AcDbCircle
 10
628.7997202767908
 20
725.4433348013531
 30
0.0
 40
4.999999999999969
100
AcDbArc
 50
74.05460409907701
 51
90.00000000000009
  0
LINE
  5
E2
330
1F
100
AcDbEntity
  8
1
  6
CONTINUOUS
 62
     7
100
AcDbLine
 10
628.7997202767908
 20
730.4433348013531
 30
0.0
 11
625.499994999992
 21
730.4433348013531
 31
0.0
  0
LINE
  5
E3
330
1F
100
AcDbEntity
  8
1
  6
CONTINUOUS
 62
     7
100
AcDbLine
 10
335.9999999999999
 20
426.8839795962236
 30
0.0
 11
335.9999999999999
 21
427.750005000008
 31
0.0
  0
LWPOLYLINE
  5
E4
330
1F
100
AcDbEntity
  8
1
  6
CONTINUOUS
 62
     7
100
AcDbPolyline
 90
        9
 70
     0
 43
0.0
 10
337.4999999999999
 20
428.500005000008
 10
337.2073645169758
 20
428.4855939603104
 10
336.9259748514523
 20
428.4429146493915
 10
336.6666446504705
 20
428.3736072092349
 10
336.4393398282201
 20
428.2803350858979
 10
336.2527955815461
 20
428.1666826747727
 10
336.114180701233
 20
428.0370175742818
 10
336.0288220793951
 20
427.8963227415201
 10
335.9999999999999
 20
427.750005000008
  0
LINE
  5
E5
330
1F
100
AcDbEntity
  8
1
  6
CONTINUOUS
 62
     7
100
AcDbLine
 10
354.0
 20
427.750005000008
 30
0.0
 11
354.0
 21
426.8839795962236
 31
0.0
  0
LWPOLYLINE
  5
E6
330
1F
100
AcDbEntity
  8
1
  6
CONTINUOUS
 62
     7
100
AcDbPolyline
 90
        9
 70
     0
 43
0.0
 10
354.0
 20
427.750005000008
 10
353.9711779206049
 20
427.8963227415201
 10
353.8858192987669
 20
428.0370175742818
 10
353.7472044184538
 20
428.1666826747727
 10
353.5606601717798
 20
428.2803350858979
 10
353.3333553495294
 20
428.3736072092349
 10
353.0740251485477
 20
428.4429146493915
 10
352.7926354830242
 20
428.4855939603104
 10
352.5
 20
428.5000050000081
  0
LINE
  5
E7
330
1F
100
AcDbEntity
  8
1
  6
CONTINUOUS
 62
     7
100
AcDbLine
 10
354.0
 20
426.8839795962236
 30
0.0
 11
354.0
 21
426.7113298654132
 31
0.0
  0
LINE
  5
E8
330
1F
100
AcDbEntity
  8
1
  6
CONTINUOUS
 62
     7
100
AcDbLine
 10
335.9999999999999
 20
426.8839795962236
 30
0.0
 11
335.9999999999999
 21
426.7113298654132
 31
0.0
  0
LINE
  5
E9
330
1F
100
AcDbEntity
  8
1
  6
CONTINUOUS
 62
     7
100
AcDbLine
 10
337.4999999999999
 20
428.5000050000081
 30
0.0
 11
352.5
 21
428.5000050000081
 31
0.0
  0
LINE
  5
EA
330
1F
100
AcDbEntity
  8
1
  6
CONTINUOUS
 62
     7
100
AcDbLine
 10
335.9999999999999
 20
426.7113298654132
 30
0.0
 11
335.9999999999999
 21
425.8453044616287
 31
0.0
  0
LINE
  5
EB
330
1F
100
AcDbEntity
  8
1
  6
CONTINUOUS
 62
     7
100
AcDbLine
 10
354.0
 20
425.8453044616287
 30
0.0
 11
354.0
 21
426.7113298654132
 31
0.0
  0
ARC
  5
EC
330
1F
100
AcDbEntity
  8
1
  6
CONTINUOUS
 62
     7
100
AcDbCircle
 10
350.4999999999999
 20
418.5000050000079
 30
0.0
 40
1.000000000000001
100
AcDbArc
 50
70.87366785108662
 51
90.0
  0
LINE
  5
ED
330
1F
100
AcDbEntity
  8
1
  6
CONTINUOUS
 62
     7
100
AcDbLine
 10
346.9999999999999
 20
421.2125463911903
 30
0.0
 11
346.9999999999999
 21
419.5000050000079
 31
0.0
  0
LINE
  5
EE
330
1F
100
AcDbEntity
  8
1
  6
CONTINUOUS
 62
     7
100
AcDbLine
 10
342.9999999999999
 20
419.5000050000079
 30
0.0
 11
342.9999999999999
 21
421.2125463911903
 31
0.0
  0
LINE
  5
EF
330
1F
100
AcDbEntity
  8
1
  6
CONTINUOUS
 62
     7
100
AcDbLine
 10
339.4999999999999
 20
419.5000050000079
 30
0.0
 11
342.9999999999999
 21
419.5000050000079
 31
0.0
  0
ARC
  5
F0
330
1F
100
AcDbEntity
  8
1
  6
CONTINUOUS
 62
     7
100
AcDbCircle
 10
339.4999999999999
 20
418.5000050000079
 30
0.0
 40
0.999999999999995
100
AcDbArc
 50
90.0
 51
109.1263321489179
  0
LINE
  5
F1
330
1F
100
AcDbEntity
  8
1
  6
CONTINUOUS
 62
     7
100
AcDbLine
 10
346.9999999999999
 20
419.5000050000079
 30
0.0
 11
350.4999999999999
 21
419.5000050000079
 31
0.0
  0
LINE
  5
F2
330
1F
100
AcDbEntity
  8
1
  6
CONTINUOUS
 62
     7
100
AcDbLine
 10
335.9999999999999
 20
425.8453044616287
 30
0.0
 11
335.9999999999999
 21
419.5341860367655
 31
0.0
  0
LINE
  5
F3
330
1F
100
AcDbEntity
  8
1
  6
CONTINUOUS
 62
     7
100
AcDbLine
 10
354.0
 20
425.8453044616287
 30
0.0
 11
354.0
 21
419.5341860367656
 31
0.0
  0
LINE
  5
F4
330
1F
100
AcDbEntity
  8
1
  6
CONTINUOUS
 62
     7
100
AcDbLine
 10
354.0
 20
424.900005000008
 30
0.0
 11
365.0806508614597
 21
424.900005000008
 31
0.0
  0
ARC
  5
F5
330
1F
100
AcDbEntity
  8
1
  6
CONTINUOUS
 62
     7
100
AcDbCircle
 10
365.1857835549596
 20
400.9319997625612
 30
0.0
 40
24.4683450087766
100
AcDbArc
 50
52.23643086181437
 51
89.69805405605769
  0
ARC
  5
F6
330
1F
100
AcDbEntity
  8
1
  6
CONTINUOUS
 62
     7
100
AcDbCircle
 10
324.7953190082773
 20
400.986824912444
 30
0.0
 40
24.41342812383472
100
AcDbArc
 50
90.25827431053614
 51
127.8057396083028
  0
LINE
  5
F7
330
1F
100
AcDbEntity
  8
1
  6
CONTINUOUS
 62
     7
100
AcDbLine
 10
324.6852700654708
 20
425.400005000008
 30
0.0
 11
335.9999999999999
 21
425.400005000008
 31
0.0
  0
LINE
  5
F8
330
1F
100
AcDbEntity
  8
1
  6
CONTINUOUS
 62
     7
100
AcDbLine
 10
354.0
 20
425.400005000008
 30
0.0
 11
365.3147299345292
 21
425.400005000008
 31
0.0
  0
ARC
  5
F9
330
1F
100
AcDbEntity
  8
1
  6
CONTINUOUS
 62
     7
100
AcDbCircle
 10
383.1417664355534
 20
402.6930044879148
 30
0.0
 40
22.70710711754639
100
AcDbArc
 50
52.66200705375417
 51
89.82443149690448
  0
ARC
  5
FA
330
1F
100
AcDbEntity
  8
1
  6
CONTINUOUS
 62
     7
100
AcDbCircle
 10
306.855991110386
 20
402.6998424551821
 30
0.0
 40
22.70026241965602
100
AcDbArc
 50
90.16996143044291
 51
127.327365702811
  0
LINE
  5
FB
330
1F
100
AcDbEntity
  8
1
  6
CONTINUOUS
 62
     7
100
AcDbLine
 10
306.7886534557319
 20
425.400005000008
 30
0.0
 11
324.6852700654708
 21
425.400005000008
 31
0.0
  0
LINE
  5
FC
330
1F
100
AcDbEntity
  8
1
  6
CONTINUOUS
 62
     7
100
AcDbLine
 10
365.314729934528
 20
425.400005000008
 30
0.0
 11
383.2113465442679
 21
425.400005000008
 31
0.0
  0
ARC
  5
FD
330
1F
100
AcDbEntity
  8
1
  6
CONTINUOUS
 62
     7
100
AcDbCircle
 10
391.4458015255968
 20
402.717381355461
 30
0.0
 40
22.68271834568411
100
AcDbArc
 50
53.57850119992861
 51
89.83443526886305
  0
ARC
  5
FE
330
1F
100
AcDbEntity
  8
1
  6
CONTINUOUS
 62
     7
100
AcDbCircle
 10
298.5521565354512
 20
402.7238137901119
 30
0.0
 40
22.67628012767744
100
AcDbArc
 50
90.16045238413011
 51
126.4062488539853
  0
LINE
  5
FF
330
1F
100
AcDbEntity
  8
1
  6
CONTINUOUS
 62
     7
100
AcDbLine
 10
298.4886534557319
 20
425.400005000008
 30
0.0
 11
306.7886534557319
 21
425.400005000008
 31
0.0
  0
LINE
  5
100
330
1F
100
AcDbEntity
  8
1
  6
CONTINUOUS
 62
     7
100
AcDbLine
 10
383.2113465442678
 20
425.400005000008
 30
0.0
 11
391.511346544268
 21
425.400005000008
 31
0.0
  0
LINE
  5
101
330
1F
100
AcDbEntity
  8
1
  6
CONTINUOUS
 62
     7
100
AcDbLine
 10
291.5780492501557
 20
425.400005000008
 30
0.0
 11
298.4886534557319
 21
425.400005000008
 31
0.0
  0
LINE
  5
102
330
1F
100
AcDbEntity
  8
1
  6
CONTINUOUS
 62
     7
100
AcDbLine
 10
391.5113465442686
 20
425.400005000008
 30
0.0
 11
398.4219507498443
 21
425.400005000008
 31
0.0
  0
ARC
  5
103
330
1F
100
AcDbEntity
  8
1
  6
CONTINUOUS
 62
     7
100
AcDbCircle
 10
399.9584865018054
 20
407.4968013692944
 30
0.0
 40
17.90324091062752
100
AcDbArc
 50
49.72826687699296
 51
90.11692552494578
  0
ARC
  5
104
330
1F
100
AcDbEntity
  8
1
  6
CONTINUOUS
 62
     7
100
AcDbCircle
 10
290.0365751921585
 20
407.510331465888
 30
0.0
 40
17.88972160920564
100
AcDbArc
 50
89.86717006205946
 51
130.2915916427105
  0
LINE
  5
105
330
1F
100
AcDbEntity
  8
1
  6
CONTINUOUS
 62
     7
100
AcDbLine
 10
290.0780492501557
 20
425.400005000008
 30
0.0
 11
291.5780492501557
 21
425.400005000008
 31
0.0
  0
LINE
  5
106
330
1F
100
AcDbEntity
  8
1
  6
CONTINUOUS
 62
     7
100
AcDbLine
 10
398.421950749844
 20
425.400005000008
 30
0.0
 11
399.9219507498442
 21
425.400005000008
 31
0.0
  0
LINE
  5
107
330
1F
100
AcDbEntity
  8
1
  6
CONTINUOUS
 62
     7
100
AcDbLine
 10
287.9788358475886
 20
425.4000050000081
 30
0.0
 11
290.0780492501557
 21
425.4000050000081
 31
0.0
  0
LINE
  5
108
330
1F
100
AcDbEntity
  8
1
  6
CONTINUOUS
 62
     7
100
AcDbLine
 10
399.9219507498424
 20
425.4000050000081
 30
0.0
 11
402.0211641524113
 21
425.4000050000081
 31
0.0
  0
ARC
  5
109
330
1F
100
AcDbEntity
  8
1
  6
CONTINUOUS
 62
     7
100
AcDbCircle
 10
344.9999999999999
 20
423.100005000008
 30
0.0
 40
1.499999999999993
100
AcDbArc
 50
256.5066011784484
 51
283.4933988215516
  0
LINE
  5
10A
330
1F
100
AcDbEntity
  8
1
  6
CONTINUOUS
 62
     7
100
AcDbLine
 10
345.35
 20
422.2500050000079
 30
0.0
 11
345.35
 21
421.6414097854265
 31
0.0
  0
LWPOLYLINE
  5
10B
330
1F
100
AcDbEntity
  8
1
  6
CONTINUOUS
 62
     7
100
AcDbPolyline
 90
       39
 70
     0
 43
0.0
 10
345.85
 20
422.750005000008
 10
345.8296374855456
 20
422.7495886064355
 10
345.8092673598575
 20
422.7483402592889
 10
345.7889410893109
 20
422.7462612089238
 10
345.7687101402809
 20
422.7433527056964
 10
345.7480201943453
 20
422.7394927361821
 10
345.7274690411478
 20
422.7347552779673
 10
345.7071133516866
 20
422.7291516728749
 10
345.6870097969596
 20
422.7226932627276
 10
345.6677207982106
 20
422.7155933792711
 10
345.6487063632269
 20
422.7076923988299
 10
345.630017228254
 20
422.6990103774419
 10
345.6117041295369
 20
422.6895673711457
 10
345.5932551645365
 20
422.6790505155585
 10
345.5752417474534
 20
422.6677420999644
 10
345.5577153039424
 20
422.6556743519636
 10
345.5407272596582
 20
422.6428794991569
 10
345.5250083061769
 20
422.6299769424076
 10
345.5098109188127
 20
422.6164314275239
 10
345.4951744073788
 20
422.6022791505537
 10
345.4811380816886
 20
422.5875563075447
 10
345.4673301797131
 20
422.5718153246692
 10
345.454183940663
 20
422.5554984124825
 10
345.4417342305609
 20
422.538652080208
 10
345.4300159154293
 20
422.5213228370688
 10
345.4194147260511
 20
422.5041598608939
 10
345.4095114981109
 20
422.4865784171354
 10
345.4003291966919
 20
422.4686246200378
 10
345.3918907868773
 20
422.4503445838453
 10
345.3839965679032
 20
422.431220473075
 10
345.3768999811588
 20
422.4117864904268
 10
345.3706164311557
 20
422.3920952435088
 10
345.3651613224059
 20
422.3721993399293
 10
345.3605670486857
 20
422.3522530291407
 10
345.3567945482574
 20
422.3321491105616
 10
345.3538507122332
 20
422.3119395158175
 10
345.3517115755393
 20
422.291331794326
 10
345.3504279308548
 20
422.2706690927704
 10
345.35
 20
422.2500050000079
  0
LINE
  5
10C
330
1F
100
AcDbEntity
  8
1
  6
CONTINUOUS
 62
     7
100
AcDbLine
 10
347.0390008120189
 20
422.750005000008
 30
0.0
 11
345.85
 21
422.750005000008
 31
0.0
  0
LINE
  5
10D
330
1F
100
AcDbEntity
  8
1
  6
CONTINUOUS
 62
     7
100
AcDbLine
 10
344.1499999999999
 20
422.750005000008
 30
0.0
 11
342.960999187981
 21
422.750005000008
 31
0.0
  0
LWPOLYLINE
  5
10E
330
1F
100
AcDbEntity
  8
1
  6
CONTINUOUS
 62
     7
100
AcDbPolyline
 90
       38
 70
     0
 43
0.0
 10
344.65
 20
422.2500050000079
 10
344.6495836064275
 20
422.2703675144624
 10
344.6483352592808
 20
422.2907376401504
 10
344.6462562089158
 20
422.3110639106972
 10
344.6433477056883
 20
422.3312948597271
 10
344.639487736174
 20
422.3519848056627
 10
344.6347502779593
 20
422.3725359588602
 10
344.6291466728669
 20
422.3928916483213
 10
344.6226882627195
 20
422.4129952030484
 10
344.6155883792632
 20
422.4322842017974
 10
344.6076873988218
 20
422.451298636781
 10
344.5990053774339
 20
422.4699877717539
 10
344.5895623711377
 20
422.4883008704711
 10
344.5790455155505
 20
422.5067498354714
 10
344.5677370999563
 20
422.5247632525545
 10
344.5556693519557
 20
422.5422896960656
 10
344.5428744991489
 20
422.5592777403497
 10
344.5299719423996
 20
422.574996693831
 10
344.5164264275159
 20
422.5901940811952
 10
344.5022741505456
 20
422.6048305926291
 10
344.4875513075368
 20
422.6188669183193
 10
344.4718103246612
 20
422.6326748202949
 10
344.4554934124745
 20
422.645821059345
 10
344.4386470802
 20
422.658270769447
 10
344.4213178370608
 20
422.6699890845786
 10
344.404154860886
 20
422.6805902739569
 10
344.3865734171275
 20
422.690493501897
 10
344.3686196200297
 20
422.699675803316
 10
344.3503395838373
 20
422.7081142131307
 10
344.3312154730669
 20
422.7160084321048
 10
344.3117814904187
 20
422.7231050188491
 10
344.2920902435008
 20
422.7293885688522
 10
344.2721943399213
 20
422.734843677602
 10
344.2480774368391
 20
422.7402852796562
 10
344.2237084635689
 20
422.7445283906783
 10
344.1991785078476
 20
422.747566832914
 10
344.1745786574123
 20
422.7493944286087
 10
344.1499999999999
 20
422.750005000008
  0
LINE
  5
10F
330
1F
100
AcDbEntity
  8
1
  6
CONTINUOUS
 62
     7
100
AcDbLine
 10
344.65
 20
421.6414097854265
 30
0.0
 11
344.65
 21
422.2500050000079
 31
0.0
  0
ARC
  5
110
330
1F
100
AcDbEntity
  8
1
  6
CONTINUOUS
 62
     7
100
AcDbCircle
 10
344.9999999999999
 20
423.100005000008
 30
0.0
 40
1.499999999999993
100
AcDbArc
 50
76.5066011784483
 51
103.4933988215517
  0
LINE
  5
111
330
1F
100
AcDbEntity
  8
1
  6
CONTINUOUS
 62
     7
100
AcDbLine
 10
344.65
 20
423.950005000008
 30
0.0
 11
344.65
 21
424.5586002145894
 31
0.0
  0
LINE
  5
112
330
1F
100
AcDbEntity
  8
1
  6
CONTINUOUS
 62
     7
100
AcDbLine
 10
342.960999187981
 20
423.4500050000079
 30
0.0
 11
344.1499999999999
 21
423.4500050000079
 31
0.0
  0
LINE
  5
113
330
1F
100
AcDbEntity
  8
1
  6
CONTINUOUS
 62
     7
100
AcDbLine
 10
345.85
 20
423.4500050000079
 30
0.0
 11
347.0390008120189
 21
423.4500050000079
 31
0.0
  0
LINE
  5
114
330
1F
100
AcDbEntity
  8
1
  6
CONTINUOUS
 62
     7
100
AcDbLine
 10
345.35
 20
424.5586002145894
 30
0.0
 11
345.35
 21
423.950005000008
 31
0.0
  0
LWPOLYLINE
  5
115
330
1F
100
AcDbEntity
  8
1
  6
CONTINUOUS
 62
     7
100
AcDbPolyline
 90
       38
 70
     0
 43
0.0
 10
344.1499999999999
 20
423.4500050000079
 10
344.1703625144543
 20
423.4504213935805
 10
344.1907326401424
 20
423.4516697407271
 10
344.2110589106891
 20
423.4537487910922
 10
344.2312898597191
 20
423.4566572943196
 10
344.2519798056547
 20
423.4605172638339
 10
344.2725309588521
 20
423.4652547220487
 10
344.2928866483133
 20
423.4708583271411
 10
344.3129902030404
 20
423.4773167372884
 10
344.3322792017894
 20
423.4844166207449
 10
344.3512936367729
 20
423.4923176011861
 10
344.3699827717459
 20
423.5009996225741
 10
344.388295870463
 20
423.5104426288703
 10
344.4067448354634
 20
423.5209594844574
 10
344.4247582525466
 20
423.5322679000516
 10
344.4422846960576
 20
423.5443356480523
 10
344.4592727403417
 20
423.557130500859
 10
344.474991693823
 20
423.5700330576084
 10
344.4901890811872
 20
423.5835785724921
 10
344.504825592621
 20
423.5977308494623
 10
344.5188619183113
 20
423.6124536924713
 10
344.5326698202869
 20
423.6281946753468
 10
344.5458160593369
 20
423.6445115875335
 10
344.5582657694391
 20
423.661357919808
 10
344.5699840845706
 20
423.6786871629472
 10
344.5805852739488
 20
423.695850139122
 10
344.5904885018891
 20
423.7134315828806
 10
344.5996708033081
 20
423.7313853799782
 10
344.6081092131226
 20
423.7496654161706
 10
344.6160034320967
 20
423.768789526941
 10
344.6231000188412
 20
423.7882235095892
 10
344.6293835688442
 20
423.8079147565072
 10
344.634838677594
 20
423.8278106600867
 10
344.6402802796482
 20
423.8519275631688
 10
344.6445233906703
 20
423.876296536439
 10
344.647561832906
 20
423.9008264921603
 10
344.6493894286007
 20
423.9254263425956
 10
344.65
 20
423.950005000008
  0
LWPOLYLINE
  5
116
330
1F
100
AcDbEntity
  8
1
  6
CONTINUOUS
 62
     7
100
AcDbPolyline
 90
       38
 70
     0
 43
0.0
 10
345.35
 20
423.950005000008
 10
345.3504163935725
 20
423.9296424855536
 10
345.3516647407192
 20
423.9092723598655
 10
345.3537437910842
 20
423.8889460893188
 10
345.3566522943116
 20
423.8687151402889
 10
345.360512263826
 20
423.8480251943533
 10
345.3652497220406
 20
423.8274740411558
 10
345.370853327133
 20
423.8071183516946
 10
345.3773117372804
 20
423.7870147969676
 10
345.3844116207368
 20
423.7677257982185
 10
345.3923126011782
 20
423.748711363235
 10
345.400994622566
 20
423.730022228262
 10
345.4104376288622
 20
423.7117091295449
 10
345.4209544844494
 20
423.6932601645445
 10
345.4322629000436
 20
423.6752467474614
 10
345.4443306480443
 20
423.6577203039504
 10
345.4571255008511
 20
423.6407322596663
 10
345.4700280576004
 20
423.6250133061849
 10
345.483573572484
 20
423.6098159188207
 10
345.4977258494543
 20
423.5951794073869
 10
345.5124486924632
 20
423.5811430816967
 10
345.5281896753388
 20
423.5673351797211
 10
345.5445065875255
 20
423.554188940671
 10
345.5613529198
 20
423.5417392305689
 10
345.5786821629392
 20
423.5300209154373
 10
345.595845139114
 20
423.5194197260591
 10
345.6134265828725
 20
423.5095164981188
 10
345.6313803799702
 20
423.5003341967
 10
345.6496604161626
 20
423.4918957868853
 10
345.668784526933
 20
423.4840015679112
 10
345.6882185095812
 20
423.4769049811669
 10
345.7079097564992
 20
423.4706214311637
 10
345.7278056600786
 20
423.4651663224139
 10
345.7519225631608
 20
423.4597247203598
 10
345.776291536431
 20
423.4554816093377
 10
345.8008214921523
 20
423.4524431671019
 10
345.8254213425876
 20
423.4506155714073
 10
345.85
 20
423.4500050000079
  0
ARC
  5
117
330
1F
100
AcDbEntity
  8
1
  6
CONTINUOUS
 62
     7
100
AcDbCircle
 10
344.9999999999999
 20
423.100005000008
 30
0.0
 40
0.7344081032030456
100
AcDbArc
 50
55.80126157922837
 51
124.1987384207715
  0
ARC
  5
118
330
1F
100
AcDbEntity
  8
1
  6
CONTINUOUS
 62
     7
100
AcDbCircle
 10
344.9999999999999
 20
423.100005000008
 30
0.0
 40
0.7344081032030456
100
AcDbArc
 50
235.8012615792285
 51
304.1987384207715
  0
ARC
  5
119
330
1F
100
AcDbEntity
  8
1
  6
CONTINUOUS
 62
     7
100
AcDbCircle
 10
344.9999999999999
 20
423.100005000008
 30
0.0
 40
2.621078460244753
100
AcDbArc
 50
352.3262114273139
 51
7.673788572685852
  0
ARC
  5
11A
330
1F
100
AcDbEntity
  8
1
  6
CONTINUOUS
 62
     7
100
AcDbCircle
 10
344.9999999999999
 20
423.100005000008
 30
0.0
 40
2.621078460244753
100
AcDbArc
 50
172.326211427314
 51
187.6737885726859
  0
LINE
  5
11B
330
1F
100
AcDbEntity
  8
1
  6
CONTINUOUS
 62
     7
100
AcDbLine
 10
342.402394892452
 20
423.4500050000079
 30
0.0
 11
342.960999187981
 21
423.4500050000079
 31
0.0
  0
LINE
  5
11C
330
1F
100
AcDbEntity
  8
1
  6
CONTINUOUS
 62
     7
100
AcDbLine
 10
347.0390008120189
 20
423.4500050000079
 30
0.0
 11
347.5976051075479
 21
423.4500050000079
 31
0.0
  0
LINE
  5
11D
330
1F
100
AcDbEntity
  8
1
  6
CONTINUOUS
 62
     7
100
AcDbLine
 10
347.5976051075479
 20
422.750005000008
 30
0.0
 11
347.0390008120189
 21
422.750005000008
 31
0.0
  0
LINE
  5
11E
330
1F
100
AcDbEntity
  8
1
  6
CONTINUOUS
 62
     7
100
AcDbLine
 10
342.960999187981
 20
422.750005000008
 30
0.0
 11
342.402394892452
 21
422.750005000008
 31
0.0
  0
ARC
  5
11F
330
1F
100
AcDbEntity
  8
1
  6
CONTINUOUS
 62
     7
100
AcDbCircle
 10
344.9999999999999
 20
423.100005000008
 30
0.0
 40
1.075820915199148
100
AcDbArc
 50
341.0142516718327
 51
18.9857483281674
  0
ARC
  5
120
330
1F
100
AcDbEntity
  8
1
  6
CONTINUOUS
 62
     7
100
AcDbCircle
 10
344.9999999999999
 20
423.100005000008
 30
0.0
 40
0.7344081032030456
100
AcDbArc
 50
145.8012615792285
 51
214.1987384207715
  0
ARC
  5
121
330
1F
100
AcDbEntity
  8
1
  6
CONTINUOUS
 62
     7
100
AcDbCircle
 10
344.9999999999999
 20
423.100005000008
 30
0.0
 40
1.075820915199148
100
AcDbArc
 50
161.0142516718326
 51
198.9857483281674
  0
ARC
  5
122
330
1F
100
AcDbEntity
  8
1
  6
CONTINUOUS
 62
     7
100
AcDbCircle
 10
344.9999999999999
 20
423.100005000008
 30
0.0
 40
0.7344081032030456
100
AcDbArc
 50
325.8012615792285
 51
34.19873842077152
  0
ARC
  5
123
330
1F
100
AcDbEntity
  8
1
  6
CONTINUOUS
 62
     7
100
AcDbCircle
 10
344.9999999999999
 20
423.100005000008
 30
0.0
 40
2.749999999999975
100
AcDbArc
 50
171.5396952222421
 51
180.0
  0
ARC
  5
124
330
1F
100
AcDbEntity
  8
1
  6
CONTINUOUS
 62
     7
100
AcDbCircle
 10
344.9999999999999
 20
423.100005000008
 30
0.0
 40
2.750000000000011
100
AcDbArc
 50
7.939322457270237
 51
171.5396952222421
  0
ARC
  5
125
330
1F
100
AcDbEntity
  8
1
  6
CONTINUOUS
 62
     7
100
AcDbCircle
 10
344.9999999999999
 20
423.100005000008
 30
0.0
 40
2.750000000000017
100
AcDbArc
 50
351.5396952222419
 51
7.939322457270237
  0
ARC
  5
126
330
1F
100
AcDbEntity
  8
1
  6
CONTINUOUS
 62
     7
100
AcDbCircle
 10
344.9999999999999
 20
423.100005000008
 30
0.0
 40
2.750000000000011
100
AcDbArc
 50
316.6582417727777
 51
351.5396952222421
  0
ARC
  5
127
330
1F
100
AcDbEntity
  8
1
  6
CONTINUOUS
 62
     7
100
AcDbCircle
 10
344.9999999999999
 20
423.100005000008
 30
0.0
 40
2.74999999999999
100
AcDbArc
 50
223.3417582272224
 51
316.6582417727776
  0
ARC
  5
128
330
1F
100
AcDbEntity
  8
1
  6
CONTINUOUS
 62
     7
100
AcDbCircle
 10
344.9999999999999
 20
423.100005000008
 30
0.0
 40
2.74999999999999
100
AcDbArc
 50
187.9393224572697
 51
223.3417582272224
  0
ARC
  5
129
330
1F
100
AcDbEntity
  8
1
  6
CONTINUOUS
 62
     7
100
AcDbCircle
 10
344.9999999999999
 20
423.100005000008
 30
0.0
 40
2.750000000000017
100
AcDbArc
 50
180.0
 51
187.9393224572697
  0
LINE
  5
12A
330
1F
100
AcDbEntity
  8
1
  6
CONTINUOUS
 62
     7
100
AcDbLine
 10
279.8626509181623
 20
371.500005000008
 30
0.0
 11
284.8626509181622
 21
371.500005000008
 31
0.0
  0
LINE
  5
12B
330
1F
100
AcDbEntity
  8
1
  6
CONTINUOUS
 62
     7
100
AcDbLine
 10
284.8090757981954
 20
373.3200324723575
 30
0.0
 11
284.8626509181622
 21
371.5000050000083
 31
0.0
  0
LINE
  5
12C
330
1F
100
AcDbEntity
  8
1
  6
CONTINUOUS
 62
     7
100
AcDbLine
 10
280.2862609753365
 20
389.5525638331308
 30
0.0
 11
280.285011924666
 21
389.5000050000085
 31
0.0
  0
LINE
  5
12D
330
1F
100
AcDbEntity
  8
1
  6
CONTINUOUS
 62
     7
100
AcDbLine
 10
405.1373490818378
 20
371.5000050000089
 30
0.0
 11
405.1909242018037
 21
373.3200324723278
 31
0.0
  0
LINE
  5
12E
330
1F
100
AcDbEntity
  8
1
  6
CONTINUOUS
 62
     7
100
AcDbLine
 10
405.1373490818377
 20
371.500005000008
 30
0.0
 11
410.1373490818377
 21
371.500005000008
 31
0.0
  0
LINE
  5
12F
330
1F
100
AcDbEntity
  8
1
  6
CONTINUOUS
 62
     7
100
AcDbLine
 10
409.714988075334
 20
389.5000050000081
 30
0.0
 11
409.7137390246634
 21
389.5525638331308
 31
0.0
  0
LINE
  5
130
330
1F
100
AcDbEntity
  8
1
  6
CONTINUOUS
 62
     7
100
AcDbLine
 10
414.4999999999999
 20
356.500005000008
 30
0.0
 11
275.4999999999999
 21
356.500005000008
 31
0.0
  0
LINE
  5
131
330
1F
100
AcDbEntity
  8
1
  6
CONTINUOUS
 62
     7
100
AcDbLine
 10
280.7199555545065
 20
389.552563833131
 30
0.0
 11
280.7187074378698
 21
389.5000050000085
 31
0.0
  0
LINE
  5
132
330
1F
100
AcDbEntity
  8
1
  6
CONTINUOUS
 62
     7
100
AcDbLine
 10
409.2812925621301
 20
389.5000050000081
 30
0.0
 11
409.2800444454934
 21
389.552563833131
 31
0.0
  0
LINE
  5
133
330
1F
100
AcDbEntity
  8
1
  6
CONTINUOUS
 62
     7
100
AcDbLine
 10
276.871302195404
 20
384.8266740837223
 30
0.0
 11
276.7370852929232
 21
386.2002797232092
 31
0.0
  0
LINE
  5
134
330
1F
100
AcDbEntity
  8
1
  6
CONTINUOUS
 62
     7
100
AcDbLine
 10
281.3156499494097
 20
389.0262844165692
 30
0.0
 11
281.3970660070165
 21
386.2002797232098
 31
0.0
  0
LINE
  5
135
330
1F
100
AcDbEntity
  8
1
  6
CONTINUOUS
 62
     7
100
AcDbLine
 10
281.5829470882107
 20
384.964034647671
 30
0.0
 11
281.3970660070166
 21
386.2002797232092
 31
0.0
  0
LINE
  5
136
330
1F
100
AcDbEntity
  8
1
  6
CONTINUOUS
 62
     7
100
AcDbLine
 10
284.8090757981904
 20
373.3200324723492
 30
0.0
 11
281.5829470882107
 21
384.964034647671
 31
0.0
  0
LINE
  5
137
330
1F
100
AcDbEntity
  8
1
  6
CONTINUOUS
 62
     7
100
AcDbLine
 10
408.6029339929834
 20
386.2002797232092
 30
0.0
 11
408.4170529117892
 21
384.964034647671
 31
0.0
  0
LINE
  5
138
330
1F
100
AcDbEntity
  8
1
  6
CONTINUOUS
 62
     7
100
AcDbLine
 10
408.6029339929834
 20
386.2002797232097
 30
0.0
 11
408.6843500505902
 21
389.0262844165682
 31
0.0
  0
LINE
  5
139
330
1F
100
AcDbEntity
  8
1
  6
CONTINUOUS
 62
     7
100
AcDbLine
 10
408.4170529117892
 20
384.964034647671
 30
0.0
 11
405.1909242018036
 21
373.3200324723282
 31
0.0
  0
LINE
  5
13A
330
1F
100
AcDbEntity
  8
1
  6
CONTINUOUS
 62
     7
100
AcDbLine
 10
413.2629147070767
 20
386.2002797232092
 30
0.0
 11
413.1286978045959
 21
384.8266740837223
 31
0.0
  0
LINE
  5
13B
330
1F
100
AcDbEntity
  8
1
  6
CONTINUOUS
 62
     7
100
AcDbLine
 10
276.8044525231933
 20
389.0262844165681
 30
0.0
 11
276.7370852929232
 21
386.2002797232097
 31
0.0
  0
LWPOLYLINE
  5
13C
330
1F
100
AcDbEntity
  8
1
  6
CONTINUOUS
 62
     7
100
AcDbPolyline
 90
       37
 70
     0
 43
0.0
 10
277.0324425682984
 20
389.5000050000079
 10
277.0228935515435
 20
389.4995709505118
 10
277.0133578225258
 20
389.4982717923365
 10
277.0038599419514
 20
389.4961120109513
 10
276.9944244705267
 20
389.4930960918259
 10
276.9847890295176
 20
389.4890988232713
 10
276.9752369434054
 20
389.4842013483917
 10
276.9657940624292
 20
389.4784182589237
 10
276.9564862368279
 20
389.4717641466038
 10
276.947578705362
 20
389.4644664112142
 10
276.9388141057924
 20
389.4563581247263
 10
276.9302146861944
 20
389.4474612199509
 10
276.9218026946434
 20
389.4377976296993
 10
276.9133500479011
 20
389.4270591115579
 10
276.9051108445541
 20
389.4155272017368
 10
276.8971070753956
 20
389.4032344678934
 10
276.8893607312182
 20
389.3902134776855
 10
276.8820897777856
 20
389.3768769062703
 10
276.8750741857687
 20
389.362875845782
 10
276.8683315108436
 20
389.3482472869679
 10
276.8618793086862
 20
389.3330282205754
 10
276.8555492095171
 20
389.3167616723995
 10
276.8495379402523
 20
389.299898449231
 10
276.8438612879805
 20
389.2824855468083
 10
276.8385350397905
 20
389.2645699608701
 10
276.8337059203512
 20
389.2467144410251
 10
276.8292152292909
 20
389.2284162617702
 10
276.8250739518973
 20
389.2097233049155
 10
276.8212930734585
 20
389.190683452271
 10
276.8177828754306
 20
389.1707434870008
 10
276.8146607206779
 20
389.1504718690381
 10
276.8119344937793
 20
389.1299246514903
 10
276.8096120793138
 20
389.1091578874644
 10
276.8077338514587
 20
389.0886456209863
 10
276.8062456265057
 20
389.0679595530053
 10
276.8051507389267
 20
389.0471542845302
 10
276.8044525231933
 20
389.026284416569
  0
LINE
  5
13D
330
1F
100
AcDbEntity
  8
1
  6
CONTINUOUS
 62
     7
100
AcDbLine
 10
277.0324425682984
 20
389.5000050000079
 30
0.0
 11
280.6106978948658
 21
389.5000050000079
 31
0.0
  0
LWPOLYLINE
  5
13E
330
1F
100
AcDbEntity
  8
1
  6
CONTINUOUS
 62
     7
100
AcDbPolyline
 90
       37
 70
     0
 43
0.0
 10
413.1955474768066
 20
389.0262844165694
 10
413.1948566576514
 20
389.046982482198
 10
413.193775680408
 20
389.06761715983
 10
413.1923077813689
 20
389.0881351824876
 10
413.1904561968272
 20
389.1084832831934
 10
413.1881506114108
 20
389.1292259707234
 10
413.1854422951618
 20
389.1497510300386
 10
413.1823390594483
 20
389.1700026337359
 10
413.1788487156388
 20
389.1899249544123
 10
413.1750878246746
 20
389.2089508793881
 10
413.1709673336945
 20
389.2276322423328
 10
413.1664981423024
 20
389.2459213268686
 10
413.1616911501022
 20
389.2637704166173
 10
413.1563952297784
 20
389.281659992234
 10
413.1507503810793
 20
389.2990510965368
 10
413.1447722182181
 20
389.3158970407948
 10
413.1384763554077
 20
389.3321511362773
 10
413.1320526912944
 20
389.3473759325452
 10
413.1253390024105
 20
389.3620139000885
 10
413.1183527055363
 20
389.3760281541352
 10
413.1111112174524
 20
389.3893818099133
 10
413.1033991316951
 20
389.4024183724541
 10
413.0954299444024
 20
389.4147315612325
 10
413.0872254503024
 20
389.4262888966114
 10
413.0788074441234
 20
389.4370578989534
 10
413.0704171969001
 20
389.4467689610093
 10
413.0618388188667
 20
389.4557160048953
 10
413.0530944625721
 20
389.4638770062936
 10
413.0442062805649
 20
389.4712299408864
 10
413.0349177917795
 20
389.4779431592416
 10
413.025493244149
 20
389.4837879794931
 10
413.0159583872517
 20
389.4887496671171
 10
413.0063389706663
 20
389.4928134875905
 10
412.9967167554155
 20
389.4959524849673
 10
412.9870283741956
 20
389.4982006425207
 10
412.97729990647
 20
389.4995531007133
 10
412.9675574317016
 20
389.5000050000079
  0
LINE
  5
13F
330
1F
100
AcDbEntity
  8
1
  6
CONTINUOUS
 62
     7
100
AcDbLine
 10
413.2629147070767
 20
386.2002797232089
 30
0.0
 11
413.1955474768066
 21
389.0262844165695
 31
0.0
  0
LINE
  5
140
330
1F
100
AcDbEntity
  8
1
  6
CONTINUOUS
 62
     7
100
AcDbLine
 10
409.3893021051341
 20
389.5000050000079
 30
0.0
 11
412.9675574317015
 21
389.5000050000079
 31
0.0
  0
LINE
  5
141
330
1F
100
AcDbEntity
  8
1
  6
CONTINUOUS
 62
     7
100
AcDbLine
 10
279.8626509181622
 20
371.500005000008
 30
0.0
 11
276.871302195404
 21
384.8266740837223
 31
0.0
  0
LINE
  5
142
330
1F
100
AcDbEntity
  8
1
  6
CONTINUOUS
 62
     7
100
AcDbLine
 10
413.1286978045959
 20
384.8266740837223
 30
0.0
 11
410.1373490818377
 21
371.5000050000079
 31
0.0
  0
LWPOLYLINE
  5
143
330
1F
100
AcDbEntity
  8
1
  6
CONTINUOUS
 62
     7
100
AcDbPolyline
 90
       37
 70
     0
 43
0.0
 10
-408.6843500505902
 20
389.0262844165685
 10
-408.6851780098988
 20
389.0469197291593
 10
-408.6864715776151
 20
389.0674745096101
 10
-408.6882426851251
 20
389.0880550110135
 10
-408.6904803516049
 20
389.1084822828235
 10
-408.6932448640069
 20
389.1291589498947
 10
-408.6964870266799
 20
389.1496010206018
 10
-408.7002302379252
 20
389.169918530021
 10
-408.7044448019633
 20
389.1899229455286
 10
-408.7089507757522
 20
389.2088921964892
 10
-408.7138800601997
 20
389.2275032546835
 10
-408.7192627987208
 20
389.2458489831192
 10
-408.7250562165682
 20
389.263767452164
 10
-408.7313892332273
 20
389.2816012751272
 10
-408.7381282777746
 20
389.2989244470707
 10
-408.7453149278635
 20
389.3158263187847
 10
-408.7528872329241
 20
389.3321473138736
 10
-408.7605524403299
 20
389.3473280029559
 10
-408.7685504785906
 20
389.3619132487294
 10
-408.7769263287175
 20
389.3759722507723
 10
-408.7856105240234
 20
389.3893780302943
 10
-408.7947858906236
 20
389.4023754371548
 10
-408.8042500836705
 20
389.4146433994642
 10
-408.8140582477633
 20
389.4262407757081
 10
-408.8241234297218
 20
389.4370543757014
 10
-408.8340752018087
 20
389.4467388363418
 10
-408.8442320754796
 20
389.4556566259012
 10
-408.8546489376583
 20
389.4638455436008
 10
-408.8652375529195
 20
389.4712275680694
 10
-408.8762143444863
 20
389.4779225610777
 10
-408.8873309356065
 20
389.4837498584231
 10
-408.8986500220282
 20
389.4887312115756
 10
-408.9100694007658
 20
389.4928122901719
 10
-408.9213991587598
 20
389.4959449086161
 10
-408.9327854871146
 20
389.4981905615093
 10
-408.9442907284359
 20
389.4995509754359
 10
-408.9558118120357
 20
389.5000050000079
210
0.0
220
0.0
230
-1.0
  0
LINE
  5
144
330
1F
100
AcDbEntity
  8
1
  6
CONTINUOUS
 62
     7
100
AcDbLine
 10
408.9558118120357
 20
389.5000050000079
 30
0.0
 11
409.3893021051341
 21
389.5000050000079
 31
0.0
  0
LINE
  5
145
330
1F
100
AcDbEntity
  8
1
  6
CONTINUOUS
 62
     7
100
AcDbLine
 10
280.6106978948658
 20
389.5000050000079
 30
0.0
 11
281.0441881879642
 21
389.5000050000079
 31
0.0
  0
LWPOLYLINE
  5
146
330
1F
100
AcDbEntity
  8
1
  6
CONTINUOUS
 62
     7
100
AcDbPolyline
 90
       37
 70
     0
 43
0.0
 10
-281.0441881879642
 20
389.5000050000079
 10
-281.0553999394291
 20
389.4995750439925
 10
-281.0665972189733
 20
389.4982866651317
 10
-281.0778381415082
 20
389.4961234665226
 10
-281.0890252865618
 20
389.4930959121558
 10
-281.1003798797775
 20
389.4891144289838
 10
-281.1116372136815
 20
389.4842432960914
 10
-281.1228580820672
 20
389.4784449556381
 10
-281.1339385315957
 20
389.4717634150188
 10
-281.1444770480235
 20
389.464490204258
 10
-281.1548473653692
 20
389.456418567989
 10
-281.165101389584
 20
389.4474973483722
 10
-281.1751485139868
 20
389.4377959884629
 10
-281.1851820432859
 20
389.4270943592994
 10
-281.1949624966404
 20
389.4156151468332
 10
-281.2045405430279
 20
389.4032854984724
 10
-281.2138253848302
 20
389.3902104742486
 10
-281.2224856513599
 20
389.3769161703435
 10
-281.2308417034482
 20
389.3629735917954
 10
-281.238933344042
 20
389.3483025448488
 10
-281.2466871714975
 20
389.3330238054066
 10
-281.2542464149995
 20
389.3168111940475
 10
-281.2614243346365
 20
389.3000212057591
 10
-281.2682556900574
 20
389.2825538637978
 10
-281.2746734169584
 20
389.2645637045788
 10
-281.2804546435949
 20
389.2467635789301
 10
-281.2858301369594
 20
389.2285392501962
 10
-281.2908230377071
 20
389.2097907258163
 10
-281.295385859637
 20
389.1906763728989
 10
-281.2995950019821
 20
389.1708014486854
 10
-281.3033385681579
 20
389.1506154427597
 10
-281.3066314232746
 20
389.1300028337889
 10
-281.3094383167767
 20
389.1091498708367
 10
-281.3116936980518
 20
389.0887033041279
 10
-281.3134815010875
 20
389.0681020047195
 10
-281.3148056903756
 20
389.0472349967656
 10
-281.3156499494097
 20
389.0262844165692
210
0.0
220
0.0
230
-1.0
  0
LINE
  5
147
330
1F
100
AcDbEntity
  8
1
  6
CONTINUOUS
 62
     7
100
AcDbLine
 10
349.9999999999999
 20
419.4930882432152
 30
0.0
 11
340.0000000000001
 21
419.4930882432152
 31
0.0
  0
LINE
  5
148
330
1F
100
AcDbEntity
  8
1
  6
CONTINUOUS
 62
     7
100
AcDbLine
 10
350.5161712653951
 20
419.4412739476379
 30
0.0
 11
350.783567639371
 21
419.4280632035
 31
0.0
  0
LINE
  5
149
330
1F
100
AcDbEntity
  8
1
  6
CONTINUOUS
 62
     7
100
AcDbLine
 10
339.2164323606289
 20
419.4280632035
 30
0.0
 11
339.4838287346047
 21
419.4412739476377
 31
0.0
  0
LINE
  5
14A
330
1F
100
AcDbEntity
  8
1
  6
CONTINUOUS
 62
     7
100
AcDbLine
 10
449.0174205654628
 20
422.2113529979554
 30
0.0
 11
350.5598909602103
 21
419.4372591131614
 31
0.0
  0
LWPOLYLINE
  5
14B
330
1F
100
AcDbEntity
  8
1
  6
CONTINUOUS
 62
     7
100
AcDbPolyline
 90
       33
 70
     0
 43
0.0
 10
-449.4999999999999
 20
422.5948765154506
 10
-449.4994241494606
 20
422.5764970551923
 10
-449.4976979242579
 20
422.5581582398876
 10
-449.4948253005826
 20
422.5399023112031
 10
-449.4908128952425
 20
422.5217713198844
 10
-449.4856699504205
 20
422.503807028896
 10
-449.4794083123869
 20
422.4860508172246
 10
-449.4720424042122
 20
422.4685435845663
 10
-449.4635891925453
 20
422.4513256571187
 10
-449.454068148532
 20
422.434436694693
 10
-449.4435012029658
 20
422.4179155993617
 10
-449.4319126957718
 20
422.4018004258515
 10
-449.4193293199426
 20
422.3861282938877
 10
-449.405780060053
 20
422.3709353026929
 10
-449.3912961254978
 20
422.3562564478359
 10
-449.3759108786028
 20
422.3421255406225
 10
-449.3596597577791
 20
422.328575130215
 10
-449.3425801958933
 20
422.3156364286579
 10
-449.3247115340452
 20
422.3033392389842
 10
-449.306094930949
 20
422.2917118865673
 10
-449.2867732681284
 20
422.2807811538758
 10
-449.2667910511434
 20
422.2705722187828
 10
-449.2461943070755
 20
422.2611085965717
 10
-449.2250304785096
 20
422.25241208577
 10
-449.203348314254
 20
422.2445027179398
 10
-449.1811977570526
 20
422.2373987115357
 10
-449.1586298285467
 20
422.2311164299415
 10
-449.1356965117515
 20
422.2256703437781
 10
-449.1124506313184
 20
422.2210729975724
 10
-449.0889457318584
 20
422.2173349808612
 10
-449.0652359546078
 20
422.2144649038004
 10
-449.0413759127186
 20
422.2124693773319
 10
-449.0174205654628
 20
422.2113529979554
210
0.0
220
0.0
230
-1.0
  0
LWPOLYLINE
  5
14C
330
1F
100
AcDbEntity
  8
1
  6
CONTINUOUS
 62
     7
100
AcDbPolyline
 90
       33
 70
     0
 43
0.0
 10
-240.9825794345371
 20
422.2113529979554
 10
-240.9586240872813
 20
422.2124693773319
 10
-240.9347640453921
 20
422.2144649038004
 10
-240.9110542681415
 20
422.2173349808612
 10
-240.8875493686816
 20
422.2210729975723
 10
-240.8643034882484
 20
422.2256703437781
 10
-240.8413701714532
 20
422.2311164299414
 10
-240.8188022429473
 20
422.2373987115357
 10
-240.7966516857459
 20
422.2445027179397
 10
-240.7749695214903
 20
422.25241208577
 10
-240.7538056929244
 20
422.2611085965716
 10
-240.7332089488565
 20
422.2705722187828
 10
-240.7132267318715
 20
422.2807811538758
 10
-240.693905069051
 20
422.2917118865673
 10
-240.6752884659548
 20
422.3033392389842
 10
-240.6574198041067
 20
422.3156364286579
 10
-240.6403402422209
 20
422.3285751302149
 10
-240.6240891213972
 20
422.3421255406224
 10
-240.6087038745022
 20
422.3562564478358
 10
-240.5942199399469
 20
422.3709353026929
 10
-240.5806706800574
 20
422.3861282938877
 10
-240.5680873042281
 20
422.4018004258514
 10
-240.5564987970342
 20
422.4179155993617
 10
-240.5459318514679
 20
422.4344366946929
 10
-240.5364108074547
 20
422.4513256571186
 10
-240.5279575957878
 20
422.4685435845662
 10
-240.5205916876131
 20
422.4860508172245
 10
-240.5143300495795
 20
422.503807028896
 10
-240.5091871047575
 20
422.5217713198844
 10
-240.5051746994173
 20
422.5399023112031
 10
-240.5023020757421
 20
422.5581582398875
 10
-240.5005758505393
 20
422.5764970551923
 10
-240.5
 20
422.5948765154506
210
0.0
220
0.0
230
-1.0
  0
LINE
  5
14D
330
1F
100
AcDbEntity
  8
1
  6
CONTINUOUS
 62
     7
100
AcDbLine
 10
240.9825794345371
 20
422.2113529979553
 30
0.0
 11
339.4401090397895
 21
419.4372591131613
 31
0.0
  0
LINE
  5
14E
330
1F
100
AcDbEntity
  8
1
  6
CONTINUOUS
 62
     7
100
AcDbLine
 10
340.0000000000001
 20
419.4930882432152
 30
0.0
 11
339.4838287346047
 21
419.4412739476377
 31
0.0
  0
LINE
  5
14F
330
1F
100
AcDbEntity
  8
1
  6
CONTINUOUS
 62
     7
100
AcDbLine
 10
349.9999999999999
 20
419.4930882432152
 30
0.0
 11
350.5161712653951
 21
419.4412739476379
 31
0.0
  0
LINE
  5
150
330
1F
100
AcDbEntity
  8
1
  6
CONTINUOUS
 62
     7
100
AcDbLine
 10
449.4999999999999
 20
421.9314182554593
 30
0.0
 11
449.4999999999999
 21
421.9321469958178
 31
0.0
  0
LINE
  5
151
330
1F
100
AcDbEntity
  8
1
  6
CONTINUOUS
 62
     7
100
AcDbLine
 10
449.9999999999999
 20
422.5955609439868
 30
0.0
 11
449.9999999999999
 21
410.0341542369222
 31
0.0
  0
ARC
  5
152
330
1F
100
AcDbEntity
  8
1
  6
CONTINUOUS
 62
     7
100
AcDbCircle
 10
448.9999999999999
 20
410.0341542369222
 30
0.0
 40
1.0
100
AcDbArc
 50
354.6435094833186
 51
0.0
  0
LINE
  5
153
330
1F
100
AcDbEntity
  8
1
  6
CONTINUOUS
 62
     7
100
AcDbLine
 10
240.0
 20
410.0341542369222
 30
0.0
 11
240.0
 21
422.5955609439868
 31
0.0
  0
LINE
  5
154
330
1F
100
AcDbEntity
  8
1
  6
CONTINUOUS
 62
     7
100
AcDbLine
 10
240.5
 20
421.9321469958178
 30
0.0
 11
240.5
 21
421.9314182554592
 31
0.0
  0
LINE
  5
155
330
1F
100
AcDbEntity
  8
1
  6
CONTINUOUS
 62
     7
100
AcDbLine
 10
449.4999999999999
 20
421.9321469958178
 30
0.0
 11
449.4999999999999
 21
423.3878460799767
 31
0.0
  0
LINE
  5
156
330
1F
100
AcDbEntity
  8
1
  6
CONTINUOUS
 62
     7
100
AcDbLine
 10
449.9999999999999
 20
422.5955609439868
 30
0.0
 11
449.9999999999999
 21
423.3878460799767
 31
0.0
  0
LINE
  5
157
330
1F
100
AcDbEntity
  8
1
  6
CONTINUOUS
 62
     7
100
AcDbLine
 10
240.0
 20
422.5955609439868
 30
0.0
 11
240.0
 21
423.3878460799767
 31
0.0
  0
LINE
  5
158
330
1F
100
AcDbEntity
  8
1
  6
CONTINUOUS
 62
     7
100
AcDbLine
 10
240.5
 20
421.9321469958178
 30
0.0
 11
240.5
 21
423.3878460799767
 31
0.0
  0
LINE
  5
159
330
1F
100
AcDbEntity
  8
1
  6
CONTINUOUS
 62
     7
100
AcDbLine
 10
240.5
 20
424.4594832509171
 30
0.0
 11
240.5
 21
423.3878460799767
 31
0.0
  0
LINE
  5
15A
330
1F
100
AcDbEntity
  8
1
  6
CONTINUOUS
 62
     7
100
AcDbLine
 10
240.0
 20
423.3878460799767
 30
0.0
 11
240.0
 21
424.4594832509171
 31
0.0
  0
LINE
  5
15B
330
1F
100
AcDbEntity
  8
1
  6
CONTINUOUS
 62
     7
100
AcDbLine
 10
449.9999999999999
 20
424.4594832509171
 30
0.0
 11
449.9999999999999
 21
423.3878460799767
 31
0.0
  0
LINE
  5
15C
330
1F
100
AcDbEntity
  8
1
  6
CONTINUOUS
 62
     7
100
AcDbLine
 10
449.4999999999999
 20
423.3878460799767
 30
0.0
 11
449.4999999999999
 21
424.4594832509171
 31
0.0
  0
LINE
  5
15D
330
1F
100
AcDbEntity
  8
1
  6
CONTINUOUS
 62
     7
100
AcDbLine
 10
241.7878523934266
 20
409.000005000008
 30
0.0
 11
241.0
 21
409.000005000008
 31
0.0
  0
LINE
  5
15E
330
1F
100
AcDbEntity
  8
1
  6
CONTINUOUS
 62
     7
100
AcDbLine
 10
448.9999999999999
 20
409.000005000008
 30
0.0
 11
448.2121476065732
 21
409.000005000008
 31
0.0
  0
LINE
  5
15F
330
1F
100
AcDbEntity
  8
1
  6
CONTINUOUS
 62
     7
100
AcDbLine
 10
448.2121476065732
 20
409.000005000008
 30
0.0
 11
241.7878523934266
 21
409.000005000008
 31
0.0
  0
ARC
  5
160
330
1F
100
AcDbEntity
  8
1
  6
CONTINUOUS
 62
     7
100
AcDbCircle
 10
241.0
 20
410.000005000008
 30
0.0
 40
1.000000000000001
100
AcDbArc
 50
243.0956538121788
 51
270.0
  0
ARC
  5
161
330
1F
100
AcDbEntity
  8
1
  6
CONTINUOUS
 62
     7
100
AcDbCircle
 10
448.9999999999999
 20
410.000005000008
 30
0.0
 40
1.000000000000001
100
AcDbArc
 50
270.0
 51
296.9043461878213
  0
LWPOLYLINE
  5
162
330
1F
100
AcDbEntity
  8
1
  6
CONTINUOUS
 62
     7
100
AcDbPolyline
 90
       37
 70
     0
 43
0.0
 10
-449.9931345323525
 20
409.8830272215675
 10
-449.991126686287
 20
409.8671078760622
 10
-449.9887244033916
 20
409.8503134572018
 10
-449.9858983290962
 20
409.8327238026834
 10
-449.9826191088304
 20
409.814418750204
 10
-449.9788573880241
 20
409.7954781374603
 10
-449.9745838121071
 20
409.7759818021496
 10
-449.9707100632718
 20
409.7597553090734
 10
-449.9664611064609
 20
409.7431991700159
 10
-449.961831484791
 20
409.7263663732594
 10
-449.9568157413792
 20
409.7093099070862
 10
-449.9512339595174
 20
409.6915391747755
 10
-449.9452216005542
 20
409.6735832770682
 10
-449.9387832771091
 20
409.6555008032945
 10
-449.9319236018009
 20
409.637350342784
 10
-449.9223636347396
 20
409.6137084024729
 10
-449.9120644079759
 20
409.5900214745575
 10
-449.9010623080512
 20
409.5663914186007
 10
-449.8893937215064
 20
409.5429200941657
 10
-449.8770950348829
 20
409.5197093608155
 10
-449.8642026347218
 20
409.496861078113
 10
-449.8494452606589
 20
409.4723430896483
 10
-449.8339874686221
 20
409.4482579563202
 10
-449.8178855919206
 20
409.4246682181008
 10
-449.8011959638632
 20
409.4016364149626
 10
-449.7839749177592
 20
409.3792250868778
 10
-449.7662787869173
 20
409.3574967738188
 10
-449.7449244291014
 20
409.3328594352955
 10
-449.7229524162119
 20
409.3091128414362
 10
-449.7004331307538
 20
409.2862900603986
 10
-449.6774369552326
 20
409.2644241603406
 10
-449.6451825928278
 20
409.2359784014344
 10
-449.6121534467645
 20
409.2092677894225
 10
-449.5784804421336
 20
409.1843087464498
 10
-449.5371897517433
 20
409.1565447200408
 10
-449.4951442909091
 20
409.1311954106071
 10
-449.452502355568
 20
409.1082417925334
210
0.0
220
0.0
230
-1.0
  0
LWPOLYLINE
  5
163
330
1F
100
AcDbEntity
  8
1
  6
CONTINUOUS
 62
     7
100
AcDbPolyline
 90
       37
 70
     0
 43
0.0
 10
240.0068654676474
 20
409.8830272215675
 10
240.0088733137129
 20
409.8671078760622
 10
240.0112755966082
 20
409.8503134572018
 10
240.0141016709037
 20
409.8327238026834
 10
240.0173808911695
 20
409.814418750204
 10
240.0211426119758
 20
409.7954781374603
 10
240.0254161878928
 20
409.7759818021496
 10
240.029289936728
 20
409.7597553090734
 10
240.033538893539
 20
409.7431991700159
 10
240.0381685152088
 20
409.7263663732594
 10
240.0431842586207
 20
409.7093099070862
 10
240.0487660404825
 20
409.6915391747755
 10
240.0547783994456
 20
409.6735832770682
 10
240.0612167228908
 20
409.6555008032945
 10
240.068076398199
 20
409.637350342784
 10
240.0776363652603
 20
409.6137084024729
 10
240.087935592024
 20
409.5900214745575
 10
240.0989376919488
 20
409.5663914186007
 10
240.1106062784935
 20
409.5429200941657
 10
240.122904965117
 20
409.5197093608155
 10
240.1357973652781
 20
409.496861078113
 10
240.1505547393411
 20
409.4723430896483
 10
240.1660125313778
 20
409.4482579563202
 10
240.1821144080793
 20
409.4246682181008
 10
240.1988040361366
 20
409.4016364149626
 10
240.2160250822407
 20
409.3792250868778
 10
240.2337212130827
 20
409.3574967738188
 10
240.2550755708984
 20
409.3328594352955
 10
240.277047583788
 20
409.3091128414362
 10
240.2995668692461
 20
409.2862900603986
 10
240.3225630447673
 20
409.2644241603406
 10
240.3548174071721
 20
409.2359784014344
 10
240.3878465532354
 20
409.2092677894225
 10
240.4215195578662
 20
409.1843087464499
 10
240.4628102482567
 20
409.1565447200408
 10
240.5048557090908
 20
409.1311954106071
 10
240.547497644432
 20
409.1082417925334
  0
LINE
  5
164
330
1F
100
AcDbEntity
  8
1
  6
CONTINUOUS
 62
     7
100
AcDbLine
 10
449.9999999999999
 20
410.0341542369222
 30
0.0
 11
449.9999999999999
 21
410.000005000008
 31
0.0
  0
ARC
  5
165
330
1F
100
AcDbEntity
  8
1
  6
CONTINUOUS
 62
     7
100
AcDbCircle
 10
448.9999999999999
 20
410.000005000008
 30
0.0
 40
1.0
100
AcDbArc
 50
353.2822865358204
 51
0.0
  0
LINE
  5
166
330
1F
100
AcDbEntity
  8
1
  6
CONTINUOUS
 62
     7
100
AcDbLine
 10
240.0
 20
410.0341542369222
 30
0.0
 11
240.0
 21
410.000005000008
 31
0.0
  0
ARC
  5
167
330
1F
100
AcDbEntity
  8
1
  6
CONTINUOUS
 62
     7
100
AcDbCircle
 10
241.0
 20
410.000005000008
 30
0.0
 40
1.0
100
AcDbArc
 50
180.0
 51
186.7177134641796
  0
LINE
  5
168
330
1F
100
AcDbEntity
  8
1
  6
CONTINUOUS
 62
     7
100
AcDbLine
 10
339.9999999999999
 20
419.5000050000079
 30
0.0
 11
339.9999999999999
 21
419.4930882432152
 31
0.0
  0
LINE
  5
169
330
1F
100
AcDbEntity
  8
1
  6
CONTINUOUS
 62
     7
100
AcDbLine
 10
349.9999999999999
 20
419.5000050000079
 30
0.0
 11
349.9999999999999
 21
419.4930882432152
 31
0.0
  0
ARC
  5
16A
330
1F
100
AcDbEntity
  8
1
  6
CONTINUOUS
 62
     7
100
AcDbCircle
 10
439.0000000000001
 20
492.500005000008
 30
0.0
 40
1.000000000000001
100
AcDbArc
 50
0.0
 51
89.99999999999363
  0
LINE
  5
16B
330
1F
100
AcDbEntity
  8
1
  6
CONTINUOUS
 62
     7
100
AcDbLine
 10
440.0
 20
492.500005000008
 30
0.0
 11
440.0
 21
421.9572823205012
 31
0.0
  0
ARC
  5
16C
330
1F
100
AcDbEntity
  8
1
  6
CONTINUOUS
 62
     7
100
AcDbCircle
 10
439.0000000000001
 20
492.500005000008
 30
0.0
 40
0.4999999999999449
100
AcDbArc
 50
0.0
 51
90.0
  0
LINE
  5
16D
330
1F
100
AcDbEntity
  8
1
  6
CONTINUOUS
 62
     7
100
AcDbLine
 10
250.4999999999999
 20
492.500005000008
 30
0.0
 11
250.4999999999999
 21
421.9431945514097
 31
0.0
  0
LINE
  5
16E
330
1F
100
AcDbEntity
  8
1
  6
CONTINUOUS
 62
     7
100
AcDbLine
 10
249.9999999999999
 20
492.500005000008
 30
0.0
 11
249.9999999999999
 21
421.9572823205012
 31
0.0
  0
ARC
  5
16F
330
1F
100
AcDbEntity
  8
1
  6
CONTINUOUS
 62
     7
100
AcDbCircle
 10
250.9999999999999
 20
492.500005000008
 30
0.0
 40
1.000000000000001
100
AcDbArc
 50
90.0
 51
180.0
  0
LINE
  5
170
330
1F
100
AcDbEntity
  8
1
  6
CONTINUOUS
 62
     7
100
AcDbLine
 10
439.5
 20
492.500005000008
 30
0.0
 11
439.5
 21
421.9431945514098
 31
0.0
  0
LINE
  5
171
330
1F
100
AcDbEntity
  8
1
  6
CONTINUOUS
 62
     7
100
AcDbLine
 10
250.9999999999999
 20
493.500005000008
 30
0.0
 11
439.0000000000002
 21
493.500005000008
 31
0.0
  0
LINE
  5
172
330
1F
100
AcDbEntity
  8
1
  6
CONTINUOUS
 62
     7
100
AcDbLine
 10
250.9999999999999
 20
493.0000050000079
 30
0.0
 11
439.0
 21
493.0000050000079
 31
0.0
  0
ARC
  5
173
330
1F
100
AcDbEntity
  8
1
  6
CONTINUOUS
 62
     7
100
AcDbCircle
 10
250.9999999999999
 20
492.500005000008
 30
0.0
 40
0.4999999999999449
100
AcDbArc
 50
90.0
 51
180.0
  0
LINE
  5
174
330
1F
100
AcDbEntity
  8
1
  6
CONTINUOUS
 62
     7
100
AcDbLine
 10
417.5
 20
359.5000050000081
 30
0.0
 11
417.5
 21
409.000005000008
 31
0.0
  0
LINE
  5
175
330
1F
100
AcDbEntity
  8
1
  6
CONTINUOUS
 62
     7
100
AcDbLine
 10
272.4999999999999
 20
409.000005000008
 30
0.0
 11
272.4999999999999
 21
359.5000050000081
 31
0.0
  0
ARC
  5
176
330
1F
100
AcDbEntity
  8
1
  6
CONTINUOUS
 62
     7
100
AcDbCircle
 10
414.4999999999999
 20
359.500005000008
 30
0.0
 40
3.000000000000003
100
AcDbArc
 50
270.0000000000005
 51
0.0
  0
ARC
  5
177
330
1F
100
AcDbEntity
  8
1
  6
CONTINUOUS
 62
     7
100
AcDbCircle
 10
275.4999999999999
 20
359.500005000008
 30
0.0
 40
3.000000000000003
100
AcDbArc
 50
180.0
 51
270.0
  0
LINE
  5
178
330
1F
100
AcDbEntity
  8
1
  6
CONTINUOUS
 62
     7
100
AcDbLine
 10
240.5
 20
424.4594832509171
 30
0.0
 11
240.0
 21
424.4594832509171
 31
0.0
  0
LINE
  5
179
330
1F
100
AcDbEntity
  8
1
  6
CONTINUOUS
 62
     7
100
AcDbLine
 10
449.9999999999999
 20
424.4594832509171
 30
0.0
 11
449.4999999999999
 21
424.4594832509171
 31
0.0
  0
ARC
  5
17A
330
1F
100
AcDbEntity
  8
1
  6
CONTINUOUS
 62
     7
100
AcDbCircle
 10
344.9999999999999
 20
758.9433348013531
 30
0.0
 40
5.000000000000004
100
AcDbArc
 50
90.0
 51
180.0
  0
ARC
  5
17B
330
1F
100
AcDbEntity
  8
1
  6
CONTINUOUS
 62
     7
100
AcDbCircle
 10
344.9999999999999
 20
758.9433348013531
 30
0.0
 40
5.0
100
AcDbArc
 50
0.0
 51
90.0
  0
CIRCLE
  5
17C
330
1F
100
AcDbEntity
  8
1
  6
CONTINUOUS
 62
     7
100
AcDbCircle
 10
344.9999999999999
 20
758.9433348013531
 30
0.0
 40
2.5
  0
LINE
  5
17D
330
1F
100
AcDbEntity
  8
1
  6
CONTINUOUS
 62
     7
100
AcDbLine
 10
349.9999999999999
 20
758.9433348013531
 30
0.0
 11
349.9999999999999
 21
754.193334801353
 31
0.0
  0
LINE
  5
17E
330
1F
100
AcDbEntity
  8
1
  6
CONTINUOUS
 62
     7
100
AcDbLine
 10
339.9999999999999
 20
754.193334801353
 30
0.0
 11
339.9999999999999
 21
758.9433348013531
 31
0.0
  0
LINE
  5
17F
330
1F
100
AcDbEntity
  8
1
  6
CONTINUOUS
 62
     7
100
AcDbLine
 10
449.9999999999999
 20
533.6345173167631
 30
0.0
 11
449.9999999999999
 21
529.4080211583466
 31
0.0
  0
LINE
  5
180
330
1F
100
AcDbEntity
  8
1
  6
CONTINUOUS
 62
     7
100
AcDbLine
 10
240.0
 20
529.4080211583466
 30
0.0
 11
240.0
 21
533.6345173167631
 31
0.0
  0
LINE
  5
181
330
1F
100
AcDbEntity
  8
1
  6
CONTINUOUS
 62
     7
100
AcDbLine
 10
240.0
 20
533.6345173167631
 30
0.0
 11
240.0
 21
544.9134701789367
 31
0.0
  0
LINE
  5
182
330
1F
100
AcDbEntity
  8
1
  6
CONTINUOUS
 62
     7
100
AcDbLine
 10
449.9999999999999
 20
533.6345173167631
 30
0.0
 11
449.9999999999999
 21
544.9134701789367
 31
0.0
  0
LWPOLYLINE
  5
183
330
1F
100
AcDbEntity
  8
1
  6
CONTINUOUS
 62
     7
100
AcDbPolyline
 90
        6
 70
     0
 43
0.0
 10
449.4999999999999
 20
528.1865445937237
 10
449.6691306063588
 20
528.2655307069306
 10
449.8090169943749
 20
528.3653939156201
 10
449.9135454576426
 20
528.4817697183755
 10
449.9781476007337
 20
528.6095719341835
 10
449.9999999999999
 20
528.7432149929501
  0
LINE
  5
184
330
1F
100
AcDbEntity
  8
1
  6
CONTINUOUS
 62
     7
100
AcDbLine
 10
449.9999999999999
 20
528.7432149929501
 30
0.0
 11
449.9999999999999
 21
529.4080211583466
 31
0.0
  0
LWPOLYLINE
  5
185
330
1F
100
AcDbEntity
  8
1
  6
CONTINUOUS
 62
     7
100
AcDbPolyline
 90
        6
 70
     0
 43
0.0
 10
240.0
 20
528.7432149929501
 10
240.0218523992662
 20
528.6095719341835
 10
240.0864545423574
 20
528.4817697183755
 10
240.190983005625
 20
528.3653939156201
 10
240.3308693936411
 20
528.2655307069306
 10
240.5
 20
528.1865445937237
  0
LINE
  5
186
330
1F
100
AcDbEntity
  8
1
  6
CONTINUOUS
 62
     7
100
AcDbLine
 10
240.0
 20
528.7432149929501
 30
0.0
 11
240.0
 21
529.4080211583466
 31
0.0
  0
LINE
  5
187
330
1F
100
AcDbEntity
  8
1
  6
CONTINUOUS
 62
     7
100
AcDbLine
 10
240.5
 20
528.1874130726642
 30
0.0
 11
240.9651588690743
 21
528.1025078729426
 31
0.0
  0
LINE
  5
188
330
1F
100
AcDbEntity
  8
1
  6
CONTINUOUS
 62
     7
100
AcDbLine
 10
449.0348411309257
 20
528.1025078729425
 30
0.0
 11
449.5
 21
528.1874130726641
 31
0.0
  0
LINE
  5
189
330
1F
100
AcDbEntity
  8
1
  6
CONTINUOUS
 62
     7
100
AcDbLine
 10
449.0348411309257
 20
528.1025078729426
 30
0.0
 11
350.4546595288701
 21
526.0660574676284
 31
0.0
  0
LINE
  5
18A
330
1F
100
AcDbEntity
  8
1
  6
CONTINUOUS
 62
     7
100
AcDbLine
 10
350.1430873573603
 20
526.0608234123839
 30
0.0
 11
350.45465952887
 21
526.0660574676283
 31
0.0
  0
LINE
  5
18B
330
1F
100
AcDbEntity
  8
1
  6
CONTINUOUS
 62
     7
100
AcDbLine
 10
240.9651588690743
 20
528.1025078729426
 30
0.0
 11
339.5453404711296
 21
526.0660574676284
 31
0.0
  0
LINE
  5
18C
330
1F
100
AcDbEntity
  8
1
  6
CONTINUOUS
 62
     7
100
AcDbLine
 10
339.5453404711296
 20
526.0660574676284
 30
0.0
 11
339.8569126426395
 21
526.060823412384
 31
0.0
  0
LINE
  5
18D
330
1F
100
AcDbEntity
  8
1
  6
CONTINUOUS
 62
     7
100
AcDbLine
 10
240.9825794345371
 20
543.1189985905266
 30
0.0
 11
241.0
 21
543.1185301654303
 31
0.0
  0
LINE
  5
18E
330
1F
100
AcDbEntity
  8
1
  6
CONTINUOUS
 62
     7
100
AcDbLine
 10
339.916655668422
 20
526.0590596332562
 30
0.0
 11
340.4532045691376
 21
526.0566651986469
 31
0.0
  0
LINE
  5
18F
330
1F
100
AcDbEntity
  8
1
  6
CONTINUOUS
 62
     7
100
AcDbLine
 10
349.5467954308622
 20
526.0566651986469
 30
0.0
 11
350.0833443315787
 21
526.0590596332562
 31
0.0
  0
LINE
  5
190
330
1F
100
AcDbEntity
  8
1
  6
CONTINUOUS
 62
     7
100
AcDbLine
 10
349.5467954308622
 20
526.0566651986469
 30
0.0
 11
340.4532045691376
 21
526.0566651986469
 31
0.0
  0
LINE
  5
191
330
1F
100
AcDbEntity
  8
1
  6
CONTINUOUS
 62
     7
100
AcDbLine
 10
350.1430873573604
 20
526.060823412384
 30
0.0
 11
350.0833443315787
 21
526.0590596332563
 31
0.0
  0
LINE
  5
192
330
1F
100
AcDbEntity
  8
1
  6
CONTINUOUS
 62
     7
100
AcDbLine
 10
339.916655668422
 20
526.0590596332563
 30
0.0
 11
339.8569126426394
 21
526.060823412384
 31
0.0
  0
LINE
  5
193
330
1F
100
AcDbEntity
  8
1
  6
CONTINUOUS
 62
     7
100
AcDbLine
 10
438.5
 20
553.6933348013531
 30
0.0
 11
438.5
 21
553.4433348013531
 31
0.0
  0
LINE
  5
194
330
1F
100
AcDbEntity
  8
1
  6
CONTINUOUS
 62
     7
100
AcDbLine
 10
251.4999999999999
 20
553.4433348013531
 30
0.0
 11
251.4999999999999
 21
553.6933348013531
 31
0.0
  0
LINE
  5
195
330
1F
100
AcDbEntity
  8
1
  6
CONTINUOUS
 62
     7
100
AcDbLine
 10
240.0
 20
544.9134701789367
 30
0.0
 11
240.0
 21
545.0920763740934
 31
0.0
  0
LINE
  5
196
330
1F
100
AcDbEntity
  8
1
  6
CONTINUOUS
 62
     7
100
AcDbLine
 10
449.9999999999999
 20
545.0920763740934
 30
0.0
 11
449.9999999999999
 21
544.9134701789367
 31
0.0
  0
LINE
  5
197
330
1F
100
AcDbEntity
  8
1
  6
CONTINUOUS
 62
     7
100
AcDbLine
 10
449.9999999999999
 20
545.6132897417889
 30
0.0
 11
449.9999999999999
 21
545.143443431396
 31
0.0
  0
LINE
  5
198
330
1F
100
AcDbEntity
  8
1
  6
CONTINUOUS
 62
     7
100
AcDbLine
 10
240.0
 20
549.943334801353
 30
0.0
 11
240.0
 21
545.6132897417889
 31
0.0
  0
LINE
  5
199
330
1F
100
AcDbEntity
  8
1
  6
CONTINUOUS
 62
     7
100
AcDbLine
 10
449.5
 20
552.943334801353
 30
0.0
 11
450.0
 21
552.943334801353
 31
0.0
  0
LINE
  5
19A
330
1F
100
AcDbEntity
  8
1
  6
CONTINUOUS
 62
     7
100
AcDbLine
 10
449.9999999999999
 20
552.943334801353
 30
0.0
 11
449.9999999999999
 21
549.943334801353
 31
0.0
  0
LINE
  5
19B
330
1F
100
AcDbEntity
  8
1
  6
CONTINUOUS
 62
     7
100
AcDbLine
 10
449.9999999999999
 20
549.943334801353
 30
0.0
 11
449.9999999999999
 21
545.6132897417889
 31
0.0
  0
LINE
  5
19C
330
1F
100
AcDbEntity
  8
1
  6
CONTINUOUS
 62
     7
100
AcDbLine
 10
240.0
 20
552.943334801353
 30
0.0
 11
240.5
 21
552.943334801353
 31
0.0
  0
LINE
  5
19D
330
1F
100
AcDbEntity
  8
1
  6
CONTINUOUS
 62
     7
100
AcDbLine
 10
240.0
 20
549.943334801353
 30
0.0
 11
240.0
 21
552.943334801353
 31
0.0
  0
LINE
  5
19E
330
1F
100
AcDbEntity
  8
1
  6
CONTINUOUS
 62
     7
100
AcDbLine
 10
240.0
 20
545.143443431396
 30
0.0
 11
240.0
 21
545.6132897417889
 31
0.0
  0
LINE
  5
19F
330
1F
100
AcDbEntity
  8
1
  6
CONTINUOUS
 62
     7
100
AcDbLine
 10
449.9999999999999
 20
545.143443431396
 30
0.0
 11
449.9999999999999
 21
545.0920763740934
 31
0.0
  0
LINE
  5
1A0
330
1F
100
AcDbEntity
  8
1
  6
CONTINUOUS
 62
     7
100
AcDbLine
 10
240.0
 20
545.143443431396
 30
0.0
 11
240.0
 21
545.0920763740934
 31
0.0
  0
LINE
  5
1A1
330
1F
100
AcDbEntity
  8
1
  6
CONTINUOUS
 62
     7
100
AcDbLine
 10
449.5
 20
552.943334801353
 30
0.0
 11
449.0
 21
552.943334801353
 31
0.0
  0
LINE
  5
1A2
330
1F
100
AcDbEntity
  8
1
  6
CONTINUOUS
 62
     7
100
AcDbLine
 10
241.0
 20
552.943334801353
 30
0.0
 11
240.5
 21
552.943334801353
 31
0.0
  0
LINE
  5
1A3
330
1F
100
AcDbEntity
  8
1
  6
CONTINUOUS
 62
     7
100
AcDbLine
 10
251.4999999999999
 20
553.4433348013531
 30
0.0
 11
251.4999999999999
 21
552.943334801353
 31
0.0
  0
LINE
  5
1A4
330
1F
100
AcDbEntity
  8
1
  6
CONTINUOUS
 62
     7
100
AcDbLine
 10
438.5
 20
552.943334801353
 30
0.0
 11
438.5
 21
553.443334801353
 31
0.0
  0
LINE
  5
1A5
330
1F
100
AcDbEntity
  8
1
  6
CONTINUOUS
 62
     7
100
AcDbLine
 10
240.4862942914762
 20
543.7924193385697
 30
0.0
 11
240.547497644432
 21
543.7540140399082
 31
0.0
  0
CIRCLE
  5
1A6
330
1F
100
AcDbEntity
  8
1
  6
CONTINUOUS
 62
     7
100
AcDbCircle
 10
424.9999999999999
 20
548.4433348013531
 30
0.0
 40
2.500000000000002
  0
CIRCLE
  5
1A7
330
1F
100
AcDbEntity
  8
1
  6
CONTINUOUS
 62
     7
100
AcDbCircle
 10
264.9999999999999
 20
548.4433348013531
 30
0.0
 40
2.500000000000002
  0
LINE
  5
1A8
330
1F
100
AcDbEntity
  8
1
  6
CONTINUOUS
 62
     7
100
AcDbLine
 10
241.0
 20
552.943334801353
 30
0.0
 11
251.4999999999999
 21
552.943334801353
 31
0.0
  0
LINE
  5
1A9
330
1F
100
AcDbEntity
  8
1
  6
CONTINUOUS
 62
     7
100
AcDbLine
 10
438.5
 20
552.943334801353
 30
0.0
 11
449.0
 21
552.943334801353
 31
0.0
  0
LINE
  5
1AA
330
1F
100
AcDbEntity
  8
1
  6
CONTINUOUS
 62
     7
100
AcDbLine
 10
440.0000000000001
 20
753.643334801353
 30
0.0
 11
440.0000000000001
 21
553.6933348013531
 31
0.0
  0
LINE
  5
1AB
330
1F
100
AcDbEntity
  8
1
  6
CONTINUOUS
 62
     7
100
AcDbLine
 10
440.0000000000001
 20
553.6933348013531
 30
0.0
 11
439.0000000000002
 21
553.6933348013531
 31
0.0
  0
LINE
  5
1AC
330
1F
100
AcDbEntity
  8
1
  6
CONTINUOUS
 62
     7
100
AcDbLine
 10
439.4500000000001
 20
753.643334801353
 30
0.0
 11
440.0000000000001
 21
753.643334801353
 31
0.0
  0
LINE
  5
1AD
330
1F
100
AcDbEntity
  8
1
  6
CONTINUOUS
 62
     7
100
AcDbLine
 10
251.0
 20
553.6933348013531
 30
0.0
 11
439.0000000000002
 21
553.6933348013531
 31
0.0
  0
LINE
  5
1AE
330
1F
100
AcDbEntity
  8
1
  6
CONTINUOUS
 62
     7
100
AcDbLine
 10
439.4500000000001
 20
753.643334801353
 30
0.0
 11
438.9500000000001
 21
753.643334801353
 31
0.0
  0
LINE
  5
1AF
330
1F
100
AcDbEntity
  8
1
  6
CONTINUOUS
 62
     7
100
AcDbLine
 10
251.0499999999999
 20
753.643334801353
 30
0.0
 11
250.5499999999999
 21
753.643334801353
 31
0.0
  0
LINE
  5
1B0
330
1F
100
AcDbEntity
  8
1
  6
CONTINUOUS
 62
     7
100
AcDbLine
 10
251.0499999999999
 20
754.193334801353
 30
0.0
 11
438.95
 21
754.193334801353
 31
0.0
  0
LINE
  5
1B1
330
1F
100
AcDbEntity
  8
1
  6
CONTINUOUS
 62
     7
100
AcDbLine
 10
250.0
 20
553.6933348013531
 30
0.0
 11
250.0
 21
753.643334801353
 31
0.0
  0
LINE
  5
1B2
330
1F
100
AcDbEntity
  8
1
  6
CONTINUOUS
 62
     7
100
AcDbLine
 10
250.0
 20
753.643334801353
 30
0.0
 11
250.5499999999999
 21
753.643334801353
 31
0.0
  0
LINE
  5
1B3
330
1F
100
AcDbEntity
  8
1
  6
CONTINUOUS
 62
     7
100
AcDbLine
 10
251.0
 20
553.6933348013531
 30
0.0
 11
250.0
 21
553.6933348013531
 31
0.0
  0
LINE
  5
1B4
330
1F
100
AcDbEntity
  8
1
  6
CONTINUOUS
 62
     7
100
AcDbLine
 10
250.5499999999999
 20
753.643334801353
 30
0.0
 11
250.5499999999999
 21
753.693334801353
 31
0.0
  0
LINE
  5
1B5
330
1F
100
AcDbEntity
  8
1
  6
CONTINUOUS
 62
     7
100
AcDbLine
 10
439.4500000000001
 20
753.693334801353
 30
0.0
 11
439.4500000000001
 21
753.643334801353
 31
0.0
  0
LINE
  5
1B6
330
1F
100
AcDbEntity
  8
1
  6
CONTINUOUS
 62
     7
100
AcDbLine
 10
439.6500000000001
 20
754.193334801353
 30
0.0
 11
439.6500000000001
 21
753.693334801353
 31
0.0
  0
LINE
  5
1B7
330
1F
100
AcDbEntity
  8
1
  6
CONTINUOUS
 62
     7
100
AcDbLine
 10
439.4499999999999
 20
753.693334801353
 30
0.0
 11
439.6500000000001
 21
753.693334801353
 31
0.0
  0
LINE
  5
1B8
330
1F
100
AcDbEntity
  8
1
  6
CONTINUOUS
 62
     7
100
AcDbLine
 10
438.9499999999998
 20
754.193334801353
 30
0.0
 11
439.6500000000001
 21
754.193334801353
 31
0.0
  0
LINE
  5
1B9
330
1F
100
AcDbEntity
  8
1
  6
CONTINUOUS
 62
     7
100
AcDbLine
 10
250.3500000000002
 20
754.193334801353
 30
0.0
 11
250.3500000000002
 21
753.693334801353
 31
0.0
  0
LINE
  5
1BA
330
1F
100
AcDbEntity
  8
1
  6
CONTINUOUS
 62
     7
100
AcDbLine
 10
250.5499999999999
 20
753.693334801353
 30
0.0
 11
250.3500000000002
 21
753.693334801353
 31
0.0
  0
LINE
  5
1BB
330
1F
100
AcDbEntity
  8
1
  6
CONTINUOUS
 62
     7
100
AcDbLine
 10
251.0500000000002
 20
754.193334801353
 30
0.0
 11
250.3500000000002
 21
754.193334801353
 31
0.0
  0
ENDSEC
  0
SECTION
  2
OBJECTS
  0
DICTIONARY
  5
C
330
0
100
AcDbDictionary
  3
ACAD_GROUP
350
D
  3
ACAD_LAYOUT
350
1A
  3
ACAD_MATERIAL
350
43
  3
ACAD_MLEADERSTYLE
350
6B
  3
ACAD_MLINESTYLE
350
17
  3
ACAD_PLOTSETTINGS
350
19
  3
ACAD_SCALELIST
350
47
  3
ACAD_VISUALSTYLE
350
2A
  3
ACDBHEADERROUNDTRIPXREC
350
1BC
  3
ACDBVARIABLEDICTIONARY
350
1DD
  0
DICTIONARY
  5
1E4
330
8
100
AcDbDictionary
280
     1
  3
ACAD_XREC_ROUNDTRIP
360
1E5
  0
DICTIONARY
  5
D
102
{ACAD_REACTORS
330
C
102
}
330
C
100
AcDbDictionary
  0
DICTIONARY
  5
1A
102
{ACAD_REACTORS
330
C
102
}
330
C
100
AcDbDictionary
  0
DICTIONARY
  5
43
102
{ACAD_REACTORS
330
C
102
}
330
C
100
AcDbDictionary
  3
BYBLOCK
350
45
  3
BYLAYER
350
44
  3
GLOBAL
350
46
  0
DICTIONARY
  5
6B
102
{ACAD_REACTORS
330
C
102
}
330
C
100
AcDbDictionary
  3
STANDARD
350
6C
  0
DICTIONARY
  5
17
102
{ACAD_REACTORS
330
C
102
}
330
C
100
AcDbDictionary
  3
STANDARD
350
18
  0
DICTIONARY
  5
19
102
{ACAD_REACTORS
330
C
102
}
330
C
100
AcDbDictionary
  0
DICTIONARY
  5
47
102
{ACAD_REACTORS
330
C
102
}
330
C
100
AcDbDictionary
  3
A0
350
48
  3
A1
350
49
  3
A2
350
4A
  3
A3
350
4B
  3
A4
350
4C
  3
A5
350
4D
  3
A6
350
4E
  3
A7
350
4F
  3
A8
350
50
  3
A9
350
51
  3
B0
350
52
  3
B1
350
53
  3
B2
350
54
  3
B3
350
55
  3
B4
350
56
  3
B5
350
57
  3
B6
350
58
  3
B7
350
59
  3
B8
350
5A
  3
B9
350
5B
  3
C0
350
5C
  3
C1
350
5D
  3
C2
350
5E
  3
C3
350
5F
  3
C4
350
60
  3
C5
350
61
  3
C6
350
62
  3
C7
350
63
  3
C8
350
64
  3
C9
350
65
  3
D0
350
66
  3
D1
350
67
  3
D2
350
68
  0
DICTIONARY
  5
2A
102
{ACAD_REACTORS
330
C
102
}
330
C
100
AcDbDictionary
  3
2DWIREFRAME
350
2F
  3
BASIC
350
32
  3
BRIGHTEN
350
36
  3
COLORCHANGE
350
3A
  3
CONCEPTUAL
350
34
  3
DIM
350
35
  3
EDGECOLOROFF
350
3D
  3
FACEPATTERN
350
39
  3
FLAT
350
2B
  3
FLATWITHEDGES
350
2C
  3
GOURAUD
350
2D
  3
GOURAUDWITHEDGES
350
2E
  3
HIDDEN
350
31
  3
JITTEROFF
350
3B
  3
LINEPATTERN
350
38
  3
OVERHANGOFF
350
3C
  3
REALISTIC
350
33
  3
SHADED
350
42
  3
SHADED_WITH_EDGES
350
41
  3
SHADES_OF_GRAY
350
3E
  3
SKETCHY
350
3F
  3
THICKEN
350
37
  3
WIREFRAME
350
30
  3
X-RAY
350
40
  0
DICTIONARY
  5
1BC
102
{ACAD_REACTORS
330
C
102
}
330
C
100
AcDbDictionary
  3
CEPSNID
350
1C6
  3
CEPSNTYPE
350
1C5
  3
DIMSTYLEDATA
350
1DC
  3
FINGERPRINTGUID
350
1C7
  3
HYPERLINKBASE
350
1BF
  3
INSUNITS
350
1C4
  3
LAYOUTDICT
350
1C1
  3
LWETCUNION
350
1C3
  3
PLOTSETDICT
350
1C2
  3
PSVPSCALE
350
1C9
  3
PUCSBASE
350
1CC
  3
PUCSORGBACK
350
1D2
  3
PUCSORGBOTTOM
350
1CE
  3
PUCSORGFRONT
350
1D1
  3
PUCSORGLEFT
350
1CF
  3
PUCSORGRIGHT
350
1D0
  3
PUCSORGTOP
350
1CD
  3
PUCSORTHOREF
350
1CA
  3
PUCSORTHOVIEW
350
1CB
  3
STYLESHEET
350
1C0
  3
TSTACKALIGN
350
1BD
  3
TSTACKSIZE
350
1BE
  3
UCSBASE
350
1D5
  3
UCSORGBACK
350
1DB
  3
UCSORGBOTTOM
350
1D7
  3
UCSORGFRONT
350
1DA
  3
UCSORGLEFT
350
1D8
  3
UCSORGRIGHT
350
1D9
  3
UCSORGTOP
350
1D6
  3
UCSORTHOREF
350
1D3
  3
UCSORTHOVIEW
350
1D4
  3
VERSIONGUID
350
1C8
  0
DICTIONARY
  5
1DD
102
{ACAD_REACTORS
330
C
102
}
330
C
100
AcDbDictionary
  3
CANNOSCALE
350
1E6
  3
CMLEADERSTYLE
350
1DF
  3
CTABLESTYLE
350
1DE
  3
DIMASSOC
350
1E2
  3
HIDETEXT
350
1E3
  3
MSLTSCALE
350
1E7
  0
XRECORD
  5
1E5
102
{ACAD_REACTORS
330
1E4
102
}
330
1E4
100
AcDbXrecord
102
VTR_0.000_0.000_1.000_1.000_VISUALSTYLE
340
2F
102
VTR_0.000_0.000_1.000_1.000_GRIDDISPLAY
 70
     3
102
VTR_0.000_0.000_1.000_1.000_GRIDMAJOR
 70
     5
102
VTR_0.000_0.000_1.000_1.000_DEFAULTLIGHTING
280
     1
102
VTR_0.000_0.000_1.000_1.000_DEFAULTLIGHTINGTYPE
 70
     1
102
VTR_0.000_0.000_1.000_1.000_BRIGHTNESS
141
0.0
102
VTR_0.000_0.000_1.000_1.000_CONTRAST
142
0.0
  0
MATERIAL
  5
45
102
{ACAD_REACTORS
330
43
102
}
102
{ACAD_XDICTIONARY
360
1EA
102
}
330
43
100
AcDbMaterial
  1
BYBLOCK
  0
MATERIAL
  5
44
102
{ACAD_REACTORS
330
43
102
}
102
{ACAD_XDICTIONARY
360
1E8
102
}
330
43
100
AcDbMaterial
  1
BYLAYER
  0
MATERIAL
  5
46
102
{ACAD_REACTORS
330
43
102
}
102
{ACAD_XDICTIONARY
360
1EC
102
}
330
43
100
AcDbMaterial
  1
GLOBAL
  0
ACAD_PROXY_OBJECT
  5
6C
102
{ACAD_REACTORS
330
6B
102
}
330
6B
100
AcDbProxyObject
 90
      499
 91
      505
 93
      610
310
40901902A4063FBFFFFFE056BD1B81E855B9FC0AD7A3703D0AD73F4214DD185B99185C9900AD7A3703D0AC73F90141901A02B5E8DC0F42B1CFC02B5E8DC0F42B1CFE5764000000000000300FC0
340
14
340
0
340
11
340
0
 94
        0
1001
ACAD_MLEADERVER
1070
     2
  0
MLINESTYLE
  5
18
102
{ACAD_REACTORS
330
17
102
}
330
17
100
AcDbMlineStyle
  2
Standard
 70
     0
  3

 62
   256
 51
90.0
 52
90.0
 71
     2
 49
0.5
 62
   256
  6
BYLAYER
 49
-0.5
 62
   256
  6
BYLAYER
  0
ACAD_PROXY_OBJECT
  5
48
102
{ACAD_REACTORS
330
47
102
}
330
47
100
AcDbProxyObject
 90
      499
 91
      503
 93
       41
310
903313A31580
  0
ACAD_PROXY_OBJECT
  5
49
102
{ACAD_REACTORS
330
47
102
}
330
47
100
AcDbProxyObject
 90
      499
 91
      503
 93
      105
310
903313A324000000000000004000
  0
ACAD_PROXY_OBJECT
  5
4A
102
{ACAD_REACTORS
330
47
102
}
330
47
100
AcDbProxyObject
 90
      499
 91
      503
 93
      105
310
903313A344000000000000104000
  0
ACAD_PROXY_OBJECT
  5
4B
102
{ACAD_REACTORS
330
47
102
}
330
47
100
AcDbProxyObject
 90
      499
 91
      503
 93
      105
310
903313A354000000000000144000
  0
ACAD_PROXY_OBJECT
  5
4C
102
{ACAD_REACTORS
330
47
102
}
330
47
100
AcDbProxyObject
 90
      499
 91
      503
 93
      105
310
903313A384000000000000204000
  0
ACAD_PROXY_OBJECT
  5
4D
102
{ACAD_REACTORS
330
47
102
}
330
47
100
AcDbProxyObject
 90
      499
 91
      503
 93
      113
310
904313A31304000000000000244000
  0
ACAD_PROXY_OBJECT
  5
4E
102
{ACAD_REACTORS
330
47
102
}
330
47
100
AcDbProxyObject
 90
      499
 91
      503
 93
      113
310
904313A31364000000000000304000
  0
ACAD_PROXY_OBJECT
  5
4F
102
{ACAD_REACTORS
330
47
102
}
330
47
100
AcDbProxyObject
 90
      499
 91
      503
 93
      113
310
904313A32304000000000000344000
  0
ACAD_PROXY_OBJECT
  5
50
102
{ACAD_REACTORS
330
47
102
}
330
47
100
AcDbProxyObject
 90
      499
 91
      503
 93
      113
310
904313A333040000000000003E4000
  0
ACAD_PROXY_OBJECT
  5
51
102
{ACAD_REACTORS
330
47
102
}
330
47
100
AcDbProxyObject
 90
      499
 91
      503
 93
      113
310
904313A34304000000000000444000
  0
ACAD_PROXY_OBJECT
  5
52
102
{ACAD_REACTORS
330
47
102
}
330
47
100
AcDbProxyObject
 90
      499
 91
      503
 93
      113
310
904313A35304000000000000494000
  0
ACAD_PROXY_OBJECT
  5
53
102
{ACAD_REACTORS
330
47
102
}
330
47
100
AcDbProxyObject
 90
      499
 91
      503
 93
      121
310
905313A3130304000000000000594000
  0
ACAD_PROXY_OBJECT
  5
54
102
{ACAD_REACTORS
330
47
102
}
330
47
100
AcDbProxyObject
 90
      499
 91
      503
 93
      105
310
903323A310000000000000010100
  0
ACAD_PROXY_OBJECT
  5
55
102
{ACAD_REACTORS
330
47
102
}
330
47
100
AcDbProxyObject
 90
      499
 91
      503
 93
      105
310
903343A310000000000000410100
  0
ACAD_PROXY_OBJECT
  5
56
102
{ACAD_REACTORS
330
47
102
}
330
47
100
AcDbProxyObject
 90
      499
 91
      503
 93
      105
310
903383A310000000000000810100
  0
ACAD_PROXY_OBJECT
  5
57
102
{ACAD_REACTORS
330
47
102
}
330
47
100
AcDbProxyObject
 90
      499
 91
      503
 93
      113
310
90431303A310000000000000910100
  0
ACAD_PROXY_OBJECT
  5
58
102
{ACAD_REACTORS
330
47
102
}
330
47
100
AcDbProxyObject
 90
      499
 91
      503
 93
      121
310
9053130303A310000000000001650100
  0
ACAD_PROXY_OBJECT
  5
59
102
{ACAD_REACTORS
330
47
102
}
330
47
100
AcDbProxyObject
 90
      499
 91
      503
 93
      257
310
90E312F31323822203D2031272D3022000000000000200FC000000000000284000
  0
ACAD_PROXY_OBJECT
  5
5A
102
{ACAD_REACTORS
330
47
102
}
330
47
100
AcDbProxyObject
 90
      499
 91
      503
 93
      249
310
90D312F363422203D2031272D3022000000000000240FC000000000000284000
  0
ACAD_PROXY_OBJECT
  5
5B
102
{ACAD_REACTORS
330
47
102
}
330
47
100
AcDbProxyObject
 90
      499
 91
      503
 93
      249
310
90D312F333222203D2031272D3022000000000000280FC000000000000284000
  0
ACAD_PROXY_OBJECT
  5
5C
102
{ACAD_REACTORS
330
47
102
}
330
47
100
AcDbProxyObject
 90
      499
 91
      503
 93
      249
310
90D312F313622203D2031272D30220000000000002C0FC000000000000284000
  0
ACAD_PROXY_OBJECT
  5
5D
102
{ACAD_REACTORS
330
47
102
}
330
47
100
AcDbProxyObject
 90
      499
 91
      503
 93
      249
310
90D332F333222203D2031272D30220000000000002E0FC000000000000284000
  0
ACAD_PROXY_OBJECT
  5
5E
102
{ACAD_REACTORS
330
47
102
}
330
47
100
AcDbProxyObject
 90
      499
 91
      503
 93
      241
310
90C312F3822203D2031272D3022000000000000300FC000000000000284000
  0
ACAD_PROXY_OBJECT
  5
5F
102
{ACAD_REACTORS
330
47
102
}
330
47
100
AcDbProxyObject
 90
      499
 91
      503
 93
      249
310
90D332F313622203D2031272D3022000000000000320FC000000000000284000
  0
ACAD_PROXY_OBJECT
  5
60
102
{ACAD_REACTORS
330
47
102
}
330
47
100
AcDbProxyObject
 90
      499
 91
      503
 93
      241
310
90C312F3422203D2031272D3022000000000000340FC000000000000284000
  0
ACAD_PROXY_OBJECT
  5
61
102
{ACAD_REACTORS
330
47
102
}
330
47
100
AcDbProxyObject
 90
      499
 91
      503
 93
      241
310
90C332F3822203D2031272D3022000000000000360FC000000000000284000
  0
ACAD_PROXY_OBJECT
  5
62
102
{ACAD_REACTORS
330
47
102
}
330
47
100
AcDbProxyObject
 90
      499
 91
      503
 93
      241
310
90C312F3222203D2031272D3022000000000000380FC000000000000284000
  0
ACAD_PROXY_OBJECT
  5
63
102
{ACAD_REACTORS
330
47
102
}
330
47
100
AcDbProxyObject
 90
      499
 91
      503
 93
      241
310
90C332F3422203D2031272D30220000000000003A0FC000000000000284000
  0
ACAD_PROXY_OBJECT
  5
64
102
{ACAD_REACTORS
330
47
102
}
330
47
100
AcDbProxyObject
 90
      499
 91
      503
 93
      161
310
90A3122203D2031272D30224000000000000284000
  0
ACAD_PROXY_OBJECT
  5
65
102
{ACAD_REACTORS
330
47
102
}
330
47
100
AcDbProxyObject
 90
      499
 91
      503
 93
      257
310
90E312D312F3222203D2031272D30220000000000003E0FC000000000000284000
  0
ACAD_PROXY_OBJECT
  5
66
102
{ACAD_REACTORS
330
47
102
}
330
47
100
AcDbProxyObject
 90
      499
 91
      503
 93
      225
310
90A3322203D2031272D302200000000000002100000000000000284000
  0
ACAD_PROXY_OBJECT
  5
67
102
{ACAD_REACTORS
330
47
102
}
330
47
100
AcDbProxyObject
 90
      499
 91
      503
 93
      225
310
90A3622203D2031272D302200000000000006100000000000000284000
  0
ACAD_PROXY_OBJECT
  5
68
102
{ACAD_REACTORS
330
47
102
}
330
47
100
AcDbProxyObject
 90
      499
 91
      503
 93
      249
310
90D31272D3022203D2031272D30220000000000000A100000000000000284000
  0
ACAD_PROXY_OBJECT
  5
2F
102
{ACAD_REACTORS
330
2A
102
}
330
2A
100
AcDbProxyObject
 90
      499
 91
      501
 93
      436
310
42CC9915DA5C99599C985B595049028333333333333E33F0000000000000F90107901411070040501600405405064090741402480A0340
1001
ACAD
1000
AcDbSavedByObjectVersion
1070
     0
  0
ACAD_PROXY_OBJECT
  5
32
102
{ACAD_REACTORS
330
2A
102
}
330
2A
100
AcDbProxyObject
 90
      499
 91
      501
 93
      388
310
4150985CDA58D07406404333333333333E33F0000000000000F90107A41107004050150841D405064090741402480A0350
1001
ACAD
1000
AcDbSavedByObjectVersion
1070
     0
  0
ACAD_PROXY_OBJECT
  5
36
102
{ACAD_REACTORS
330
2A
102
}
330
2A
100
AcDbProxyObject
 90
      499
 91
      501
 93
      428
310
42109C9A59DA1D195B90C409028333333333333E33F0000000000000F9010790141107004050150841D405064090741402480A029950
1001
ACAD
1000
AcDbSavedByObjectVersion
1070
     0
  0
ACAD_PROXY_OBJECT
  5
3A
102
{ACAD_REACTORS
330
2A
102
}
330
2A
100
AcDbProxyObject
 90
      499
 91
      501
 93
      452
310
42D0DBDB1BDC90DA185B99D95104090240C333333333333E33F0000000000000F90108901411070040501508421405064090741402480A0350
1001
ACAD
1000
AcDbSavedByObjectVersion
1070
     0
  0
ACAD_PROXY_OBJECT
  5
34
102
{ACAD_REACTORS
330
2A
102
}
330
2A
100
AcDbProxyObject
 90
      499
 91
      501
 93
      500
310
4290DBDB98D95C1D1D585B10940D028333333333333E33F0000000000000F90107902409070040501000000000018199010841D405064090740C02480A0340
1001
ACAD
1000
AcDbSavedByObjectVersion
1070
     0
  0
ACAD_PROXY_OBJECT
  5
35
102
{ACAD_REACTORS
330
2A
102
}
330
2A
100
AcDbProxyObject
 90
      499
 91
      501
 93
      412
310
40D11A5B50B409028333333333333E33F0000000000000F9010790141107004050150841D405064090741402480A02677FFFFFD0
1001
ACAD
1000
AcDbSavedByObjectVersion
1070
     0
  0
ACAD_PROXY_OBJECT
  5
3D
102
{ACAD_REACTORS
330
2A
102
}
330
2A
100
AcDbProxyObject
 90
      499
 91
      501
 93
      452
310
43115919D950DBDB1BDC93D999916409028333333333333E33F0000000000000F9010790141107004050150841D405064090741402480A0350
1001
ACAD
1000
AcDbSavedByObjectVersion
1070
     0
  0
ACAD_PROXY_OBJECT
  5
39
102
{ACAD_REACTORS
330
2A
102
}
330
2A
100
AcDbProxyObject
 90
      499
 91
      501
 93
      444
310
42D19858D95C185D1D195C9B90F409028333333333333E33F0000000000000F9010790141107004050150841D405064090741402480A0350
1001
ACAD
1000
AcDbSavedByObjectVersion
1070
     0
  0
ACAD_PROXY_OBJECT
  5
2B
102
{ACAD_REACTORS
330
2A
102
}
330
2A
100
AcDbProxyObject
 90
      499
 91
      501
 93
      380
310
41119B185D240901404333333333333E33F0000000000000F9010740A907004050150841D405064090741402480A1B50
1001
ACAD
1000
AcDbSavedByObjectVersion
1070
     0
  0
ACAD_PROXY_OBJECT
  5
2C
102
{ACAD_REACTORS
330
2A
102
}
330
2A
100
AcDbProxyObject
 90
      499
 91
      501
 93
      468
310
43519B185D15DA5D1A115919D95CD0140901404333333333333E33F0000000000000F90107409019070040501600405405064090741402480A1B50
1001
ACAD
1000
AcDbSavedByObjectVersion
1070
     0
  0
ACAD_PROXY_OBJECT
  5
2D
102
{ACAD_REACTORS
330
2A
102
}
330
2A
100
AcDbProxyObject
 90
      499
 91
      501
 93
      404
310
41D1DBDD5C985D5910240902404333333333333E33F0000000000000F9010740A9070040501641D405064090741402480A1B50
1001
ACAD
1000
AcDbSavedByObjectVersion
1070
     0
  0
ACAD_PROXY_OBJECT
  5
2E
102
{ACAD_REACTORS
330
2A
102
}
330
2A
100
AcDbProxyObject
 90
      499
 91
      501
 93
      492
310
4411DBDD5C985D5915DA5D1A115919D95CD0340902404333333333333E33F0000000000000F90107409019070040501600405405064090741402480A1B50
1001
ACAD
1000
AcDbSavedByObjectVersion
1070
     0
  0
ACAD_PROXY_OBJECT
  5
31
102
{ACAD_REACTORS
330
2A
102
}
330
2A
100
AcDbProxyObject
 90
      499
 91
      501
 93
      476
310
41921A5919195B90640502408333333333333E33F0000000000000F901079024090700405020000000000001110200405405064090740C02480A0340
1001
ACAD
1000
AcDbSavedByObjectVersion
1070
     0
  0
ACAD_PROXY_OBJECT
  5
3B
102
{ACAD_REACTORS
330
2A
102
}
330
2A
100
AcDbProxyObject
 90
      499
 91
      501
 93
      428
310
42529A5D1D195C93D999914409028333333333333E33F0000000000000F9010790141107004050150A41D405064090741402480A0350
1001
ACAD
1000
AcDbSavedByObjectVersion
1070
     0
  0
ACAD_PROXY_OBJECT
  5
38
102
{ACAD_REACTORS
330
2A
102
}
330
2A
100
AcDbProxyObject
 90
      499
 91
      501
 93
      444
310
42D31A5B995C185D1D195C9B90E409028333333333333E33F0000000000000F9010790141107004050750841D405064090741402483A0350
1001
ACAD
1000
AcDbSavedByObjectVersion
1070
     0
  0
ACAD_PROXY_OBJECT
  5
3C
102
{ACAD_REACTORS
330
2A
102
}
330
2A
100
AcDbProxyObject
 90
      499
 91
      501
 93
      444
310
42D3DD995C9A185B99D3D999915409028333333333333E33F0000000000000F9010790141107004050150941D405064090741402480A0350
1001
ACAD
1000
AcDbSavedByObjectVersion
1070
     0
  0
ACAD_PROXY_OBJECT
  5
33
102
{ACAD_REACTORS
330
2A
102
}
330
2A
100
AcDbProxyObject
 90
      499
 91
      501
 93
      428
310
425499585B1A5CDD1A58D08409038333333333333E33F0000000000000F9010740A907004050150800405405064090740C02480A1B40
1001
ACAD
1000
AcDbSavedByObjectVersion
1070
     0
  0
ACAD_PROXY_OBJECT
  5
42
102
{ACAD_REACTORS
330
2A
102
}
330
2A
100
AcDbProxyObject
 90
      499
 91
      501
 93
      420
310
4194DA1859195911B40902404333333333333E33F0000000000000F9010740A41107004050150800405405064090840C02480A0B40
1001
ACAD
1000
AcDbSavedByObjectVersion
1070
     0
  0
ACAD_PROXY_OBJECT
  5
41
102
{ACAD_REACTORS
330
2A
102
}
330
2A
100
AcDbProxyObject
 90
      499
 91
      501
 93
      516
310
4454DA18591959081DDA5D1A08195919D95CD1A40902404333333333333E33F0000000000000F901074090142907004050250800405405064090740C02480A0B40
1001
ACAD
1000
AcDbSavedByObjectVersion
1070
     0
  0
ACAD_PROXY_OBJECT
  5
3E
102
{ACAD_REACTORS
330
2A
102
}
330
2A
100
AcDbProxyObject
 90
      499
 91
      501
 93
      532
310
4394DA1859195CC81BD98811DC985E5174090240C333333333333E33F0000000000000F901079024090741D01000000000000111010841D405064090740C02480A0340
1001
ACAD
1000
AcDbSavedByObjectVersion
1070
     0
  0
ACAD_PROXY_OBJECT
  5
3F
102
{ACAD_REACTORS
330
2A
102
}
330
2A
100
AcDbProxyObject
 90
      499
 91
      501
 93
      476
310
41D4DAD95D18DA1E51840502408333333333333E33F0000000000000F901079024090741D01000000000000111010B41D405064090741802480A0340
1001
ACAD
1000
AcDbSavedByObjectVersion
1070
     0
  0
ACAD_PROXY_OBJECT
  5
37
102
{ACAD_REACTORS
330
2A
102
}
330
2A
100
AcDbProxyObject
 90
      499
 91
      501
 93
      412
310
41D51A1A58DAD95B90D409028333333333333E33F0000000000000F9010790141107004050150C41D405064090741402480A0350
1001
ACAD
1000
AcDbSavedByObjectVersion
1070
     0
  0
ACAD_PROXY_OBJECT
  5
30
102
{ACAD_REACTORS
330
2A
102
}
330
2A
100
AcDbProxyObject
 90
      499
 91
      501
 93
      420
310
4255DA5C99599C985B595059028333333333333E33F0000000000000F90107901411070040501600405405064090740C02480A0340
1001
ACAD
1000
AcDbSavedByObjectVersion
1070
     0
  0
ACAD_PROXY_OBJECT
  5
40
102
{ACAD_REACTORS
330
2A
102
}
330
2A
100
AcDbProxyObject
 90
      499
 91
      501
 93
      404
310
41560B54985E51940902404000000000000E03F0000000000000F9010740501907004050150841D405064090740C02480A1B40
1001
ACAD
1000
AcDbSavedByObjectVersion
1070
     0
  0
XRECORD
  5
1C6
102
{ACAD_REACTORS
330
1BC
102
}
330
1BC
100
AcDbXrecord
340
0
  0
XRECORD
  5
1C5
102
{ACAD_REACTORS
330
1BC
102
}
330
1BC
100
AcDbXrecord
 90
        0
  0
XRECORD
  5
1DC
102
{ACAD_REACTORS
330
1BC
102
}
330
1BC
100
AcDbXrecord
1000
DSTYLE
1002
{
1070
   179
 70
     2
1070
   171
 70
     2
1070
   143
 40
25.4
1070
   274
 70
     2
1070
    41
 40
3.0
1070
   141
 40
0.09
1070
    43
 40
0.38
1070
   278
 70
    46
1070
    44
 40
1.5
1070
    42
 40
0.0625
1070
   147
 40
1.5
1070
   272
 70
     4
1070
    73
 70
     1
1070
   172
 70
     0
1070
    74
 70
     1
1070
   283
 70
     1
1070
   340
340
6F
1070
   140
 40
3.0
1070
   284
 70
     0
1070
    78
 70
     0
1002
}
  0
XRECORD
  5
1C7
102
{ACAD_REACTORS
330
1BC
102
}
330
1BC
100
AcDbXrecord
  1
{C7092EED-67DD-4658-8FEF-D09E69A6EDAD}
  0
XRECORD
  5
1BF
102
{ACAD_REACTORS
330
1BC
102
}
330
1BC
100
AcDbXrecord
  1

  0
XRECORD
  5
1C4
102
{ACAD_REACTORS
330
1BC
102
}
330
1BC
100
AcDbXrecord
 90
        4
  0
XRECORD
  5
1C1
102
{ACAD_REACTORS
330
1BC
102
}
330
1BC
100
AcDbXrecord
340
1A
  0
XRECORD
  5
1C3
102
{ACAD_REACTORS
330
1BC
102
}
330
1BC
100
AcDbXrecord
 90
    10269
  0
XRECORD
  5
1C2
102
{ACAD_REACTORS
330
1BC
102
}
330
1BC
100
AcDbXrecord
340
19
  0
XRECORD
  5
1C9
102
{ACAD_REACTORS
330
1BC
102
}
330
1BC
100
AcDbXrecord
 40
0.0
  0
XRECORD
  5
1CC
102
{ACAD_REACTORS
330
1BC
102
}
330
1BC
100
AcDbXrecord
340
0
  0
XRECORD
  5
1D2
102
{ACAD_REACTORS
330
1BC
102
}
330
1BC
100
AcDbXrecord
 10
0.0
 20
0.0
 30
0.0
  0
XRECORD
  5
1CE
102
{ACAD_REACTORS
330
1BC
102
}
330
1BC
100
AcDbXrecord
 10
0.0
 20
0.0
 30
0.0
  0
XRECORD
  5
1D1
102
{ACAD_REACTORS
330
1BC
102
}
330
1BC
100
AcDbXrecord
 10
0.0
 20
0.0
 30
0.0
  0
XRECORD
  5
1CF
102
{ACAD_REACTORS
330
1BC
102
}
330
1BC
100
AcDbXrecord
 10
0.0
 20
0.0
 30
0.0
  0
XRECORD
  5
1D0
102
{ACAD_REACTORS
330
1BC
102
}
330
1BC
100
AcDbXrecord
 10
0.0
 20
0.0
 30
0.0
  0
XRECORD
  5
1CD
102
{ACAD_REACTORS
330
1BC
102
}
330
1BC
100
AcDbXrecord
 10
0.0
 20
0.0
 30
0.0
  0
XRECORD
  5
1CA
102
{ACAD_REACTORS
330
1BC
102
}
330
1BC
100
AcDbXrecord
340
0
  0
XRECORD
  5
1CB
102
{ACAD_REACTORS
330
1BC
102
}
330
1BC
100
AcDbXrecord
 70
     0
  0
XRECORD
  5
1C0
102
{ACAD_REACTORS
330
1BC
102
}
330
1BC
100
AcDbXrecord
  1

  0
XRECORD
  5
1BD
102
{ACAD_REACTORS
330
1BC
102
}
330
1BC
100
AcDbXrecord
 90
        1
  0
XRECORD
  5
1BE
102
{ACAD_REACTORS
330
1BC
102
}
330
1BC
100
AcDbXrecord
 90
       70
  0
XRECORD
  5
1D5
102
{ACAD_REACTORS
330
1BC
102
}
330
1BC
100
AcDbXrecord
340
0
  0
XRECORD
  5
1DB
102
{ACAD_REACTORS
330
1BC
102
}
330
1BC
100
AcDbXrecord
 10
0.0
 20
0.0
 30
0.0
  0
XRECORD
  5
1D7
102
{ACAD_REACTORS
330
1BC
102
}
330
1BC
100
AcDbXrecord
 10
0.0
 20
0.0
 30
0.0
  0
XRECORD
  5
1DA
102
{ACAD_REACTORS
330
1BC
102
}
330
1BC
100
AcDbXrecord
 10
0.0
 20
0.0
 30
0.0
  0
XRECORD
  5
1D8
102
{ACAD_REACTORS
330
1BC
102
}
330
1BC
100
AcDbXrecord
 10
0.0
 20
0.0
 30
0.0
  0
XRECORD
  5
1D9
102
{ACAD_REACTORS
330
1BC
102
}
330
1BC
100
AcDbXrecord
 10
0.0
 20
0.0
 30
0.0
  0
XRECORD
  5
1D6
102
{ACAD_REACTORS
330
1BC
102
}
330
1BC
100
AcDbXrecord
 10
0.0
 20
0.0
 30
0.0
  0
XRECORD
  5
1D3
102
{ACAD_REACTORS
330
1BC
102
}
330
1BC
100
AcDbXrecord
340
0
  0
XRECORD
  5
1D4
102
{ACAD_REACTORS
330
1BC
102
}
330
1BC
100
AcDbXrecord
 70
     0
  0
XRECORD
  5
1C8
102
{ACAD_REACTORS
330
1BC
102
}
330
1BC
100
AcDbXrecord
  1
{FAEB1C32-E019-11D5-929B-00C0DF256EC4}
  0
DICTIONARYVAR
  5
1E6
102
{ACAD_REACTORS
330
1DD
102
}
330
1DD
100
DictionaryVariables
280
     0
  1
1:1
  0
DICTIONARYVAR
  5
1DF
102
{ACAD_REACTORS
330
1DD
102
}
330
1DD
100
DictionaryVariables
280
     0
  1
Standard
  0
DICTIONARYVAR
  5
1DE
102
{ACAD_REACTORS
330
1DD
102
}
330
1DD
100
DictionaryVariables
280
     0
  1
Standard
  0
DICTIONARYVAR
  5
1E2
102
{ACAD_REACTORS
330
1DD
102
}
330
1DD
100
DictionaryVariables
280
     0
  1
2
  0
DICTIONARYVAR
  5
1E3
102
{ACAD_REACTORS
330
1DD
102
}
330
1DD
100
DictionaryVariables
280
     0
  1
1
  0
DICTIONARYVAR
  5
1E7
102
{ACAD_REACTORS
330
1DD
102
}
330
1DD
100
DictionaryVariables
280
     0
  1
1
  0
DICTIONARY
  5
1EA
330
45
100
AcDbDictionary
280
     1
  3
ACAD_XREC_ROUNDTRIP
360
1EB
  0
DICTIONARY
  5
1E8
330
44
100
AcDbDictionary
280
     1
  3
ACAD_XREC_ROUNDTRIP
360
1E9
  0
DICTIONARY
  5
1EC
330
46
100
AcDbDictionary
280
     1
  3
ACAD_XREC_ROUNDTRIP
360
1ED
  0
XRECORD
  5
1EB
102
{ACAD_REACTORS
330
1EA
102
}
330
1EA
100
AcDbXrecord
102
MATERIAL
148
0.0
149
0.0
149
0.0
 93
        0
 94
      127
282
     0
 72
     1
 77
     1
171
     1
175
     1
179
     1
273
     0
  0
XRECORD
  5
1E9
102
{ACAD_REACTORS
330
1E8
102
}
330
1E8
100
AcDbXrecord
102
MATERIAL
148
0.0
149
0.0
149
0.0
 93
        0
 94
      127
282
     0
 72
     1
 77
     1
171
     1
175
     1
179
     1
273
     0
  0
XRECORD
  5
1ED
102
{ACAD_REACTORS
330
1EC
102
}
330
1EC
100
AcDbXrecord
102
MATERIAL
148
0.0
149
0.0
149
0.0
 93
        0
 94
      127
282
     0
 72
     1
 77
     1
171
     1
175
     1
179
     1
273
     0
  0
ENDSEC
  0
EOF
