  0
SECTION
  2
HEADER
  9
$ACADVER
  1
AC1014
  9
$ACADMAINTVER
 70
     9
  9
$DWGCODEPAGE
  3
ANSI_932
  9
$INSBASE
 10
0.0
 20
0.0
 30
0.0
  9
$EXTMIN
 10
285.0
 20
-769.9999999999999
 30
0.0
  9
$EXTMAX
 10
725.0
 20
-264.9999999999999
 30
0.0
  9
$LIMMIN
 10
0.0
 20
0.0
  9
$LIMMAX
 10
12.0
 20
9.0
  9
$ORTHOMODE
 70
     0
  9
$REGENMODE
 70
     1
  9
$FILLMODE
 70
     1
  9
$QTEXTMODE
 70
     0
  9
$MIRRTEXT
 70
     1
  9
$DRAGMODE
 70
     2
  9
$LTSCALE
 40
1.0
  9
$OSMODE
 70
    37
  9
$ATTMODE
 70
     1
  9
$TEXTSIZE
 40
0.2
  9
$TRACEWID
 40
0.05
  9
$TEXTSTYLE
  7
STANDARD
  9
$CLAYER
  8
0
  9
$CELTYPE
  6
BYLAYER
  9
$CECOLOR
 62
   256
  9
$CELTSCALE
 40
1.0
  9
$DELOBJ
 70
     1
  9
$DISPSILH
 70
     0
  9
$DIMSCALE
 40
1.0
  9
$DIMASZ
 40
3.0
  9
$DIMEXO
 40
0.0625
  9
$DIMDLI
 40
0.38
  9
$DIMRND
 40
0.0
  9
$DIMDLE
 40
0.0
  9
$DIMEXE
 40
1.5
  9
$DIMTP
 40
0.0
  9
$DIMTM
 40
0.0
  9
$DIMTXT
 40
3.0
  9
$DIMCEN
 40
0.09
  9
$DIMTSZ
 40
0.0
  9
$DIMTOL
 70
     0
  9
$DIMLIM
 70
     0
  9
$DIMTIH
 70
     1
  9
$DIMTOH
 70
     1
  9
$DIMSE1
 70
     0
  9
$DIMSE2
 70
     0
  9
$DIMTAD
 70
     1
  9
$DIMZIN
 70
     0
  9
$DIMBLK
  1

  9
$DIMASO
 70
     1
  9
$DIMSHO
 70
     1
  9
$DIMPOST
  1

  9
$DIMAPOST
  1

  9
$DIMALT
 70
     0
  9
$DIMALTD
 70
     2
  9
$DIMALTF
 40
25.4
  9
$DIMLFAC
 40
1.0
  9
$DIMTOFL
 70
     0
  9
$DIMTVP
 40
0.0
  9
$DIMTIX
 70
     0
  9
$DIMSOXD
 70
     0
  9
$DIMSAH
 70
     0
  9
$DIMBLK1
  1

  9
$DIMBLK2
  1

  9
$DIMSTYLE
  2
STANDARD
  9
$DIMCLRD
 70
     0
  9
$DIMCLRE
 70
     0
  9
$DIMCLRT
 70
     0
  9
$DIMTFAC
 40
1.0
  9
$DIMGAP
 40
1.5
  9
$DIMJUST
 70
     0
  9
$DIMSD1
 70
     0
  9
$DIMSD2
 70
     0
  9
$DIMTOLJ
 70
     1
  9
$DIMTZIN
 70
     0
  9
$DIMALTZ
 70
     0
  9
$DIMALTTZ
 70
     0
  9
$DIMFIT
 70
     3
  9
$DIMUPT
 70
     0
  9
$DIMUNIT
 70
     2
  9
$DIMDEC
 70
     2
  9
$DIMTDEC
 70
     4
  9
$DIMALTU
 70
     2
  9
$DIMALTTD
 70
     2
  9
$DIMTXSTY
  7
ＭＳ_ゴシック
  9
$DIMAUNIT
 70
     0
  9
$LUNITS
 70
     2
  9
$LUPREC
 70
     4
  9
$SKETCHINC
 40
0.1
  9
$FILLETRAD
 40
0.5
  9
$AUNITS
 70
     0
  9
$AUPREC
 70
     0
  9
$MENU
  1
.
  9
$ELEVATION
 40
0.0
  9
$PELEVATION
 40
0.0
  9
$THICKNESS
 40
0.0
  9
$LIMCHECK
 70
     0
  9
$CHAMFERA
 40
0.0
  9
$CHAMFERB
 40
0.0
  9
$CHAMFERC
 40
0.0
  9
$CHAMFERD
 40
0.0
  9
$SKPOLY
 70
     0
  9
$TDCREATE
 40
2459870.470475833
  9
$TDUPDATE
 40
2459870.470476065
  9
$TDINDWG
 40
0.0000000116
  9
$TDUSRTIMER
 40
0.0000000116
  9
$USRTIMER
 70
     1
  9
$ANGBASE
 50
0.0
  9
$ANGDIR
 70
     0
  9
$PDMODE
 70
     0
  9
$PDSIZE
 40
0.0
  9
$PLINEWID
 40
0.0
  9
$COORDS
 70
     1
  9
$SPLFRAME
 70
     0
  9
$SPLINETYPE
 70
     6
  9
$SPLINESEGS
 70
     8
  9
$ATTDIA
 70
     0
  9
$ATTREQ
 70
     1
  9
$HANDLING
 70
     1
  9
$HANDSEED
  5
1FA
  9
$SURFTAB1
 70
     6
  9
$SURFTAB2
 70
     6
  9
$SURFTYPE
 70
     6
  9
$SURFU
 70
     6
  9
$SURFV
 70
     6
  9
$UCSNAME
  2

  9
$UCSORG
 10
0.0
 20
0.0
 30
0.0
  9
$UCSXDIR
 10
1.0
 20
0.0
 30
0.0
  9
$UCSYDIR
 10
0.0
 20
1.0
 30
0.0
  9
$PUCSNAME
  2

  9
$PUCSORG
 10
0.0
 20
0.0
 30
0.0
  9
$PUCSXDIR
 10
1.0
 20
0.0
 30
0.0
  9
$PUCSYDIR
 10
0.0
 20
1.0
 30
0.0
  9
$USERI1
 70
     0
  9
$USERI2
 70
     0
  9
$USERI3
 70
     0
  9
$USERI4
 70
     0
  9
$USERI5
 70
     0
  9
$USERR1
 40
0.0
  9
$USERR2
 40
0.0
  9
$USERR3
 40
0.0
  9
$USERR4
 40
0.0
  9
$USERR5
 40
0.0
  9
$WORLDVIEW
 70
     1
  9
$SHADEDGE
 70
     3
  9
$SHADEDIF
 70
    70
  9
$TILEMODE
 70
     1
  9
$MAXACTVP
 70
    64
  9
$PINSBASE
 10
0.0
 20
0.0
 30
0.0
  9
$PLIMCHECK
 70
     0
  9
$PEXTMIN
 10
1.000000000000000E+20
 20
1.000000000000000E+20
 30
1.000000000000000E+20
  9
$PEXTMAX
 10
-1.000000000000000E+20
 20
-1.000000000000000E+20
 30
-1.000000000000000E+20
  9
$PLIMMIN
 10
0.0
 20
0.0
  9
$PLIMMAX
 10
12.0
 20
9.0
  9
$UNITMODE
 70
     0
  9
$VISRETAIN
 70
     1
  9
$PLINEGEN
 70
     0
  9
$PSLTSCALE
 70
     1
  9
$TREEDEPTH
 70
  3020
  9
$PICKSTYLE
 70
     1
  9
$CMLSTYLE
  2
STANDARD
  9
$CMLJUST
 70
     0
  9
$CMLSCALE
 40
1.0
  9
$PROXYGRAPHICS
 70
     1
  9
$MEASUREMENT
 70
     1
  0
ENDSEC
  0
SECTION
  2
CLASSES
  0
CLASS
  1
ACDBDICTIONARYWDFLT
  2
AcDbDictionaryWithDefault
  3
ObjectDBX Classes
 90
        0
280
     0
281
     0
  0
CLASS
  1
VISUALSTYLE
  2
AcDbVisualStyle
  3
ObjectDBX Classes
 90
     4095
280
     0
281
     0
  0
CLASS
  1
MATERIAL
  2
AcDbMaterial
  3
ObjectDBX Classes
 90
     1153
280
     0
281
     0
  0
CLASS
  1
SCALE
  2
AcDbScale
  3
ObjectDBX Classes
 90
     1153
280
     0
281
     0
  0
CLASS
  1
TABLESTYLE
  2
AcDbTableStyle
  3
ObjectDBX Classes
 90
     4095
280
     0
281
     0
  0
CLASS
  1
MLEADERSTYLE
  2
AcDbMLeaderStyle
  3
ACDB_MLEADERSTYLE_CLASS
 90
     4095
280
     0
281
     0
  0
CLASS
  1
SUN
  2
AcDbSun
  3
SCENEOE
 90
     1153
280
     0
281
     0
  0
CLASS
  1
DICTIONARYVAR
  2
AcDbDictionaryVar
  3
ObjectDBX Classes
 90
        0
280
     0
281
     0
  0
CLASS
  1
XRECORD
  2
AcDbXrecord
  3
ObjectDBX Classes
 90
        0
280
     0
281
     0
  0
CLASS
  1
LWPOLYLINE
  2
AcDbPolyline
  3
ObjectDBX Classes
 90
        0
280
     0
281
     1
  0
CLASS
  1
HATCH
  2
AcDbHatch
  3
ObjectDBX Classes
 90
        0
280
     0
281
     1
  0
CLASS
  1
ACDBPLACEHOLDER
  2
AcDbPlaceHolder
  3
ObjectDBX Classes
 90
        0
280
     0
281
     0
  0
CLASS
  1
LAYOUT
  2
AcDbLayout
  3
ObjectDBX Classes
 90
        0
280
     0
281
     0
  0
ENDSEC
  0
SECTION
  2
TABLES
  0
TABLE
  2
VPORT
  5
8
102
{ACAD_XDICTIONARY
360
1EF
102
}
330
0
100
AcDbSymbolTable
 70
     1
  0
VPORT
  5
29
330
8
100
AcDbSymbolTableRecord
100
AcDbViewportTableRecord
  2
*ACTIVE
 70
     0
 10
0.0
 20
0.0
 11
1.0
 21
1.0
 12
505.0
 22
-517.4999999999999
 13
0.0
 23
0.0
 14
0.5
 24
0.5
 15
0.5
 25
0.5
 16
0.0
 26
0.0
 36
1.0
 17
0.0
 27
0.0
 37
0.0
 40
505.0
 41
1.6
 42
50.0
 43
0.0
 44
0.0
 50
0.0
 51
0.0
 71
     0
 72
   100
 73
     1
 74
     3
 75
     0
 76
     0
 77
     0
 78
     0
  0
ENDTAB
  0
TABLE
  2
LTYPE
  5
5
330
0
100
AcDbSymbolTable
 70
     2
  0
LTYPE
  5
14
330
5
100
AcDbSymbolTableRecord
100
AcDbLinetypeTableRecord
  2
BYBLOCK
 70
     0
  3

 72
    65
 73
     0
 40
0.0
  0
LTYPE
  5
15
330
5
100
AcDbSymbolTableRecord
100
AcDbLinetypeTableRecord
  2
BYLAYER
 70
     0
  3

 72
    65
 73
     0
 40
0.0
  0
LTYPE
  5
16
330
5
100
AcDbSymbolTableRecord
100
AcDbLinetypeTableRecord
  2
CONTINUOUS
 70
     0
  3
Solid line
 72
    65
 73
     0
 40
0.0
  0
LTYPE
  5
71
330
5
100
AcDbSymbolTableRecord
100
AcDbLinetypeTableRecord
  2
CENTER
 70
     0
  3

 72
    65
 73
     0
 40
0.0
  0
ENDTAB
  0
TABLE
  2
LAYER
  5
2
330
0
100
AcDbSymbolTable
 70
     2
  0
LAYER
  5
10
330
2
100
AcDbSymbolTableRecord
100
AcDbLayerTableRecord
  2
0
 70
     0
 62
     7
  6
CONTINUOUS
  0
LAYER
  5
6E
330
2
100
AcDbSymbolTableRecord
100
AcDbLayerTableRecord
  2
1
 70
     0
 62
     7
  6
CONTINUOUS
  0
ENDTAB
  0
TABLE
  2
STYLE
  5
3
330
0
100
AcDbSymbolTable
 70
     2
  0
STYLE
  5
11
330
3
100
AcDbSymbolTableRecord
100
AcDbTextStyleTableRecord
  2
STANDARD
 70
     0
 40
0.0
 41
1.0
 50
0.0
 71
     0
 42
0.2
  3
txt
  4

  0
STYLE
  5
6F
330
3
100
AcDbSymbolTableRecord
100
AcDbTextStyleTableRecord
  2
ＭＳ_ゴシック
 70
     0
 40
0.0
 41
1.0
 50
0.0
 71
     0
 42
0.2
  3
ＭＳ ゴシック.shx
  4

  0
ENDTAB
  0
TABLE
  2
VIEW
  5
6
330
0
100
AcDbSymbolTable
 70
     0
  0
ENDTAB
  0
TABLE
  2
UCS
  5
7
330
0
100
AcDbSymbolTable
 70
     0
  0
ENDTAB
  0
TABLE
  2
APPID
  5
9
330
0
100
AcDbSymbolTable
 70
     2
  0
APPID
  5
12
330
9
100
AcDbSymbolTableRecord
100
AcDbRegAppTableRecord
  2
ACAD
 70
     0
  0
APPID
  5
1F9
330
9
100
AcDbSymbolTableRecord
100
AcDbRegAppTableRecord
  2
ACAD_MLEADERVER
 70
     0
  0
ENDTAB
  0
TABLE
  2
DIMSTYLE
  5
A
330
0
100
AcDbSymbolTable
 70
     1
  0
DIMSTYLE
105
27
330
A
100
AcDbSymbolTableRecord
100
AcDbDimStyleTableRecord
  2
STANDARD
 70
     0
  3

  4

  5

  6

  7

 40
1.0
 41
0.18
 42
0.0625
 43
0.38
 44
0.18
 45
0.0
 46
0.0
 47
0.0
 48
0.0
140
0.18
141
0.09
142
0.0
143
25.4
144
1.0
145
0.0
146
1.0
147
0.09
 71
     0
 72
     0
 73
     1
 74
     1
 75
     0
 76
     0
 77
     0
 78
     0
170
     0
171
     2
172
     0
173
     0
174
     0
175
     0
176
     0
177
     0
178
     0
270
     2
271
     4
272
     4
273
     2
274
     2
340
11
275
     0
280
     0
281
     0
282
     0
283
     1
284
     0
285
     0
286
     0
287
     3
288
     0
  0
ENDTAB
  0
TABLE
  2
BLOCK_RECORD
  5
1
330
0
100
AcDbSymbolTable
 70
     0
  0
BLOCK_RECORD
  5
1F
330
1
100
AcDbSymbolTableRecord
100
AcDbBlockTableRecord
  2
*MODEL_SPACE
  0
BLOCK_RECORD
  5
1B
330
1
100
AcDbSymbolTableRecord
100
AcDbBlockTableRecord
  2
*PAPER_SPACE
  0
ENDTAB
  0
ENDSEC
  0
SECTION
  2
BLOCKS
  0
BLOCK
  5
20
330
1F
100
AcDbEntity
  8
0
100
AcDbBlockBegin
  2
*MODEL_SPACE
 70
     0
 10
0.0
 20
0.0
 30
0.0
  3
*MODEL_SPACE
  1

  0
ENDBLK
  5
21
330
1F
100
AcDbEntity
  8
0
100
AcDbBlockEnd
  0
BLOCK
  5
1C
330
1B
100
AcDbEntity
 67
     1
  8
0
100
AcDbBlockBegin
  2
*PAPER_SPACE
 70
     0
 10
0.0
 20
0.0
 30
0.0
  3
*PAPER_SPACE
  1

  0
ENDBLK
  5
1D
330
1B
100
AcDbEntity
 67
     1
  8
0
100
AcDbBlockEnd
  0
ENDSEC
  0
SECTION
  2
ENTITIES
  0
LINE
  5
70
330
1F
100
AcDbEntity
  8
1
  6
CENTER
 62
     1
100
AcDbLine
 10
390.0000000000001
 20
-564.9999999999999
 30
0.0
 11
390.0000000000001
 21
-264.9999999999999
 31
0.0
  0
LINE
  5
72
330
1F
100
AcDbEntity
  8
1
  6
CENTER
 62
     1
100
AcDbLine
 10
390.0000000000001
 20
-615.0
 30
0.0
 11
390.0000000000001
 21
-769.9999999999999
 31
0.0
  0
LINE
  5
73
330
1F
100
AcDbEntity
  8
1
  6
CENTER
 62
     1
100
AcDbLine
 10
725.0
 20
-396.0566651986469
 30
0.0
 11
555.0
 21
-396.0566651986469
 31
0.0
  0
MTEXT
  5
74
330
1F
100
AcDbEntity
  8
1
 62
     7
100
AcDbMText
 10
590.5754157809179
 20
-638.985216331124
 30
0.0
 40
3.0
 41
0.0
 71
     1
 72
     1
  1
{\fＭＳ ゴシック;PYE-S150GAL}
  0
ARC
  5
75
330
1F
100
AcDbEntity
  8
1
  6
CONTINUOUS
 62
     7
100
AcDbCircle
 10
649.7499949999919
 20
-299.5566651986468
 30
0.0
 40
0.500000000000056
100
AcDbArc
 50
270.0000000000001
 51
0.0
  0
LINE
  5
76
330
1F
100
AcDbEntity
  8
1
  6
CONTINUOUS
 62
     7
100
AcDbLine
 10
650.249994999992
 20
-291.0566651986468
 30
0.0
 11
650.249994999992
 21
-299.5566651986468
 31
0.0
  0
LINE
  5
77
330
1F
100
AcDbEntity
  8
1
  6
CONTINUOUS
 62
     7
100
AcDbLine
 10
651.249994999992
 20
-291.0566651986468
 30
0.0
 11
651.249994999992
 21
-300.0566651986468
 31
0.0
  0
ARC
  5
78
330
1F
100
AcDbEntity
  8
1
  6
CONTINUOUS
 62
     7
100
AcDbCircle
 10
650.249994999992
 20
-300.0566651986468
 30
0.0
 40
1.000000000000001
100
AcDbArc
 50
270.0
 51
0.0
  0
LINE
  5
79
330
1F
100
AcDbEntity
  8
1
  6
CONTINUOUS
 62
     7
100
AcDbLine
 10
646.7499949999919
 20
-301.0566651986468
 30
0.0
 11
647.249994999992
 21
-301.0566651986468
 31
0.0
  0
LINE
  5
7A
330
1F
100
AcDbEntity
  8
1
  6
CONTINUOUS
 62
     7
100
AcDbLine
 10
649.7499949999919
 20
-300.0566651986468
 30
0.0
 11
646.7499949999919
 21
-300.0566651986468
 31
0.0
  0
LINE
  5
7B
330
1F
100
AcDbEntity
  8
1
  6
CONTINUOUS
 62
     7
100
AcDbLine
 10
646.7499949999919
 20
-301.0566651986468
 30
0.0
 11
646.249994999992
 21
-301.0566651986468
 31
0.0
  0
LINE
  5
7C
330
1F
100
AcDbEntity
  8
1
  6
CONTINUOUS
 62
     7
100
AcDbLine
 10
646.249994999992
 20
-300.0566651986468
 30
0.0
 11
646.7499949999919
 21
-300.0566651986468
 31
0.0
  0
LINE
  5
7D
330
1F
100
AcDbEntity
  8
1
  6
CONTINUOUS
 62
     7
100
AcDbLine
 10
651.249994999992
 20
-286.0566651986468
 30
0.0
 11
650.249994999992
 21
-286.0566651986468
 31
0.0
  0
LINE
  5
7E
330
1F
100
AcDbEntity
  8
1
  6
CONTINUOUS
 62
     7
100
AcDbLine
 10
651.249994999992
 20
-286.0566651986468
 30
0.0
 11
651.249994999992
 21
-291.0566651986468
 31
0.0
  0
LINE
  5
7F
330
1F
100
AcDbEntity
  8
1
  6
CONTINUOUS
 62
     7
100
AcDbLine
 10
650.249994999992
 20
-291.0566651986468
 30
0.0
 11
650.249994999992
 21
-286.0566651986468
 31
0.0
  0
LINE
  5
80
330
1F
100
AcDbEntity
  8
1
  6
CONTINUOUS
 62
     7
100
AcDbLine
 10
566.2499949999919
 20
-496.0566651986469
 30
0.0
 11
566.2499949999919
 21
-296.0566651986469
 31
0.0
  0
LINE
  5
81
330
1F
100
AcDbEntity
  8
1
  6
CONTINUOUS
 62
     7
100
AcDbLine
 10
566.2499949999919
 20
-296.0566651986469
 30
0.0
 11
567.2499949999919
 21
-296.0566651986469
 31
0.0
  0
LINE
  5
82
330
1F
100
AcDbEntity
  8
1
  6
CONTINUOUS
 62
     7
100
AcDbLine
 10
567.249994999992
 20
-496.0566651986469
 30
0.0
 11
566.249994999992
 21
-496.0566651986469
 31
0.0
  0
LINE
  5
83
330
1F
100
AcDbEntity
  8
1
  6
CONTINUOUS
 62
     7
100
AcDbLine
 10
567.249994999992
 20
-296.0566651986469
 30
0.0
 11
646.249994999992
 21
-296.0566651986469
 31
0.0
  0
LINE
  5
84
330
1F
100
AcDbEntity
  8
1
  6
CONTINUOUS
 62
     7
100
AcDbLine
 10
567.249994999992
 20
-496.0566651986469
 30
0.0
 11
646.249994999992
 21
-496.0566651986469
 31
0.0
  0
LINE
  5
85
330
1F
100
AcDbEntity
  8
1
  6
CONTINUOUS
 62
     7
100
AcDbLine
 10
646.249994999992
 20
-496.0566651986469
 30
0.0
 11
646.249994999992
 21
-296.0566651986469
 31
0.0
  0
ARC
  5
86
330
1F
100
AcDbEntity
  8
1
  6
CONTINUOUS
 62
     7
100
AcDbCircle
 10
650.7499949999919
 20
-494.556665198647
 30
0.0
 40
0.500000000000056
100
AcDbArc
 50
270.0
 51
0.0
  0
LINE
  5
87
330
1F
100
AcDbEntity
  8
1
  6
CONTINUOUS
 62
     7
100
AcDbLine
 10
647.249994999992
 20
-301.5566651986469
 30
0.0
 11
650.749994999992
 21
-301.5566651986469
 31
0.0
  0
ARC
  5
88
330
1F
100
AcDbEntity
  8
1
  6
CONTINUOUS
 62
     7
100
AcDbCircle
 10
650.749994999992
 20
-302.056665198647
 30
0.0
 40
0.500000000000056
100
AcDbArc
 50
0.0
 51
90.0
  0
LINE
  5
89
330
1F
100
AcDbEntity
  8
1
  6
CONTINUOUS
 62
     7
100
AcDbLine
 10
651.249994999992
 20
-302.056665198647
 30
0.0
 11
651.249994999992
 21
-494.556665198647
 31
0.0
  0
LINE
  5
8A
330
1F
100
AcDbEntity
  8
1
  6
CONTINUOUS
 62
     7
100
AcDbLine
 10
647.249994999992
 20
-495.0566651986469
 30
0.0
 11
650.7499949999919
 21
-495.0566651986469
 31
0.0
  0
LINE
  5
8B
330
1F
100
AcDbEntity
  8
1
  6
CONTINUOUS
 62
     7
100
AcDbLine
 10
646.249994999992
 20
-301.5566651986469
 30
0.0
 11
647.249994999992
 21
-301.5566651986469
 31
0.0
  0
LINE
  5
8C
330
1F
100
AcDbEntity
  8
1
  6
CONTINUOUS
 62
     7
100
AcDbLine
 10
646.249994999992
 20
-495.0566651986469
 30
0.0
 11
647.249994999992
 21
-495.0566651986469
 31
0.0
  0
LINE
  5
8D
330
1F
100
AcDbEntity
  8
1
  6
CONTINUOUS
 62
     7
100
AcDbLine
 10
647.249994999992
 20
-301.056665198647
 30
0.0
 11
647.749994999992
 21
-301.056665198647
 31
0.0
  0
LINE
  5
8E
330
1F
100
AcDbEntity
  8
1
  6
CONTINUOUS
 62
     7
100
AcDbLine
 10
650.749994999992
 20
-301.5566651986469
 30
0.0
 11
647.749994999992
 21
-301.5566651986469
 31
0.0
  0
LINE
  5
8F
330
1F
100
AcDbEntity
  8
1
  6
CONTINUOUS
 62
     7
100
AcDbLine
 10
647.749994999992
 20
-301.056665198647
 30
0.0
 11
650.749994999992
 21
-301.056665198647
 31
0.0
  0
LINE
  5
90
330
1F
100
AcDbEntity
  8
1
  6
CONTINUOUS
 62
     7
100
AcDbLine
 10
651.249994999992
 20
-301.056665198647
 30
0.0
 11
651.249994999992
 21
-301.5566651986469
 31
0.0
  0
LINE
  5
91
330
1F
100
AcDbEntity
  8
1
  6
CONTINUOUS
 62
     7
100
AcDbLine
 10
651.249994999992
 20
-301.5566651986469
 30
0.0
 11
650.749994999992
 21
-301.5566651986469
 31
0.0
  0
LINE
  5
92
330
1F
100
AcDbEntity
  8
1
  6
CONTINUOUS
 62
     7
100
AcDbLine
 10
650.749994999992
 20
-301.056665198647
 30
0.0
 11
651.249994999992
 21
-301.056665198647
 31
0.0
  0
LINE
  5
93
330
1F
100
AcDbEntity
  8
1
  6
CONTINUOUS
 62
     7
100
AcDbLine
 10
703.749994999992
 20
-326.5566651986469
 30
0.0
 11
703.749994999992
 21
-465.5566651986469
 31
0.0
  0
LINE
  5
94
330
1F
100
AcDbEntity
  8
1
  6
CONTINUOUS
 62
     7
100
AcDbLine
 10
669.7499949999919
 20
-323.5566651986469
 30
0.0
 11
669.7499949999919
 21
-323.6209013197259
 31
0.0
  0
LINE
  5
95
330
1F
100
AcDbEntity
  8
1
  6
CONTINUOUS
 62
     7
100
AcDbLine
 10
688.7499949999919
 20
-436.5504825712926
 30
0.0
 11
688.7499949999919
 21
-427.8902285334482
 31
0.0
  0
LINE
  5
96
330
1F
100
AcDbEntity
  8
1
  6
CONTINUOUS
 62
     7
100
AcDbLine
 10
686.9299675276386
 20
-427.9764650565986
 30
0.0
 11
688.7499949999916
 21
-427.8902285334483
 31
0.0
  0
LINE
  5
97
330
1F
100
AcDbEntity
  8
1
  6
CONTINUOUS
 62
     7
100
AcDbLine
 10
670.6974361668687
 20
-435.7573506801271
 30
0.0
 11
670.7499949999922
 21
-435.759668917576
 31
0.0
  0
LINE
  5
98
330
1F
100
AcDbEntity
  8
1
  6
CONTINUOUS
 62
     7
100
AcDbLine
 10
669.7499949999919
 20
-323.6209013197259
 30
0.0
 11
670.6974361668692
 21
-323.6698667416574
 31
0.0
  0
LINE
  5
99
330
1F
100
AcDbEntity
  8
1
  6
CONTINUOUS
 62
     7
100
AcDbLine
 10
686.929967527672
 20
-323.7227261845459
 30
0.0
 11
670.6974361668684
 21
-323.6698667416573
 31
0.0
  0
LINE
  5
9A
330
1F
100
AcDbEntity
  8
1
  6
CONTINUOUS
 62
     7
100
AcDbLine
 10
688.7499949999924
 20
-323.7292844911997
 30
0.0
 11
686.929967527672
 21
-323.7227261845459
 31
0.0
  0
LINE
  5
9B
330
1F
100
AcDbEntity
  8
1
  6
CONTINUOUS
 62
     7
100
AcDbLine
 10
688.7499949999919
 20
-323.7292844911996
 30
0.0
 11
688.7499949999919
 21
-323.5566651986467
 31
0.0
  0
LINE
  5
9C
330
1F
100
AcDbEntity
  8
1
  6
CONTINUOUS
 62
     7
100
AcDbLine
 10
670.6974361668697
 20
-435.5069569980973
 30
0.0
 11
670.7499949999923
 21
-435.5092746962815
 31
0.0
  0
LINE
  5
9D
330
1F
100
AcDbEntity
  8
1
  6
CONTINUOUS
 62
     7
100
AcDbLine
 10
675.4233259162776
 20
-437.8725829835707
 30
0.0
 11
674.0497202767907
 21
-437.9083335912047
 31
0.0
  0
LINE
  5
9E
330
1F
100
AcDbEntity
  8
1
  6
CONTINUOUS
 62
     7
100
AcDbLine
 10
671.2237155834316
 20
-430.4706590312072
 30
0.0
 11
674.049720276791
 21
-430.3377800499873
 31
0.0
  0
LINE
  5
9F
330
1F
100
AcDbEntity
  8
1
  6
CONTINUOUS
 62
     7
100
AcDbLine
 10
675.285965352329
 20
-430.1928959562939
 30
0.0
 11
674.0497202767907
 21
-430.3377800499873
 31
0.0
  0
LINE
  5
A0
330
1F
100
AcDbEntity
  8
1
  6
CONTINUOUS
 62
     7
100
AcDbLine
 10
686.9299675276478
 20
-427.9764650566017
 30
0.0
 11
675.285965352329
 21
-430.1928959562939
 31
0.0
  0
LINE
  5
A1
330
1F
100
AcDbEntity
  8
1
  6
CONTINUOUS
 62
     7
100
AcDbLine
 10
671.2237155834324
 20
-437.7835657042294
 30
0.0
 11
674.049720276791
 21
-437.9083335912047
 31
0.0
  0
LWPOLYLINE
  5
A2
330
1F
100
AcDbEntity
  8
1
  6
CONTINUOUS
 62
     7
100
AcDbPolyline
 90
       37
 70
     0
 43
0.0
 10
670.749994999992
 20
-437.363659454024
 10
670.750429049488
 20
-437.3811751576642
 10
670.7517282076636
 20
-437.3986726444347
 10
670.7538879890486
 20
-437.416106775567
 10
670.7569039081741
 20
-437.4334324122925
 10
670.7609011767287
 20
-437.4511315381342
 10
670.7657986516083
 20
-437.468683790976
 10
670.7715817410763
 20
-437.4860414597804
 10
670.7782358533962
 20
-437.50315683351
 10
670.7855335887858
 20
-437.5195417364542
 10
670.7936418752738
 20
-437.5356690307536
 10
670.8025387800491
 20
-437.5514974850956
 10
670.8122023703008
 20
-437.5669858681675
 10
670.8229408884422
 20
-437.5825540482289
 10
670.8344727982633
 20
-437.5977338449014
 10
670.8467655321065
 20
-437.612484347699
 10
670.8597865223145
 20
-437.6267646461359
 10
670.8731230937296
 20
-437.6401723682523
 10
670.887124154218
 20
-437.6531126736164
 10
670.9017527130322
 20
-437.6655527904281
 10
670.9169717794246
 20
-437.6774599468871
 10
670.9332383276005
 20
-437.6891445921391
 10
670.9501015507691
 20
-437.7002432960709
 10
670.9675144531917
 20
-437.7107265021122
 10
670.9854300391299
 20
-437.720564653693
 10
671.0032855589749
 20
-437.7294862642674
 10
671.0215837382298
 20
-437.7377841045794
 10
671.0402766950845
 20
-437.745437559859
 10
671.0593165477289
 20
-437.7524260153357
 10
671.0792565129992
 20
-437.7589150360924
 10
671.0995281309619
 20
-437.7646874389121
 10
671.1200753485095
 20
-437.7697284030101
 10
671.1408421125356
 20
-437.7740231076015
 10
671.1613543790137
 20
-437.7774966610864
 10
671.1820404469947
 20
-437.7802491276575
 10
671.2028457154698
 20
-437.7822742333576
 10
671.2237155834309
 20
-437.7835657042293
  0
LINE
  5
A3
330
1F
100
AcDbEntity
  8
1
  6
CONTINUOUS
 62
     7
100
AcDbLine
 10
670.749994999992
 20
-437.363659454024
 30
0.0
 11
670.749994999992
 21
-431.1659394259553
 31
0.0
  0
LINE
  5
A4
330
1F
100
AcDbEntity
  8
1
  6
CONTINUOUS
 62
     7
100
AcDbLine
 10
670.749994999992
 20
-431.1659394259553
 30
0.0
 11
670.749994999992
 21
-430.9156636885439
 31
0.0
  0
LWPOLYLINE
  5
A5
330
1F
100
AcDbEntity
  8
1
  6
CONTINUOUS
 62
     7
100
AcDbPolyline
 90
       41
 70
     0
 43
0.0
 10
-670.749994999992
 20
-430.9156636885439
 10
-670.7504247799861
 20
-430.8972239671749
 10
-670.7517163219608
 20
-430.8787816473421
 10
-670.7538880985115
 20
-430.8602531706767
 10
-670.756935525549
 20
-430.8417867706051
 10
-670.7609051496645
 20
-430.823216908179
 10
-670.7657664926071
 20
-430.8047777971745
 10
-670.7715548092049
 20
-430.7863886175891
 10
-670.7782365849812
 20
-430.7682011295965
 10
-670.7836137118728
 20
-430.7552112374278
 10
-670.7894474781759
 20
-430.7423625698228
 10
-670.800240526567
 20
-430.7211736022062
 10
-670.8122957084323
 20
-430.7004554855622
 10
-670.8229550563586
 20
-430.684083224786
 10
-670.8344067334064
 20
-430.668097967506
 10
-670.8467142608972
 20
-430.6524338347409
 10
-670.8597895257515
 20
-430.6372245879984
 10
-670.8731213716359
 20
-430.6230029453208
 10
-670.8871300832552
 20
-430.6092621622484
 10
-670.9000243683632
 20
-430.5975691273977
 10
-670.9133924593208
 20
-430.586305166267
 10
-670.9272934036105
 20
-430.5754281279204
 10
-670.9416362007134
 20
-430.5650154924436
 10
-670.9522585390081
 20
-430.5577926177413
 10
-670.9630936303784
 20
-430.5508247667033
 10
-670.974165817806
 20
-430.5440981983995
 10
-670.9854362954212
 20
-430.5376380912878
 10
-671.0032861789399
 20
-430.5281587507167
 10
-671.02159474931
 20
-430.5193334499165
 10
-671.0380917154802
 20
-430.5121111929743
 10
-671.0548754150876
 20
-430.5054340139359
 10
-671.0720172112432
 20
-430.4992795537708
 10
-671.0894025530904
 20
-430.49369398911
 10
-671.1020964697564
 20
-430.4900185031263
 10
-671.1148959955806
 20
-430.4866465338372
 10
-671.127829186736
 20
-430.4835722837423
 10
-671.1408501291633
 20
-430.480808009153
 10
-671.1612968538009
 20
-430.4771226371049
 10
-671.1819528481026
 20
-430.4741950783816
 10
-671.2027648842995
 20
-430.4720381786095
 10
-671.2237155834308
 20
-430.4706590312073
210
0.0
220
0.0
230
-1.0
  0
LINE
  5
A6
330
1F
100
AcDbEntity
  8
1
  6
CONTINUOUS
 62
     7
100
AcDbLine
 10
688.7499949999919
 20
-436.5504825712927
 30
0.0
 11
675.4233259162776
 21
-437.8725829835707
 31
0.0
  0
LINE
  5
A7
330
1F
100
AcDbEntity
  8
1
  6
CONTINUOUS
 62
     7
100
AcDbLine
 10
675.285965352329
 20
-320.351338246791
 30
0.0
 11
686.9299675276719
 21
-323.7227261845459
 31
0.0
  0
LINE
  5
A8
330
1F
100
AcDbEntity
  8
1
  6
CONTINUOUS
 62
     7
100
AcDbLine
 10
674.0497202767907
 20
-320.1742668636904
 30
0.0
 11
675.285965352329
 21
-320.351338246791
 31
0.0
  0
LINE
  5
A9
330
1F
100
AcDbEntity
  8
1
  6
CONTINUOUS
 62
     7
100
AcDbLine
 10
674.0497202767913
 20
-320.1742668636904
 30
0.0
 11
671.2237155834315
 21
-320.1661290965834
 31
0.0
  0
LINE
  5
AA
330
1F
100
AcDbEntity
  8
1
  6
CONTINUOUS
 62
     7
100
AcDbLine
 10
671.2237155834315
 20
-320.1661290965833
 30
0.0
 11
670.7499949999919
 21
-320.1409481907842
 31
0.0
  0
LINE
  5
AB
330
1F
100
AcDbEntity
  8
1
  6
CONTINUOUS
 62
     7
100
AcDbLine
 10
670.7499949999919
 20
-319.6403967159613
 30
0.0
 11
670.7499949999919
 21
-319.556665198647
 31
0.0
  0
LINE
  5
AC
330
1F
100
AcDbEntity
  8
1
  6
CONTINUOUS
 62
     7
100
AcDbLine
 10
670.7499949999919
 20
-320.1409481907842
 30
0.0
 11
670.7499949999919
 21
-319.6403967159613
 31
0.0
  0
LINE
  5
AD
330
1F
100
AcDbEntity
  8
1
  6
CONTINUOUS
 62
     7
100
AcDbLine
 10
638.4214366768294
 20
-521.8974921270574
 30
0.0
 11
638.3185817445407
 21
-521.8125869273359
 31
0.0
  0
LINE
  5
AE
330
1F
100
AcDbEntity
  8
1
  6
CONTINUOUS
 62
     7
100
AcDbLine
 10
638.3185817445407
 20
-521.8125869273359
 30
0.0
 11
638.3178530041822
 21
-521.8134554062763
 31
0.0
  0
LINE
  5
AF
330
1F
100
AcDbEntity
  8
1
  6
CONTINUOUS
 62
     7
100
AcDbLine
 10
638.3178530041822
 20
-521.8134554062763
 30
0.0
 11
637.6544390560133
 21
-521.2567850070498
 31
0.0
  0
LINE
  5
B0
330
1F
100
AcDbEntity
  8
1
  6
CONTINUOUS
 62
     7
100
AcDbLine
 10
650.2158457630778
 20
-506.2866834358686
 30
0.0
 11
650.3091980357667
 21
-506.3206608844285
 31
0.0
  0
LWPOLYLINE
  5
B1
330
1F
100
AcDbEntity
  8
1
  6
CONTINUOUS
 62
     7
100
AcDbPolyline
 90
       62
 70
     0
 43
0.0
 10
-650.8915286444127
 20
-507.0362152247097
 10
-650.8898853029589
 20
-507.0366976816236
 10
-650.8875037098007
 20
-507.0373853068795
 10
-650.8844074941712
 20
-507.0382597183516
 10
-650.8783977878676
 20
-507.0398969848303
 10
-650.8709102506381
 20
-507.0418244530795
 10
-650.8619356856897
 20
-507.0439733235933
 10
-650.8516837411387
 20
-507.0462154002852
 10
-650.8401609885036
 20
-507.0484678731799
 10
-650.827562335394
 20
-507.0506118642685
 10
-650.8081517971464
 20
-507.0532705240146
 10
-650.7870281264841
 20
-507.0552918601305
 10
-650.7641969759131
 20
-507.0564627481903
 10
-650.7400014322429
 20
-507.0565653172741
 10
-650.7143226505452
 20
-507.0553906017506
 10
-650.6875485680507
 20
-507.0527503154743
 10
-650.6595613216626
 20
-507.0484186713492
 10
-650.6307334465819
 20
-507.0422336097677
 10
-650.6056656609933
 20
-507.0353811138833
 10
-650.5801878607843
 20
-507.0269475983536
 10
-650.5539019662638
 20
-507.0166079440181
 10
-650.5274222250407
 20
-507.0043943130125
 10
-650.5097828270515
 20
-506.9951829107351
 10
-650.4921590997301
 20
-506.985057934845
 10
-650.474614352577
 20
-506.9739966005677
 10
-650.4610901449545
 20
-506.9647508936242
 10
-650.4476700209243
 20
-506.9549108603076
 10
-650.4310930025536
 20
-506.9417635074573
 10
-650.4147790511281
 20
-506.9276496650123
 10
-650.3988103246178
 20
-506.9125715399535
 10
-650.3849807478525
 20
-506.8983723469323
 10
-650.3715174096498
 20
-506.8833973535773
 10
-650.3584865517486
 20
-506.8676654156147
 10
-650.3471045157278
 20
-506.8527717221781
 10
-650.336158822194
 20
-506.8372710039066
 10
-650.3262959527091
 20
-506.8221411119337
 10
-650.3168842060707
 20
-506.8064893467159
 10
-650.3079653523272
 20
-506.7903490591843
 10
-650.2995811615267
 20
-506.7737536002693
 10
-650.2903437117868
 20
-506.753436498541
 10
-650.281944212749
 20
-506.7325251353761
 10
-650.2744417115254
 20
-506.711096639191
 10
-650.2687411411051
 20
-506.6922914231577
 10
-650.263758106311
 20
-506.6731713496579
 10
-650.2594714004393
 20
-506.6535376040777
 10
-650.2559602149588
 20
-506.633642369725
 10
-650.2532434035295
 20
-506.6135468671607
 10
-650.251339819812
 20
-506.5933123169465
 10
-650.2502521973195
 20
-506.5726924905365
 10
-650.2500167888397
 20
-506.551997396922
 10
-650.2505781313725
 20
-506.532528057851
 10
-650.251899504751
 20
-506.5130661433752
 10
-650.2540098210453
 20
-506.4934429247453
 10
-650.2568986103313
 20
-506.4738822031612
 10
-650.2605593679864
 20
-506.4544344897782
 10
-650.2649855893882
 20
-506.4351502957516
 10
-650.2702389803362
 20
-506.4158320240388
 10
-650.2762637287423
 20
-506.3967318292704
 10
-650.283282542363
 20
-506.3772787947756
 10
-650.2911253969571
 20
-506.3580739299711
 10
-650.2997593591248
 20
-506.3392074609304
 10
-650.3091980357667
 20
-506.3206608844284
210
0.0
220
0.0
230
-1.0
  0
LINE
  5
B2
330
1F
100
AcDbEntity
  8
1
  6
CONTINUOUS
 62
     7
100
AcDbLine
 10
637.6544390560133
 20
-521.2567850070498
 30
0.0
 11
636.8621539200233
 21
-520.5919788416533
 31
0.0
  0
ARC
  5
B3
330
1F
100
AcDbEntity
  8
1
  6
CONTINUOUS
 62
     7
100
AcDbCircle
 10
638.7905167490829
 20
-518.2938455122963
 30
0.0
 40
2.99999999999998
100
AcDbArc
 50
140.0
 51
230.0000000000001
  0
LINE
  5
B4
330
1F
100
AcDbEntity
  8
1
  6
CONTINUOUS
 62
     7
100
AcDbLine
 10
636.492383419726
 20
-516.3654826832368
 30
0.0
 11
645.9565486064416
 21
-505.0865298210633
 31
0.0
  0
ARC
  5
B5
330
1F
100
AcDbEntity
  8
1
  6
CONTINUOUS
 62
     7
100
AcDbCircle
 10
646.3395708280012
 20
-505.4079236259066
 30
0.0
 40
0.5000000000000931
100
AcDbArc
 50
70.00000000000044
 51
140.0000000000002
  0
LINE
  5
B6
330
1F
100
AcDbEntity
  8
1
  6
CONTINUOUS
 62
     7
100
AcDbLine
 10
646.5105808996641
 20
-504.9380773155135
 30
0.0
 11
650.2158457630778
 21
-506.2866834358686
 31
0.0
  0
ARC
  5
B7
330
1F
100
AcDbEntity
  8
1
  6
CONTINUOUS
 62
     7
100
AcDbCircle
 10
649.249994999992
 20
-500.0566651986469
 30
0.0
 40
3.000000000000003
100
AcDbArc
 50
90.0
 51
180.0
  0
LINE
  5
B8
330
1F
100
AcDbEntity
  8
1
  6
CONTINUOUS
 62
     7
100
AcDbLine
 10
649.249994999992
 20
-497.0566651986469
 30
0.0
 11
650.249994999992
 21
-497.0566651986469
 31
0.0
  0
LINE
  5
B9
330
1F
100
AcDbEntity
  8
1
  6
CONTINUOUS
 62
     7
100
AcDbLine
 10
646.5789849283292
 20
-504.8565565686038
 30
0.0
 11
650.249994999992
 21
-506.1926949643807
 31
0.0
  0
LINE
  5
BA
330
1F
100
AcDbEntity
  8
1
  6
CONTINUOUS
 62
     7
100
AcDbLine
 10
646.249994999992
 20
-500.0566651986469
 30
0.0
 11
646.249994999992
 21
-504.386710258211
 31
0.0
  0
ARC
  5
BB
330
1F
100
AcDbEntity
  8
1
  6
CONTINUOUS
 62
     7
100
AcDbCircle
 10
646.749994999992
 20
-504.386710258211
 30
0.0
 40
0.500000000000056
100
AcDbArc
 50
180.0
 51
250.0000000000003
  0
LINE
  5
BC
330
1F
100
AcDbEntity
  8
1
  6
CONTINUOUS
 62
     7
100
AcDbLine
 10
650.249994999992
 20
-497.0566651986469
 30
0.0
 11
651.249994999992
 21
-497.0566651986469
 31
0.0
  0
LINE
  5
BD
330
1F
100
AcDbEntity
  8
1
  6
CONTINUOUS
 62
     7
100
AcDbLine
 10
651.249994999992
 20
-497.0566651986469
 30
0.0
 11
651.249994999992
 21
-506.2459859600917
 31
0.0
  0
LWPOLYLINE
  5
BE
330
1F
100
AcDbEntity
  8
1
  6
CONTINUOUS
 62
     7
100
AcDbPolyline
 90
       37
 70
     0
 43
0.0
 10
-650.3669727784326
 20
-506.2352713938038
 10
-650.3828921239378
 20
-506.2172187116416
 10
-650.3996865427982
 20
-506.1999380005307
 10
-650.4172761973166
 20
-506.1834889065235
 10
-650.4355812497961
 20
-506.1679310756741
 10
-650.4545218625397
 20
-506.1533241540353
 10
-650.4740181978505
 20
-506.1397277876609
 10
-650.4902446909266
 20
-506.1294324258978
 10
-650.5068008299842
 20
-506.1197977727078
 10
-650.5236336267405
 20
-506.1108417063462
 10
-650.5406900929138
 20
-506.1025821050693
 10
-650.5584608252245
 20
-506.0948073533477
 10
-650.5764167229318
 20
-506.0877653896396
 10
-650.5944991967056
 20
-506.0814609764241
 10
-650.612649657216
 20
-506.0758988761806
 10
-650.6362915975271
 20
-506.0697760248682
 10
-650.6599785254425
 20
-506.0648624295126
 10
-650.6836085813993
 20
-506.0611268138807
 10
-650.7070799058343
 20
-506.0585379017385
 10
-650.7302906391845
 20
-506.0570644168526
 10
-650.7531389218871
 20
-506.0566750829893
 10
-650.7776569103517
 20
-506.0574360816237
 10
-650.8017420436798
 20
-506.0593637211793
 10
-650.8253317818992
 20
-506.0623911615427
 10
-650.8483635850374
 20
-506.0664515626005
 10
-650.8707749131222
 20
-506.0714780842391
 10
-650.8925032261811
 20
-506.0774038863451
 10
-650.9171405647045
 20
-506.0854310350474
 10
-650.9408871585638
 20
-506.0945410462776
 10
-650.9637099396014
 20
-506.1046419475008
 10
-650.9855758396594
 20
-506.1156417661824
 10
-651.0140215985656
 20
-506.1320595226304
 10
-651.0407322105774
 20
-506.1498829946204
 10
-651.0656912535502
 20
-506.1689334930959
 10
-651.0934552799594
 20
-506.1932981249129
 10
-651.1188045893929
 20
-506.2190561630338
 10
-651.1417582074666
 20
-506.2459859600917
210
0.0
220
0.0
230
-1.0
  0
LINE
  5
BF
330
1F
100
AcDbEntity
  8
1
  6
CONTINUOUS
 62
     7
100
AcDbLine
 10
650.3669727784326
 20
-506.2352713938038
 30
0.0
 11
650.249994999992
 21
-506.1926949643807
 31
0.0
  0
LINE
  5
C0
330
1F
100
AcDbEntity
  8
1
  6
CONTINUOUS
 62
     7
100
AcDbLine
 10
651.1417582074666
 20
-506.2459859600917
 30
0.0
 11
651.2332065820275
 21
-506.4281873134419
 31
0.0
  0
LINE
  5
C1
330
1F
100
AcDbEntity
  8
1
  6
CONTINUOUS
 62
     7
100
AcDbLine
 10
651.0155743495617
 20
-506.8902729572317
 30
0.0
 11
650.8936418313679
 21
-507.0355864738433
 31
0.0
  0
LINE
  5
C2
330
1F
100
AcDbEntity
  8
1
  6
CONTINUOUS
 62
     7
100
AcDbLine
 10
638.4214366768294
 20
-521.8974921270574
 30
0.0
 11
641.1989863476426
 21
-523.9339425323716
 31
0.0
  0
LINE
  5
C3
330
1F
100
AcDbEntity
  8
1
  6
CONTINUOUS
 62
     7
100
AcDbLine
 10
650.8936418313679
 20
-507.0355864738433
 30
0.0
 11
650.8915286444127
 21
-507.0362152247097
 31
0.0
  0
LINE
  5
C4
330
1F
100
AcDbEntity
  8
1
  6
CONTINUOUS
 62
     7
100
AcDbLine
 10
651.249994999992
 20
-506.2459859600917
 30
0.0
 11
651.249994999992
 21
-506.2887160062159
 31
0.0
  0
LWPOLYLINE
  5
C5
330
1F
100
AcDbEntity
  8
1
  6
CONTINUOUS
 62
     7
100
AcDbPolyline
 90
        4
 70
     0
 43
0.0
 10
651.0155743495617
 20
-506.8902729572317
 10
651.1143338437539
 20
-506.7496349812328
 10
651.187617410797
 20
-506.594152218535
 10
651.2332650565769
 20
-506.4284074407724
  0
LINE
  5
C6
330
1F
100
AcDbEntity
  8
1
  6
CONTINUOUS
 62
     7
100
AcDbLine
 10
651.2332065820275
 20
-506.4281873134419
 30
0.0
 11
651.2332650565611
 21
-506.4284074407694
 31
0.0
  0
LINE
  5
C7
330
1F
100
AcDbEntity
  8
1
  6
CONTINUOUS
 62
     7
100
AcDbLine
 10
651.1160204037765
 20
-506.7887160062158
 30
0.0
 11
641.2117966245585
 21
-523.943334801353
 31
0.0
  0
LINE
  5
C8
330
1F
100
AcDbEntity
  8
1
  6
CONTINUOUS
 62
     7
100
AcDbLine
 10
641.2117966245585
 20
-523.943334801353
 30
0.0
 11
641.206661742968
 21
-523.9409403667437
 31
0.0
  0
LINE
  5
C9
330
1F
100
AcDbEntity
  8
1
  6
CONTINUOUS
 62
     7
100
AcDbLine
 10
641.2063319334022
 20
-523.9391765876159
 30
0.0
 11
641.1989863476426
 21
-523.9339425323717
 31
0.0
  0
ARC
  5
CA
330
1F
100
AcDbEntity
  8
1
  6
CONTINUOUS
 62
     7
100
AcDbCircle
 10
650.249994999992
 20
-506.2887160062159
 30
0.0
 40
1.000000000000001
100
AcDbArc
 50
351.9991255017311
 51
0.0
  0
ARC
  5
CB
330
1F
100
AcDbEntity
  8
1
  6
CONTINUOUS
 62
     7
100
AcDbCircle
 10
650.249994999992
 20
-506.2887160062159
 30
0.0
 40
1.000000000000024
100
AcDbArc
 50
330.0
 51
351.9991255017311
  0
ARC
  5
CC
330
1F
100
AcDbEntity
  8
1
  6
CONTINUOUS
 62
     7
100
AcDbCircle
 10
650.249994999992
 20
-497.0566651986469
 30
0.0
 40
0.4999999999999449
100
AcDbArc
 50
0.0
 51
90.0
  0
LINE
  5
CD
330
1F
100
AcDbEntity
  8
1
  6
CONTINUOUS
 62
     7
100
AcDbLine
 10
650.249994999992
 20
-496.556665198647
 30
0.0
 11
646.749994999992
 21
-496.556665198647
 31
0.0
  0
ARC
  5
CE
330
1F
100
AcDbEntity
  8
1
  6
CONTINUOUS
 62
     7
100
AcDbCircle
 10
646.749994999992
 20
-495.556665198647
 30
0.0
 40
0.9999999999999759
100
AcDbArc
 50
210.0
 51
270.0
  0
ARC
  5
CF
330
1F
100
AcDbEntity
  8
1
  6
CONTINUOUS
 62
     7
100
AcDbCircle
 10
646.749994999992
 20
-495.556665198647
 30
0.0
 40
0.4999999999999449
100
AcDbArc
 50
180.0
 51
270.0
  0
LINE
  5
D0
330
1F
100
AcDbEntity
  8
1
  6
CONTINUOUS
 62
     7
100
AcDbLine
 10
650.249994999992
 20
-496.0566651986469
 30
0.0
 11
646.749994999992
 21
-496.0566651986469
 31
0.0
  0
ARC
  5
D1
330
1F
100
AcDbEntity
  8
1
  6
CONTINUOUS
 62
     7
100
AcDbCircle
 10
650.249994999992
 20
-497.0566651986469
 30
0.0
 40
1.000000000000001
100
AcDbArc
 50
0.0
 51
90.0
  0
LINE
  5
D2
330
1F
100
AcDbEntity
  8
1
  6
CONTINUOUS
 62
     7
100
AcDbLine
 10
641.2063885404788
 20
-523.9392193217485
 30
0.0
 11
641.2066617429681
 21
-523.9409403667435
 31
0.0
  0
LINE
  5
D3
330
1F
100
AcDbEntity
  8
1
  6
CONTINUOUS
 62
     7
100
AcDbLine
 10
641.1185150182362
 20
-523.8998368739599
 30
0.0
 11
641.206661742968
 21
-523.9409403667437
 31
0.0
  0
LINE
  5
D4
330
1F
100
AcDbEntity
  8
1
  6
CONTINUOUS
 62
     7
100
AcDbLine
 10
641.118515018236
 20
-523.8998368739599
 30
0.0
 11
640.7569117567848
 21
-523.7312185039314
 31
0.0
  0
LINE
  5
D5
330
1F
100
AcDbEntity
  8
1
  6
CONTINUOUS
 62
     7
100
AcDbLine
 10
640.7569117567848
 20
-523.7312185039314
 30
0.0
 11
640.8061554804716
 21
-523.6459258725521
 31
0.0
  0
ARC
  5
D6
330
1F
100
AcDbEntity
  8
1
  6
CONTINUOUS
 62
     7
100
AcDbCircle
 10
700.749994999992
 20
-326.5566651986469
 30
0.0
 40
3.000000000000003
100
AcDbArc
 50
0.000000000000265
 51
90.0
  0
ARC
  5
D7
330
1F
100
AcDbEntity
  8
1
  6
CONTINUOUS
 62
     7
100
AcDbCircle
 10
700.749994999992
 20
-465.5566651986469
 30
0.0
 40
3.000000000000003
100
AcDbArc
 50
270.0
 51
359.9999999999997
  0
LINE
  5
D8
330
1F
100
AcDbEntity
  8
1
  6
CONTINUOUS
 62
     7
100
AcDbLine
 10
669.7499949999918
 20
-323.5566651986469
 30
0.0
 11
651.249994999992
 21
-323.5566651986469
 31
0.0
  0
LINE
  5
D9
330
1F
100
AcDbEntity
  8
1
  6
CONTINUOUS
 62
     7
100
AcDbLine
 10
700.7499949999919
 20
-323.5566651986469
 30
0.0
 11
688.7499949999919
 21
-323.5566651986469
 31
0.0
  0
LINE
  5
DA
330
1F
100
AcDbEntity
  8
1
  6
CONTINUOUS
 62
     7
100
AcDbLine
 10
651.249994999992
 20
-468.5566651986469
 30
0.0
 11
700.7499949999919
 21
-468.5566651986469
 31
0.0
  0
LINE
  5
DB
330
1F
100
AcDbEntity
  8
1
  6
CONTINUOUS
 62
     7
100
AcDbLine
 10
688.7499949999919
 20
-323.5566651986469
 30
0.0
 11
675.4233259162776
 21
-319.7490454604428
 31
0.0
  0
ARC
  5
DC
330
1F
100
AcDbEntity
  8
1
  6
CONTINUOUS
 62
     7
100
AcDbCircle
 10
674.0497202767907
 20
-324.5566651986469
 30
0.0
 40
4.999999999999969
100
AcDbArc
 50
74.05460409907701
 51
90.00000000000009
  0
LINE
  5
DD
330
1F
100
AcDbEntity
  8
1
  6
CONTINUOUS
 62
     7
100
AcDbLine
 10
674.0497202767907
 20
-319.5566651986469
 30
0.0
 11
670.7499949999919
 21
-319.556665198647
 31
0.0
  0
LINE
  5
DE
330
1F
100
AcDbEntity
  8
1
  6
CONTINUOUS
 62
     7
100
AcDbLine
 10
295.5000000000001
 20
-622.2499949999919
 30
0.0
 11
295.5000000000001
 21
-693.3068054485902
 31
0.0
  0
LINE
  5
DF
330
1F
100
AcDbEntity
  8
1
  6
CONTINUOUS
 62
     7
100
AcDbLine
 10
484.5000000000001
 20
-622.2499949999919
 30
0.0
 11
484.5000000000001
 21
-693.3068054485902
 31
0.0
  0
LINE
  5
E0
330
1F
100
AcDbEntity
  8
1
  6
CONTINUOUS
 62
     7
100
AcDbLine
 10
295.0000000000001
 20
-622.2499949999919
 30
0.0
 11
295.0000000000001
 21
-693.2927176794988
 31
0.0
  0
ARC
  5
E1
330
1F
100
AcDbEntity
  8
1
  6
CONTINUOUS
 62
     7
100
AcDbCircle
 10
296.0000000000001
 20
-622.2499949999919
 30
0.0
 40
0.5000000000000004
100
AcDbArc
 50
90.0
 51
180.0
  0
LINE
  5
E2
330
1F
100
AcDbEntity
  8
1
  6
CONTINUOUS
 62
     7
100
AcDbLine
 10
485.0000000000001
 20
-622.2499949999919
 30
0.0
 11
485.0000000000001
 21
-693.2927176794988
 31
0.0
  0
LINE
  5
E3
330
1F
100
AcDbEntity
  8
1
  6
CONTINUOUS
 62
     7
100
AcDbLine
 10
296.0000000000001
 20
-621.7499949999919
 30
0.0
 11
484.0000000000001
 21
-621.7499949999919
 31
0.0
  0
ARC
  5
E4
330
1F
100
AcDbEntity
  8
1
  6
CONTINUOUS
 62
     7
100
AcDbCircle
 10
484.0000000000001
 20
-622.2499949999919
 30
0.0
 40
1.000000000000001
100
AcDbArc
 50
0.0
 51
90.0
  0
ARC
  5
E5
330
1F
100
AcDbEntity
  8
1
  6
CONTINUOUS
 62
     7
100
AcDbCircle
 10
484.0000000000001
 20
-622.2499949999919
 30
0.0
 40
0.4999999999999449
100
AcDbArc
 50
0.0
 51
90.0
  0
ARC
  5
E6
330
1F
100
AcDbEntity
  8
1
  6
CONTINUOUS
 62
     7
100
AcDbCircle
 10
296.0000000000001
 20
-622.2499949999919
 30
0.0
 40
1.000000000000001
100
AcDbArc
 50
90.0
 51
180.0
  0
LINE
  5
E7
330
1F
100
AcDbEntity
  8
1
  6
CONTINUOUS
 62
     7
100
AcDbLine
 10
296.0000000000001
 20
-621.2499949999918
 30
0.0
 11
484.0000000000001
 21
-621.2499949999918
 31
0.0
  0
LINE
  5
E8
330
1F
100
AcDbEntity
  8
1
  6
CONTINUOUS
 62
     7
100
AcDbLine
 10
399.0000000000001
 20
-687.4999949999919
 30
0.0
 11
399.0000000000001
 21
-688.3660204037764
 31
0.0
  0
LWPOLYLINE
  5
E9
330
1F
100
AcDbEntity
  8
1
  6
CONTINUOUS
 62
     7
100
AcDbPolyline
 90
        9
 70
     0
 43
0.0
 10
399.0000000000001
 20
-687.4999949999919
 10
398.9711779206049
 20
-687.3536772584798
 10
398.885819298767
 20
-687.2129824257181
 10
398.7472044184539
 20
-687.0833173252272
 10
398.5606601717799
 20
-686.969664914102
 10
398.3333553495295
 20
-686.876392790765
 10
398.0740251485477
 20
-686.8070853506084
 10
397.7926354830242
 20
-686.7644060396894
 10
397.5000000000001
 20
-686.7499949999919
  0
LINE
  5
EA
330
1F
100
AcDbEntity
  8
1
  6
CONTINUOUS
 62
     7
100
AcDbLine
 10
381.0000000000001
 20
-688.3660204037764
 30
0.0
 11
381.0000000000001
 21
-687.4999949999919
 31
0.0
  0
LWPOLYLINE
  5
EB
330
1F
100
AcDbEntity
  8
1
  6
CONTINUOUS
 62
     7
100
AcDbPolyline
 90
        9
 70
     0
 43
0.0
 10
382.5000000000001
 20
-686.7499949999919
 10
382.2073645169759
 20
-686.7644060396896
 10
381.9259748514524
 20
-686.8070853506085
 10
381.6666446504706
 20
-686.8763927907651
 10
381.4393398282202
 20
-686.969664914102
 10
381.2527955815463
 20
-687.0833173252272
 10
381.1141807012331
 20
-687.2129824257181
 10
381.0288220793952
 20
-687.3536772584798
 10
381.0000000000001
 20
-687.4999949999919
  0
LINE
  5
EC
330
1F
100
AcDbEntity
  8
1
  6
CONTINUOUS
 62
     7
100
AcDbLine
 10
399.0000000000001
 20
-688.3660204037764
 30
0.0
 11
399.0000000000001
 21
-688.5386701345868
 31
0.0
  0
LINE
  5
ED
330
1F
100
AcDbEntity
  8
1
  6
CONTINUOUS
 62
     7
100
AcDbLine
 10
381.0000000000001
 20
-688.3660204037764
 30
0.0
 11
381.0000000000001
 21
-688.5386701345868
 31
0.0
  0
LINE
  5
EE
330
1F
100
AcDbEntity
  8
1
  6
CONTINUOUS
 62
     7
100
AcDbLine
 10
382.5000000000001
 20
-686.7499949999918
 30
0.0
 11
397.5000000000001
 21
-686.7499949999918
 31
0.0
  0
LINE
  5
EF
330
1F
100
AcDbEntity
  8
1
  6
CONTINUOUS
 62
     7
100
AcDbLine
 10
399.0000000000001
 20
-689.4046955383712
 30
0.0
 11
399.0000000000001
 21
-688.5386701345868
 31
0.0
  0
LINE
  5
F0
330
1F
100
AcDbEntity
  8
1
  6
CONTINUOUS
 62
     7
100
AcDbLine
 10
381.0000000000001
 20
-688.5386701345868
 30
0.0
 11
381.0000000000001
 21
-689.4046955383712
 31
0.0
  0
ARC
  5
F1
330
1F
100
AcDbEntity
  8
1
  6
CONTINUOUS
 62
     7
100
AcDbCircle
 10
395.5000000000001
 20
-696.749994999992
 30
0.0
 40
1.000000000000001
100
AcDbArc
 50
70.87366785108662
 51
90.0
  0
LINE
  5
F2
330
1F
100
AcDbEntity
  8
1
  6
CONTINUOUS
 62
     7
100
AcDbLine
 10
392.0000000000001
 20
-695.749994999992
 30
0.0
 11
395.5000000000001
 21
-695.749994999992
 31
0.0
  0
LINE
  5
F3
330
1F
100
AcDbEntity
  8
1
  6
CONTINUOUS
 62
     7
100
AcDbLine
 10
392.0000000000001
 20
-694.1874536088096
 30
0.0
 11
392.0000000000001
 21
-695.749994999992
 31
0.0
  0
LINE
  5
F4
330
1F
100
AcDbEntity
  8
1
  6
CONTINUOUS
 62
     7
100
AcDbLine
 10
388.0000000000001
 20
-695.749994999992
 30
0.0
 11
388.0000000000001
 21
-694.1874536088096
 31
0.0
  0
LINE
  5
F5
330
1F
100
AcDbEntity
  8
1
  6
CONTINUOUS
 62
     7
100
AcDbLine
 10
384.5000000000001
 20
-695.749994999992
 30
0.0
 11
388.0000000000001
 21
-695.749994999992
 31
0.0
  0
ARC
  5
F6
330
1F
100
AcDbEntity
  8
1
  6
CONTINUOUS
 62
     7
100
AcDbCircle
 10
384.5000000000001
 20
-696.749994999992
 30
0.0
 40
0.999999999999995
100
AcDbArc
 50
90.0
 51
109.1263321489179
  0
LINE
  5
F7
330
1F
100
AcDbEntity
  8
1
  6
CONTINUOUS
 62
     7
100
AcDbLine
 10
399.0000000000001
 20
-689.4046955383712
 30
0.0
 11
399.0000000000001
 21
-695.7158139632344
 31
0.0
  0
LINE
  5
F8
330
1F
100
AcDbEntity
  8
1
  6
CONTINUOUS
 62
     7
100
AcDbLine
 10
381.0000000000001
 20
-689.4046955383712
 30
0.0
 11
381.0000000000001
 21
-695.7158139632344
 31
0.0
  0
ARC
  5
F9
330
1F
100
AcDbEntity
  8
1
  6
CONTINUOUS
 62
     7
100
AcDbCircle
 10
410.2026986104332
 20
-714.2689664366279
 30
0.0
 40
24.41922842845002
100
AcDbArc
 50
52.19734926597345
 51
89.7371356518988
  0
ARC
  5
FA
330
1F
100
AcDbEntity
  8
1
  6
CONTINUOUS
 62
     7
100
AcDbCircle
 10
369.7953190082774
 20
-714.263175087556
 30
0.0
 40
24.41342812383472
100
AcDbArc
 50
90.25827431053614
 51
127.8057396083028
  0
LINE
  5
FB
330
1F
100
AcDbEntity
  8
1
  6
CONTINUOUS
 62
     7
100
AcDbLine
 10
369.6852700654708
 20
-689.849994999992
 30
0.0
 11
381.0000000000001
 21
-689.849994999992
 31
0.0
  0
LINE
  5
FC
330
1F
100
AcDbEntity
  8
1
  6
CONTINUOUS
 62
     7
100
AcDbLine
 10
399.0000000000001
 20
-689.849994999992
 30
0.0
 11
410.3147299345293
 21
-689.849994999992
 31
0.0
  0
ARC
  5
FD
330
1F
100
AcDbEntity
  8
1
  6
CONTINUOUS
 62
     7
100
AcDbCircle
 10
428.1480722512433
 20
-712.5384259267112
 30
0.0
 40
22.68851915733303
100
AcDbArc
 50
52.64625846190483
 51
89.8402119320238
  0
ARC
  5
FE
330
1F
100
AcDbEntity
  8
1
  6
CONTINUOUS
 62
     7
100
AcDbCircle
 10
351.8559911103861
 20
-712.5501575448177
 30
0.0
 40
22.70026241965597
100
AcDbArc
 50
90.16996143044291
 51
127.3273657028111
  0
LINE
  5
FF
330
1F
100
AcDbEntity
  8
1
  6
CONTINUOUS
 62
     7
100
AcDbLine
 10
351.7886534557321
 20
-689.849994999992
 30
0.0
 11
369.6852700654708
 21
-689.849994999992
 31
0.0
  0
LINE
  5
100
330
1F
100
AcDbEntity
  8
1
  6
CONTINUOUS
 62
     7
100
AcDbLine
 10
410.3147299345281
 20
-689.849994999992
 30
0.0
 11
428.2113465442681
 21
-689.849994999992
 31
0.0
  0
ARC
  5
101
330
1F
100
AcDbEntity
  8
1
  6
CONTINUOUS
 62
     7
100
AcDbCircle
 10
436.4516383386393
 20
-712.5149039213484
 30
0.0
 40
22.66498756856489
100
AcDbArc
 50
53.56845398808787
 51
89.84906093014791
  0
ARC
  5
102
330
1F
100
AcDbEntity
  8
1
  6
CONTINUOUS
 62
     7
100
AcDbCircle
 10
343.5521565354513
 20
-712.5261862098879
 30
0.0
 40
22.6762801276774
100
AcDbArc
 50
90.16045238413002
 51
126.4062488539854
  0
LINE
  5
103
330
1F
100
AcDbEntity
  8
1
  6
CONTINUOUS
 62
     7
100
AcDbLine
 10
343.488653455732
 20
-689.849994999992
 30
0.0
 11
351.7886534557321
 21
-689.849994999992
 31
0.0
  0
LINE
  5
104
330
1F
100
AcDbEntity
  8
1
  6
CONTINUOUS
 62
     7
100
AcDbLine
 10
428.2113465442678
 20
-689.849994999992
 30
0.0
 11
436.5113465442681
 21
-689.849994999992
 31
0.0
  0
LINE
  5
105
330
1F
100
AcDbEntity
  8
1
  6
CONTINUOUS
 62
     7
100
AcDbLine
 10
336.5780492501558
 20
-689.849994999992
 30
0.0
 11
343.488653455732
 21
-689.849994999992
 31
0.0
  0
LINE
  5
106
330
1F
100
AcDbEntity
  8
1
  6
CONTINUOUS
 62
     7
100
AcDbLine
 10
436.5113465442687
 20
-689.849994999992
 30
0.0
 11
443.4219507498444
 21
-689.849994999992
 31
0.0
  0
ARC
  5
107
330
1F
100
AcDbEntity
  8
1
  6
CONTINUOUS
 62
     7
100
AcDbCircle
 10
444.9582455660915
 20
-707.7538587072663
 30
0.0
 40
17.90390049576747
100
AcDbArc
 50
49.72921220931767
 51
90.11615017710739
  0
ARC
  5
108
330
1F
100
AcDbEntity
  8
1
  6
CONTINUOUS
 62
     7
100
AcDbCircle
 10
335.0365751921586
 20
-707.739668534112
 30
0.0
 40
17.88972160920564
100
AcDbArc
 50
89.86717006205946
 51
130.2915916427105
  0
LINE
  5
109
330
1F
100
AcDbEntity
  8
1
  6
CONTINUOUS
 62
     7
100
AcDbLine
 10
335.0780492501558
 20
-689.849994999992
 30
0.0
 11
336.5780492501558
 21
-689.849994999992
 31
0.0
  0
LINE
  5
10A
330
1F
100
AcDbEntity
  8
1
  6
CONTINUOUS
 62
     7
100
AcDbLine
 10
443.4219507498441
 20
-689.849994999992
 30
0.0
 11
444.9219507498443
 21
-689.849994999992
 31
0.0
  0
LINE
  5
10B
330
1F
100
AcDbEntity
  8
1
  6
CONTINUOUS
 62
     7
100
AcDbLine
 10
381.3868836641623
 20
-644.7499949999919
 30
0.0
 11
295.5000000000001
 21
-644.7499949999919
 31
0.0
  0
LINE
  5
10C
330
1F
100
AcDbEntity
  8
1
  6
CONTINUOUS
 62
     7
100
AcDbLine
 10
295.5000000000001
 20
-668.4174620809387
 30
0.0
 11
381.5352275310227
 21
-644.7499949999919
 31
0.0
  0
LINE
  5
10D
330
1F
100
AcDbEntity
  8
1
  6
CONTINUOUS
 62
     7
100
AcDbLine
 10
398.6131163358378
 20
-644.7499949999919
 30
0.0
 11
484.5000000000001
 21
-644.7499949999919
 31
0.0
  0
LINE
  5
10E
330
1F
100
AcDbEntity
  8
1
  6
CONTINUOUS
 62
     7
100
AcDbLine
 10
484.5000000000001
 20
-668.4174620809387
 30
0.0
 11
398.4647724689774
 21
-644.7499949999919
 31
0.0
  0
LINE
  5
10F
330
1F
100
AcDbEntity
  8
1
  6
CONTINUOUS
 62
     7
100
AcDbLine
 10
295.4999999999998
 20
-644.249994999992
 30
0.0
 11
380.5000000000001
 21
-644.249994999992
 31
0.0
  0
LINE
  5
110
330
1F
100
AcDbEntity
  8
1
  6
CONTINUOUS
 62
     7
100
AcDbLine
 10
380.5000000000001
 20
-644.7499949999919
 30
0.0
 11
380.5000000000001
 21
-644.249994999992
 31
0.0
  0
LINE
  5
111
330
1F
100
AcDbEntity
  8
1
  6
CONTINUOUS
 62
     7
100
AcDbLine
 10
399.5000000000001
 20
-644.7499949999919
 30
0.0
 11
399.5000000000001
 21
-644.249994999992
 31
0.0
  0
LINE
  5
112
330
1F
100
AcDbEntity
  8
1
  6
CONTINUOUS
 62
     7
100
AcDbLine
 10
484.5000000000003
 20
-644.249994999992
 30
0.0
 11
399.5000000000001
 21
-644.249994999992
 31
0.0
  0
LINE
  5
113
330
1F
100
AcDbEntity
  8
1
  6
CONTINUOUS
 62
     7
100
AcDbLine
 10
381.3868836641623
 20
-644.7499949999919
 30
0.0
 11
398.6131163358378
 21
-644.7499949999919
 31
0.0
  0
LINE
  5
114
330
1F
100
AcDbEntity
  8
1
  6
CONTINUOUS
 62
     7
100
AcDbLine
 10
380.5000000000001
 20
-644.249994999992
 30
0.0
 11
399.5000000000001
 21
-644.249994999992
 31
0.0
  0
LINE
  5
115
330
1F
100
AcDbEntity
  8
1
  6
CONTINUOUS
 62
     7
100
AcDbLine
 10
484.5000000000001
 20
-678.4660022161995
 30
0.0
 11
295.5000000000001
 21
-678.4660022161995
 31
0.0
  0
ARC
  5
116
330
1F
100
AcDbEntity
  8
1
  6
CONTINUOUS
 62
     7
100
AcDbCircle
 10
390.0000000000001
 20
-692.2999949999919
 30
0.0
 40
1.499999999999993
100
AcDbArc
 50
256.5066011784484
 51
283.4933988215518
  0
LINE
  5
117
330
1F
100
AcDbEntity
  8
1
  6
CONTINUOUS
 62
     7
100
AcDbLine
 10
390.3500000000001
 20
-693.1499949999919
 30
0.0
 11
390.3500000000001
 21
-693.7585902145734
 31
0.0
  0
LWPOLYLINE
  5
118
330
1F
100
AcDbEntity
  8
1
  6
CONTINUOUS
 62
     7
100
AcDbPolyline
 90
       38
 70
     0
 43
0.0
 10
390.8500000000001
 20
-692.649994999992
 10
390.8296374855457
 20
-692.6504113935644
 10
390.8092673598576
 20
-692.6516597407111
 10
390.7889410893109
 20
-692.6537387910762
 10
390.768710140281
 20
-692.6566472943036
 10
390.7480201943453
 20
-692.6605072638179
 10
390.727469041148
 20
-692.6652447220326
 10
390.7071133516867
 20
-692.670848327125
 10
390.6870097969596
 20
-692.6773067372725
 10
390.6677207982107
 20
-692.6844066207289
 10
390.6487063632271
 20
-692.69230760117
 10
390.6300172282541
 20
-692.7009896225579
 10
390.611704129537
 20
-692.7104326288542
 10
390.5932551645366
 20
-692.7209494844413
 10
390.5752417474535
 20
-692.7322579000355
 10
390.5577153039425
 20
-692.7443256480364
 10
390.5407272596583
 20
-692.757120500843
 10
390.525008306177
 20
-692.7700230575924
 10
390.5098109188128
 20
-692.783568572476
 10
390.495174407379
 20
-692.7977208494464
 10
390.4811380816887
 20
-692.8124436924552
 10
390.4673301797132
 20
-692.8281846753308
 10
390.4541839406631
 20
-692.8445015875174
 10
390.441734230561
 20
-692.8613479197919
 10
390.4300159154294
 20
-692.8786771629311
 10
390.4194147260512
 20
-692.895840139106
 10
390.409511498111
 20
-692.9134215828645
 10
390.400329196692
 20
-692.9313753799622
 10
390.3918907868774
 20
-692.9496554161545
 10
390.3839965679034
 20
-692.968779526925
 10
390.3768999811589
 20
-692.9882135095731
 10
390.3706164311558
 20
-693.0079047564911
 10
390.365161322406
 20
-693.0278006600706
 10
390.3597197203518
 20
-693.0519175631528
 10
390.3554766093297
 20
-693.076286536423
 10
390.352438167094
 20
-693.1008164921443
 10
390.3506105713993
 20
-693.1254163425796
 10
390.3500000000001
 20
-693.1499949999919
  0
LINE
  5
119
330
1F
100
AcDbEntity
  8
1
  6
CONTINUOUS
 62
     7
100
AcDbLine
 10
392.039000812019
 20
-692.649994999992
 30
0.0
 11
390.8500000000001
 21
-692.649994999992
 31
0.0
  0
LINE
  5
11A
330
1F
100
AcDbEntity
  8
1
  6
CONTINUOUS
 62
     7
100
AcDbLine
 10
389.15
 20
-692.649994999992
 30
0.0
 11
387.9609991879811
 21
-692.649994999992
 31
0.0
  0
LWPOLYLINE
  5
11B
330
1F
100
AcDbEntity
  8
1
  6
CONTINUOUS
 62
     7
100
AcDbPolyline
 90
       38
 70
     0
 43
0.0
 10
389.65
 20
-693.1499949999919
 10
389.6495836064276
 20
-693.1296324855376
 10
389.6483352592809
 20
-693.1092623598495
 10
389.6462562089159
 20
-693.0889360893028
 10
389.6433477056884
 20
-693.0687051402729
 10
389.6394877361741
 20
-693.0480151943373
 10
389.6347502779594
 20
-693.0274640411398
 10
389.629146672867
 20
-693.0071083516787
 10
389.6226882627196
 20
-692.9870047969515
 10
389.6155883792632
 20
-692.9677157982026
 10
389.607687398822
 20
-692.9487013632189
 10
389.599005377434
 20
-692.930012228246
 10
389.5895623711378
 20
-692.9116991295289
 10
389.5790455155506
 20
-692.8932501645285
 10
389.5677370999564
 20
-692.8752367474455
 10
389.5556693519557
 20
-692.8577103039344
 10
389.542874499149
 20
-692.8407222596502
 10
389.5299719423997
 20
-692.8250033061689
 10
389.516426427516
 20
-692.8098059188047
 10
389.5022741505457
 20
-692.7951694073708
 10
389.4875513075369
 20
-692.7811330816807
 10
389.4718103246612
 20
-692.767325179705
 10
389.4554934124746
 20
-692.7541789406549
 10
389.4386470802001
 20
-692.7417292305529
 10
389.4213178370608
 20
-692.7300109154213
 10
389.4041548608861
 20
-692.7194097260431
 10
389.3865734171276
 20
-692.7095064981029
 10
389.3686196200298
 20
-692.7003241966839
 10
389.3503395838374
 20
-692.6918857868692
 10
389.331215473067
 20
-692.6839915678953
 10
389.3117814904188
 20
-692.6768949811508
 10
389.2920902435009
 20
-692.6706114311477
 10
389.2721943399214
 20
-692.6651563223978
 10
389.2480774368393
 20
-692.6597147203438
 10
389.223708463569
 20
-692.6554716093216
 10
389.1991785078478
 20
-692.6524331670859
 10
389.1745786574124
 20
-692.6506055713912
 10
389.15
 20
-692.649994999992
  0
LINE
  5
11C
330
1F
100
AcDbEntity
  8
1
  6
CONTINUOUS
 62
     7
100
AcDbLine
 10
389.65
 20
-693.7585902145734
 30
0.0
 11
389.65
 21
-693.1499949999919
 31
0.0
  0
ARC
  5
11D
330
1F
100
AcDbEntity
  8
1
  6
CONTINUOUS
 62
     7
100
AcDbCircle
 10
390.0000000000001
 20
-692.2999949999919
 30
0.0
 40
1.499999999999993
100
AcDbArc
 50
76.5066011784483
 51
103.4933988215517
  0
LINE
  5
11E
330
1F
100
AcDbEntity
  8
1
  6
CONTINUOUS
 62
     7
100
AcDbLine
 10
389.65
 20
-691.4499949999919
 30
0.0
 11
389.65
 21
-690.8413997854104
 31
0.0
  0
LINE
  5
11F
330
1F
100
AcDbEntity
  8
1
  6
CONTINUOUS
 62
     7
100
AcDbLine
 10
387.9609991879811
 20
-691.949994999992
 30
0.0
 11
389.15
 21
-691.949994999992
 31
0.0
  0
LINE
  5
120
330
1F
100
AcDbEntity
  8
1
  6
CONTINUOUS
 62
     7
100
AcDbLine
 10
390.8500000000001
 20
-691.949994999992
 30
0.0
 11
392.039000812019
 21
-691.949994999992
 31
0.0
  0
LWPOLYLINE
  5
121
330
1F
100
AcDbEntity
  8
1
  6
CONTINUOUS
 62
     7
100
AcDbPolyline
 90
       38
 70
     0
 43
0.0
 10
390.3500000000001
 20
-691.4499949999919
 10
390.3504163935725
 20
-691.4703575144463
 10
390.3516647407192
 20
-691.4907276401344
 10
390.3537437910843
 20
-691.5110539106811
 10
390.3566522943117
 20
-691.531284859711
 10
390.3605122638261
 20
-691.5519748056466
 10
390.3652497220407
 20
-691.572525958844
 10
390.3708533271331
 20
-691.5928816483054
 10
390.3773117372805
 20
-691.6129852030324
 10
390.3844116207369
 20
-691.6322742017815
 10
390.3923126011782
 20
-691.6512886367649
 10
390.4009946225661
 20
-691.6699777717379
 10
390.4104376288623
 20
-691.688290870455
 10
390.4209544844495
 20
-691.7067398354553
 10
390.4322629000437
 20
-691.7247532525386
 10
390.4443306480444
 20
-691.7422796960496
 10
390.4571255008511
 20
-691.7592677403337
 10
390.4700280576004
 20
-691.774986693815
 10
390.4835735724841
 20
-691.7901840811792
 10
390.4977258494544
 20
-691.804820592613
 10
390.5124486924632
 20
-691.8188569183034
 10
390.5281896753389
 20
-691.8326648202789
 10
390.5445065875255
 20
-691.845811059329
 10
390.5613529198
 20
-691.858260769431
 10
390.5786821629393
 20
-691.8699790845626
 10
390.595845139114
 20
-691.8805802739408
 10
390.6134265828725
 20
-691.890483501881
 10
390.6313803799703
 20
-691.8996658033001
 10
390.6496604161627
 20
-691.9081042131146
 10
390.6687845269331
 20
-691.9159984320887
 10
390.6882185095813
 20
-691.9230950188332
 10
390.7079097564992
 20
-691.9293785688361
 10
390.7278056600787
 20
-691.934833677586
 10
390.7519225631609
 20
-691.9402752796402
 10
390.7762915364311
 20
-691.9445183906623
 10
390.8008214921524
 20
-691.9475568328979
 10
390.8254213425877
 20
-691.9493844285928
 10
390.8500000000001
 20
-691.949994999992
  0
LINE
  5
122
330
1F
100
AcDbEntity
  8
1
  6
CONTINUOUS
 62
     7
100
AcDbLine
 10
390.3500000000001
 20
-690.8413997854104
 30
0.0
 11
390.3500000000001
 21
-691.4499949999919
 31
0.0
  0
LWPOLYLINE
  5
123
330
1F
100
AcDbEntity
  8
1
  6
CONTINUOUS
 62
     7
100
AcDbPolyline
 90
       38
 70
     0
 43
0.0
 10
389.15
 20
-691.949994999992
 10
389.1703625144544
 20
-691.9495786064194
 10
389.1907326401425
 20
-691.9483302592728
 10
389.2110589106892
 20
-691.9462512089077
 10
389.2312898597191
 20
-691.9433427056804
 10
389.2519798056548
 20
-691.939482736166
 10
389.2725309588521
 20
-691.9347452779513
 10
389.2928866483134
 20
-691.9291416728589
 10
389.3129902030405
 20
-691.9226832627115
 10
389.3322792017894
 20
-691.9155833792552
 10
389.3512936367731
 20
-691.9076823988138
 10
389.369982771746
 20
-691.8990003774259
 10
389.3882958704631
 20
-691.8895573711297
 10
389.4067448354635
 20
-691.8790405155424
 10
389.4247582525466
 20
-691.8677320999483
 10
389.4422846960577
 20
-691.8556643519477
 10
389.4592727403418
 20
-691.8428694991409
 10
389.4749916938231
 20
-691.8299669423916
 10
389.4901890811873
 20
-691.8164214275079
 10
389.5048255926212
 20
-691.8022691505377
 10
389.5188619183114
 20
-691.7875463075288
 10
389.5326698202869
 20
-691.7718053246532
 10
389.545816059337
 20
-691.7554884124664
 10
389.5582657694391
 20
-691.738642080192
 10
389.5699840845707
 20
-691.7213128370528
 10
389.5805852739489
 20
-691.704149860878
 10
389.5904885018891
 20
-691.6865684171195
 10
389.5996708033081
 20
-691.6686146200217
 10
389.6081092131227
 20
-691.6503345838292
 10
389.6160034320968
 20
-691.631210473059
 10
389.6231000188412
 20
-691.6117764904108
 10
389.6293835688443
 20
-691.5920852434928
 10
389.6348386775941
 20
-691.5721893399134
 10
389.6402802796483
 20
-691.5480724368311
 10
389.6445233906704
 20
-691.523703463561
 10
389.6475618329061
 20
-691.4991735078396
 10
389.6493894286008
 20
-691.4745736574043
 10
389.65
 20
-691.4499949999919
  0
ARC
  5
124
330
1F
100
AcDbEntity
  8
1
  6
CONTINUOUS
 62
     7
100
AcDbCircle
 10
390.0000000000001
 20
-692.2999949999919
 30
0.0
 40
0.7344081032030456
100
AcDbArc
 50
55.80126157922842
 51
124.1987384207715
  0
ARC
  5
125
330
1F
100
AcDbEntity
  8
1
  6
CONTINUOUS
 62
     7
100
AcDbCircle
 10
390.0000000000001
 20
-692.2999949999919
 30
0.0
 40
0.7344081032030456
100
AcDbArc
 50
235.8012615792284
 51
304.1987384207715
  0
ARC
  5
126
330
1F
100
AcDbEntity
  8
1
  6
CONTINUOUS
 62
     7
100
AcDbCircle
 10
390.0000000000001
 20
-692.2999949999919
 30
0.0
 40
2.621078460244753
100
AcDbArc
 50
352.3262114273139
 51
7.673788572685852
  0
ARC
  5
127
330
1F
100
AcDbEntity
  8
1
  6
CONTINUOUS
 62
     7
100
AcDbCircle
 10
390.0000000000001
 20
-692.2999949999919
 30
0.0
 40
2.621078460244767
100
AcDbArc
 50
172.326211427314
 51
187.6737885726859
  0
LINE
  5
128
330
1F
100
AcDbEntity
  8
1
  6
CONTINUOUS
 62
     7
100
AcDbLine
 10
392.597605107548
 20
-692.649994999992
 30
0.0
 11
392.039000812019
 21
-692.649994999992
 31
0.0
  0
LINE
  5
129
330
1F
100
AcDbEntity
  8
1
  6
CONTINUOUS
 62
     7
100
AcDbLine
 10
392.039000812019
 20
-691.949994999992
 30
0.0
 11
392.597605107548
 21
-691.949994999992
 31
0.0
  0
LINE
  5
12A
330
1F
100
AcDbEntity
  8
1
  6
CONTINUOUS
 62
     7
100
AcDbLine
 10
387.4023948924522
 20
-691.949994999992
 30
0.0
 11
387.9609991879811
 21
-691.949994999992
 31
0.0
  0
LINE
  5
12B
330
1F
100
AcDbEntity
  8
1
  6
CONTINUOUS
 62
     7
100
AcDbLine
 10
387.9609991879811
 20
-692.649994999992
 30
0.0
 11
387.4023948924522
 21
-692.649994999992
 31
0.0
  0
ARC
  5
12C
330
1F
100
AcDbEntity
  8
1
  6
CONTINUOUS
 62
     7
100
AcDbCircle
 10
390.0000000000001
 20
-692.2999949999919
 30
0.0
 40
1.075820915199148
100
AcDbArc
 50
161.0142516718326
 51
198.9857483281674
  0
ARC
  5
12D
330
1F
100
AcDbEntity
  8
1
  6
CONTINUOUS
 62
     7
100
AcDbCircle
 10
390.0000000000001
 20
-692.2999949999919
 30
0.0
 40
0.7344081032030456
100
AcDbArc
 50
325.8012615792285
 51
34.19873842077152
  0
ARC
  5
12E
330
1F
100
AcDbEntity
  8
1
  6
CONTINUOUS
 62
     7
100
AcDbCircle
 10
390.0000000000001
 20
-692.2999949999919
 30
0.0
 40
1.075820915199184
100
AcDbArc
 50
341.0142516718327
 51
18.9857483281674
  0
ARC
  5
12F
330
1F
100
AcDbEntity
  8
1
  6
CONTINUOUS
 62
     7
100
AcDbCircle
 10
390.0000000000001
 20
-692.2999949999919
 30
0.0
 40
0.7344081032030456
100
AcDbArc
 50
145.8012615792285
 51
214.1987384207715
  0
ARC
  5
130
330
1F
100
AcDbEntity
  8
1
  6
CONTINUOUS
 62
     7
100
AcDbCircle
 10
390.0000000000001
 20
-692.2999949999919
 30
0.0
 40
2.749999999999975
100
AcDbArc
 50
171.539695222242
 51
180.0
  0
ARC
  5
131
330
1F
100
AcDbEntity
  8
1
  6
CONTINUOUS
 62
     7
100
AcDbCircle
 10
390.0000000000001
 20
-692.2999949999919
 30
0.0
 40
2.750000000000011
100
AcDbArc
 50
7.939322457270237
 51
171.539695222242
  0
ARC
  5
132
330
1F
100
AcDbEntity
  8
1
  6
CONTINUOUS
 62
     7
100
AcDbCircle
 10
390.0000000000001
 20
-692.2999949999919
 30
0.0
 40
2.750000000000017
100
AcDbArc
 50
351.5396952222421
 51
7.939322457270237
  0
ARC
  5
133
330
1F
100
AcDbEntity
  8
1
  6
CONTINUOUS
 62
     7
100
AcDbCircle
 10
390.0000000000001
 20
-692.2999949999919
 30
0.0
 40
2.750000000000011
100
AcDbArc
 50
187.9393224572698
 51
351.5396952222421
  0
ARC
  5
134
330
1F
100
AcDbEntity
  8
1
  6
CONTINUOUS
 62
     7
100
AcDbCircle
 10
390.0000000000001
 20
-692.2999949999919
 30
0.0
 40
2.750000000000017
100
AcDbArc
 50
180.0
 51
187.9393224572697
  0
LINE
  5
135
330
1F
100
AcDbEntity
  8
1
  6
CONTINUOUS
 62
     7
100
AcDbLine
 10
324.8626509181623
 20
-743.7499949999919
 30
0.0
 11
329.8626509181623
 21
-743.7499949999919
 31
0.0
  0
LINE
  5
136
330
1F
100
AcDbEntity
  8
1
  6
CONTINUOUS
 62
     7
100
AcDbLine
 10
329.8090757981955
 20
-741.9299675276425
 30
0.0
 11
329.8626509181623
 21
-743.7499949999917
 31
0.0
  0
LINE
  5
137
330
1F
100
AcDbEntity
  8
1
  6
CONTINUOUS
 62
     7
100
AcDbLine
 10
325.2862609753366
 20
-725.697436166869
 30
0.0
 11
325.2850119246661
 21
-725.7499949999914
 31
0.0
  0
LINE
  5
138
330
1F
100
AcDbEntity
  8
1
  6
CONTINUOUS
 62
     7
100
AcDbLine
 10
450.137349081838
 20
-743.7499949999909
 30
0.0
 11
450.1909242018038
 21
-741.9299675276721
 31
0.0
  0
LINE
  5
139
330
1F
100
AcDbEntity
  8
1
  6
CONTINUOUS
 62
     7
100
AcDbLine
 10
450.1373490818378
 20
-743.7499949999919
 30
0.0
 11
455.1373490818378
 21
-743.7499949999919
 31
0.0
  0
LINE
  5
13A
330
1F
100
AcDbEntity
  8
1
  6
CONTINUOUS
 62
     7
100
AcDbLine
 10
459.5000000000001
 20
-758.7499949999919
 30
0.0
 11
320.5000000000001
 21
-758.7499949999919
 31
0.0
  0
LINE
  5
13B
330
1F
100
AcDbEntity
  8
1
  6
CONTINUOUS
 62
     7
100
AcDbLine
 10
325.7199555545066
 20
-725.6974361668689
 30
0.0
 11
325.7187074378699
 21
-725.7499949999916
 31
0.0
  0
LINE
  5
13C
330
1F
100
AcDbEntity
  8
1
  6
CONTINUOUS
 62
     7
100
AcDbLine
 10
326.3156499494098
 20
-726.2237155834307
 30
0.0
 11
326.3970660070166
 21
-729.0497202767903
 31
0.0
  0
LINE
  5
13D
330
1F
100
AcDbEntity
  8
1
  6
CONTINUOUS
 62
     7
100
AcDbLine
 10
326.5829470882108
 20
-730.285965352329
 30
0.0
 11
326.3970660070167
 21
-729.0497202767907
 31
0.0
  0
LINE
  5
13E
330
1F
100
AcDbEntity
  8
1
  6
CONTINUOUS
 62
     7
100
AcDbLine
 10
329.8090757981905
 20
-741.9299675276507
 30
0.0
 11
326.5829470882108
 21
-730.285965352329
 31
0.0
  0
LINE
  5
13F
330
1F
100
AcDbEntity
  8
1
  6
CONTINUOUS
 62
     7
100
AcDbLine
 10
321.8713021954041
 20
-730.4233259162776
 30
0.0
 11
321.7370852929233
 21
-729.0497202767907
 31
0.0
  0
LINE
  5
140
330
1F
100
AcDbEntity
  8
1
  6
CONTINUOUS
 62
     7
100
AcDbLine
 10
453.6029339929834
 20
-729.0497202767907
 30
0.0
 11
453.4170529117894
 21
-730.285965352329
 31
0.0
  0
LINE
  5
141
330
1F
100
AcDbEntity
  8
1
  6
CONTINUOUS
 62
     7
100
AcDbLine
 10
453.6029339929835
 20
-729.0497202767903
 30
0.0
 11
453.6843500505903
 21
-726.2237155834316
 31
0.0
  0
LINE
  5
142
330
1F
100
AcDbEntity
  8
1
  6
CONTINUOUS
 62
     7
100
AcDbLine
 10
453.4170529117894
 20
-730.285965352329
 30
0.0
 11
450.1909242018037
 21
-741.9299675276718
 31
0.0
  0
LINE
  5
143
330
1F
100
AcDbEntity
  8
1
  6
CONTINUOUS
 62
     7
100
AcDbLine
 10
458.2629147070768
 20
-729.0497202767907
 30
0.0
 11
458.128697804596
 21
-730.4233259162776
 31
0.0
  0
LINE
  5
144
330
1F
100
AcDbEntity
  8
1
  6
CONTINUOUS
 62
     7
100
AcDbLine
 10
321.8044525231934
 20
-726.2237155834317
 30
0.0
 11
321.7370852929233
 21
-729.0497202767901
 31
0.0
  0
LWPOLYLINE
  5
145
330
1F
100
AcDbEntity
  8
1
  6
CONTINUOUS
 62
     7
100
AcDbPolyline
 90
       37
 70
     0
 43
0.0
 10
322.0324425682986
 20
-725.749994999992
 10
322.0228935515436
 20
-725.7504290494882
 10
322.0133578225258
 20
-725.7517282076635
 10
322.0038599419516
 20
-725.7538879890486
 10
321.9944244705268
 20
-725.7569039081741
 10
321.9847890295176
 20
-725.7609011767287
 10
321.9752369434054
 20
-725.7657986516083
 10
321.9657940624293
 20
-725.7715817410763
 10
321.9564862368279
 20
-725.778235853396
 10
321.9475787053621
 20
-725.7855335887857
 10
321.9388141057925
 20
-725.7936418752737
 10
321.9302146861945
 20
-725.8025387800491
 10
321.9218026946435
 20
-725.8122023703007
 10
321.9133500479012
 20
-725.8229408884421
 10
321.9051108445543
 20
-725.8344727982632
 10
321.8971070753957
 20
-725.8467655321065
 10
321.8893607312183
 20
-725.8597865223145
 10
321.8820897777857
 20
-725.8731230937296
 10
321.8750741857688
 20
-725.887124154218
 10
321.8683315108436
 20
-725.9017527130321
 10
321.8618793086862
 20
-725.9169717794244
 10
321.8555492095172
 20
-725.9332383276005
 10
321.8495379402524
 20
-725.950101550769
 10
321.8438612879806
 20
-725.9675144531916
 10
321.8385350397906
 20
-725.9854300391298
 10
321.8337059203513
 20
-726.0032855589749
 10
321.829215229291
 20
-726.0215837382298
 10
321.8250739518974
 20
-726.0402766950845
 10
321.8212930734586
 20
-726.0593165477289
 10
321.8177828754307
 20
-726.0792565129992
 10
321.814660720678
 20
-726.0995281309617
 10
321.8119344937794
 20
-726.1200753485097
 10
321.8096120793139
 20
-726.1408421125354
 10
321.8077338514587
 20
-726.1613543790136
 10
321.8062456265058
 20
-726.1820404469946
 10
321.8051507389268
 20
-726.2028457154697
 10
321.8044525231934
 20
-726.2237155834309
  0
LINE
  5
146
330
1F
100
AcDbEntity
  8
1
  6
CONTINUOUS
 62
     7
100
AcDbLine
 10
322.0324425682986
 20
-725.749994999992
 30
0.0
 11
325.6106978948658
 21
-725.749994999992
 31
0.0
  0
LWPOLYLINE
  5
147
330
1F
100
AcDbEntity
  8
1
  6
CONTINUOUS
 62
     7
100
AcDbPolyline
 90
       37
 70
     0
 43
0.0
 10
458.1955474768067
 20
-726.2237155834306
 10
458.1948566576516
 20
-726.2030175178019
 10
458.193775680408
 20
-726.18238284017
 10
458.192307781369
 20
-726.1618648175123
 10
458.1904561968273
 20
-726.1415167168066
 10
458.1881506114109
 20
-726.1207740292764
 10
458.1854422951619
 20
-726.1002489699614
 10
458.1823390594485
 20
-726.0799973662641
 10
458.1788487156389
 20
-726.0600750455876
 10
458.1750878246746
 20
-726.0410491206119
 10
458.1709673336945
 20
-726.0223677576671
 10
458.1664981423025
 20
-726.0040786731313
 10
458.1616911501024
 20
-725.9862295833826
 10
458.1563952297786
 20
-725.968340007766
 10
458.1507503810794
 20
-725.9509489034632
 10
458.1447722182181
 20
-725.9341029592051
 10
458.1384763554078
 20
-725.9178488637226
 10
458.1320526912945
 20
-725.9026240674549
 10
458.1253390024106
 20
-725.8879860999115
 10
458.1183527055364
 20
-725.8739718458647
 10
458.1111112174525
 20
-725.8606181900867
 10
458.1033991316953
 20
-725.8475816275459
 10
458.0954299444026
 20
-725.8352684387673
 10
458.0872254503025
 20
-725.8237111033885
 10
458.0788074441235
 20
-725.8129421010465
 10
458.0704171969002
 20
-725.8032310389907
 10
458.0618388188668
 20
-725.7942839951047
 10
458.0530944625721
 20
-725.7861229937064
 10
458.0442062805649
 20
-725.7787700591135
 10
458.0349177917796
 20
-725.7720568407583
 10
458.0254932441491
 20
-725.7662120205069
 10
458.0159583872518
 20
-725.7612503328828
 10
458.0063389706664
 20
-725.7571865124095
 10
457.9967167554156
 20
-725.7540475150325
 10
457.9870283741957
 20
-725.7517993574792
 10
457.9772999064701
 20
-725.7504468992867
 10
457.9675574317016
 20
-725.749994999992
  0
LINE
  5
148
330
1F
100
AcDbEntity
  8
1
  6
CONTINUOUS
 62
     7
100
AcDbLine
 10
458.2629147070768
 20
-729.049720276791
 30
0.0
 11
458.1955474768067
 21
-726.2237155834306
 31
0.0
  0
LINE
  5
149
330
1F
100
AcDbEntity
  8
1
  6
CONTINUOUS
 62
     7
100
AcDbLine
 10
454.3893021051342
 20
-725.749994999992
 30
0.0
 11
457.9675574317016
 21
-725.749994999992
 31
0.0
  0
LINE
  5
14A
330
1F
100
AcDbEntity
  8
1
  6
CONTINUOUS
 62
     7
100
AcDbLine
 10
324.8626509181622
 20
-743.7499949999919
 30
0.0
 11
321.8713021954041
 21
-730.4233259162776
 31
0.0
  0
LINE
  5
14B
330
1F
100
AcDbEntity
  8
1
  6
CONTINUOUS
 62
     7
100
AcDbLine
 10
458.128697804596
 20
-730.4233259162776
 30
0.0
 11
455.1373490818378
 21
-743.749994999992
 31
0.0
  0
LWPOLYLINE
  5
14C
330
1F
100
AcDbEntity
  8
1
  6
CONTINUOUS
 62
     7
100
AcDbPolyline
 90
       37
 70
     0
 43
0.0
 10
-453.6843500505903
 20
-726.2237155834315
 10
-453.6851769971734
 20
-726.2030979522671
 10
-453.6864715776152
 20
-726.1825254903898
 10
-453.6882408362476
 20
-726.1619628182308
 10
-453.6904803516049
 20
-726.1415177171764
 10
-453.6932420235809
 20
-726.1208596904484
 10
-453.69648702668
 20
-726.1003989793982
 10
-453.7002264586903
 20
-726.0800999917446
 10
-453.7044448019634
 20
-726.0600770544713
 10
-453.7089466364652
 20
-726.0411238490631
 10
-453.7138800601998
 20
-726.0224967453165
 10
-453.7193034449342
 20
-726.0040191879257
 10
-453.725143423739
 20
-725.9859753521982
 10
-453.7314357563615
 20
-725.9682736336151
 10
-453.7381282777748
 20
-725.9510755529293
 10
-453.7453080514021
 20
-725.9341888272533
 10
-453.7528872329242
 20
-725.9178526861263
 10
-453.7605456567411
 20
-725.9026846258026
 10
-453.7685504785908
 20
-725.8880867512705
 10
-453.7769188541255
 20
-725.8740395338467
 10
-453.7856105240235
 20
-725.8606219697057
 10
-453.7947773816696
 20
-725.8476358439283
 10
-453.8042500836706
 20
-725.8353566005358
 10
-453.8140490588394
 20
-725.8237693415058
 10
-453.8241234297219
 20
-725.8129456242985
 10
-453.8340665381014
 20
-725.8032689747629
 10
-453.8442320754797
 20
-725.7943433740987
 10
-453.8546397740772
 20
-725.786161047685
 10
-453.8652375529196
 20
-725.7787724319305
 10
-453.8762042947092
 20
-725.7720829218631
 10
-453.8873309356065
 20
-725.7662501415768
 10
-453.8986395379241
 20
-725.7612727520283
 10
-453.9100694007659
 20
-725.757187709828
 10
-453.9213889999185
 20
-725.7540572966947
 10
-453.9327854871147
 20
-725.7518094384906
 10
-453.9442802900098
 20
-725.7504496424456
 10
-453.9558118120358
 20
-725.749994999992
210
0.0
220
0.0
230
-1.0
  0
LINE
  5
14D
330
1F
100
AcDbEntity
  8
1
  6
CONTINUOUS
 62
     7
100
AcDbLine
 10
453.9558118120358
 20
-725.749994999992
 30
0.0
 11
454.3893021051342
 21
-725.749994999992
 31
0.0
  0
LINE
  5
14E
330
1F
100
AcDbEntity
  8
1
  6
CONTINUOUS
 62
     7
100
AcDbLine
 10
325.6106978948659
 20
-725.749994999992
 30
0.0
 11
326.0441881879643
 21
-725.749994999992
 31
0.0
  0
LWPOLYLINE
  5
14F
330
1F
100
AcDbEntity
  8
1
  6
CONTINUOUS
 62
     7
100
AcDbPolyline
 90
       37
 70
     0
 43
0.0
 10
-326.0441881879643
 20
-725.749994999992
 10
-326.0553903238974
 20
-725.7504240351276
 10
-326.0665972189735
 20
-725.7517133348682
 10
-326.0778283926828
 20
-725.7538740875626
 10
-326.0890252865619
 20
-725.7569040878442
 10
-326.1003696277427
 20
-725.7608813480206
 10
-326.1116372136816
 20
-725.7657567039086
 10
-326.1228478301365
 20
-725.7715490872657
 10
-326.1339385315958
 20
-725.7782365849811
 10
-326.1444681060045
 20
-725.7855030368468
 10
-326.1548473653693
 20
-725.7935814320109
 10
-326.1650925926973
 20
-725.8024943724686
 10
-326.1751485139869
 20
-725.812204011537
 10
-326.1851730868333
 20
-725.8228953747625
 10
-326.1949624966405
 20
-725.8343848531667
 10
-326.2045318977165
 20
-725.8467025962364
 10
-326.2138253848303
 20
-725.8597895257514
 10
-326.2224784018454
 20
-725.8730719829847
 10
-326.2308417034484
 20
-725.8870264082045
 10
-326.238926506591
 20
-725.9016842606358
 10
-326.2466871714976
 20
-725.9169761945934
 10
-326.2542397860803
 20
-725.9331736353462
 10
-326.2614243346367
 20
-725.9499787942408
 10
-326.2682496544811
 20
-725.9674296062409
 10
-326.2746734169585
 20
-725.9854362954211
 10
-326.2804499337333
 20
-726.0032208391563
 10
-326.2858301369595
 20
-726.0214607498036
 10
-326.2908579012756
 20
-726.0403474820688
 10
-326.2954492266473
 20
-726.0596051545489
 10
-326.2996234007002
 20
-726.0793416557501
 10
-326.303338568158
 20
-726.0993845572402
 10
-326.3066287139486
 20
-726.1199779215124
 10
-326.3094383167768
 20
-726.1408501291631
 10
-326.3116920357161
 20
-726.1612787385012
 10
-326.3134815010876
 20
-726.1818979952805
 10
-326.3148048373068
 20
-726.2027464617674
 10
-326.3156499494099
 20
-726.2237155834308
210
0.0
220
0.0
230
-1.0
  0
LINE
  5
150
330
1F
100
AcDbEntity
  8
1
  6
CONTINUOUS
 62
     7
100
AcDbLine
 10
394.9999999999999
 20
-695.7569117567848
 30
0.0
 11
385.0000000000002
 21
-695.7569117567848
 31
0.0
  0
LINE
  5
151
330
1F
100
AcDbEntity
  8
1
  6
CONTINUOUS
 62
     7
100
AcDbLine
 10
395.5161712653952
 20
-695.8087260523621
 30
0.0
 11
395.783567639371
 21
-695.8219367964999
 31
0.0
  0
LINE
  5
152
330
1F
100
AcDbEntity
  8
1
  6
CONTINUOUS
 62
     7
100
AcDbLine
 10
384.216432360629
 20
-695.8219367964999
 30
0.0
 11
384.4838287346048
 21
-695.8087260523622
 31
0.0
  0
LINE
  5
153
330
1F
100
AcDbEntity
  8
1
  6
CONTINUOUS
 62
     7
100
AcDbLine
 10
494.0174205654629
 20
-693.0386470020445
 30
0.0
 11
395.5598909602104
 21
-695.8127408868385
 31
0.0
  0
LWPOLYLINE
  5
154
330
1F
100
AcDbEntity
  8
1
  6
CONTINUOUS
 62
     7
100
AcDbPolyline
 90
       33
 70
     0
 43
0.0
 10
-494.5000000000001
 20
-692.6551234845493
 10
-494.4994241494607
 20
-692.6735029448076
 10
-494.497697924258
 20
-692.6918417601123
 10
-494.4948253005828
 20
-692.7100976887968
 10
-494.4908128952425
 20
-692.7282286801155
 10
-494.4856699504205
 20
-692.7461929711039
 10
-494.479408312387
 20
-692.7639491827754
 10
-494.4720424042123
 20
-692.7814564154336
 10
-494.4635891925453
 20
-692.7986743428812
 10
-494.4540681485321
 20
-692.8155633053069
 10
-494.4435012029659
 20
-692.8320844006382
 10
-494.4319126957719
 20
-692.8481995741485
 10
-494.4193293199426
 20
-692.8638717061123
 10
-494.4057800600531
 20
-692.8790646973071
 10
-494.3912961254978
 20
-692.8937435521641
 10
-494.3759108786029
 20
-692.9078744593774
 10
-494.3596597577792
 20
-692.9214248697849
 10
-494.3425801958934
 20
-692.934363571342
 10
-494.3247115340453
 20
-692.9466607610158
 10
-494.3060949309491
 20
-692.9582881134326
 10
-494.2867732681285
 20
-692.9692188461241
 10
-494.2667910511435
 20
-692.9794277812172
 10
-494.2461943070757
 20
-692.9888914034282
 10
-494.2250304785097
 20
-692.9975879142299
 10
-494.2033483142541
 20
-693.0054972820602
 10
-494.1811977570528
 20
-693.0126012884643
 10
-494.1586298285469
 20
-693.0188835700585
 10
-494.1356965117516
 20
-693.0243296562219
 10
-494.1124506313185
 20
-693.0289270024275
 10
-494.0889457318585
 20
-693.0326650191387
 10
-494.0652359546079
 20
-693.0355350961995
 10
-494.0413759127187
 20
-693.037530622668
 10
-494.0174205654629
 20
-693.0386470020445
210
0.0
220
0.0
230
-1.0
  0
LWPOLYLINE
  5
155
330
1F
100
AcDbEntity
  8
1
  6
CONTINUOUS
 62
     7
100
AcDbPolyline
 90
       33
 70
     0
 43
0.0
 10
-285.9825794345372
 20
-693.0386470020445
 10
-285.9586240872814
 20
-693.037530622668
 10
-285.9347640453922
 20
-693.0355350961995
 10
-285.9110542681416
 20
-693.0326650191387
 10
-285.8875493686817
 20
-693.0289270024276
 10
-285.8643034882485
 20
-693.0243296562219
 10
-285.8413701714533
 20
-693.0188835700586
 10
-285.8188022429474
 20
-693.0126012884643
 10
-285.796651685746
 20
-693.0054972820602
 10
-285.7749695214904
 20
-692.9975879142299
 10
-285.7538056929245
 20
-692.9888914034283
 10
-285.7332089488566
 20
-692.9794277812172
 10
-285.7132267318716
 20
-692.9692188461241
 10
-285.6939050690511
 20
-692.9582881134326
 10
-285.6752884659549
 20
-692.9466607610158
 10
-285.6574198041067
 20
-692.934363571342
 10
-285.6403402422209
 20
-692.921424869785
 10
-285.6240891213972
 20
-692.9078744593775
 10
-285.6087038745023
 20
-692.8937435521641
 10
-285.594219939947
 20
-692.8790646973071
 10
-285.5806706800575
 20
-692.8638717061123
 10
-285.5680873042282
 20
-692.8481995741486
 10
-285.5564987970342
 20
-692.8320844006382
 10
-285.545931851468
 20
-692.815563305307
 10
-285.5364108074548
 20
-692.7986743428813
 10
-285.5279575957879
 20
-692.7814564154337
 10
-285.5205916876131
 20
-692.7639491827755
 10
-285.5143300495796
 20
-692.7461929711039
 10
-285.5091871047576
 20
-692.7282286801156
 10
-285.5051746994174
 20
-692.7100976887968
 10
-285.5023020757422
 20
-692.6918417601124
 10
-285.5005758505395
 20
-692.6735029448076
 10
-285.5000000000001
 20
-692.6551234845493
210
0.0
220
0.0
230
-1.0
  0
LINE
  5
156
330
1F
100
AcDbEntity
  8
1
  6
CONTINUOUS
 62
     7
100
AcDbLine
 10
285.9825794345372
 20
-693.0386470020446
 30
0.0
 11
384.4401090397897
 21
-695.8127408868385
 31
0.0
  0
LINE
  5
157
330
1F
100
AcDbEntity
  8
1
  6
CONTINUOUS
 62
     7
100
AcDbLine
 10
494.0348411309256
 20
-705.8915286444127
 30
0.0
 11
494.0000000000002
 21
-705.8936418313677
 31
0.0
  0
LINE
  5
158
330
1F
100
AcDbEntity
  8
1
  6
CONTINUOUS
 62
     7
100
AcDbLine
 10
494.0000000000001
 20
-706.0155743495616
 30
0.0
 11
494.0000000000001
 21
-705.8936418313679
 31
0.0
  0
LINE
  5
159
330
1F
100
AcDbEntity
  8
1
  6
CONTINUOUS
 62
     7
100
AcDbLine
 10
286.0
 20
-706.0155743495616
 30
0.0
 11
286.0
 21
-705.8936418313679
 31
0.0
  0
LINE
  5
15A
330
1F
100
AcDbEntity
  8
1
  6
CONTINUOUS
 62
     7
100
AcDbLine
 10
286.0
 20
-705.8936418313679
 30
0.0
 11
285.9651588690746
 21
-705.8915286444127
 31
0.0
  0
LINE
  5
15B
330
1F
100
AcDbEntity
  8
1
  6
CONTINUOUS
 62
     7
100
AcDbLine
 10
385.0000000000002
 20
-695.7569117567848
 30
0.0
 11
384.4838287346048
 21
-695.8087260523622
 31
0.0
  0
LINE
  5
15C
330
1F
100
AcDbEntity
  8
1
  6
CONTINUOUS
 62
     7
100
AcDbLine
 10
394.9999999999999
 20
-695.7569117567848
 30
0.0
 11
395.5161712653952
 21
-695.8087260523621
 31
0.0
  0
LINE
  5
15D
330
1F
100
AcDbEntity
  8
1
  6
CONTINUOUS
 62
     7
100
AcDbLine
 10
494.5000000000001
 20
-693.3185817445408
 30
0.0
 11
494.5000000000001
 21
-693.3178530041821
 31
0.0
  0
LINE
  5
15E
330
1F
100
AcDbEntity
  8
1
  6
CONTINUOUS
 62
     7
100
AcDbLine
 10
495.0000000000001
 20
-692.6544390560132
 30
0.0
 11
495.0000000000001
 21
-705.2158457630778
 31
0.0
  0
ARC
  5
15F
330
1F
100
AcDbEntity
  8
1
  6
CONTINUOUS
 62
     7
100
AcDbCircle
 10
494.0000000000001
 20
-705.2158457630777
 30
0.0
 40
1.0
100
AcDbArc
 50
354.6435094833188
 51
0.0
  0
LWPOLYLINE
  5
160
330
1F
100
AcDbEntity
  8
1
  6
CONTINUOUS
 62
     7
100
AcDbPolyline
 90
        3
 70
     0
 43
0.0
 10
494.0348411309258
 20
-705.8915286444126
 10
494.1594636549409
 20
-705.870910250638
 10
494.281211522535
 20
-705.8275623353938
  0
ARC
  5
161
330
1F
100
AcDbEntity
  8
1
  6
CONTINUOUS
 62
     7
100
AcDbCircle
 10
493.2111235513362
 20
-703.8218116009016
 30
0.0
 40
2.27335089131017
100
AcDbArc
 50
298.0803647117025
 51
321.0804685739747
  0
LINE
  5
162
330
1F
100
AcDbEntity
  8
1
  6
CONTINUOUS
 62
     7
100
AcDbLine
 10
285.0043668581331
 20
-705.3091980357666
 30
0.0
 11
285.0
 21
-705.2158457630777
 31
0.0
  0
LINE
  5
163
330
1F
100
AcDbEntity
  8
1
  6
CONTINUOUS
 62
     7
100
AcDbLine
 10
285.0000000000001
 20
-705.2158457630777
 30
0.0
 11
285.0000000000001
 21
-692.6544390560132
 31
0.0
  0
LINE
  5
164
330
1F
100
AcDbEntity
  8
1
  6
CONTINUOUS
 62
     7
100
AcDbLine
 10
285.5000000000001
 20
-693.3178530041821
 30
0.0
 11
285.5000000000001
 21
-693.3185817445408
 31
0.0
  0
LWPOLYLINE
  5
165
330
1F
100
AcDbEntity
  8
1
  6
CONTINUOUS
 62
     7
100
AcDbPolyline
 90
        3
 70
     0
 43
0.0
 10
-285.9651588690743
 20
-705.8915286444126
 10
-285.8405363450591
 20
-705.870910250638
 10
-285.718788477465
 20
-705.8275623353938
210
0.0
220
0.0
230
-1.0
  0
ARC
  5
166
330
1F
100
AcDbEntity
  8
1
  6
CONTINUOUS
 62
     7
100
AcDbCircle
 10
286.7888764486643
 20
-703.8218116009011
 30
0.0
 40
2.273350891310771
100
AcDbArc
 50
218.9195314260279
 51
241.9196352882928
  0
LINE
  5
167
330
1F
100
AcDbEntity
  8
1
  6
CONTINUOUS
 62
     7
100
AcDbLine
 10
494.5000000000001
 20
-693.3178530041821
 30
0.0
 11
494.5000000000001
 21
-691.8621539200233
 31
0.0
  0
LINE
  5
168
330
1F
100
AcDbEntity
  8
1
  6
CONTINUOUS
 62
     7
100
AcDbLine
 10
495.0000000000001
 20
-692.6544390560132
 30
0.0
 11
495.0000000000001
 21
-691.8621539200233
 31
0.0
  0
LINE
  5
169
330
1F
100
AcDbEntity
  8
1
  6
CONTINUOUS
 62
     7
100
AcDbLine
 10
285.0000000000001
 20
-692.6544390560132
 30
0.0
 11
285.0000000000001
 21
-691.8621539200233
 31
0.0
  0
LINE
  5
16A
330
1F
100
AcDbEntity
  8
1
  6
CONTINUOUS
 62
     7
100
AcDbLine
 10
285.5000000000001
 20
-693.3178530041821
 30
0.0
 11
285.5000000000001
 21
-691.8621539200233
 31
0.0
  0
LINE
  5
16B
330
1F
100
AcDbEntity
  8
1
  6
CONTINUOUS
 62
     7
100
AcDbLine
 10
495.0000000000001
 20
-690.7905167490828
 30
0.0
 11
495.0000000000001
 21
-691.8621539200233
 31
0.0
  0
LINE
  5
16C
330
1F
100
AcDbEntity
  8
1
  6
CONTINUOUS
 62
     7
100
AcDbLine
 10
494.5000000000001
 20
-691.8621539200233
 30
0.0
 11
494.5000000000001
 21
-690.7905167490828
 31
0.0
  0
LINE
  5
16D
330
1F
100
AcDbEntity
  8
1
  6
CONTINUOUS
 62
     7
100
AcDbLine
 10
285.5000000000001
 20
-690.7905167490828
 30
0.0
 11
285.5000000000001
 21
-691.8621539200233
 31
0.0
  0
LINE
  5
16E
330
1F
100
AcDbEntity
  8
1
  6
CONTINUOUS
 62
     7
100
AcDbLine
 10
285.0
 20
-691.8621539200233
 30
0.0
 11
285.0000000000001
 21
-690.7905167490828
 31
0.0
  0
LINE
  5
16F
330
1F
100
AcDbEntity
  8
1
  6
CONTINUOUS
 62
     7
100
AcDbLine
 10
494.9798565593283
 20
-705.2499949999999
 30
0.0
 11
494.995633141867
 21
-705.3091980357666
 31
0.0
  0
LINE
  5
170
330
1F
100
AcDbEntity
  8
1
  6
CONTINUOUS
 62
     7
100
AcDbLine
 10
494.995633141867
 20
-705.3091980357666
 30
0.0
 11
494.9179260168236
 21
-705.3091980357666
 31
0.0
  0
LINE
  5
171
330
1F
100
AcDbEntity
  8
1
  6
CONTINUOUS
 62
     7
100
AcDbLine
 10
285.0201434406718
 20
-705.2499949999999
 30
0.0
 11
285.0043668581331
 21
-705.3091980357666
 31
0.0
  0
LINE
  5
172
330
1F
100
AcDbEntity
  8
1
  6
CONTINUOUS
 62
     7
100
AcDbLine
 10
285.0043668581331
 20
-705.3091980357666
 30
0.0
 11
285.0820739831764
 21
-705.3091980357666
 31
0.0
  0
LINE
  5
173
330
1F
100
AcDbEntity
  8
1
  6
CONTINUOUS
 62
     7
100
AcDbLine
 10
494.0000000000001
 20
-706.2499949999919
 30
0.0
 11
493.2121476065734
 21
-706.2499949999919
 31
0.0
  0
LINE
  5
174
330
1F
100
AcDbEntity
  8
1
  6
CONTINUOUS
 62
     7
100
AcDbLine
 10
494.0098818919604
 20
-706.2332065820275
 30
0.0
 11
494.0000000000001
 21
-706.233265056561
 31
0.0
  0
LINE
  5
175
330
1F
100
AcDbEntity
  8
1
  6
CONTINUOUS
 62
     7
100
AcDbLine
 10
494.0000000000001
 20
-706.2332650565768
 30
0.0
 11
494.0000000000001
 21
-706.0155743495616
 31
0.0
  0
LINE
  5
176
330
1F
100
AcDbEntity
  8
1
  6
CONTINUOUS
 62
     7
100
AcDbLine
 10
286.7878523934266
 20
-706.2499949999919
 30
0.0
 11
286.0
 21
-706.2499949999919
 31
0.0
  0
LINE
  5
177
330
1F
100
AcDbEntity
  8
1
  6
CONTINUOUS
 62
     7
100
AcDbLine
 10
285.9901181080398
 20
-706.2332065820275
 30
0.0
 11
286.0
 21
-706.2332650565622
 31
0.0
  0
LINE
  5
178
330
1F
100
AcDbEntity
  8
1
  6
CONTINUOUS
 62
     7
100
AcDbLine
 10
286.0
 20
-706.2332650565827
 30
0.0
 11
286.0
 21
-706.0155743495616
 31
0.0
  0
LINE
  5
179
330
1F
100
AcDbEntity
  8
1
  6
CONTINUOUS
 62
     7
100
AcDbLine
 10
493.2121476065734
 20
-706.2499949999919
 30
0.0
 11
286.7878523934266
 21
-706.2499949999919
 31
0.0
  0
LINE
  5
17A
330
1F
100
AcDbEntity
  8
1
  6
CONTINUOUS
 62
     7
100
AcDbLine
 10
494.452502355568
 20
-706.1417582074666
 30
0.0
 11
494.0098818919604
 21
-706.2332065820275
 31
0.0
  0
ARC
  5
17B
330
1F
100
AcDbEntity
  8
1
  6
CONTINUOUS
 62
     7
100
AcDbCircle
 10
494.0000000000001
 20
-705.2499949999919
 30
0.0
 40
1.000000000000001
100
AcDbArc
 50
270.0
 51
296.9043461878213
  0
ARC
  5
17C
330
1F
100
AcDbEntity
  8
1
  6
CONTINUOUS
 62
     7
100
AcDbCircle
 10
286.0
 20
-705.2499949999919
 30
0.0
 40
1.000000000000001
100
AcDbArc
 50
243.0956538121788
 51
270.0
  0
LINE
  5
17D
330
1F
100
AcDbEntity
  8
1
  6
CONTINUOUS
 62
     7
100
AcDbLine
 10
285.5474976444321
 20
-706.1417582074666
 30
0.0
 11
285.9454252923592
 21
-706.2323351688291
 31
0.0
  0
LINE
  5
17E
330
1F
100
AcDbEntity
  8
1
  6
CONTINUOUS
 62
     7
100
AcDbLine
 10
285.9454252923592
 20
-706.2323351688291
 30
0.0
 11
285.9901181080398
 21
-706.2332065820275
 31
0.0
  0
LWPOLYLINE
  5
17F
330
1F
100
AcDbEntity
  8
1
  6
CONTINUOUS
 62
     7
100
AcDbPolyline
 90
       37
 70
     0
 43
0.0
 10
285.0068654676475
 20
-705.3669727784325
 10
285.008873313713
 20
-705.3828921239377
 10
285.0112755966083
 20
-705.3996865427981
 10
285.0141016709038
 20
-705.4172761973165
 10
285.0173808911696
 20
-705.435581249796
 10
285.0211426119758
 20
-705.4545218625397
 10
285.0254161878929
 20
-705.4740181978503
 10
285.0292899367282
 20
-705.4902446909266
 10
285.0335388935391
 20
-705.5068008299841
 10
285.0381685152089
 20
-705.5236336267405
 10
285.0431842586207
 20
-705.5406900929138
 10
285.0487660404826
 20
-705.5584608252244
 10
285.0547783994457
 20
-705.5764167229316
 10
285.0612167228908
 20
-705.5944991967054
 10
285.0680763981991
 20
-705.6126496572159
 10
285.0776363652604
 20
-705.636291597527
 10
285.0879355920241
 20
-705.6599785254425
 10
285.0989376919489
 20
-705.6836085813992
 10
285.1106062784936
 20
-705.7070799058342
 10
285.1229049651171
 20
-705.7302906391844
 10
285.1357973652783
 20
-705.753138921887
 10
285.1505547393411
 20
-705.7776569103517
 10
285.1660125313779
 20
-705.8017420436797
 10
285.1821144080794
 20
-705.8253317818991
 10
285.1988040361367
 20
-705.8483635850373
 10
285.2160250822408
 20
-705.8707749131221
 10
285.2337212130828
 20
-705.8925032261811
 10
285.2550755708986
 20
-705.9171405647045
 10
285.2770475837881
 20
-705.9408871585637
 10
285.2995668692463
 20
-705.9637099396014
 10
285.3225630447674
 20
-705.9855758396593
 10
285.3548174071722
 20
-706.0140215985655
 10
285.3878465532356
 20
-706.0407322105774
 10
285.4215195578663
 20
-706.0656912535501
 10
285.4628102482567
 20
-706.0934552799592
 10
285.5048557090909
 20
-706.1188045893928
 10
285.5474976444321
 20
-706.1417582074666
  0
LINE
  5
180
330
1F
100
AcDbEntity
  8
1
  6
CONTINUOUS
 62
     7
100
AcDbLine
 10
285.0068654676475
 20
-705.3669727784325
 30
0.0
 11
285.1316240832955
 21
-705.3669727784325
 31
0.0
  0
LINE
  5
181
330
1F
100
AcDbEntity
  8
1
  6
CONTINUOUS
 62
     7
100
AcDbLine
 10
494.9931345323526
 20
-705.3669727784325
 30
0.0
 11
494.8683759167046
 21
-705.3669727784325
 31
0.0
  0
LWPOLYLINE
  5
182
330
1F
100
AcDbEntity
  8
1
  6
CONTINUOUS
 62
     7
100
AcDbPolyline
 90
       37
 70
     0
 43
0.0
 10
-494.9931345323526
 20
-705.3669727784325
 10
-494.9911266862871
 20
-705.3828921239377
 10
-494.9887244033918
 20
-705.3996865427981
 10
-494.9858983290963
 20
-705.4172761973165
 10
-494.9826191088305
 20
-705.435581249796
 10
-494.9788573880243
 20
-705.4545218625397
 10
-494.9745838121073
 20
-705.4740181978503
 10
-494.9707100632719
 20
-705.4902446909266
 10
-494.966461106461
 20
-705.5068008299841
 10
-494.9618314847912
 20
-705.5236336267405
 10
-494.9568157413793
 20
-705.5406900929138
 10
-494.9512339595174
 20
-705.5584608252244
 10
-494.9452216005544
 20
-705.5764167229316
 10
-494.9387832771093
 20
-705.5944991967054
 10
-494.931923601801
 20
-705.6126496572159
 10
-494.9223636347397
 20
-705.636291597527
 10
-494.912064407976
 20
-705.6599785254425
 10
-494.9010623080512
 20
-705.6836085813992
 10
-494.8893937215065
 20
-705.7070799058342
 10
-494.877095034883
 20
-705.7302906391844
 10
-494.8642026347218
 20
-705.753138921887
 10
-494.8494452606589
 20
-705.7776569103517
 10
-494.8339874686222
 20
-705.8017420436797
 10
-494.8178855919206
 20
-705.8253317818991
 10
-494.8011959638633
 20
-705.8483635850373
 10
-494.7839749177593
 20
-705.8707749131221
 10
-494.7662787869174
 20
-705.8925032261811
 10
-494.7449244291016
 20
-705.9171405647045
 10
-494.7229524162119
 20
-705.9408871585637
 10
-494.7004331307538
 20
-705.9637099396014
 10
-494.6774369552327
 20
-705.9855758396593
 10
-494.645182592828
 20
-706.0140215985655
 10
-494.6121534467646
 20
-706.0407322105774
 10
-494.5784804421338
 20
-706.0656912535501
 10
-494.5371897517434
 20
-706.0934552799592
 10
-494.4951442909093
 20
-706.1188045893928
 10
-494.452502355568
 20
-706.1417582074666
210
0.0
220
0.0
230
-1.0
  0
LINE
  5
183
330
1F
100
AcDbEntity
  8
1
  6
CONTINUOUS
 62
     7
100
AcDbLine
 10
495.0000000000001
 20
-705.2158457630777
 30
0.0
 11
495.0000000000001
 21
-705.2499949999919
 31
0.0
  0
ARC
  5
184
330
1F
100
AcDbEntity
  8
1
  6
CONTINUOUS
 62
     7
100
AcDbCircle
 10
494.0000000000001
 20
-705.2499949999919
 30
0.0
 40
1.0
100
AcDbArc
 50
353.2822865358171
 51
0.0
  0
LINE
  5
185
330
1F
100
AcDbEntity
  8
1
  6
CONTINUOUS
 62
     7
100
AcDbLine
 10
285.0000000000001
 20
-705.2158457630777
 30
0.0
 11
285.0000000000001
 21
-705.2499949999919
 31
0.0
  0
ARC
  5
186
330
1F
100
AcDbEntity
  8
1
  6
CONTINUOUS
 62
     7
100
AcDbCircle
 10
286.0
 20
-705.2499949999919
 30
0.0
 40
1.0
100
AcDbArc
 50
180.0
 51
186.717713464183
  0
LINE
  5
187
330
1F
100
AcDbEntity
  8
1
  6
CONTINUOUS
 62
     7
100
AcDbLine
 10
385.0000000000001
 20
-695.749994999992
 30
0.0
 11
385.0000000000001
 21
-695.7569117567848
 31
0.0
  0
LINE
  5
188
330
1F
100
AcDbEntity
  8
1
  6
CONTINUOUS
 62
     7
100
AcDbLine
 10
395.0000000000001
 20
-695.749994999992
 30
0.0
 11
395.0000000000001
 21
-695.7569117567848
 31
0.0
  0
LINE
  5
189
330
1F
100
AcDbEntity
  8
1
  6
CONTINUOUS
 62
     7
100
AcDbLine
 10
462.5000000000001
 20
-755.7499949999918
 30
0.0
 11
462.5000000000001
 21
-706.2499949999919
 31
0.0
  0
LINE
  5
18A
330
1F
100
AcDbEntity
  8
1
  6
CONTINUOUS
 62
     7
100
AcDbLine
 10
317.5000000000001
 20
-706.2499949999919
 30
0.0
 11
317.5000000000001
 21
-755.7499949999918
 31
0.0
  0
ARC
  5
18B
330
1F
100
AcDbEntity
  8
1
  6
CONTINUOUS
 62
     7
100
AcDbCircle
 10
459.5000000000001
 20
-755.7499949999919
 30
0.0
 40
3.000000000000003
100
AcDbArc
 50
270.0000000000005
 51
0.0
  0
ARC
  5
18C
330
1F
100
AcDbEntity
  8
1
  6
CONTINUOUS
 62
     7
100
AcDbCircle
 10
320.5000000000001
 20
-755.7499949999919
 30
0.0
 40
3.000000000000003
100
AcDbArc
 50
180.0
 51
270.0
  0
LINE
  5
18D
330
1F
100
AcDbEntity
  8
1
  6
CONTINUOUS
 62
     7
100
AcDbLine
 10
495.0000000000001
 20
-690.7905167490828
 30
0.0
 11
494.5000000000001
 21
-690.7905167490828
 31
0.0
  0
LINE
  5
18E
330
1F
100
AcDbEntity
  8
1
  6
CONTINUOUS
 62
     7
100
AcDbLine
 10
285.5000000000001
 20
-690.7905167490828
 30
0.0
 11
285.0000000000001
 21
-690.7905167490828
 31
0.0
  0
ARC
  5
18F
330
1F
100
AcDbEntity
  8
1
  6
CONTINUOUS
 62
     7
100
AcDbCircle
 10
390.0000000000001
 20
-291.0566651986468
 30
0.0
 40
5.000000000000004
100
AcDbArc
 50
90.0
 51
180.0
  0
ARC
  5
190
330
1F
100
AcDbEntity
  8
1
  6
CONTINUOUS
 62
     7
100
AcDbCircle
 10
390.0000000000001
 20
-291.0566651986468
 30
0.0
 40
5.0
100
AcDbArc
 50
0.0
 51
90.0
  0
CIRCLE
  5
191
330
1F
100
AcDbEntity
  8
1
  6
CONTINUOUS
 62
     7
100
AcDbCircle
 10
390.0000000000001
 20
-291.0566651986468
 30
0.0
 40
2.5
  0
LINE
  5
192
330
1F
100
AcDbEntity
  8
1
  6
CONTINUOUS
 62
     7
100
AcDbLine
 10
395.0000000000001
 20
-291.0566651986468
 30
0.0
 11
395.0000000000001
 21
-296.0566651986469
 31
0.0
  0
LINE
  5
193
330
1F
100
AcDbEntity
  8
1
  6
CONTINUOUS
 62
     7
100
AcDbLine
 10
385.0000000000001
 20
-296.0566651986469
 30
0.0
 11
385.0000000000001
 21
-291.0566651986468
 31
0.0
  0
LINE
  5
194
330
1F
100
AcDbEntity
  8
1
  6
CONTINUOUS
 62
     7
100
AcDbLine
 10
296.0000000000001
 20
-496.056665198647
 30
0.0
 11
295.0000000000001
 21
-496.056665198647
 31
0.0
  0
LINE
  5
195
330
1F
100
AcDbEntity
  8
1
  6
CONTINUOUS
 62
     7
100
AcDbLine
 10
295.0000000000001
 20
-496.056665198647
 30
0.0
 11
295.0000000000001
 21
-296.0566651986469
 31
0.0
  0
LINE
  5
196
330
1F
100
AcDbEntity
  8
1
  6
CONTINUOUS
 62
     7
100
AcDbLine
 10
295.0000000000001
 20
-296.0566651986469
 30
0.0
 11
296.0000000000001
 21
-296.0566651986469
 31
0.0
  0
LINE
  5
197
330
1F
100
AcDbEntity
  8
1
  6
CONTINUOUS
 62
     7
100
AcDbLine
 10
484.0000000000001
 20
-296.0566651986469
 30
0.0
 11
296.0000000000001
 21
-296.0566651986469
 31
0.0
  0
LINE
  5
198
330
1F
100
AcDbEntity
  8
1
  6
CONTINUOUS
 62
     7
100
AcDbLine
 10
296.0000000000001
 20
-496.056665198647
 30
0.0
 11
484.0000000000001
 21
-496.056665198647
 31
0.0
  0
LINE
  5
199
330
1F
100
AcDbEntity
  8
1
  6
CONTINUOUS
 62
     7
100
AcDbLine
 10
485.0000000000001
 20
-296.0566651986469
 30
0.0
 11
485.0000000000001
 21
-496.056665198647
 31
0.0
  0
LINE
  5
19A
330
1F
100
AcDbEntity
  8
1
  6
CONTINUOUS
 62
     7
100
AcDbLine
 10
484.0000000000001
 20
-296.0566651986469
 30
0.0
 11
485.0000000000001
 21
-296.0566651986469
 31
0.0
  0
LINE
  5
19B
330
1F
100
AcDbEntity
  8
1
  6
CONTINUOUS
 62
     7
100
AcDbLine
 10
485.0000000000001
 20
-496.056665198647
 30
0.0
 11
484.0000000000001
 21
-496.056665198647
 31
0.0
  0
LINE
  5
19C
330
1F
100
AcDbEntity
  8
1
  6
CONTINUOUS
 62
     7
100
AcDbLine
 10
495.0000000000001
 20
-516.3654826832369
 30
0.0
 11
495.0000000000001
 21
-520.5919788416534
 31
0.0
  0
LINE
  5
19D
330
1F
100
AcDbEntity
  8
1
  6
CONTINUOUS
 62
     7
100
AcDbLine
 10
285.0000000000001
 20
-520.5919788416534
 30
0.0
 11
285.0000000000001
 21
-516.3654826832369
 31
0.0
  0
LINE
  5
19E
330
1F
100
AcDbEntity
  8
1
  6
CONTINUOUS
 62
     7
100
AcDbLine
 10
285.0000000000001
 20
-516.3654826832369
 30
0.0
 11
285.0000000000001
 21
-505.0865298210634
 31
0.0
  0
LINE
  5
19F
330
1F
100
AcDbEntity
  8
1
  6
CONTINUOUS
 62
     7
100
AcDbLine
 10
495.0000000000001
 20
-516.3654826832369
 30
0.0
 11
495.0000000000001
 21
-505.0865298210634
 31
0.0
  0
LWPOLYLINE
  5
1A0
330
1F
100
AcDbEntity
  8
1
  6
CONTINUOUS
 62
     7
100
AcDbPolyline
 90
        6
 70
     0
 43
0.0
 10
285.0000000000001
 20
-521.2567850070499
 10
285.0218523992663
 20
-521.3904280658165
 10
285.0864545423574
 20
-521.5182302816245
 10
285.1909830056251
 20
-521.6346060843799
 10
285.3308693936412
 20
-521.7344692930694
 10
285.5000000000001
 20
-521.8134554062763
  0
LINE
  5
1A1
330
1F
100
AcDbEntity
  8
1
  6
CONTINUOUS
 62
     7
100
AcDbLine
 10
285.0000000000001
 20
-521.2567850070499
 30
0.0
 11
285.0000000000001
 21
-520.5919788416534
 31
0.0
  0
LWPOLYLINE
  5
1A2
330
1F
100
AcDbEntity
  8
1
  6
CONTINUOUS
 62
     7
100
AcDbPolyline
 90
        6
 70
     0
 43
0.0
 10
494.5000000000001
 20
-521.8134554062763
 10
494.669130606359
 20
-521.7344692930694
 10
494.809016994375
 20
-521.6346060843799
 10
494.9135454576427
 20
-521.5182302816245
 10
494.9781476007339
 20
-521.3904280658165
 10
495.0000000000001
 20
-521.2567850070499
  0
LINE
  5
1A3
330
1F
100
AcDbEntity
  8
1
  6
CONTINUOUS
 62
     7
100
AcDbLine
 10
495.0000000000001
 20
-521.2567850070499
 30
0.0
 11
495.0000000000001
 21
-520.5919788416534
 31
0.0
  0
LINE
  5
1A4
330
1F
100
AcDbEntity
  8
1
  6
CONTINUOUS
 62
     7
100
AcDbLine
 10
285.5000000000001
 20
-521.8125869273359
 30
0.0
 11
285.9651588690744
 21
-521.8974921270574
 31
0.0
  0
LINE
  5
1A5
330
1F
100
AcDbEntity
  8
1
  6
CONTINUOUS
 62
     7
100
AcDbLine
 10
494.0348411309258
 20
-521.8974921270574
 30
0.0
 11
494.5000000000001
 21
-521.8125869273358
 31
0.0
  0
LINE
  5
1A6
330
1F
100
AcDbEntity
  8
1
  6
CONTINUOUS
 62
     7
100
AcDbLine
 10
494.0348411309258
 20
-521.8974921270574
 30
0.0
 11
395.4546595288701
 21
-523.9339425323716
 31
0.0
  0
LINE
  5
1A7
330
1F
100
AcDbEntity
  8
1
  6
CONTINUOUS
 62
     7
100
AcDbLine
 10
395.1430873573605
 20
-523.939176587616
 30
0.0
 11
395.4546595288701
 21
-523.9339425323716
 31
0.0
  0
LINE
  5
1A8
330
1F
100
AcDbEntity
  8
1
  6
CONTINUOUS
 62
     7
100
AcDbLine
 10
285.9651588690743
 20
-521.8974921270574
 30
0.0
 11
384.5453404711296
 21
-523.9339425323716
 31
0.0
  0
LINE
  5
1A9
330
1F
100
AcDbEntity
  8
1
  6
CONTINUOUS
 62
     7
100
AcDbLine
 10
384.5453404711297
 20
-523.9339425323716
 30
0.0
 11
384.8569126426395
 21
-523.939176587616
 31
0.0
  0
LINE
  5
1AA
330
1F
100
AcDbEntity
  8
1
  6
CONTINUOUS
 62
     7
100
AcDbLine
 10
384.9166556684221
 20
-523.9409403667437
 30
0.0
 11
385.4532045691377
 21
-523.943334801353
 31
0.0
  0
LINE
  5
1AB
330
1F
100
AcDbEntity
  8
1
  6
CONTINUOUS
 62
     7
100
AcDbLine
 10
385.0000000000003
 20
-523.89983687396
 30
0.0
 11
384.9166556684222
 21
-523.9409403667438
 31
0.0
  0
LINE
  5
1AC
330
1F
100
AcDbEntity
  8
1
  6
CONTINUOUS
 62
     7
100
AcDbLine
 10
394.5467954308623
 20
-523.943334801353
 30
0.0
 11
395.0833443315788
 21
-523.9409403667437
 31
0.0
  0
LINE
  5
1AD
330
1F
100
AcDbEntity
  8
1
  6
CONTINUOUS
 62
     7
100
AcDbLine
 10
394.5467954308623
 20
-523.9433348013531
 30
0.0
 11
385.4532045691377
 21
-523.9433348013531
 31
0.0
  0
LINE
  5
1AE
330
1F
100
AcDbEntity
  8
1
  6
CONTINUOUS
 62
     7
100
AcDbLine
 10
395.1430873573605
 20
-523.9391765876159
 30
0.0
 11
395.0833443315788
 21
-523.9409403667437
 31
0.0
  0
LINE
  5
1AF
330
1F
100
AcDbEntity
  8
1
  6
CONTINUOUS
 62
     7
100
AcDbLine
 10
384.9166556684222
 20
-523.9409403667437
 30
0.0
 11
384.8569126426395
 21
-523.9391765876157
 31
0.0
  0
LINE
  5
1B0
330
1F
100
AcDbEntity
  8
1
  6
CONTINUOUS
 62
     7
100
AcDbLine
 10
483.5000000000001
 20
-496.056665198647
 30
0.0
 11
483.5000000000001
 21
-496.556665198647
 31
0.0
  0
LINE
  5
1B1
330
1F
100
AcDbEntity
  8
1
  6
CONTINUOUS
 62
     7
100
AcDbLine
 10
296.5000000000001
 20
-496.556665198647
 30
0.0
 11
296.5000000000001
 21
-496.056665198647
 31
0.0
  0
LINE
  5
1B2
330
1F
100
AcDbEntity
  8
1
  6
CONTINUOUS
 62
     7
100
AcDbLine
 10
285.0000000000001
 20
-505.0865298210633
 30
0.0
 11
285.0000000000001
 21
-504.9079236259065
 31
0.0
  0
LINE
  5
1B3
330
1F
100
AcDbEntity
  8
1
  6
CONTINUOUS
 62
     7
100
AcDbLine
 10
495.0000000000001
 20
-504.9079236259065
 30
0.0
 11
495.0000000000001
 21
-505.0865298210633
 31
0.0
  0
LINE
  5
1B4
330
1F
100
AcDbEntity
  8
1
  6
CONTINUOUS
 62
     7
100
AcDbLine
 10
285.0000000000001
 20
-500.0566651986469
 30
0.0
 11
285.0000000000001
 21
-504.386710258211
 31
0.0
  0
LINE
  5
1B5
330
1F
100
AcDbEntity
  8
1
  6
CONTINUOUS
 62
     7
100
AcDbLine
 10
285.0000000000001
 20
-504.8565565686039
 30
0.0
 11
285.0000000000001
 21
-504.3867102582111
 31
0.0
  0
LINE
  5
1B6
330
1F
100
AcDbEntity
  8
1
  6
CONTINUOUS
 62
     7
100
AcDbLine
 10
495.0000000000001
 20
-504.386710258211
 30
0.0
 11
495.0000000000001
 21
-504.8565565686038
 31
0.0
  0
LINE
  5
1B7
330
1F
100
AcDbEntity
  8
1
  6
CONTINUOUS
 62
     7
100
AcDbLine
 10
495.0000000000001
 20
-500.0566651986469
 30
0.0
 11
495.0000000000001
 21
-504.386710258211
 31
0.0
  0
LINE
  5
1B8
330
1F
100
AcDbEntity
  8
1
  6
CONTINUOUS
 62
     7
100
AcDbLine
 10
494.5000000000001
 20
-497.056665198647
 30
0.0
 11
495.0000000000001
 21
-497.056665198647
 31
0.0
  0
LINE
  5
1B9
330
1F
100
AcDbEntity
  8
1
  6
CONTINUOUS
 62
     7
100
AcDbLine
 10
495.0000000000001
 20
-497.056665198647
 30
0.0
 11
495.0000000000001
 21
-500.0566651986469
 31
0.0
  0
LINE
  5
1BA
330
1F
100
AcDbEntity
  8
1
  6
CONTINUOUS
 62
     7
100
AcDbLine
 10
285.0000000000001
 20
-497.056665198647
 30
0.0
 11
285.5000000000001
 21
-497.056665198647
 31
0.0
  0
LINE
  5
1BB
330
1F
100
AcDbEntity
  8
1
  6
CONTINUOUS
 62
     7
100
AcDbLine
 10
285.0000000000001
 20
-500.0566651986469
 30
0.0
 11
285.0000000000001
 21
-497.0566651986469
 31
0.0
  0
LINE
  5
1BC
330
1F
100
AcDbEntity
  8
1
  6
CONTINUOUS
 62
     7
100
AcDbLine
 10
495.0000000000001
 20
-504.8565565686039
 30
0.0
 11
495.0000000000001
 21
-504.9079236259066
 31
0.0
  0
LINE
  5
1BD
330
1F
100
AcDbEntity
  8
1
  6
CONTINUOUS
 62
     7
100
AcDbLine
 10
494.5000000000001
 20
-504.8565565686039
 30
0.0
 11
494.5000000000001
 21
-504.9079236259066
 31
0.0
  0
LINE
  5
1BE
330
1F
100
AcDbEntity
  8
1
  6
CONTINUOUS
 62
     7
100
AcDbLine
 10
285.0000000000001
 20
-504.8565565686039
 30
0.0
 11
285.0000000000001
 21
-504.9079236259066
 31
0.0
  0
LINE
  5
1BF
330
1F
100
AcDbEntity
  8
1
  6
CONTINUOUS
 62
     7
100
AcDbLine
 10
494.5000000000001
 20
-497.056665198647
 30
0.0
 11
494.0000000000001
 21
-497.056665198647
 31
0.0
  0
LINE
  5
1C0
330
1F
100
AcDbEntity
  8
1
  6
CONTINUOUS
 62
     7
100
AcDbLine
 10
286.0000000000001
 20
-497.056665198647
 30
0.0
 11
285.5000000000001
 21
-497.056665198647
 31
0.0
  0
LINE
  5
1C1
330
1F
100
AcDbEntity
  8
1
  6
CONTINUOUS
 62
     7
100
AcDbLine
 10
296.5000000000001
 20
-496.556665198647
 30
0.0
 11
296.5000000000001
 21
-497.056665198647
 31
0.0
  0
LINE
  5
1C2
330
1F
100
AcDbEntity
  8
1
  6
CONTINUOUS
 62
     7
100
AcDbLine
 10
483.5000000000001
 20
-497.056665198647
 30
0.0
 11
483.5000000000001
 21
-496.556665198647
 31
0.0
  0
CIRCLE
  5
1C3
330
1F
100
AcDbEntity
  8
1
  6
CONTINUOUS
 62
     7
100
AcDbCircle
 10
470.0000000000001
 20
-501.5566651986471
 30
0.0
 40
2.500000000000002
  0
CIRCLE
  5
1C4
330
1F
100
AcDbEntity
  8
1
  6
CONTINUOUS
 62
     7
100
AcDbCircle
 10
310.0000000000001
 20
-501.5566651986471
 30
0.0
 40
2.500000000000002
  0
LINE
  5
1C5
330
1F
100
AcDbEntity
  8
1
  6
CONTINUOUS
 62
     7
100
AcDbLine
 10
483.5000000000001
 20
-497.056665198647
 30
0.0
 11
494.0000000000001
 21
-497.056665198647
 31
0.0
  0
LINE
  5
1C6
330
1F
100
AcDbEntity
  8
1
  6
CONTINUOUS
 62
     7
100
AcDbLine
 10
286.0000000000001
 20
-497.056665198647
 30
0.0
 11
296.5000000000001
 21
-497.056665198647
 31
0.0
  0
ENDSEC
  0
SECTION
  2
OBJECTS
  0
DICTIONARY
  5
C
330
0
100
AcDbDictionary
  3
ACAD_GROUP
350
D
  3
ACAD_LAYOUT
350
1A
  3
ACAD_MATERIAL
350
43
  3
ACAD_MLEADERSTYLE
350
6B
  3
ACAD_MLINESTYLE
350
17
  3
ACAD_PLOTSETTINGS
350
19
  3
ACAD_SCALELIST
350
47
  3
ACAD_VISUALSTYLE
350
2A
  3
ACDBHEADERROUNDTRIPXREC
350
1C7
  3
ACDBVARIABLEDICTIONARY
350
1E8
  0
DICTIONARY
  5
1EF
330
8
100
AcDbDictionary
280
     1
  3
ACAD_XREC_ROUNDTRIP
360
1F0
  0
DICTIONARY
  5
D
102
{ACAD_REACTORS
330
C
102
}
330
C
100
AcDbDictionary
  0
DICTIONARY
  5
1A
102
{ACAD_REACTORS
330
C
102
}
330
C
100
AcDbDictionary
  0
DICTIONARY
  5
43
102
{ACAD_REACTORS
330
C
102
}
330
C
100
AcDbDictionary
  3
BYBLOCK
350
45
  3
BYLAYER
350
44
  3
GLOBAL
350
46
  0
DICTIONARY
  5
6B
102
{ACAD_REACTORS
330
C
102
}
330
C
100
AcDbDictionary
  3
STANDARD
350
6C
  0
DICTIONARY
  5
17
102
{ACAD_REACTORS
330
C
102
}
330
C
100
AcDbDictionary
  3
STANDARD
350
18
  0
DICTIONARY
  5
19
102
{ACAD_REACTORS
330
C
102
}
330
C
100
AcDbDictionary
  0
DICTIONARY
  5
47
102
{ACAD_REACTORS
330
C
102
}
330
C
100
AcDbDictionary
  3
A0
350
48
  3
A1
350
49
  3
A2
350
4A
  3
A3
350
4B
  3
A4
350
4C
  3
A5
350
4D
  3
A6
350
4E
  3
A7
350
4F
  3
A8
350
50
  3
A9
350
51
  3
B0
350
52
  3
B1
350
53
  3
B2
350
54
  3
B3
350
55
  3
B4
350
56
  3
B5
350
57
  3
B6
350
58
  3
B7
350
59
  3
B8
350
5A
  3
B9
350
5B
  3
C0
350
5C
  3
C1
350
5D
  3
C2
350
5E
  3
C3
350
5F
  3
C4
350
60
  3
C5
350
61
  3
C6
350
62
  3
C7
350
63
  3
C8
350
64
  3
C9
350
65
  3
D0
350
66
  3
D1
350
67
  3
D2
350
68
  0
DICTIONARY
  5
2A
102
{ACAD_REACTORS
330
C
102
}
330
C
100
AcDbDictionary
  3
2DWIREFRAME
350
2F
  3
BASIC
350
32
  3
BRIGHTEN
350
36
  3
COLORCHANGE
350
3A
  3
CONCEPTUAL
350
34
  3
DIM
350
35
  3
EDGECOLOROFF
350
3D
  3
FACEPATTERN
350
39
  3
FLAT
350
2B
  3
FLATWITHEDGES
350
2C
  3
GOURAUD
350
2D
  3
GOURAUDWITHEDGES
350
2E
  3
HIDDEN
350
31
  3
JITTEROFF
350
3B
  3
LINEPATTERN
350
38
  3
OVERHANGOFF
350
3C
  3
REALISTIC
350
33
  3
SHADED
350
42
  3
SHADED_WITH_EDGES
350
41
  3
SHADES_OF_GRAY
350
3E
  3
SKETCHY
350
3F
  3
THICKEN
350
37
  3
WIREFRAME
350
30
  3
X-RAY
350
40
  0
DICTIONARY
  5
1C7
102
{ACAD_REACTORS
330
C
102
}
330
C
100
AcDbDictionary
  3
CEPSNID
350
1D1
  3
CEPSNTYPE
350
1D0
  3
DIMSTYLEDATA
350
1E7
  3
FINGERPRINTGUID
350
1D2
  3
HYPERLINKBASE
350
1CA
  3
INSUNITS
350
1CF
  3
LAYOUTDICT
350
1CC
  3
LWETCUNION
350
1CE
  3
PLOTSETDICT
350
1CD
  3
PSVPSCALE
350
1D4
  3
PUCSBASE
350
1D7
  3
PUCSORGBACK
350
1DD
  3
PUCSORGBOTTOM
350
1D9
  3
PUCSORGFRONT
350
1DC
  3
PUCSORGLEFT
350
1DA
  3
PUCSORGRIGHT
350
1DB
  3
PUCSORGTOP
350
1D8
  3
PUCSORTHOREF
350
1D5
  3
PUCSORTHOVIEW
350
1D6
  3
STYLESHEET
350
1CB
  3
TSTACKALIGN
350
1C8
  3
TSTACKSIZE
350
1C9
  3
UCSBASE
350
1E0
  3
UCSORGBACK
350
1E6
  3
UCSORGBOTTOM
350
1E2
  3
UCSORGFRONT
350
1E5
  3
UCSORGLEFT
350
1E3
  3
UCSORGRIGHT
350
1E4
  3
UCSORGTOP
350
1E1
  3
UCSORTHOREF
350
1DE
  3
UCSORTHOVIEW
350
1DF
  3
VERSIONGUID
350
1D3
  0
DICTIONARY
  5
1E8
102
{ACAD_REACTORS
330
C
102
}
330
C
100
AcDbDictionary
  3
CANNOSCALE
350
1F1
  3
CMLEADERSTYLE
350
1EA
  3
CTABLESTYLE
350
1E9
  3
DIMASSOC
350
1ED
  3
HIDETEXT
350
1EE
  3
MSLTSCALE
350
1F2
  0
XRECORD
  5
1F0
102
{ACAD_REACTORS
330
1EF
102
}
330
1EF
100
AcDbXrecord
102
VTR_0.000_0.000_1.000_1.000_VISUALSTYLE
340
2F
102
VTR_0.000_0.000_1.000_1.000_GRIDDISPLAY
 70
     3
102
VTR_0.000_0.000_1.000_1.000_GRIDMAJOR
 70
     5
102
VTR_0.000_0.000_1.000_1.000_DEFAULTLIGHTING
280
     1
102
VTR_0.000_0.000_1.000_1.000_DEFAULTLIGHTINGTYPE
 70
     1
102
VTR_0.000_0.000_1.000_1.000_BRIGHTNESS
141
0.0
102
VTR_0.000_0.000_1.000_1.000_CONTRAST
142
0.0
  0
MATERIAL
  5
45
102
{ACAD_REACTORS
330
43
102
}
102
{ACAD_XDICTIONARY
360
1F5
102
}
330
43
100
AcDbMaterial
  1
BYBLOCK
  0
MATERIAL
  5
44
102
{ACAD_REACTORS
330
43
102
}
102
{ACAD_XDICTIONARY
360
1F3
102
}
330
43
100
AcDbMaterial
  1
BYLAYER
  0
MATERIAL
  5
46
102
{ACAD_REACTORS
330
43
102
}
102
{ACAD_XDICTIONARY
360
1F7
102
}
330
43
100
AcDbMaterial
  1
GLOBAL
  0
ACAD_PROXY_OBJECT
  5
6C
102
{ACAD_REACTORS
330
6B
102
}
330
6B
100
AcDbProxyObject
 90
      499
 91
      505
 93
      610
310
40901902A4063FBFFFFFE056BD1B81E855B9FC0AD7A3703D0AD73F4214DD185B99185C9900AD7A3703D0AC73F90141901A02B5E8DC0F42B1CFC02B5E8DC0F42B1CFE5764000000000000300FC0
340
14
340
0
340
11
340
0
 94
        0
1001
ACAD_MLEADERVER
1070
     2
  0
MLINESTYLE
  5
18
102
{ACAD_REACTORS
330
17
102
}
330
17
100
AcDbMlineStyle
  2
Standard
 70
     0
  3

 62
   256
 51
90.0
 52
90.0
 71
     2
 49
0.5
 62
   256
  6
BYLAYER
 49
-0.5
 62
   256
  6
BYLAYER
  0
ACAD_PROXY_OBJECT
  5
48
102
{ACAD_REACTORS
330
47
102
}
330
47
100
AcDbProxyObject
 90
      499
 91
      503
 93
       41
310
903313A31580
  0
ACAD_PROXY_OBJECT
  5
49
102
{ACAD_REACTORS
330
47
102
}
330
47
100
AcDbProxyObject
 90
      499
 91
      503
 93
      105
310
903313A324000000000000004000
  0
ACAD_PROXY_OBJECT
  5
4A
102
{ACAD_REACTORS
330
47
102
}
330
47
100
AcDbProxyObject
 90
      499
 91
      503
 93
      105
310
903313A344000000000000104000
  0
ACAD_PROXY_OBJECT
  5
4B
102
{ACAD_REACTORS
330
47
102
}
330
47
100
AcDbProxyObject
 90
      499
 91
      503
 93
      105
310
903313A354000000000000144000
  0
ACAD_PROXY_OBJECT
  5
4C
102
{ACAD_REACTORS
330
47
102
}
330
47
100
AcDbProxyObject
 90
      499
 91
      503
 93
      105
310
903313A384000000000000204000
  0
ACAD_PROXY_OBJECT
  5
4D
102
{ACAD_REACTORS
330
47
102
}
330
47
100
AcDbProxyObject
 90
      499
 91
      503
 93
      113
310
904313A31304000000000000244000
  0
ACAD_PROXY_OBJECT
  5
4E
102
{ACAD_REACTORS
330
47
102
}
330
47
100
AcDbProxyObject
 90
      499
 91
      503
 93
      113
310
904313A31364000000000000304000
  0
ACAD_PROXY_OBJECT
  5
4F
102
{ACAD_REACTORS
330
47
102
}
330
47
100
AcDbProxyObject
 90
      499
 91
      503
 93
      113
310
904313A32304000000000000344000
  0
ACAD_PROXY_OBJECT
  5
50
102
{ACAD_REACTORS
330
47
102
}
330
47
100
AcDbProxyObject
 90
      499
 91
      503
 93
      113
310
904313A333040000000000003E4000
  0
ACAD_PROXY_OBJECT
  5
51
102
{ACAD_REACTORS
330
47
102
}
330
47
100
AcDbProxyObject
 90
      499
 91
      503
 93
      113
310
904313A34304000000000000444000
  0
ACAD_PROXY_OBJECT
  5
52
102
{ACAD_REACTORS
330
47
102
}
330
47
100
AcDbProxyObject
 90
      499
 91
      503
 93
      113
310
904313A35304000000000000494000
  0
ACAD_PROXY_OBJECT
  5
53
102
{ACAD_REACTORS
330
47
102
}
330
47
100
AcDbProxyObject
 90
      499
 91
      503
 93
      121
310
905313A3130304000000000000594000
  0
ACAD_PROXY_OBJECT
  5
54
102
{ACAD_REACTORS
330
47
102
}
330
47
100
AcDbProxyObject
 90
      499
 91
      503
 93
      105
310
903323A310000000000000010100
  0
ACAD_PROXY_OBJECT
  5
55
102
{ACAD_REACTORS
330
47
102
}
330
47
100
AcDbProxyObject
 90
      499
 91
      503
 93
      105
310
903343A310000000000000410100
  0
ACAD_PROXY_OBJECT
  5
56
102
{ACAD_REACTORS
330
47
102
}
330
47
100
AcDbProxyObject
 90
      499
 91
      503
 93
      105
310
903383A310000000000000810100
  0
ACAD_PROXY_OBJECT
  5
57
102
{ACAD_REACTORS
330
47
102
}
330
47
100
AcDbProxyObject
 90
      499
 91
      503
 93
      113
310
90431303A310000000000000910100
  0
ACAD_PROXY_OBJECT
  5
58
102
{ACAD_REACTORS
330
47
102
}
330
47
100
AcDbProxyObject
 90
      499
 91
      503
 93
      121
310
9053130303A310000000000001650100
  0
ACAD_PROXY_OBJECT
  5
59
102
{ACAD_REACTORS
330
47
102
}
330
47
100
AcDbProxyObject
 90
      499
 91
      503
 93
      257
310
90E312F31323822203D2031272D3022000000000000200FC000000000000284000
  0
ACAD_PROXY_OBJECT
  5
5A
102
{ACAD_REACTORS
330
47
102
}
330
47
100
AcDbProxyObject
 90
      499
 91
      503
 93
      249
310
90D312F363422203D2031272D3022000000000000240FC000000000000284000
  0
ACAD_PROXY_OBJECT
  5
5B
102
{ACAD_REACTORS
330
47
102
}
330
47
100
AcDbProxyObject
 90
      499
 91
      503
 93
      249
310
90D312F333222203D2031272D3022000000000000280FC000000000000284000
  0
ACAD_PROXY_OBJECT
  5
5C
102
{ACAD_REACTORS
330
47
102
}
330
47
100
AcDbProxyObject
 90
      499
 91
      503
 93
      249
310
90D312F313622203D2031272D30220000000000002C0FC000000000000284000
  0
ACAD_PROXY_OBJECT
  5
5D
102
{ACAD_REACTORS
330
47
102
}
330
47
100
AcDbProxyObject
 90
      499
 91
      503
 93
      249
310
90D332F333222203D2031272D30220000000000002E0FC000000000000284000
  0
ACAD_PROXY_OBJECT
  5
5E
102
{ACAD_REACTORS
330
47
102
}
330
47
100
AcDbProxyObject
 90
      499
 91
      503
 93
      241
310
90C312F3822203D2031272D3022000000000000300FC000000000000284000
  0
ACAD_PROXY_OBJECT
  5
5F
102
{ACAD_REACTORS
330
47
102
}
330
47
100
AcDbProxyObject
 90
      499
 91
      503
 93
      249
310
90D332F313622203D2031272D3022000000000000320FC000000000000284000
  0
ACAD_PROXY_OBJECT
  5
60
102
{ACAD_REACTORS
330
47
102
}
330
47
100
AcDbProxyObject
 90
      499
 91
      503
 93
      241
310
90C312F3422203D2031272D3022000000000000340FC000000000000284000
  0
ACAD_PROXY_OBJECT
  5
61
102
{ACAD_REACTORS
330
47
102
}
330
47
100
AcDbProxyObject
 90
      499
 91
      503
 93
      241
310
90C332F3822203D2031272D3022000000000000360FC000000000000284000
  0
ACAD_PROXY_OBJECT
  5
62
102
{ACAD_REACTORS
330
47
102
}
330
47
100
AcDbProxyObject
 90
      499
 91
      503
 93
      241
310
90C312F3222203D2031272D3022000000000000380FC000000000000284000
  0
ACAD_PROXY_OBJECT
  5
63
102
{ACAD_REACTORS
330
47
102
}
330
47
100
AcDbProxyObject
 90
      499
 91
      503
 93
      241
310
90C332F3422203D2031272D30220000000000003A0FC000000000000284000
  0
ACAD_PROXY_OBJECT
  5
64
102
{ACAD_REACTORS
330
47
102
}
330
47
100
AcDbProxyObject
 90
      499
 91
      503
 93
      161
310
90A3122203D2031272D30224000000000000284000
  0
ACAD_PROXY_OBJECT
  5
65
102
{ACAD_REACTORS
330
47
102
}
330
47
100
AcDbProxyObject
 90
      499
 91
      503
 93
      257
310
90E312D312F3222203D2031272D30220000000000003E0FC000000000000284000
  0
ACAD_PROXY_OBJECT
  5
66
102
{ACAD_REACTORS
330
47
102
}
330
47
100
AcDbProxyObject
 90
      499
 91
      503
 93
      225
310
90A3322203D2031272D302200000000000002100000000000000284000
  0
ACAD_PROXY_OBJECT
  5
67
102
{ACAD_REACTORS
330
47
102
}
330
47
100
AcDbProxyObject
 90
      499
 91
      503
 93
      225
310
90A3622203D2031272D302200000000000006100000000000000284000
  0
ACAD_PROXY_OBJECT
  5
68
102
{ACAD_REACTORS
330
47
102
}
330
47
100
AcDbProxyObject
 90
      499
 91
      503
 93
      249
310
90D31272D3022203D2031272D30220000000000000A100000000000000284000
  0
ACAD_PROXY_OBJECT
  5
2F
102
{ACAD_REACTORS
330
2A
102
}
330
2A
100
AcDbProxyObject
 90
      499
 91
      501
 93
      436
310
42CC9915DA5C99599C985B595049028333333333333E33F0000000000000F90107901411070040501600405405064090741402480A0340
1001
ACAD
1000
AcDbSavedByObjectVersion
1070
     0
  0
ACAD_PROXY_OBJECT
  5
32
102
{ACAD_REACTORS
330
2A
102
}
330
2A
100
AcDbProxyObject
 90
      499
 91
      501
 93
      388
310
4150985CDA58D07406404333333333333E33F0000000000000F90107A41107004050150841D405064090741402480A0350
1001
ACAD
1000
AcDbSavedByObjectVersion
1070
     0
  0
ACAD_PROXY_OBJECT
  5
36
102
{ACAD_REACTORS
330
2A
102
}
330
2A
100
AcDbProxyObject
 90
      499
 91
      501
 93
      428
310
42109C9A59DA1D195B90C409028333333333333E33F0000000000000F9010790141107004050150841D405064090741402480A029950
1001
ACAD
1000
AcDbSavedByObjectVersion
1070
     0
  0
ACAD_PROXY_OBJECT
  5
3A
102
{ACAD_REACTORS
330
2A
102
}
330
2A
100
AcDbProxyObject
 90
      499
 91
      501
 93
      452
310
42D0DBDB1BDC90DA185B99D95104090240C333333333333E33F0000000000000F90108901411070040501508421405064090741402480A0350
1001
ACAD
1000
AcDbSavedByObjectVersion
1070
     0
  0
ACAD_PROXY_OBJECT
  5
34
102
{ACAD_REACTORS
330
2A
102
}
330
2A
100
AcDbProxyObject
 90
      499
 91
      501
 93
      500
310
4290DBDB98D95C1D1D585B10940D028333333333333E33F0000000000000F90107902409070040501000000000018199010841D405064090740C02480A0340
1001
ACAD
1000
AcDbSavedByObjectVersion
1070
     0
  0
ACAD_PROXY_OBJECT
  5
35
102
{ACAD_REACTORS
330
2A
102
}
330
2A
100
AcDbProxyObject
 90
      499
 91
      501
 93
      412
310
40D11A5B50B409028333333333333E33F0000000000000F9010790141107004050150841D405064090741402480A02677FFFFFD0
1001
ACAD
1000
AcDbSavedByObjectVersion
1070
     0
  0
ACAD_PROXY_OBJECT
  5
3D
102
{ACAD_REACTORS
330
2A
102
}
330
2A
100
AcDbProxyObject
 90
      499
 91
      501
 93
      452
310
43115919D950DBDB1BDC93D999916409028333333333333E33F0000000000000F9010790141107004050150841D405064090741402480A0350
1001
ACAD
1000
AcDbSavedByObjectVersion
1070
     0
  0
ACAD_PROXY_OBJECT
  5
39
102
{ACAD_REACTORS
330
2A
102
}
330
2A
100
AcDbProxyObject
 90
      499
 91
      501
 93
      444
310
42D19858D95C185D1D195C9B90F409028333333333333E33F0000000000000F9010790141107004050150841D405064090741402480A0350
1001
ACAD
1000
AcDbSavedByObjectVersion
1070
     0
  0
ACAD_PROXY_OBJECT
  5
2B
102
{ACAD_REACTORS
330
2A
102
}
330
2A
100
AcDbProxyObject
 90
      499
 91
      501
 93
      380
310
41119B185D240901404333333333333E33F0000000000000F9010740A907004050150841D405064090741402480A1B50
1001
ACAD
1000
AcDbSavedByObjectVersion
1070
     0
  0
ACAD_PROXY_OBJECT
  5
2C
102
{ACAD_REACTORS
330
2A
102
}
330
2A
100
AcDbProxyObject
 90
      499
 91
      501
 93
      468
310
43519B185D15DA5D1A115919D95CD0140901404333333333333E33F0000000000000F90107409019070040501600405405064090741402480A1B50
1001
ACAD
1000
AcDbSavedByObjectVersion
1070
     0
  0
ACAD_PROXY_OBJECT
  5
2D
102
{ACAD_REACTORS
330
2A
102
}
330
2A
100
AcDbProxyObject
 90
      499
 91
      501
 93
      404
310
41D1DBDD5C985D5910240902404333333333333E33F0000000000000F9010740A9070040501641D405064090741402480A1B50
1001
ACAD
1000
AcDbSavedByObjectVersion
1070
     0
  0
ACAD_PROXY_OBJECT
  5
2E
102
{ACAD_REACTORS
330
2A
102
}
330
2A
100
AcDbProxyObject
 90
      499
 91
      501
 93
      492
310
4411DBDD5C985D5915DA5D1A115919D95CD0340902404333333333333E33F0000000000000F90107409019070040501600405405064090741402480A1B50
1001
ACAD
1000
AcDbSavedByObjectVersion
1070
     0
  0
ACAD_PROXY_OBJECT
  5
31
102
{ACAD_REACTORS
330
2A
102
}
330
2A
100
AcDbProxyObject
 90
      499
 91
      501
 93
      476
310
41921A5919195B90640502408333333333333E33F0000000000000F901079024090700405020000000000001110200405405064090740C02480A0340
1001
ACAD
1000
AcDbSavedByObjectVersion
1070
     0
  0
ACAD_PROXY_OBJECT
  5
3B
102
{ACAD_REACTORS
330
2A
102
}
330
2A
100
AcDbProxyObject
 90
      499
 91
      501
 93
      428
310
42529A5D1D195C93D999914409028333333333333E33F0000000000000F9010790141107004050150A41D405064090741402480A0350
1001
ACAD
1000
AcDbSavedByObjectVersion
1070
     0
  0
ACAD_PROXY_OBJECT
  5
38
102
{ACAD_REACTORS
330
2A
102
}
330
2A
100
AcDbProxyObject
 90
      499
 91
      501
 93
      444
310
42D31A5B995C185D1D195C9B90E409028333333333333E33F0000000000000F9010790141107004050750841D405064090741402483A0350
1001
ACAD
1000
AcDbSavedByObjectVersion
1070
     0
  0
ACAD_PROXY_OBJECT
  5
3C
102
{ACAD_REACTORS
330
2A
102
}
330
2A
100
AcDbProxyObject
 90
      499
 91
      501
 93
      444
310
42D3DD995C9A185B99D3D999915409028333333333333E33F0000000000000F9010790141107004050150941D405064090741402480A0350
1001
ACAD
1000
AcDbSavedByObjectVersion
1070
     0
  0
ACAD_PROXY_OBJECT
  5
33
102
{ACAD_REACTORS
330
2A
102
}
330
2A
100
AcDbProxyObject
 90
      499
 91
      501
 93
      428
310
425499585B1A5CDD1A58D08409038333333333333E33F0000000000000F9010740A907004050150800405405064090740C02480A1B40
1001
ACAD
1000
AcDbSavedByObjectVersion
1070
     0
  0
ACAD_PROXY_OBJECT
  5
42
102
{ACAD_REACTORS
330
2A
102
}
330
2A
100
AcDbProxyObject
 90
      499
 91
      501
 93
      420
310
4194DA1859195911B40902404333333333333E33F0000000000000F9010740A41107004050150800405405064090840C02480A0B40
1001
ACAD
1000
AcDbSavedByObjectVersion
1070
     0
  0
ACAD_PROXY_OBJECT
  5
41
102
{ACAD_REACTORS
330
2A
102
}
330
2A
100
AcDbProxyObject
 90
      499
 91
      501
 93
      516
310
4454DA18591959081DDA5D1A08195919D95CD1A40902404333333333333E33F0000000000000F901074090142907004050250800405405064090740C02480A0B40
1001
ACAD
1000
AcDbSavedByObjectVersion
1070
     0
  0
ACAD_PROXY_OBJECT
  5
3E
102
{ACAD_REACTORS
330
2A
102
}
330
2A
100
AcDbProxyObject
 90
      499
 91
      501
 93
      532
310
4394DA1859195CC81BD98811DC985E5174090240C333333333333E33F0000000000000F901079024090741D01000000000000111010841D405064090740C02480A0340
1001
ACAD
1000
AcDbSavedByObjectVersion
1070
     0
  0
ACAD_PROXY_OBJECT
  5
3F
102
{ACAD_REACTORS
330
2A
102
}
330
2A
100
AcDbProxyObject
 90
      499
 91
      501
 93
      476
310
41D4DAD95D18DA1E51840502408333333333333E33F0000000000000F901079024090741D01000000000000111010B41D405064090741802480A0340
1001
ACAD
1000
AcDbSavedByObjectVersion
1070
     0
  0
ACAD_PROXY_OBJECT
  5
37
102
{ACAD_REACTORS
330
2A
102
}
330
2A
100
AcDbProxyObject
 90
      499
 91
      501
 93
      412
310
41D51A1A58DAD95B90D409028333333333333E33F0000000000000F9010790141107004050150C41D405064090741402480A0350
1001
ACAD
1000
AcDbSavedByObjectVersion
1070
     0
  0
ACAD_PROXY_OBJECT
  5
30
102
{ACAD_REACTORS
330
2A
102
}
330
2A
100
AcDbProxyObject
 90
      499
 91
      501
 93
      420
310
4255DA5C99599C985B595059028333333333333E33F0000000000000F90107901411070040501600405405064090740C02480A0340
1001
ACAD
1000
AcDbSavedByObjectVersion
1070
     0
  0
ACAD_PROXY_OBJECT
  5
40
102
{ACAD_REACTORS
330
2A
102
}
330
2A
100
AcDbProxyObject
 90
      499
 91
      501
 93
      404
310
41560B54985E51940902404000000000000E03F0000000000000F9010740501907004050150841D405064090740C02480A1B40
1001
ACAD
1000
AcDbSavedByObjectVersion
1070
     0
  0
XRECORD
  5
1D1
102
{ACAD_REACTORS
330
1C7
102
}
330
1C7
100
AcDbXrecord
340
0
  0
XRECORD
  5
1D0
102
{ACAD_REACTORS
330
1C7
102
}
330
1C7
100
AcDbXrecord
 90
        0
  0
XRECORD
  5
1E7
102
{ACAD_REACTORS
330
1C7
102
}
330
1C7
100
AcDbXrecord
1000
DSTYLE
1002
{
1070
   179
 70
     2
1070
   171
 70
     2
1070
   143
 40
25.4
1070
   274
 70
     2
1070
    41
 40
3.0
1070
   141
 40
0.09
1070
    43
 40
0.38
1070
   278
 70
    46
1070
    44
 40
1.5
1070
    42
 40
0.0625
1070
   147
 40
1.5
1070
   272
 70
     4
1070
    73
 70
     1
1070
   172
 70
     0
1070
    74
 70
     1
1070
   283
 70
     1
1070
   340
340
6F
1070
   140
 40
3.0
1070
   284
 70
     0
1070
    78
 70
     0
1002
}
  0
XRECORD
  5
1D2
102
{ACAD_REACTORS
330
1C7
102
}
330
1C7
100
AcDbXrecord
  1
{91C6F6AE-752F-4AA5-9522-E3119DADC9A5}
  0
XRECORD
  5
1CA
102
{ACAD_REACTORS
330
1C7
102
}
330
1C7
100
AcDbXrecord
  1

  0
XRECORD
  5
1CF
102
{ACAD_REACTORS
330
1C7
102
}
330
1C7
100
AcDbXrecord
 90
        4
  0
XRECORD
  5
1CC
102
{ACAD_REACTORS
330
1C7
102
}
330
1C7
100
AcDbXrecord
340
1A
  0
XRECORD
  5
1CE
102
{ACAD_REACTORS
330
1C7
102
}
330
1C7
100
AcDbXrecord
 90
    10269
  0
XRECORD
  5
1CD
102
{ACAD_REACTORS
330
1C7
102
}
330
1C7
100
AcDbXrecord
340
19
  0
XRECORD
  5
1D4
102
{ACAD_REACTORS
330
1C7
102
}
330
1C7
100
AcDbXrecord
 40
0.0
  0
XRECORD
  5
1D7
102
{ACAD_REACTORS
330
1C7
102
}
330
1C7
100
AcDbXrecord
340
0
  0
XRECORD
  5
1DD
102
{ACAD_REACTORS
330
1C7
102
}
330
1C7
100
AcDbXrecord
 10
0.0
 20
0.0
 30
0.0
  0
XRECORD
  5
1D9
102
{ACAD_REACTORS
330
1C7
102
}
330
1C7
100
AcDbXrecord
 10
0.0
 20
0.0
 30
0.0
  0
XRECORD
  5
1DC
102
{ACAD_REACTORS
330
1C7
102
}
330
1C7
100
AcDbXrecord
 10
0.0
 20
0.0
 30
0.0
  0
XRECORD
  5
1DA
102
{ACAD_REACTORS
330
1C7
102
}
330
1C7
100
AcDbXrecord
 10
0.0
 20
0.0
 30
0.0
  0
XRECORD
  5
1DB
102
{ACAD_REACTORS
330
1C7
102
}
330
1C7
100
AcDbXrecord
 10
0.0
 20
0.0
 30
0.0
  0
XRECORD
  5
1D8
102
{ACAD_REACTORS
330
1C7
102
}
330
1C7
100
AcDbXrecord
 10
0.0
 20
0.0
 30
0.0
  0
XRECORD
  5
1D5
102
{ACAD_REACTORS
330
1C7
102
}
330
1C7
100
AcDbXrecord
340
0
  0
XRECORD
  5
1D6
102
{ACAD_REACTORS
330
1C7
102
}
330
1C7
100
AcDbXrecord
 70
     0
  0
XRECORD
  5
1CB
102
{ACAD_REACTORS
330
1C7
102
}
330
1C7
100
AcDbXrecord
  1

  0
XRECORD
  5
1C8
102
{ACAD_REACTORS
330
1C7
102
}
330
1C7
100
AcDbXrecord
 90
        1
  0
XRECORD
  5
1C9
102
{ACAD_REACTORS
330
1C7
102
}
330
1C7
100
AcDbXrecord
 90
       70
  0
XRECORD
  5
1E0
102
{ACAD_REACTORS
330
1C7
102
}
330
1C7
100
AcDbXrecord
340
0
  0
XRECORD
  5
1E6
102
{ACAD_REACTORS
330
1C7
102
}
330
1C7
100
AcDbXrecord
 10
0.0
 20
0.0
 30
0.0
  0
XRECORD
  5
1E2
102
{ACAD_REACTORS
330
1C7
102
}
330
1C7
100
AcDbXrecord
 10
0.0
 20
0.0
 30
0.0
  0
XRECORD
  5
1E5
102
{ACAD_REACTORS
330
1C7
102
}
330
1C7
100
AcDbXrecord
 10
0.0
 20
0.0
 30
0.0
  0
XRECORD
  5
1E3
102
{ACAD_REACTORS
330
1C7
102
}
330
1C7
100
AcDbXrecord
 10
0.0
 20
0.0
 30
0.0
  0
XRECORD
  5
1E4
102
{ACAD_REACTORS
330
1C7
102
}
330
1C7
100
AcDbXrecord
 10
0.0
 20
0.0
 30
0.0
  0
XRECORD
  5
1E1
102
{ACAD_REACTORS
330
1C7
102
}
330
1C7
100
AcDbXrecord
 10
0.0
 20
0.0
 30
0.0
  0
XRECORD
  5
1DE
102
{ACAD_REACTORS
330
1C7
102
}
330
1C7
100
AcDbXrecord
340
0
  0
XRECORD
  5
1DF
102
{ACAD_REACTORS
330
1C7
102
}
330
1C7
100
AcDbXrecord
 70
     0
  0
XRECORD
  5
1D3
102
{ACAD_REACTORS
330
1C7
102
}
330
1C7
100
AcDbXrecord
  1
{FAEB1C32-E019-11D5-929B-00C0DF256EC4}
  0
DICTIONARYVAR
  5
1F1
102
{ACAD_REACTORS
330
1E8
102
}
330
1E8
100
DictionaryVariables
280
     0
  1
1:1
  0
DICTIONARYVAR
  5
1EA
102
{ACAD_REACTORS
330
1E8
102
}
330
1E8
100
DictionaryVariables
280
     0
  1
Standard
  0
DICTIONARYVAR
  5
1E9
102
{ACAD_REACTORS
330
1E8
102
}
330
1E8
100
DictionaryVariables
280
     0
  1
Standard
  0
DICTIONARYVAR
  5
1ED
102
{ACAD_REACTORS
330
1E8
102
}
330
1E8
100
DictionaryVariables
280
     0
  1
2
  0
DICTIONARYVAR
  5
1EE
102
{ACAD_REACTORS
330
1E8
102
}
330
1E8
100
DictionaryVariables
280
     0
  1
1
  0
DICTIONARYVAR
  5
1F2
102
{ACAD_REACTORS
330
1E8
102
}
330
1E8
100
DictionaryVariables
280
     0
  1
1
  0
DICTIONARY
  5
1F5
330
45
100
AcDbDictionary
280
     1
  3
ACAD_XREC_ROUNDTRIP
360
1F6
  0
DICTIONARY
  5
1F3
330
44
100
AcDbDictionary
280
     1
  3
ACAD_XREC_ROUNDTRIP
360
1F4
  0
DICTIONARY
  5
1F7
330
46
100
AcDbDictionary
280
     1
  3
ACAD_XREC_ROUNDTRIP
360
1F8
  0
XRECORD
  5
1F6
102
{ACAD_REACTORS
330
1F5
102
}
330
1F5
100
AcDbXrecord
102
MATERIAL
148
0.0
149
0.0
149
0.0
 93
        0
 94
      127
282
     0
 72
     1
 77
     1
171
     1
175
     1
179
     1
273
     0
  0
XRECORD
  5
1F4
102
{ACAD_REACTORS
330
1F3
102
}
330
1F3
100
AcDbXrecord
102
MATERIAL
148
0.0
149
0.0
149
0.0
 93
        0
 94
      127
282
     0
 72
     1
 77
     1
171
     1
175
     1
179
     1
273
     0
  0
XRECORD
  5
1F8
102
{ACAD_REACTORS
330
1F7
102
}
330
1F7
100
AcDbXrecord
102
MATERIAL
148
0.0
149
0.0
149
0.0
 93
        0
 94
      127
282
     0
 72
     1
 77
     1
171
     1
175
     1
179
     1
273
     0
  0
ENDSEC
  0
EOF
