  0
SECTION
  2
HEADER
  9
$ACADVER
  1
AC1006
  9
$DWGCODEPAGE
  3
ansi_932
  9
$INSBASE
 10
0.0
 20
0.0
 30
0.0
  9
$EXTMIN
 10
81.50352646220213
 20
-63.97499999999996
  9
$EXTMAX
 10
639.3298068711314
 20
263.6841616759223
  9
$LIMMIN
 10
0.0
 20
0.0
  9
$LIMMAX
 10
12.0
 20
9.0
  9
$ORTHOMODE
 70
     0
  9
$REGENMODE
 70
     1
  9
$FILLMODE
 70
     1
  9
$QTEXTMODE
 70
     0
  9
$MIRRTEXT
 70
     1
  9
$DRAGMODE
 70
     2
  9
$LTSCALE
 40
1.0
  9
$OSMODE
 70
    37
  9
$ATTMODE
 70
     1
  9
$TEXTSIZE
 40
0.2
  9
$TRACEWID
 40
0.05
  9
$TEXTSTYLE
  7
STANDARD
  9
$CLAYER
  8
0
  9
$CELTYPE
  6
BYLAYER
  9
$CECOLOR
 62
   256
  9
$DIMSCALE
 40
1.0
  9
$DIMASZ
 40
3.0
  9
$DIMEXO
 40
0.0625
  9
$DIMDLI
 40
0.38
  9
$DIMRND
 40
0.0
  9
$DIMDLE
 40
0.0
  9
$DIMEXE
 40
1.5
  9
$DIMTP
 40
0.0
  9
$DIMTM
 40
0.0
  9
$DIMTXT
 40
3.0
  9
$DIMCEN
 40
0.09
  9
$DIMTSZ
 40
0.0
  9
$DIMTOL
 70
     0
  9
$DIMLIM
 70
     0
  9
$DIMTIH
 70
     1
  9
$DIMTOH
 70
     1
  9
$DIMSE1
 70
     0
  9
$DIMSE2
 70
     0
  9
$DIMTAD
 70
     1
  9
$DIMZIN
 70
     0
  9
$DIMBLK
  1

  9
$DIMASO
 70
     1
  9
$DIMSHO
 70
     1
  9
$DIMPOST
  1

  9
$DIMAPOST
  1

  9
$DIMALT
 70
     0
  9
$DIMALTD
 70
     2
  9
$DIMALTF
 40
25.4
  9
$DIMLFAC
 40
1.0
  9
$DIMTOFL
 70
     0
  9
$DIMTVP
 40
0.0
  9
$DIMTIX
 70
     0
  9
$DIMSOXD
 70
     0
  9
$DIMSAH
 70
     0
  9
$DIMBLK1
  1

  9
$DIMBLK2
  1

  9
$LUNITS
 70
     2
  9
$LUPREC
 70
     4
  9
$SKETCHINC
 40
0.1
  9
$FILLETRAD
 40
0.5
  9
$AUNITS
 70
     0
  9
$AUPREC
 70
     0
  9
$MENU
  1
.
  9
$ELEVATION
 40
0.0
  9
$THICKNESS
 40
0.0
  9
$LIMCHECK
 70
     0
  9
$CHAMFERA
 40
0.0
  9
$CHAMFERB
 40
0.0
  9
$SKPOLY
 70
     0
  9
$TDCREATE
 40
2459754.568097384
  9
$TDUPDATE
 40
2459754.568097674
  9
$TDINDWG
 40
0.0000000116
  9
$TDUSRTIMER
 40
0.0000000116
  9
$USRTIMER
 70
     1
  9
$ANGBASE
 50
0.0
  9
$ANGDIR
 70
     0
  9
$PDMODE
 70
     0
  9
$PDSIZE
 40
0.0
  9
$PLINEWID
 40
0.0
  9
$COORDS
 70
     1
  9
$SPLFRAME
 70
     0
  9
$SPLINETYPE
 70
     6
  9
$SPLINESEGS
 70
     8
  9
$ATTDIA
 70
     0
  9
$ATTREQ
 70
     1
  9
$HANDLING
 70
     1
  9
$HANDSEED
  5
674
  9
$SURFTAB1
 70
     6
  9
$SURFTAB2
 70
     6
  9
$SURFTYPE
 70
     6
  9
$SURFU
 70
     6
  9
$SURFV
 70
     6
  9
$UCSNAME
  2

  9
$UCSORG
 10
0.0
 20
0.0
 30
0.0
  9
$UCSXDIR
 10
1.0
 20
0.0
 30
0.0
  9
$UCSYDIR
 10
0.0
 20
1.0
 30
0.0
  9
$USERI1
 70
     0
  9
$USERI2
 70
     0
  9
$USERI3
 70
     0
  9
$USERI4
 70
     0
  9
$USERI5
 70
     0
  9
$USERR1
 40
0.0
  9
$USERR2
 40
0.0
  9
$USERR3
 40
0.0
  9
$USERR4
 40
0.0
  9
$USERR5
 40
0.0
  9
$WORLDVIEW
 70
     1
  0
ENDSEC
  0
SECTION
  2
TABLES
  0
TABLE
  2
VPORT
 70
     1
  0
VPORT
  2
*ACTIVE
 70
     0
 10
0.0
 20
0.0
 11
1.0
 21
1.0
 12
360.4166666666667
 22
99.85458083796118
 13
0.0
 23
0.0
 14
0.5
 24
0.5
 15
0.5
 25
0.5
 16
0.0
 26
0.0
 36
1.0
 17
0.0
 27
0.0
 37
0.0
 40
327.6591616759223
 41
1.6
 42
50.0
 43
0.0
 44
0.0
 50
0.0
 51
0.0
 71
     0
 72
   100
 73
     1
 74
     3
 75
     0
 76
     0
 77
     0
 78
     0
  0
ENDTAB
  0
TABLE
  2
LTYPE
 70
     1
  0
LTYPE
  2
CONTINUOUS
 70
     0
  3
Solid line
 72
    65
 73
     0
 40
0.0
  0
ENDTAB
  0
TABLE
  2
LAYER
 70
     2
  0
LAYER
  2
0
 70
     0
 62
     7
  6
CONTINUOUS
  0
LAYER
  2
1
 70
     0
 62
     7
  6
CONTINUOUS
  0
ENDTAB
  0
TABLE
  2
STYLE
 70
     2
  0
STYLE
  2
STANDARD
 70
     0
 40
0.0
 41
1.0
 50
0.0
 71
     0
 42
0.2
  3
txt
  4

  0
STYLE
  2
ＭＳ_ゴシック
 70
     0
 40
0.0
 41
1.0
 50
0.0
 71
     0
 42
0.2
  3
ＭＳ ゴシック.shx
  4

  0
ENDTAB
  0
TABLE
  2
VIEW
 70
     0
  0
ENDTAB
  0
TABLE
  2
UCS
 70
     0
  0
ENDTAB
  0
ENDSEC
  0
SECTION
  2
BLOCKS
  0
ENDSEC
  0
SECTION
  2
ENTITIES
  0
TEXT
  5
70
  8
1
  6
CONTINUOUS
 62
     7
 10
316.6453253303322
 20
-5.571933224959361
 30
0.0
 40
10.0
  1
PYK-S100KL
  0
POLYLINE
  5
71
  8
1
  6
CONTINUOUS
 62
     7
 66
     1
 10
0.0
 20
0.0
 30
0.0
  0
VERTEX
  5
436
  8
1
  6
CONTINUOUS
 62
     7
 10
211.5464607176051
 20
-12.75608891324548
 30
0.0
  0
VERTEX
  5
437
  8
1
  6
CONTINUOUS
 62
     7
 10
211.7104283060782
 20
-12.99932853169906
 30
0.0
  0
VERTEX
  5
438
  8
1
  6
CONTINUOUS
 62
     7
 10
211.9033944060025
 20
-13.2128403002376
 30
0.0
  0
VERTEX
  5
439
  8
1
  6
CONTINUOUS
 62
     7
 10
212.1179434383744
 20
-13.38841908133496
 30
0.0
  0
VERTEX
  5
43A
  8
1
  6
CONTINUOUS
 62
     7
 10
212.3458304042004
 20
-13.51931748089927
 30
0.0
  0
VERTEX
  5
43B
  8
1
  6
CONTINUOUS
 62
     7
 10
212.5782977351843
 20
-13.60050514684394
 30
0.0
  0
VERTEX
  5
43C
  8
1
  6
CONTINUOUS
 62
     7
 10
212.8064118421655
 20
-13.6288620826973
 30
0.0
  0
VERTEX
  5
43D
  8
1
  6
CONTINUOUS
 62
     7
 10
213.0214064279407
 20
-13.60329854731724
 30
0.0
  0
VERTEX
  5
43E
  8
1
  6
CONTINUOUS
 62
     7
 10
213.2150193711488
 20
-13.52479693303223
 30
0.0
  0
SEQEND
  5
639
  8
1
  6
CONTINUOUS
 62
     7
  0
LINE
  5
72
  8
1
  6
CONTINUOUS
 62
     7
 10
513.1060466416919
 20
195.6656842478249
 30
0.0
 11
514.438409814451
 21
203.2218912866222
 31
0.0
  0
LINE
  5
73
  8
1
  6
CONTINUOUS
 62
     7
 10
533.6173756029262
 20
230.6122930488081
 30
0.0
 11
540.2621925551057
 21
234.4486799048647
 31
0.0
  0
LINE
  5
74
  8
1
  6
CONTINUOUS
 62
     7
 10
594.4891309902911
 20
157.0045858669272
 30
0.0
 11
588.6114453248174
 21
152.0726219928522
 31
0.0
  0
LINE
  5
75
  8
1
  6
CONTINUOUS
 62
     7
 10
548.7570872419203
 20
237.5405687140914
 30
0.0
 11
556.3132942807176
 21
238.8729318868506
 31
0.0
  0
LINE
  5
76
  8
1
  6
CONTINUOUS
 62
     7
 10
607.2282568522161
 20
203.2218912866221
 30
0.0
 11
608.5606200249753
 21
195.6656842478249
 31
0.0
  0
LINE
  5
77
  8
1
  6
CONTINUOUS
 62
     7
 10
556.3132942807176
 20
143.4183585035673
 30
0.0
 11
548.7570872419203
 21
144.7507216763265
 31
0.0
  0
LINE
  5
78
  8
1
  6
CONTINUOUS
 62
     7
 10
588.0492910637408
 20
151.6789973416097
 30
0.0
 11
581.4044741115614
 21
147.8426104855531
 31
0.0
  0
LINE
  5
79
  8
1
  6
CONTINUOUS
 62
     7
 10
521.7603101309769
 20
218.9237571866929
 30
0.0
 11
526.6922740050518
 21
224.8014428521665
 31
0.0
  0
LINE
  5
7A
  8
1
  6
CONTINUOUS
 62
     7
 10
580.7825080334911
 20
147.5525829402363
 30
0.0
 11
573.5724591952585
 21
144.928339775514
 31
0.0
  0
LINE
  5
7B
  8
1
  6
CONTINUOUS
 62
     7
 10
608.5606200249752
 20
186.625606142593
 30
0.0
 11
607.228256852216
 21
179.0693991037957
 31
0.0
  0
LINE
  5
7C
  8
1
  6
CONTINUOUS
 62
     7
 10
608.6204318419686
 20
194.9820320512655
 30
0.0
 11
608.6204318419686
 21
187.3092583391523
 31
0.0
  0
LINE
  5
7D
  8
1
  6
CONTINUOUS
 62
     7
 10
540.8841586331758
 20
234.7387074501815
 30
0.0
 11
548.0942074714087
 21
237.3629506149039
 31
0.0
  0
LINE
  5
7E
  8
1
  6
CONTINUOUS
 62
     7
 10
572.9095794247468
 20
144.7507216763265
 30
0.0
 11
565.3533723859493
 21
143.4183585035673
 31
0.0
  0
LINE
  5
7F
  8
1
  6
CONTINUOUS
 62
     7
 10
556.9969464772769
 20
238.9327437038441
 30
0.0
 11
564.6697201893901
 21
238.9327437038441
 31
0.0
  0
LINE
  5
80
  8
1
  6
CONTINUOUS
 62
     7
 10
588.6114453248174
 20
230.2186683975656
 30
0.0
 11
594.4891309902911
 21
225.2867045234906
 31
0.0
  0
LINE
  5
81
  8
1
  6
CONTINUOUS
 62
     7
 10
604.426395588306
 20
211.0948198953666
 30
0.0
 11
607.0506387530284
 21
203.8847710571337
 31
0.0
  0
LINE
  5
82
  8
1
  6
CONTINUOUS
 62
     7
 10
607.0506387530285
 20
178.4065193332841
 30
0.0
 11
604.426395588306
 21
171.1964704950513
 31
0.0
  0
LINE
  5
83
  8
1
  6
CONTINUOUS
 62
     7
 10
594.9743926616152
 20
224.8014428521665
 30
0.0
 11
599.9063565356901
 21
218.9237571866929
 31
0.0
  0
LINE
  5
84
  8
1
  6
CONTINUOUS
 62
     7
 10
225.9999999999999
 20
-63.97499999999996
 30
0.0
 11
93.99999999999991
 21
-63.97499999999996
 31
0.0
  0
LINE
  5
85
  8
1
  6
CONTINUOUS
 62
     7
 10
93.9999999999999
 20
-63.97499999999996
 30
0.0
 11
93.9999999999999
 21
-63.47499999999994
 31
0.0
  0
LINE
  5
86
  8
1
  6
CONTINUOUS
 62
     7
 10
105.7687488335781
 20
-49.97499999999997
 30
0.0
 11
105.768748833578
 21
-50.35317179017185
 31
0.0
  0
LINE
  5
87
  8
1
  6
CONTINUOUS
 62
     7
 10
105.7687488335781
 20
-49.97499999999997
 30
0.0
 11
105.9861223878544
 21
-49.97499999999997
 31
0.0
  0
LINE
  5
88
  8
1
  6
CONTINUOUS
 62
     7
 10
599.9063565356901
 20
163.3675332037249
 30
0.0
 11
594.9743926616151
 21
157.4898475382513
 31
0.0
  0
LINE
  5
89
  8
1
  6
CONTINUOUS
 62
     7
 10
604.1363680429893
 20
170.574504416981
 30
0.0
 11
600.2999811869329
 21
163.9296874648016
 31
0.0
  0
LINE
  5
8A
  8
1
  6
CONTINUOUS
 62
     7
 10
565.3533723859493
 20
238.8729318868506
 30
0.0
 11
572.9095794247468
 21
237.5405687140913
 31
0.0
  0
LINE
  5
8B
  8
1
  6
CONTINUOUS
 62
     7
 10
573.5724591952585
 20
237.3629506149038
 30
0.0
 11
580.7825080334911
 21
234.7387074501815
 31
0.0
  0
LINE
  5
8C
  8
1
  6
CONTINUOUS
 62
     7
 10
581.4044741115614
 20
234.4486799048647
 30
0.0
 11
588.0492910637408
 21
230.6122930488081
 31
0.0
  0
LINE
  5
8D
  8
1
  6
CONTINUOUS
 62
     7
 10
214.0138776121454
 20
-49.97499999999997
 30
0.0
 11
214.2312511664217
 21
-49.97499999999997
 31
0.0
  0
LINE
  5
8E
  8
1
  6
CONTINUOUS
 62
     7
 10
214.2312511664217
 20
-50.35317179017185
 30
0.0
 11
214.2312511664217
 21
-49.97499999999997
 31
0.0
  0
LINE
  5
8F
  8
1
  6
CONTINUOUS
 62
     7
 10
548.0942074714086
 20
144.9283397755139
 30
0.0
 11
540.8841586331757
 21
147.5525829402363
 31
0.0
  0
LINE
  5
90
  8
1
  6
CONTINUOUS
 62
     7
 10
514.6160279136386
 20
203.8847710571337
 30
0.0
 11
517.240271078361
 21
211.0948198953666
 31
0.0
  0
LINE
  5
91
  8
1
  6
CONTINUOUS
 62
     7
 10
527.1775356763759
 20
225.2867045234906
 30
0.0
 11
533.0552213418496
 21
230.2186683975656
 31
0.0
  0
LINE
  5
92
  8
1
  6
CONTINUOUS
 62
     7
 10
105.619168480353
 20
-49.97499999999997
 30
0.0
 11
105.7687488335781
 21
-49.97499999999997
 31
0.0
  0
LINE
  5
93
  8
1
  6
CONTINUOUS
 62
     7
 10
214.2312511664217
 20
-49.97499999999997
 30
0.0
 11
214.3808315196467
 21
-49.97499999999997
 31
0.0
  0
LINE
  5
94
  8
1
  6
CONTINUOUS
 62
     7
 10
213.2150193711488
 20
-13.52479693303223
 30
0.0
 11
212.602646935453
 21
-13.87835032362551
 31
0.0
  0
LINE
  5
95
  8
1
  6
CONTINUOUS
 62
     7
 10
225.9999999999999
 20
-63.97499999999996
 30
0.0
 11
225.9999999999999
 21
-63.47499999999994
 31
0.0
  0
POLYLINE
  5
96
  8
1
  6
CONTINUOUS
 62
     7
 66
     1
 10
0.0
 20
0.0
 30
0.0
  0
VERTEX
  5
43F
  8
1
  6
CONTINUOUS
 62
     7
 10
210.9340882819093
 20
-13.10964230383875
 30
0.0
  0
VERTEX
  5
440
  8
1
  6
CONTINUOUS
 62
     7
 10
211.0980558703824
 20
-13.35288192229233
 30
0.0
  0
VERTEX
  5
441
  8
1
  6
CONTINUOUS
 62
     7
 10
211.2910219703067
 20
-13.56639369083087
 30
0.0
  0
VERTEX
  5
442
  8
1
  6
CONTINUOUS
 62
     7
 10
211.5055710026786
 20
-13.74197247192823
 30
0.0
  0
VERTEX
  5
443
  8
1
  6
CONTINUOUS
 62
     7
 10
211.7334579685046
 20
-13.87287087149254
 30
0.0
  0
VERTEX
  5
444
  8
1
  6
CONTINUOUS
 62
     7
 10
211.9659252994885
 20
-13.95405853743721
 30
0.0
  0
VERTEX
  5
445
  8
1
  6
CONTINUOUS
 62
     7
 10
212.1940394064697
 20
-13.98241547329057
 30
0.0
  0
VERTEX
  5
446
  8
1
  6
CONTINUOUS
 62
     7
 10
212.4090339922449
 20
-13.95685193791051
 30
0.0
  0
VERTEX
  5
447
  8
1
  6
CONTINUOUS
 62
     7
 10
212.602646935453
 20
-13.87835032362551
 30
0.0
  0
SEQEND
  5
63A
  8
1
  6
CONTINUOUS
 62
     7
  0
LINE
  5
97
  8
1
  6
CONTINUOUS
 62
     7
 10
120.0175601241062
 20
-6.052350846592877
 30
0.0
 11
199.9824398758936
 21
-6.052350846592877
 31
0.0
  0
LINE
  5
98
  8
1
  6
CONTINUOUS
 62
     7
 10
112.5659117180904
 20
-7.047464477347693
 30
0.0
 11
109.0659117180904
 21
-13.10964230383876
 31
0.0
  0
LINE
  5
99
  8
1
  6
CONTINUOUS
 62
     7
 10
208.5212055889967
 20
-4.687766199891211
 30
0.0
 11
208.2150193711488
 21
-4.86454289518784
 31
0.0
  0
LINE
  5
9A
  8
1
  6
CONTINUOUS
 62
     7
 10
105.9714884748257
 20
-13.05512701892216
 30
0.0
 11
106.4787944110031
 21
-13.34802023773561
 31
0.0
  0
POLYLINE
  5
9B
  8
1
  6
CONTINUOUS
 62
     7
 66
     1
 10
0.0
 20
0.0
 30
0.0
  0
VERTEX
  5
448
  8
1
  6
CONTINUOUS
 62
     7
 10
129.4999999999999
 20
-1.591026269889338
 30
0.0
  0
VERTEX
  5
449
  8
1
  6
CONTINUOUS
 62
     7
 10
127.7175205991212
 20
-1.675386785707043
 30
0.0
  0
VERTEX
  5
44A
  8
1
  6
CONTINUOUS
 62
     7
 10
125.9983552536921
 20
-1.925471829316357
 30
0.0
  0
VERTEX
  5
44B
  8
1
  6
CONTINUOUS
 62
     7
 10
124.4035690901614
 20
-2.332398325653206
 30
0.0
  0
VERTEX
  5
44C
  8
1
  6
CONTINUOUS
 62
     7
 10
122.9898092594237
 20
-2.881712157188804
 30
0.0
  0
VERTEX
  5
44D
  8
1
  6
CONTINUOUS
 62
     7
 10
121.8072928177162
 20
-3.553901577323511
 30
0.0
  0
VERTEX
  5
44E
  8
1
  6
CONTINUOUS
 62
     7
 10
120.8980230058747
 20
-4.325090271863741
 30
0.0
  0
VERTEX
  5
44F
  8
1
  6
CONTINUOUS
 62
     7
 10
120.2942972850971
 20
-5.167885450887726
 30
0.0
  0
VERTEX
  5
450
  8
1
  6
CONTINUOUS
 62
     7
 10
120.0175601241062
 20
-6.052350846592878
 30
0.0
  0
SEQEND
  5
63B
  8
1
  6
CONTINUOUS
 62
     7
  0
LINE
  5
9C
  8
1
  6
CONTINUOUS
 62
     7
 10
155.9999999999999
 20
-47.59102626988933
 30
0.0
 11
114.9999999999999
 21
-47.59102626988935
 31
0.0
  0
LINE
  5
9D
  8
1
  6
CONTINUOUS
 62
     7
 10
156.1270166537925
 20
-24.59102626988935
 30
0.0
 11
115.9999999999999
 21
-24.59102626988935
 31
0.0
  0
POLYLINE
  5
9E
  8
1
  6
CONTINUOUS
 62
     7
 66
     1
 10
0.0
 20
0.0
 30
0.0
  0
VERTEX
  5
451
  8
1
  6
CONTINUOUS
 62
     7
 10
214.4824398758936
 20
-40.55235084659287
 30
0.0
  0
VERTEX
  5
452
  8
1
  6
CONTINUOUS
 62
     7
 10
214.2057027149027
 20
-39.66788545088771
 30
0.0
  0
VERTEX
  5
453
  8
1
  6
CONTINUOUS
 62
     7
 10
213.601976994125
 20
-38.82509027186373
 30
0.0
  0
VERTEX
  5
454
  8
1
  6
CONTINUOUS
 62
     7
 10
212.6927071822836
 20
-38.0539015773235
 30
0.0
  0
VERTEX
  5
455
  8
1
  6
CONTINUOUS
 62
     7
 10
211.510190740576
 20
-37.38171215718879
 30
0.0
  0
VERTEX
  5
456
  8
1
  6
CONTINUOUS
 62
     7
 10
210.0964309098383
 20
-36.8323983256532
 30
0.0
  0
VERTEX
  5
457
  8
1
  6
CONTINUOUS
 62
     7
 10
208.5016447463077
 20
-36.42547182931635
 30
0.0
  0
VERTEX
  5
458
  8
1
  6
CONTINUOUS
 62
     7
 10
206.7824794008785
 20
-36.17538678570704
 30
0.0
  0
VERTEX
  5
459
  8
1
  6
CONTINUOUS
 62
     7
 10
204.9999999999999
 20
-36.09102626988933
 30
0.0
  0
SEQEND
  5
63C
  8
1
  6
CONTINUOUS
 62
     7
  0
LINE
  5
9F
  8
1
  6
CONTINUOUS
 62
     7
 10
105.5175601241062
 20
-40.55235084659291
 30
0.0
 11
214.4824398758935
 21
-40.55235084659287
 31
0.0
  0
POLYLINE
  5
A0
  8
1
  6
CONTINUOUS
 62
     7
 66
     1
 10
0.0
 20
0.0
 30
0.0
  0
VERTEX
  5
45A
  8
1
  6
CONTINUOUS
 62
     7
 10
155.9999999999999
 20
-49.09102626988935
 30
0.0
  0
VERTEX
  5
45B
  8
1
  6
CONTINUOUS
 62
     7
 10
156.076858878387
 20
-49.4812069139216
 30
0.0
  0
VERTEX
  5
45C
  8
1
  6
CONTINUOUS
 62
     7
 10
156.3044818699547
 20
-49.85639313461952
 30
0.0
  0
VERTEX
  5
45D
  8
1
  6
CONTINUOUS
 62
     7
 10
156.6741215507897
 20
-50.20216673592854
 30
0.0
  0
VERTEX
  5
45E
  8
1
  6
CONTINUOUS
 62
     7
 10
157.1715728752537
 20
-50.50523983226243
 30
0.0
  0
VERTEX
  5
45F
  8
1
  6
CONTINUOUS
 62
     7
 10
157.7777190679215
 20
-50.75396549449442
 30
0.0
  0
VERTEX
  5
460
  8
1
  6
CONTINUOUS
 62
     7
 10
158.4692662705395
 20
-50.93878533491191
 30
0.0
  0
VERTEX
  5
461
  8
1
  6
CONTINUOUS
 62
     7
 10
159.2196387119354
 20
-51.05259683069579
 30
0.0
  0
VERTEX
  5
462
  8
1
  6
CONTINUOUS
 62
     7
 10
159.9999999999999
 20
-51.09102626988933
 30
0.0
  0
SEQEND
  5
63D
  8
1
  6
CONTINUOUS
 62
     7
  0
LINE
  5
A1
  8
1
  6
CONTINUOUS
 62
     7
 10
106.478794411003
 20
-13.34802023773561
 30
0.0
 11
106.7849806288509
 21
-13.52479693303225
 31
0.0
  0
LINE
  5
A2
  8
1
  6
CONTINUOUS
 62
     7
 10
203.9999999999999
 20
-24.59102626988935
 30
0.0
 11
163.8729833462073
 21
-24.59102626988935
 31
0.0
  0
POLYLINE
  5
A3
  8
1
  6
CONTINUOUS
 62
     7
 66
     1
 10
0.0
 20
0.0
 30
0.0
  0
VERTEX
  5
463
  8
1
  6
CONTINUOUS
 62
     7
 10
213.4824398758935
 20
-29.0523508465929
 30
0.0
  0
VERTEX
  5
464
  8
1
  6
CONTINUOUS
 62
     7
 10
213.2057027149027
 20
-28.16788545088774
 30
0.0
  0
VERTEX
  5
465
  8
1
  6
CONTINUOUS
 62
     7
 10
212.601976994125
 20
-27.32509027186376
 30
0.0
  0
VERTEX
  5
466
  8
1
  6
CONTINUOUS
 62
     7
 10
211.6927071822836
 20
-26.55390157732353
 30
0.0
  0
VERTEX
  5
467
  8
1
  6
CONTINUOUS
 62
     7
 10
210.510190740576
 20
-25.88171215718883
 30
0.0
  0
VERTEX
  5
468
  8
1
  6
CONTINUOUS
 62
     7
 10
209.0964309098383
 20
-25.33239832565323
 30
0.0
  0
VERTEX
  5
469
  8
1
  6
CONTINUOUS
 62
     7
 10
207.5016447463077
 20
-24.92547182931638
 30
0.0
  0
VERTEX
  5
46A
  8
1
  6
CONTINUOUS
 62
     7
 10
205.7824794008785
 20
-24.67538678570707
 30
0.0
  0
VERTEX
  5
46B
  8
1
  6
CONTINUOUS
 62
     7
 10
203.9999999999999
 20
-24.59102626988936
 30
0.0
  0
SEQEND
  5
63E
  8
1
  6
CONTINUOUS
 62
     7
  0
LINE
  5
A4
  8
1
  6
CONTINUOUS
 62
     7
 10
213.5212055889967
 20
-13.3480202377356
 30
0.0
 11
213.2150193711488
 21
-13.52479693303223
 31
0.0
  0
POLYLINE
  5
A5
  8
1
  6
CONTINUOUS
 62
     7
 66
     1
 10
0.0
 20
0.0
 30
0.0
  0
VERTEX
  5
46C
  8
1
  6
CONTINUOUS
 62
     7
 10
156.1270166537925
 20
-24.59102626988935
 30
0.0
  0
VERTEX
  5
46D
  8
1
  6
CONTINUOUS
 62
     7
 10
156.4077777983337
 20
-24.9707903936544
 30
0.0
  0
VERTEX
  5
46E
  8
1
  6
CONTINUOUS
 62
     7
 10
156.835754939419
 20
-25.31450013522011
 30
0.0
  0
VERTEX
  5
46F
  8
1
  6
CONTINUOUS
 62
     7
 10
157.3934087719092
 20
-25.60806962537074
 30
0.0
  0
VERTEX
  5
470
  8
1
  6
CONTINUOUS
 62
     7
 10
158.0578855968771
 20
-25.83946783634096
 30
0.0
  0
VERTEX
  5
471
  8
1
  6
CONTINUOUS
 62
     7
 10
158.8019539090101
 20
-25.99921163587612
 30
0.0
  0
VERTEX
  5
472
  8
1
  6
CONTINUOUS
 62
     7
 10
159.5951203947219
 20
-26.0807544237605
 30
0.0
  0
VERTEX
  5
473
  8
1
  6
CONTINUOUS
 62
     7
 10
160.4048796052779
 20
-26.08075442376051
 30
0.0
  0
VERTEX
  5
474
  8
1
  6
CONTINUOUS
 62
     7
 10
161.1980460909897
 20
-25.99921163587612
 30
0.0
  0
VERTEX
  5
475
  8
1
  6
CONTINUOUS
 62
     7
 10
161.9421144031227
 20
-25.83946783634096
 30
0.0
  0
VERTEX
  5
476
  8
1
  6
CONTINUOUS
 62
     7
 10
162.6065912280905
 20
-25.60806962537074
 30
0.0
  0
VERTEX
  5
477
  8
1
  6
CONTINUOUS
 62
     7
 10
163.1642450605808
 20
-25.31450013522011
 30
0.0
  0
VERTEX
  5
478
  8
1
  6
CONTINUOUS
 62
     7
 10
163.5922222016661
 20
-24.9707903936544
 30
0.0
  0
VERTEX
  5
479
  8
1
  6
CONTINUOUS
 62
     7
 10
163.8729833462073
 20
-24.59102626988935
 30
0.0
  0
SEQEND
  5
63F
  8
1
  6
CONTINUOUS
 62
     7
  0
LINE
  5
A6
  8
1
  6
CONTINUOUS
 62
     7
 10
106.5175601241062
 20
-29.0523508465929
 30
0.0
 11
213.4824398758935
 21
-29.05235084659289
 31
0.0
  0
LINE
  5
A7
  8
1
  6
CONTINUOUS
 62
     7
 10
111.478794411003
 20
-4.687766199891224
 30
0.0
 11
111.7849806288509
 21
-4.864542895187868
 31
0.0
  0
POLYLINE
  5
A8
  8
1
  6
CONTINUOUS
 62
     7
 66
     1
 10
0.0
 20
0.0
 30
0.0
  0
VERTEX
  5
47A
  8
1
  6
CONTINUOUS
 62
     7
 10
112.5659117180904
 20
-7.04746447734771
 30
0.0
  0
VERTEX
  5
47B
  8
1
  6
CONTINUOUS
 62
     7
 10
112.6945796126415
 20
-6.783844571105922
 30
0.0
  0
VERTEX
  5
47C
  8
1
  6
CONTINUOUS
 62
     7
 10
112.7830031782407
 20
-6.509975142233049
 30
0.0
  0
VERTEX
  5
47D
  8
1
  6
CONTINUOUS
 62
     7
 10
112.8277843468506
 20
-6.23638083929293
 30
0.0
  0
VERTEX
  5
47E
  8
1
  6
CONTINUOUS
 62
     7
 10
112.827202203275
 20
-5.9735757379141
 30
0.0
  0
VERTEX
  5
47F
  8
1
  6
CONTINUOUS
 62
     7
 10
112.7812791189651
 20
-5.731659290759749
 30
0.0
  0
VERTEX
  5
480
  8
1
  6
CONTINUOUS
 62
     7
 10
112.691779892297
 20
-5.519928211225714
 30
0.0
  0
VERTEX
  5
481
  8
1
  6
CONTINUOUS
 62
     7
 10
112.5621439283597
 20
-5.346519205958328
 30
0.0
  0
VERTEX
  5
482
  8
1
  6
CONTINUOUS
 62
     7
 10
112.3973530645467
 20
-5.218096285781127
 30
0.0
  0
SEQEND
  5
640
  8
1
  6
CONTINUOUS
 62
     7
  0
POLYLINE
  5
A9
  8
1
  6
CONTINUOUS
 62
     7
 66
     1
 10
0.0
 20
0.0
 30
0.0
  0
VERTEX
  5
483
  8
1
  6
CONTINUOUS
 62
     7
 10
159.9999999999999
 20
-38.59102626988935
 30
0.0
  0
VERTEX
  5
484
  8
1
  6
CONTINUOUS
 62
     7
 10
160.7803612880644
 20
-38.55259683069582
 30
0.0
  0
VERTEX
  5
485
  8
1
  6
CONTINUOUS
 62
     7
 10
161.5307337294602
 20
-38.43878533491193
 30
0.0
  0
VERTEX
  5
486
  8
1
  6
CONTINUOUS
 62
     7
 10
162.2222809320783
 20
-38.25396549449445
 30
0.0
  0
VERTEX
  5
487
  8
1
  6
CONTINUOUS
 62
     7
 10
162.8284271247461
 20
-38.00523983226245
 30
0.0
  0
VERTEX
  5
488
  8
1
  6
CONTINUOUS
 62
     7
 10
163.3258784492101
 20
-37.70216673592856
 30
0.0
  0
VERTEX
  5
489
  8
1
  6
CONTINUOUS
 62
     7
 10
163.695518130045
 20
-37.35639313461954
 30
0.0
  0
VERTEX
  5
48A
  8
1
  6
CONTINUOUS
 62
     7
 10
163.9231411216128
 20
-36.98120691392162
 30
0.0
  0
VERTEX
  5
48B
  8
1
  6
CONTINUOUS
 62
     7
 10
163.9999999999999
 20
-36.59102626988936
 30
0.0
  0
SEQEND
  5
641
  8
1
  6
CONTINUOUS
 62
     7
  0
LINE
  5
AA
  8
1
  6
CONTINUOUS
 62
     7
 10
163.9999999999999
 20
-36.09102626988935
 30
0.0
 11
163.9999999999999
 21
-36.59102626988935
 31
0.0
  0
LINE
  5
AB
  8
1
  6
CONTINUOUS
 62
     7
 10
110.9714884748257
 20
-4.394872981077769
 30
0.0
 11
105.9714884748257
 21
-13.05512701892216
 31
0.0
  0
LINE
  5
AC
  8
1
  6
CONTINUOUS
 62
     7
 10
209.028511525174
 20
-4.394872981077754
 30
0.0
 11
208.5212055889967
 21
-4.687766199891211
 31
0.0
  0
LINE
  5
AD
  8
1
  6
CONTINUOUS
 62
     7
 10
204.9999999999999
 20
-47.59102626988933
 30
0.0
 11
163.9999999999999
 21
-47.59102626988933
 31
0.0
  0
POLYLINE
  5
AE
  8
1
  6
CONTINUOUS
 62
     7
 66
     1
 10
0.0
 20
0.0
 30
0.0
  0
VERTEX
  5
48C
  8
1
  6
CONTINUOUS
 62
     7
 10
199.9824398758936
 20
-6.052350846592876
 30
0.0
  0
VERTEX
  5
48D
  8
1
  6
CONTINUOUS
 62
     7
 10
199.7057027149027
 20
-5.167885450887718
 30
0.0
  0
VERTEX
  5
48E
  8
1
  6
CONTINUOUS
 62
     7
 10
199.101976994125
 20
-4.325090271863733
 30
0.0
  0
VERTEX
  5
48F
  8
1
  6
CONTINUOUS
 62
     7
 10
198.1927071822836
 20
-3.553901577323502
 30
0.0
  0
VERTEX
  5
490
  8
1
  6
CONTINUOUS
 62
     7
 10
197.0101907405761
 20
-2.881712157188795
 30
0.0
  0
VERTEX
  5
491
  8
1
  6
CONTINUOUS
 62
     7
 10
195.5964309098383
 20
-2.332398325653196
 30
0.0
  0
VERTEX
  5
492
  8
1
  6
CONTINUOUS
 62
     7
 10
194.0016447463077
 20
-1.925471829316347
 30
0.0
  0
VERTEX
  5
493
  8
1
  6
CONTINUOUS
 62
     7
 10
192.2824794008785
 20
-1.675386785707032
 30
0.0
  0
VERTEX
  5
494
  8
1
  6
CONTINUOUS
 62
     7
 10
190.4999999999999
 20
-1.591026269889326
 30
0.0
  0
SEQEND
  5
642
  8
1
  6
CONTINUOUS
 62
     7
  0
POLYLINE
  5
AF
  8
1
  6
CONTINUOUS
 62
     7
 66
     1
 10
0.0
 20
0.0
 30
0.0
  0
VERTEX
  5
495
  8
1
  6
CONTINUOUS
 62
     7
 10
207.602646935453
 20
-5.218096285781124
 30
0.0
  0
VERTEX
  5
496
  8
1
  6
CONTINUOUS
 62
     7
 10
207.4378560716401
 20
-5.346519205958323
 30
0.0
  0
VERTEX
  5
497
  8
1
  6
CONTINUOUS
 62
     7
 10
207.3082201077028
 20
-5.519928211225707
 30
0.0
  0
VERTEX
  5
498
  8
1
  6
CONTINUOUS
 62
     7
 10
207.2187208810347
 20
-5.731659290759741
 30
0.0
  0
VERTEX
  5
499
  8
1
  6
CONTINUOUS
 62
     7
 10
207.1727977967248
 20
-5.973575737914088
 30
0.0
  0
VERTEX
  5
49A
  8
1
  6
CONTINUOUS
 62
     7
 10
207.1722156531492
 20
-6.236380839292917
 30
0.0
  0
VERTEX
  5
49B
  8
1
  6
CONTINUOUS
 62
     7
 10
207.2169968217591
 20
-6.509975142233033
 30
0.0
  0
VERTEX
  5
49C
  8
1
  6
CONTINUOUS
 62
     7
 10
207.3054203873583
 20
-6.783844571105903
 30
0.0
  0
VERTEX
  5
49D
  8
1
  6
CONTINUOUS
 62
     7
 10
207.4340882819093
 20
-7.047464477347688
 30
0.0
  0
SEQEND
  5
643
  8
1
  6
CONTINUOUS
 62
     7
  0
LINE
  5
B0
  8
1
  6
CONTINUOUS
 62
     7
 10
106.7849806288509
 20
-13.52479693303225
 30
0.0
 11
107.3973530645467
 21
-13.87835032362552
 31
0.0
  0
POLYLINE
  5
B1
  8
1
  6
CONTINUOUS
 62
     7
 66
     1
 10
0.0
 20
0.0
 30
0.0
  0
VERTEX
  5
49E
  8
1
  6
CONTINUOUS
 62
     7
 10
106.7849806288509
 20
-13.52479693303225
 30
0.0
  0
VERTEX
  5
49F
  8
1
  6
CONTINUOUS
 62
     7
 10
106.9785935720591
 20
-13.60329854731726
 30
0.0
  0
VERTEX
  5
4A0
  8
1
  6
CONTINUOUS
 62
     7
 10
107.1935881578342
 20
-13.62886208269731
 30
0.0
  0
VERTEX
  5
4A1
  8
1
  6
CONTINUOUS
 62
     7
 10
107.4217022648155
 20
-13.60050514684396
 30
0.0
  0
VERTEX
  5
4A2
  8
1
  6
CONTINUOUS
 62
     7
 10
107.6541695957993
 20
-13.51931748089928
 30
0.0
  0
VERTEX
  5
4A3
  8
1
  6
CONTINUOUS
 62
     7
 10
107.8820565616254
 20
-13.38841908133497
 30
0.0
  0
VERTEX
  5
4A4
  8
1
  6
CONTINUOUS
 62
     7
 10
108.0966055939973
 20
-13.21284030023761
 30
0.0
  0
VERTEX
  5
4A5
  8
1
  6
CONTINUOUS
 62
     7
 10
108.2895716939215
 20
-12.99932853169907
 30
0.0
  0
VERTEX
  5
4A6
  8
1
  6
CONTINUOUS
 62
     7
 10
108.4535392823946
 20
-12.75608891324549
 30
0.0
  0
SEQEND
  5
644
  8
1
  6
CONTINUOUS
 62
     7
  0
POLYLINE
  5
B2
  8
1
  6
CONTINUOUS
 62
     7
 66
     1
 10
0.0
 20
0.0
 30
0.0
  0
VERTEX
  5
4A7
  8
1
  6
CONTINUOUS
 62
     7
 10
185.3613861386137
 20
7.028727528232896
 30
0.0
  0
VERTEX
  5
4A8
  8
1
  6
CONTINUOUS
 62
     7
 10
175.6061018010671
 20
9.017878277097736
 30
0.0
  0
VERTEX
  5
4A9
  8
1
  6
CONTINUOUS
 62
     7
 10
165.2676478458894
 20
10.03139013320654
 30
0.0
  0
VERTEX
  5
4AA
  8
1
  6
CONTINUOUS
 62
     7
 10
154.7323521541103
 20
10.03139013320654
 30
0.0
  0
VERTEX
  5
4AB
  8
1
  6
CONTINUOUS
 62
     7
 10
144.3938981989326
 20
9.017878277097726
 30
0.0
  0
VERTEX
  5
4AC
  8
1
  6
CONTINUOUS
 62
     7
 10
134.6386138613861
 20
7.028727528232899
 30
0.0
  0
SEQEND
  5
645
  8
1
  6
CONTINUOUS
 62
     7
  0
POLYLINE
  5
B3
  8
1
  6
CONTINUOUS
 62
     7
 66
     1
 10
0.0
 20
0.0
 30
0.0
  0
VERTEX
  5
4AD
  8
1
  6
CONTINUOUS
 62
     7
 10
107.3973530645467
 20
-13.87835032362552
 30
0.0
  0
VERTEX
  5
4AE
  8
1
  6
CONTINUOUS
 62
     7
 10
107.5909660077549
 20
-13.95685193791053
 30
0.0
  0
VERTEX
  5
4AF
  8
1
  6
CONTINUOUS
 62
     7
 10
107.80596059353
 20
-13.98241547329058
 30
0.0
  0
VERTEX
  5
4B0
  8
1
  6
CONTINUOUS
 62
     7
 10
108.0340747005113
 20
-13.95405853743723
 30
0.0
  0
VERTEX
  5
4B1
  8
1
  6
CONTINUOUS
 62
     7
 10
108.2665420314951
 20
-13.87287087149255
 30
0.0
  0
VERTEX
  5
4B2
  8
1
  6
CONTINUOUS
 62
     7
 10
108.4944289973212
 20
-13.74197247192824
 30
0.0
  0
VERTEX
  5
4B3
  8
1
  6
CONTINUOUS
 62
     7
 10
108.7089780296931
 20
-13.56639369083088
 30
0.0
  0
VERTEX
  5
4B4
  8
1
  6
CONTINUOUS
 62
     7
 10
108.9019441296173
 20
-13.35288192229234
 30
0.0
  0
VERTEX
  5
4B5
  8
1
  6
CONTINUOUS
 62
     7
 10
109.0659117180904
 20
-13.10964230383876
 30
0.0
  0
SEQEND
  5
646
  8
1
  6
CONTINUOUS
 62
     7
  0
LINE
  5
B4
  8
1
  6
CONTINUOUS
 62
     7
 10
155.9999999999999
 20
-36.09102626988935
 30
0.0
 11
114.9999999999999
 21
-36.09102626988935
 31
0.0
  0
POLYLINE
  5
B5
  8
1
  6
CONTINUOUS
 62
     7
 66
     1
 10
0.0
 20
0.0
 30
0.0
  0
VERTEX
  5
4B6
  8
1
  6
CONTINUOUS
 62
     7
 10
155.9999999999999
 20
-36.59102626988935
 30
0.0
  0
VERTEX
  5
4B7
  8
1
  6
CONTINUOUS
 62
     7
 10
156.076858878387
 20
-36.98120691392161
 30
0.0
  0
VERTEX
  5
4B8
  8
1
  6
CONTINUOUS
 62
     7
 10
156.3044818699547
 20
-37.35639313461954
 30
0.0
  0
VERTEX
  5
4B9
  8
1
  6
CONTINUOUS
 62
     7
 10
156.6741215507897
 20
-37.70216673592856
 30
0.0
  0
VERTEX
  5
4BA
  8
1
  6
CONTINUOUS
 62
     7
 10
157.1715728752537
 20
-38.00523983226245
 30
0.0
  0
VERTEX
  5
4BB
  8
1
  6
CONTINUOUS
 62
     7
 10
157.7777190679215
 20
-38.25396549449444
 30
0.0
  0
VERTEX
  5
4BC
  8
1
  6
CONTINUOUS
 62
     7
 10
158.4692662705395
 20
-38.43878533491193
 30
0.0
  0
VERTEX
  5
4BD
  8
1
  6
CONTINUOUS
 62
     7
 10
159.2196387119354
 20
-38.55259683069582
 30
0.0
  0
VERTEX
  5
4BE
  8
1
  6
CONTINUOUS
 62
     7
 10
159.9999999999999
 20
-38.59102626988935
 30
0.0
  0
SEQEND
  5
647
  8
1
  6
CONTINUOUS
 62
     7
  0
POLYLINE
  5
B6
  8
1
  6
CONTINUOUS
 62
     7
 66
     1
 10
0.0
 20
0.0
 30
0.0
  0
VERTEX
  5
4BF
  8
1
  6
CONTINUOUS
 62
     7
 10
214.4824398758936
 20
-52.05235084659287
 30
0.0
  0
VERTEX
  5
4C0
  8
1
  6
CONTINUOUS
 62
     7
 10
214.2057027149027
 20
-51.16788545088771
 30
0.0
  0
VERTEX
  5
4C1
  8
1
  6
CONTINUOUS
 62
     7
 10
213.601976994125
 20
-50.32509027186373
 30
0.0
  0
VERTEX
  5
4C2
  8
1
  6
CONTINUOUS
 62
     7
 10
212.6927071822836
 20
-49.5539015773235
 30
0.0
  0
VERTEX
  5
4C3
  8
1
  6
CONTINUOUS
 62
     7
 10
211.510190740576
 20
-48.88171215718879
 30
0.0
  0
VERTEX
  5
4C4
  8
1
  6
CONTINUOUS
 62
     7
 10
210.0964309098383
 20
-48.3323983256532
 30
0.0
  0
VERTEX
  5
4C5
  8
1
  6
CONTINUOUS
 62
     7
 10
208.5016447463076
 20
-47.92547182931635
 30
0.0
  0
VERTEX
  5
4C6
  8
1
  6
CONTINUOUS
 62
     7
 10
206.7824794008785
 20
-47.67538678570704
 30
0.0
  0
VERTEX
  5
4C7
  8
1
  6
CONTINUOUS
 62
     7
 10
204.9999999999999
 20
-47.59102626988934
 30
0.0
  0
SEQEND
  5
648
  8
1
  6
CONTINUOUS
 62
     7
  0
LINE
  5
B7
  8
1
  6
CONTINUOUS
 62
     7
 10
105.5175601241062
 20
-52.0523508465929
 30
0.0
 11
214.4824398758935
 21
-52.05235084659287
 31
0.0
  0
POLYLINE
  5
B8
  8
1
  6
CONTINUOUS
 62
     7
 66
     1
 10
0.0
 20
0.0
 30
0.0
  0
VERTEX
  5
4C8
  8
1
  6
CONTINUOUS
 62
     7
 10
114.9999999999999
 20
-47.59102626988936
 30
0.0
  0
VERTEX
  5
4C9
  8
1
  6
CONTINUOUS
 62
     7
 10
113.2175205991213
 20
-47.67538678570706
 30
0.0
  0
VERTEX
  5
4CA
  8
1
  6
CONTINUOUS
 62
     7
 10
111.4983552536921
 20
-47.92547182931638
 30
0.0
  0
VERTEX
  5
4CB
  8
1
  6
CONTINUOUS
 62
     7
 10
109.9035690901614
 20
-48.33239832565323
 30
0.0
  0
VERTEX
  5
4CC
  8
1
  6
CONTINUOUS
 62
     7
 10
108.4898092594237
 20
-48.88171215718882
 30
0.0
  0
VERTEX
  5
4CD
  8
1
  6
CONTINUOUS
 62
     7
 10
107.3072928177162
 20
-49.55390157732353
 30
0.0
  0
VERTEX
  5
4CE
  8
1
  6
CONTINUOUS
 62
     7
 10
106.3980230058747
 20
-50.32509027186376
 30
0.0
  0
VERTEX
  5
4CF
  8
1
  6
CONTINUOUS
 62
     7
 10
105.7942972850971
 20
-51.16788545088774
 30
0.0
  0
VERTEX
  5
4D0
  8
1
  6
CONTINUOUS
 62
     7
 10
105.5175601241062
 20
-52.0523508465929
 30
0.0
  0
SEQEND
  5
649
  8
1
  6
CONTINUOUS
 62
     7
  0
LINE
  5
B9
  8
1
  6
CONTINUOUS
 62
     7
 10
207.4340882819093
 20
-7.047464477347693
 30
0.0
 11
210.9340882819093
 21
-13.10964230383875
 31
0.0
  0
POLYLINE
  5
BA
  8
1
  6
CONTINUOUS
 62
     7
 66
     1
 10
0.0
 20
0.0
 30
0.0
  0
VERTEX
  5
4D1
  8
1
  6
CONTINUOUS
 62
     7
 10
134.638613861386
 20
7.028727528232856
 30
0.0
  0
VERTEX
  5
4D2
  8
1
  6
CONTINUOUS
 62
     7
 10
133.977265145288
 20
6.810550332272214
 30
0.0
  0
VERTEX
  5
4D3
  8
1
  6
CONTINUOUS
 62
     7
 10
133.4149002324197
 20
6.531474632681508
 30
0.0
  0
VERTEX
  5
4D4
  8
1
  6
CONTINUOUS
 62
     7
 10
132.9735844689569
 20
6.202450440351855
 30
0.0
  0
VERTEX
  5
4D5
  8
1
  6
CONTINUOUS
 62
     7
 10
132.6706336313123
 20
5.836387580448021
 30
0.0
  0
VERTEX
  5
4D6
  8
1
  6
CONTINUOUS
 62
     7
 10
132.517934512125
 20
5.447649153407117
 30
0.0
  0
SEQEND
  5
64A
  8
1
  6
CONTINUOUS
 62
     7
  0
LINE
  5
BB
  8
1
  6
CONTINUOUS
 62
     7
 10
199.4999999999999
 20
-12.2250008661049
 30
0.0
 11
120.4999999999999
 21
-12.22500086610492
 31
0.0
  0
LINE
  5
BC
  8
1
  6
CONTINUOUS
 62
     7
 10
209.028511525174
 20
-4.394872981077754
 30
0.0
 11
214.028511525174
 21
-13.05512701892214
 31
0.0
  0
LINE
  5
BD
  8
1
  6
CONTINUOUS
 62
     7
 10
214.028511525174
 20
-13.05512701892214
 30
0.0
 11
213.5212055889967
 21
-13.3480202377356
 31
0.0
  0
LINE
  5
BE
  8
1
  6
CONTINUOUS
 62
     7
 10
199.4999999999999
 20
-13.09102626988933
 30
0.0
 11
120.4999999999999
 21
-13.09102626988935
 31
0.0
  0
LINE
  5
BF
  8
1
  6
CONTINUOUS
 62
     7
 10
105.5175601241062
 20
-39.68632544280847
 30
0.0
 11
105.5013293307048
 21
-39.97499999999997
 31
0.0
  0
LINE
  5
C0
  8
1
  6
CONTINUOUS
 62
     7
 10
190.4999999999999
 20
-1.591026269889328
 30
0.0
 11
129.4999999999999
 21
-1.591026269889356
 31
0.0
  0
POLYLINE
  5
C1
  8
1
  6
CONTINUOUS
 62
     7
 66
     1
 10
0.0
 20
0.0
 30
0.0
  0
VERTEX
  5
4D7
  8
1
  6
CONTINUOUS
 62
     7
 10
208.9824398758935
 20
-17.55235084659288
 30
0.0
  0
VERTEX
  5
4D8
  8
1
  6
CONTINUOUS
 62
     7
 10
208.7057027149027
 20
-16.66788545088772
 30
0.0
  0
VERTEX
  5
4D9
  8
1
  6
CONTINUOUS
 62
     7
 10
208.101976994125
 20
-15.82509027186374
 30
0.0
  0
VERTEX
  5
4DA
  8
1
  6
CONTINUOUS
 62
     7
 10
207.1927071822836
 20
-15.05390157732351
 30
0.0
  0
VERTEX
  5
4DB
  8
1
  6
CONTINUOUS
 62
     7
 10
206.010190740576
 20
-14.3817121571888
 30
0.0
  0
VERTEX
  5
4DC
  8
1
  6
CONTINUOUS
 62
     7
 10
204.5964309098383
 20
-13.83239832565321
 30
0.0
  0
VERTEX
  5
4DD
  8
1
  6
CONTINUOUS
 62
     7
 10
203.0016447463076
 20
-13.42547182931636
 30
0.0
  0
VERTEX
  5
4DE
  8
1
  6
CONTINUOUS
 62
     7
 10
201.2824794008785
 20
-13.17538678570705
 30
0.0
  0
VERTEX
  5
4DF
  8
1
  6
CONTINUOUS
 62
     7
 10
199.4999999999999
 20
-13.09102626988934
 30
0.0
  0
SEQEND
  5
64B
  8
1
  6
CONTINUOUS
 62
     7
  0
LINE
  5
C2
  8
1
  6
CONTINUOUS
 62
     7
 10
208.0464607176051
 20
-6.693911086754406
 30
0.0
 11
211.5464607176051
 21
-12.75608891324548
 31
0.0
  0
LINE
  5
C3
  8
1
  6
CONTINUOUS
 62
     7
 10
204.9999999999999
 20
-36.09102626988934
 30
0.0
 11
163.9999999999999
 21
-36.09102626988935
 31
0.0
  0
LINE
  5
C4
  8
1
  6
CONTINUOUS
 62
     7
 10
110.9714884748257
 20
-4.394872981077769
 30
0.0
 11
111.4787944110031
 21
-4.687766199891224
 31
0.0
  0
LINE
  5
C5
  8
1
  6
CONTINUOUS
 62
     7
 10
111.9535392823946
 20
-6.693911086754434
 30
0.0
 11
108.4535392823946
 21
-12.75608891324549
 31
0.0
  0
POLYLINE
  5
C6
  8
1
  6
CONTINUOUS
 62
     7
 66
     1
 10
0.0
 20
0.0
 30
0.0
  0
VERTEX
  5
4E0
  8
1
  6
CONTINUOUS
 62
     7
 10
185.3613861386137
 20
7.894752932017337
 30
0.0
  0
VERTEX
  5
4E1
  8
1
  6
CONTINUOUS
 62
     7
 10
175.6061018010671
 20
9.883903680882177
 30
0.0
  0
VERTEX
  5
4E2
  8
1
  6
CONTINUOUS
 62
     7
 10
165.2676478458894
 20
10.89741553699098
 30
0.0
  0
VERTEX
  5
4E3
  8
1
  6
CONTINUOUS
 62
     7
 10
154.7323521541103
 20
10.89741553699098
 30
0.0
  0
VERTEX
  5
4E4
  8
1
  6
CONTINUOUS
 62
     7
 10
144.3938981989326
 20
9.883903680882167
 30
0.0
  0
VERTEX
  5
4E5
  8
1
  6
CONTINUOUS
 62
     7
 10
134.6386138613861
 20
7.89475293201734
 30
0.0
  0
SEQEND
  5
64C
  8
1
  6
CONTINUOUS
 62
     7
  0
LINE
  5
C7
  8
1
  6
CONTINUOUS
 62
     7
 10
155.9999999999999
 20
-49.09102626988933
 30
0.0
 11
155.9999999999999
 21
-47.59102626988933
 31
0.0
  0
LINE
  5
C8
  8
1
  6
CONTINUOUS
 62
     7
 10
163.9999999999999
 20
-47.59102626988933
 30
0.0
 11
163.9999999999999
 21
-49.09102626988935
 31
0.0
  0
LINE
  5
C9
  8
1
  6
CONTINUOUS
 62
     7
 10
187.4820654878747
 20
5.447649153407133
 30
0.0
 11
132.517934512125
 21
5.447649153407119
 31
0.0
  0
POLYLINE
  5
CA
  8
1
  6
CONTINUOUS
 62
     7
 66
     1
 10
0.0
 20
0.0
 30
0.0
  0
VERTEX
  5
4E6
  8
1
  6
CONTINUOUS
 62
     7
 10
111.9535392823946
 20
-6.69391108675442
 30
0.0
  0
VERTEX
  5
4E7
  8
1
  6
CONTINUOUS
 62
     7
 10
112.0822071769457
 20
-6.430291180512635
 30
0.0
  0
VERTEX
  5
4E8
  8
1
  6
CONTINUOUS
 62
     7
 10
112.1706307425449
 20
-6.156421751639766
 30
0.0
  0
VERTEX
  5
4E9
  8
1
  6
CONTINUOUS
 62
     7
 10
112.2154119111547
 20
-5.882827448699651
 30
0.0
  0
VERTEX
  5
4EA
  8
1
  6
CONTINUOUS
 62
     7
 10
112.2148297675792
 20
-5.620022347320825
 30
0.0
  0
VERTEX
  5
4EB
  8
1
  6
CONTINUOUS
 62
     7
 10
112.1689066832693
 20
-5.378105900166479
 30
0.0
  0
VERTEX
  5
4EC
  8
1
  6
CONTINUOUS
 62
     7
 10
112.0794074566011
 20
-5.166374820632446
 30
0.0
  0
VERTEX
  5
4ED
  8
1
  6
CONTINUOUS
 62
     7
 10
111.9497714926639
 20
-4.992965815365064
 30
0.0
  0
VERTEX
  5
4EE
  8
1
  6
CONTINUOUS
 62
     7
 10
111.7849806288509
 20
-4.864542895187865
 30
0.0
  0
SEQEND
  5
64D
  8
1
  6
CONTINUOUS
 62
     7
  0
POLYLINE
  5
CB
  8
1
  6
CONTINUOUS
 62
     7
 66
     1
 10
0.0
 20
0.0
 30
0.0
  0
VERTEX
  5
4EF
  8
1
  6
CONTINUOUS
 62
     7
 10
114.9999999999999
 20
-36.09102626988935
 30
0.0
  0
VERTEX
  5
4F0
  8
1
  6
CONTINUOUS
 62
     7
 10
113.2175205991213
 20
-36.17538678570705
 30
0.0
  0
VERTEX
  5
4F1
  8
1
  6
CONTINUOUS
 62
     7
 10
111.4983552536921
 20
-36.42547182931636
 30
0.0
  0
VERTEX
  5
4F2
  8
1
  6
CONTINUOUS
 62
     7
 10
109.9035690901614
 20
-36.83239832565322
 30
0.0
  0
VERTEX
  5
4F3
  8
1
  6
CONTINUOUS
 62
     7
 10
108.4898092594237
 20
-37.38171215718882
 30
0.0
  0
VERTEX
  5
4F4
  8
1
  6
CONTINUOUS
 62
     7
 10
107.3072928177162
 20
-38.05390157732352
 30
0.0
  0
VERTEX
  5
4F5
  8
1
  6
CONTINUOUS
 62
     7
 10
106.3980230058747
 20
-38.82509027186376
 30
0.0
  0
VERTEX
  5
4F6
  8
1
  6
CONTINUOUS
 62
     7
 10
105.7942972850971
 20
-39.66788545088774
 30
0.0
  0
VERTEX
  5
4F7
  8
1
  6
CONTINUOUS
 62
     7
 10
105.5175601241062
 20
-40.5523508465929
 30
0.0
  0
SEQEND
  5
64E
  8
1
  6
CONTINUOUS
 62
     7
  0
LINE
  5
CC
  8
1
  6
CONTINUOUS
 62
     7
 10
112.3973530645467
 20
-5.218096285781126
 30
0.0
 11
111.7849806288509
 21
-4.864542895187868
 31
0.0
  0
POLYLINE
  5
CD
  8
1
  6
CONTINUOUS
 62
     7
 66
     1
 10
0.0
 20
0.0
 30
0.0
  0
VERTEX
  5
4F8
  8
1
  6
CONTINUOUS
 62
     7
 10
159.9999999999999
 20
-51.09102626988935
 30
0.0
  0
VERTEX
  5
4F9
  8
1
  6
CONTINUOUS
 62
     7
 10
160.7803612880644
 20
-51.05259683069582
 30
0.0
  0
VERTEX
  5
4FA
  8
1
  6
CONTINUOUS
 62
     7
 10
161.5307337294603
 20
-50.93878533491193
 30
0.0
  0
VERTEX
  5
4FB
  8
1
  6
CONTINUOUS
 62
     7
 10
162.2222809320783
 20
-50.75396549449444
 30
0.0
  0
VERTEX
  5
4FC
  8
1
  6
CONTINUOUS
 62
     7
 10
162.8284271247461
 20
-50.50523983226245
 30
0.0
  0
VERTEX
  5
4FD
  8
1
  6
CONTINUOUS
 62
     7
 10
163.3258784492101
 20
-50.20216673592856
 30
0.0
  0
VERTEX
  5
4FE
  8
1
  6
CONTINUOUS
 62
     7
 10
163.695518130045
 20
-49.85639313461954
 30
0.0
  0
VERTEX
  5
4FF
  8
1
  6
CONTINUOUS
 62
     7
 10
163.9231411216128
 20
-49.48120691392161
 30
0.0
  0
VERTEX
  5
500
  8
1
  6
CONTINUOUS
 62
     7
 10
163.9999999999999
 20
-49.09102626988935
 30
0.0
  0
SEQEND
  5
64F
  8
1
  6
CONTINUOUS
 62
     7
  0
LINE
  5
CE
  8
1
  6
CONTINUOUS
 62
     7
 10
207.602646935453
 20
-5.218096285781126
 30
0.0
 11
208.2150193711488
 21
-4.86454289518784
 31
0.0
  0
POLYLINE
  5
CF
  8
1
  6
CONTINUOUS
 62
     7
 66
     1
 10
0.0
 20
0.0
 30
0.0
  0
VERTEX
  5
501
  8
1
  6
CONTINUOUS
 62
     7
 10
208.2150193711488
 20
-4.864542895187841
 30
0.0
  0
VERTEX
  5
502
  8
1
  6
CONTINUOUS
 62
     7
 10
208.0502285073358
 20
-4.992965815365041
 30
0.0
  0
VERTEX
  5
503
  8
1
  6
CONTINUOUS
 62
     7
 10
207.9205925433986
 20
-5.166374820632426
 30
0.0
  0
VERTEX
  5
504
  8
1
  6
CONTINUOUS
 62
     7
 10
207.8310933167305
 20
-5.378105900166462
 30
0.0
  0
VERTEX
  5
505
  8
1
  6
CONTINUOUS
 62
     7
 10
207.7851702324205
 20
-5.620022347320811
 30
0.0
  0
VERTEX
  5
506
  8
1
  6
CONTINUOUS
 62
     7
 10
207.784588088845
 20
-5.88282744869964
 30
0.0
  0
VERTEX
  5
507
  8
1
  6
CONTINUOUS
 62
     7
 10
207.8293692574548
 20
-6.156421751639759
 30
0.0
  0
VERTEX
  5
508
  8
1
  6
CONTINUOUS
 62
     7
 10
207.917792823054
 20
-6.430291180512632
 30
0.0
  0
VERTEX
  5
509
  8
1
  6
CONTINUOUS
 62
     7
 10
208.0464607176051
 20
-6.693911086754419
 30
0.0
  0
SEQEND
  5
650
  8
1
  6
CONTINUOUS
 62
     7
  0
LINE
  5
D0
  8
1
  6
CONTINUOUS
 62
     7
 10
155.9999999999999
 20
-36.59102626988935
 30
0.0
 11
155.9999999999999
 21
-36.09102626988935
 31
0.0
  0
LINE
  5
D1
  8
1
  6
CONTINUOUS
 62
     7
 10
105.5395561150724
 20
-39.97499999999994
 30
0.0
 11
105.5175601241062
 21
-40.55235084659289
 31
0.0
  0
POLYLINE
  5
D2
  8
1
  6
CONTINUOUS
 62
     7
 66
     1
 10
0.0
 20
0.0
 30
0.0
  0
VERTEX
  5
50A
  8
1
  6
CONTINUOUS
 62
     7
 10
114.9999999999999
 20
-35.22500086610493
 30
0.0
  0
VERTEX
  5
50B
  8
1
  6
CONTINUOUS
 62
     7
 10
113.2175205991213
 20
-35.30936138192263
 30
0.0
  0
VERTEX
  5
50C
  8
1
  6
CONTINUOUS
 62
     7
 10
111.4983552536921
 20
-35.55944642553195
 30
0.0
  0
VERTEX
  5
50D
  8
1
  6
CONTINUOUS
 62
     7
 10
109.9035690901614
 20
-35.96637292186879
 30
0.0
  0
VERTEX
  5
50E
  8
1
  6
CONTINUOUS
 62
     7
 10
108.4898092594237
 20
-36.51568675340439
 30
0.0
  0
VERTEX
  5
50F
  8
1
  6
CONTINUOUS
 62
     7
 10
107.3072928177162
 20
-37.1878761735391
 30
0.0
  0
VERTEX
  5
510
  8
1
  6
CONTINUOUS
 62
     7
 10
106.3980230058747
 20
-37.95906486807932
 30
0.0
  0
VERTEX
  5
511
  8
1
  6
CONTINUOUS
 62
     7
 10
105.7942972850971
 20
-38.80186004710331
 30
0.0
  0
VERTEX
  5
512
  8
1
  6
CONTINUOUS
 62
     7
 10
105.5175601241062
 20
-39.68632544280847
 30
0.0
  0
SEQEND
  5
651
  8
1
  6
CONTINUOUS
 62
     7
  0
LINE
  5
D3
  8
1
  6
CONTINUOUS
 62
     7
 10
190.4999999999999
 20
-0.7250008661048996
 30
0.0
 11
129.4999999999999
 21
-0.7250008661049134
 31
0.0
  0
LINE
  5
D4
  8
1
  6
CONTINUOUS
 62
     7
 10
111.0175601241062
 20
-17.55235084659289
 30
0.0
 11
208.9824398758935
 21
-17.55235084659289
 31
0.0
  0
POLYLINE
  5
D5
  8
1
  6
CONTINUOUS
 62
     7
 66
     1
 10
0.0
 20
0.0
 30
0.0
  0
VERTEX
  5
513
  8
1
  6
CONTINUOUS
 62
     7
 10
187.4820654878747
 20
5.447649153407123
 30
0.0
  0
VERTEX
  5
514
  8
1
  6
CONTINUOUS
 62
     7
 10
187.3293663686875
 20
5.836387580448029
 30
0.0
  0
VERTEX
  5
515
  8
1
  6
CONTINUOUS
 62
     7
 10
187.0264155310429
 20
6.202450440351871
 30
0.0
  0
VERTEX
  5
516
  8
1
  6
CONTINUOUS
 62
     7
 10
186.58509976758
 20
6.53147463268153
 30
0.0
  0
VERTEX
  5
517
  8
1
  6
CONTINUOUS
 62
     7
 10
186.0227348547118
 20
6.810550332272241
 30
0.0
  0
VERTEX
  5
518
  8
1
  6
CONTINUOUS
 62
     7
 10
185.3613861386137
 20
7.028727528232885
 30
0.0
  0
SEQEND
  5
652
  8
1
  6
CONTINUOUS
 62
     7
  0
POLYLINE
  5
D6
  8
1
  6
CONTINUOUS
 62
     7
 66
     1
 10
0.0
 20
0.0
 30
0.0
  0
VERTEX
  5
519
  8
1
  6
CONTINUOUS
 62
     7
 10
120.4999999999999
 20
-13.09102626988935
 30
0.0
  0
VERTEX
  5
51A
  8
1
  6
CONTINUOUS
 62
     7
 10
118.7175205991212
 20
-13.17538678570706
 30
0.0
  0
VERTEX
  5
51B
  8
1
  6
CONTINUOUS
 62
     7
 10
116.9983552536921
 20
-13.42547182931638
 30
0.0
  0
VERTEX
  5
51C
  8
1
  6
CONTINUOUS
 62
     7
 10
115.4035690901614
 20
-13.83239832565322
 30
0.0
  0
VERTEX
  5
51D
  8
1
  6
CONTINUOUS
 62
     7
 10
113.9898092594237
 20
-14.38171215718882
 30
0.0
  0
VERTEX
  5
51E
  8
1
  6
CONTINUOUS
 62
     7
 10
112.8072928177162
 20
-15.05390157732353
 30
0.0
  0
VERTEX
  5
51F
  8
1
  6
CONTINUOUS
 62
     7
 10
111.8980230058747
 20
-15.82509027186376
 30
0.0
  0
VERTEX
  5
520
  8
1
  6
CONTINUOUS
 62
     7
 10
111.2942972850971
 20
-16.66788545088774
 30
0.0
  0
VERTEX
  5
521
  8
1
  6
CONTINUOUS
 62
     7
 10
111.0175601241062
 20
-17.5523508465929
 30
0.0
  0
SEQEND
  5
653
  8
1
  6
CONTINUOUS
 62
     7
  0
LINE
  5
D7
  8
1
  6
CONTINUOUS
 62
     7
 10
132.5560087491556
 20
6.025000000000073
 30
0.0
 11
132.517934512125
 21
5.44764915340713
 31
0.0
  0
POLYLINE
  5
D8
  8
1
  6
CONTINUOUS
 62
     7
 66
     1
 10
0.0
 20
0.0
 30
0.0
  0
VERTEX
  5
522
  8
1
  6
CONTINUOUS
 62
     7
 10
213.4824398758935
 20
-28.18632544280846
 30
0.0
  0
VERTEX
  5
523
  8
1
  6
CONTINUOUS
 62
     7
 10
213.2057027149027
 20
-27.30186004710331
 30
0.0
  0
VERTEX
  5
524
  8
1
  6
CONTINUOUS
 62
     7
 10
212.601976994125
 20
-26.45906486807933
 30
0.0
  0
VERTEX
  5
525
  8
1
  6
CONTINUOUS
 62
     7
 10
211.6927071822836
 20
-25.6878761735391
 30
0.0
  0
VERTEX
  5
526
  8
1
  6
CONTINUOUS
 62
     7
 10
210.510190740576
 20
-25.0156867534044
 30
0.0
  0
VERTEX
  5
527
  8
1
  6
CONTINUOUS
 62
     7
 10
209.0964309098383
 20
-24.4663729218688
 30
0.0
  0
VERTEX
  5
528
  8
1
  6
CONTINUOUS
 62
     7
 10
207.5016447463077
 20
-24.05944642553195
 30
0.0
  0
VERTEX
  5
529
  8
1
  6
CONTINUOUS
 62
     7
 10
205.7824794008785
 20
-23.80936138192263
 30
0.0
  0
VERTEX
  5
52A
  8
1
  6
CONTINUOUS
 62
     7
 10
203.9999999999999
 20
-23.72500086610493
 30
0.0
  0
SEQEND
  5
654
  8
1
  6
CONTINUOUS
 62
     7
  0
POLYLINE
  5
D9
  8
1
  6
CONTINUOUS
 62
     7
 66
     1
 10
0.0
 20
0.0
 30
0.0
  0
VERTEX
  5
52B
  8
1
  6
CONTINUOUS
 62
     7
 10
129.4999999999999
 20
-0.7250008661049145
 30
0.0
  0
VERTEX
  5
52C
  8
1
  6
CONTINUOUS
 62
     7
 10
127.7175205991212
 20
-0.8093613819226197
 30
0.0
  0
VERTEX
  5
52D
  8
1
  6
CONTINUOUS
 62
     7
 10
125.9983552536921
 20
-1.059446425531933
 30
0.0
  0
VERTEX
  5
52E
  8
1
  6
CONTINUOUS
 62
     7
 10
124.4035690901614
 20
-1.466372921868781
 30
0.0
  0
VERTEX
  5
52F
  8
1
  6
CONTINUOUS
 62
     7
 10
122.9898092594237
 20
-2.015686753404377
 30
0.0
  0
VERTEX
  5
530
  8
1
  6
CONTINUOUS
 62
     7
 10
121.8072928177162
 20
-2.687876173539082
 30
0.0
  0
VERTEX
  5
531
  8
1
  6
CONTINUOUS
 62
     7
 10
120.8980230058747
 20
-3.459064868079311
 30
0.0
  0
VERTEX
  5
532
  8
1
  6
CONTINUOUS
 62
     7
 10
120.2942972850971
 20
-4.301860047103295
 30
0.0
  0
VERTEX
  5
533
  8
1
  6
CONTINUOUS
 62
     7
 10
120.0175601241062
 20
-5.186325442808445
 30
0.0
  0
SEQEND
  5
655
  8
1
  6
CONTINUOUS
 62
     7
  0
LINE
  5
DA
  8
1
  6
CONTINUOUS
 62
     7
 10
156.1270166537925
 20
-23.72500086610492
 30
0.0
 11
115.9999999999999
 21
-23.72500086610493
 31
0.0
  0
POLYLINE
  5
DB
  8
1
  6
CONTINUOUS
 62
     7
 66
     1
 10
0.0
 20
0.0
 30
0.0
  0
VERTEX
  5
534
  8
1
  6
CONTINUOUS
 62
     7
 10
120.4999999999999
 20
-12.22500086610492
 30
0.0
  0
VERTEX
  5
535
  8
1
  6
CONTINUOUS
 62
     7
 10
118.7175205991212
 20
-12.30936138192262
 30
0.0
  0
VERTEX
  5
536
  8
1
  6
CONTINUOUS
 62
     7
 10
116.9983552536921
 20
-12.55944642553194
 30
0.0
  0
VERTEX
  5
537
  8
1
  6
CONTINUOUS
 62
     7
 10
115.4035690901614
 20
-12.96637292186879
 30
0.0
  0
VERTEX
  5
538
  8
1
  6
CONTINUOUS
 62
     7
 10
113.9898092594237
 20
-13.51568675340439
 30
0.0
  0
VERTEX
  5
539
  8
1
  6
CONTINUOUS
 62
     7
 10
112.8072928177162
 20
-14.18787617353909
 30
0.0
  0
VERTEX
  5
53A
  8
1
  6
CONTINUOUS
 62
     7
 10
111.8980230058747
 20
-14.95906486807932
 30
0.0
  0
VERTEX
  5
53B
  8
1
  6
CONTINUOUS
 62
     7
 10
111.2942972850971
 20
-15.80186004710331
 30
0.0
  0
VERTEX
  5
53C
  8
1
  6
CONTINUOUS
 62
     7
 10
111.0175601241062
 20
-16.68632544280846
 30
0.0
  0
SEQEND
  5
656
  8
1
  6
CONTINUOUS
 62
     7
  0
LINE
  5
DC
  8
1
  6
CONTINUOUS
 62
     7
 10
106.5395561150724
 20
-28.47499999999996
 30
0.0
 11
106.5175601241062
 21
-29.05235084659288
 31
0.0
  0
LINE
  5
DD
  8
1
  6
CONTINUOUS
 62
     7
 10
204.9999999999999
 20
-46.7250008661049
 30
0.0
 11
163.9999999999999
 21
-46.72500086610489
 31
0.0
  0
LINE
  5
DE
  8
1
  6
CONTINUOUS
 62
     7
 10
204.9999999999999
 20
-35.2250008661049
 30
0.0
 11
163.9999999999999
 21
-35.22500086610491
 31
0.0
  0
LINE
  5
DF
  8
1
  6
CONTINUOUS
 62
     7
 10
214.4824398758936
 20
-52.05235084659287
 30
0.0
 11
214.4604438849273
 21
-51.47499999999996
 31
0.0
  0
LINE
  5
E0
  8
1
  6
CONTINUOUS
 62
     7
 10
156.1270166537925
 20
-24.59102626988935
 30
0.0
 11
156.1270166537925
 21
-23.72500086610492
 31
0.0
  0
POLYLINE
  5
E1
  8
1
  6
CONTINUOUS
 62
     7
 66
     1
 10
0.0
 20
0.0
 30
0.0
  0
VERTEX
  5
53D
  8
1
  6
CONTINUOUS
 62
     7
 10
214.4824398758936
 20
-39.68632544280842
 30
0.0
  0
VERTEX
  5
53E
  8
1
  6
CONTINUOUS
 62
     7
 10
214.2057027149027
 20
-38.80186004710327
 30
0.0
  0
VERTEX
  5
53F
  8
1
  6
CONTINUOUS
 62
     7
 10
213.601976994125
 20
-37.95906486807929
 30
0.0
  0
VERTEX
  5
540
  8
1
  6
CONTINUOUS
 62
     7
 10
212.6927071822836
 20
-37.18787617353906
 30
0.0
  0
VERTEX
  5
541
  8
1
  6
CONTINUOUS
 62
     7
 10
211.510190740576
 20
-36.51568675340435
 30
0.0
  0
VERTEX
  5
542
  8
1
  6
CONTINUOUS
 62
     7
 10
210.0964309098383
 20
-35.96637292186875
 30
0.0
  0
VERTEX
  5
543
  8
1
  6
CONTINUOUS
 62
     7
 10
208.5016447463076
 20
-35.55944642553191
 30
0.0
  0
VERTEX
  5
544
  8
1
  6
CONTINUOUS
 62
     7
 10
206.7824794008785
 20
-35.3093613819226
 30
0.0
  0
VERTEX
  5
545
  8
1
  6
CONTINUOUS
 62
     7
 10
204.9999999999999
 20
-35.22500086610489
 30
0.0
  0
SEQEND
  5
657
  8
1
  6
CONTINUOUS
 62
     7
  0
LINE
  5
E2
  8
1
  6
CONTINUOUS
 62
     7
 10
111.0395561150724
 20
-16.97499999999996
 30
0.0
 11
111.0175601241062
 21
-17.55235084659288
 31
0.0
  0
ARC
  5
E3
  8
1
  6
CONTINUOUS
 62
     7
 10
210.2294734194973
 20
-9.474999999999955
 30
0.0
 40
2.500000000000002
 50
336.8698976458444
 51
0.0
  0
ARC
  5
E4
  8
1
  6
CONTINUOUS
 62
     7
 10
210.2294734194973
 20
-9.474999999999955
 30
0.0
 40
3.499999999999992
 50
74.39714180291003
 51
94.62306647484763
  0
ARC
  5
E5
  8
1
  6
CONTINUOUS
 62
     7
 10
109.7705265805024
 20
-9.47499999999997
 30
0.0
 40
3.500000000000008
 50
85.37693352515238
 51
105.6028581970897
  0
POLYLINE
  5
E6
  8
1
  6
CONTINUOUS
 62
     7
 66
     1
 10
0.0
 20
0.0
 30
0.0
  0
VERTEX
  5
546
  8
1
  6
CONTINUOUS
 62
     7
 10
208.9824398758935
 20
-16.68632544280843
 30
0.0
  0
VERTEX
  5
547
  8
1
  6
CONTINUOUS
 62
     7
 10
208.7057027149027
 20
-15.80186004710328
 30
0.0
  0
VERTEX
  5
548
  8
1
  6
CONTINUOUS
 62
     7
 10
208.101976994125
 20
-14.95906486807929
 30
0.0
  0
VERTEX
  5
549
  8
1
  6
CONTINUOUS
 62
     7
 10
207.1927071822836
 20
-14.18787617353907
 30
0.0
  0
VERTEX
  5
54A
  8
1
  6
CONTINUOUS
 62
     7
 10
206.010190740576
 20
-13.51568675340436
 30
0.0
  0
VERTEX
  5
54B
  8
1
  6
CONTINUOUS
 62
     7
 10
204.5964309098383
 20
-12.96637292186876
 30
0.0
  0
VERTEX
  5
54C
  8
1
  6
CONTINUOUS
 62
     7
 10
203.0016447463076
 20
-12.55944642553192
 30
0.0
  0
VERTEX
  5
54D
  8
1
  6
CONTINUOUS
 62
     7
 10
201.2824794008785
 20
-12.3093613819226
 30
0.0
  0
VERTEX
  5
54E
  8
1
  6
CONTINUOUS
 62
     7
 10
199.4999999999999
 20
-12.2250008661049
 30
0.0
  0
SEQEND
  5
658
  8
1
  6
CONTINUOUS
 62
     7
  0
LINE
  5
E7
  8
1
  6
CONTINUOUS
 62
     7
 10
199.9824398758936
 20
-6.052350846592876
 30
0.0
 11
199.9604438849273
 21
-5.474999999999958
 31
0.0
  0
LINE
  5
E8
  8
1
  6
CONTINUOUS
 62
     7
 10
163.8729833462073
 20
-23.72500086610492
 30
0.0
 11
163.8729833462073
 21
-24.59102626988935
 31
0.0
  0
ARC
  5
E9
  8
1
  6
CONTINUOUS
 62
     7
 10
109.7705265805024
 20
-9.47499999999997
 30
0.0
 40
3.499999999999993
 50
196.4341146971437
 51
214.6230664748474
  0
LINE
  5
EA
  8
1
  6
CONTINUOUS
 62
     7
 10
132.517934512125
 20
6.313674557191562
 30
0.0
 11
132.4999999999999
 21
6.060115029602437
 31
0.0
  0
POLYLINE
  5
EB
  8
1
  6
CONTINUOUS
 62
     7
 66
     1
 10
0.0
 20
0.0
 30
0.0
  0
VERTEX
  5
54F
  8
1
  6
CONTINUOUS
 62
     7
 10
134.638613861386
 20
7.894752932017299
 30
0.0
  0
VERTEX
  5
550
  8
1
  6
CONTINUOUS
 62
     7
 10
133.977265145288
 20
7.676575736056657
 30
0.0
  0
VERTEX
  5
551
  8
1
  6
CONTINUOUS
 62
     7
 10
133.4149002324197
 20
7.39750003646595
 30
0.0
  0
VERTEX
  5
552
  8
1
  6
CONTINUOUS
 62
     7
 10
132.9735844689569
 20
7.068475844136295
 30
0.0
  0
VERTEX
  5
553
  8
1
  6
CONTINUOUS
 62
     7
 10
132.6706336313123
 20
6.702412984232458
 30
0.0
  0
VERTEX
  5
554
  8
1
  6
CONTINUOUS
 62
     7
 10
132.517934512125
 20
6.31367455719156
 30
0.0
  0
SEQEND
  5
659
  8
1
  6
CONTINUOUS
 62
     7
  0
POLYLINE
  5
EC
  8
1
  6
CONTINUOUS
 62
     7
 66
     1
 10
0.0
 20
0.0
 30
0.0
  0
VERTEX
  5
555
  8
1
  6
CONTINUOUS
 62
     7
 10
115.9999999999999
 20
-24.59102626988935
 30
0.0
  0
VERTEX
  5
556
  8
1
  6
CONTINUOUS
 62
     7
 10
114.2175205991212
 20
-24.67538678570706
 30
0.0
  0
VERTEX
  5
557
  8
1
  6
CONTINUOUS
 62
     7
 10
112.4983552536921
 20
-24.92547182931637
 30
0.0
  0
VERTEX
  5
558
  8
1
  6
CONTINUOUS
 62
     7
 10
110.9035690901614
 20
-25.33239832565322
 30
0.0
  0
VERTEX
  5
559
  8
1
  6
CONTINUOUS
 62
     7
 10
109.4898092594237
 20
-25.88171215718882
 30
0.0
  0
VERTEX
  5
55A
  8
1
  6
CONTINUOUS
 62
     7
 10
108.3072928177162
 20
-26.55390157732353
 30
0.0
  0
VERTEX
  5
55B
  8
1
  6
CONTINUOUS
 62
     7
 10
107.3980230058747
 20
-27.32509027186375
 30
0.0
  0
VERTEX
  5
55C
  8
1
  6
CONTINUOUS
 62
     7
 10
106.7942972850971
 20
-28.16788545088774
 30
0.0
  0
VERTEX
  5
55D
  8
1
  6
CONTINUOUS
 62
     7
 10
106.5175601241062
 20
-29.0523508465929
 30
0.0
  0
SEQEND
  5
65A
  8
1
  6
CONTINUOUS
 62
     7
  0
POLYLINE
  5
ED
  8
1
  6
CONTINUOUS
 62
     7
 66
     1
 10
0.0
 20
0.0
 30
0.0
  0
VERTEX
  5
55E
  8
1
  6
CONTINUOUS
 62
     7
 10
114.9999999999999
 20
-46.72500086610492
 30
0.0
  0
VERTEX
  5
55F
  8
1
  6
CONTINUOUS
 62
     7
 10
113.2175205991213
 20
-46.80936138192263
 30
0.0
  0
VERTEX
  5
560
  8
1
  6
CONTINUOUS
 62
     7
 10
111.4983552536921
 20
-47.05944642553194
 30
0.0
  0
VERTEX
  5
561
  8
1
  6
CONTINUOUS
 62
     7
 10
109.9035690901614
 20
-47.46637292186879
 30
0.0
  0
VERTEX
  5
562
  8
1
  6
CONTINUOUS
 62
     7
 10
108.4898092594237
 20
-48.01568675340439
 30
0.0
  0
VERTEX
  5
563
  8
1
  6
CONTINUOUS
 62
     7
 10
107.3072928177162
 20
-48.6878761735391
 30
0.0
  0
VERTEX
  5
564
  8
1
  6
CONTINUOUS
 62
     7
 10
106.3980230058747
 20
-49.45906486807932
 30
0.0
  0
VERTEX
  5
565
  8
1
  6
CONTINUOUS
 62
     7
 10
105.7942972850971
 20
-50.3018600471033
 30
0.0
  0
VERTEX
  5
566
  8
1
  6
CONTINUOUS
 62
     7
 10
105.5175601241062
 20
-51.18632544280846
 30
0.0
  0
SEQEND
  5
65B
  8
1
  6
CONTINUOUS
 62
     7
  0
LINE
  5
EE
  8
1
  6
CONTINUOUS
 62
     7
 10
187.4999999999999
 20
6.025000000000058
 30
0.0
 11
187.4439912508441
 21
6.025000000000058
 31
0.0
  0
LINE
  5
EF
  8
1
  6
CONTINUOUS
 62
     7
 10
208.9824398758935
 20
-17.55235084659289
 30
0.0
 11
208.9604438849273
 21
-16.97499999999995
 31
0.0
  0
POLYLINE
  5
F0
  8
1
  6
CONTINUOUS
 62
     7
 66
     1
 10
0.0
 20
0.0
 30
0.0
  0
VERTEX
  5
567
  8
1
  6
CONTINUOUS
 62
     7
 10
199.9824398758936
 20
-5.186325442808442
 30
0.0
  0
VERTEX
  5
568
  8
1
  6
CONTINUOUS
 62
     7
 10
199.7057027149027
 20
-4.301860047103283
 30
0.0
  0
VERTEX
  5
569
  8
1
  6
CONTINUOUS
 62
     7
 10
199.101976994125
 20
-3.459064868079293
 30
0.0
  0
VERTEX
  5
56A
  8
1
  6
CONTINUOUS
 62
     7
 10
198.1927071822836
 20
-2.687876173539061
 30
0.0
  0
VERTEX
  5
56B
  8
1
  6
CONTINUOUS
 62
     7
 10
197.0101907405761
 20
-2.015686753404352
 30
0.0
  0
VERTEX
  5
56C
  8
1
  6
CONTINUOUS
 62
     7
 10
195.5964309098383
 20
-1.466372921868753
 30
0.0
  0
VERTEX
  5
56D
  8
1
  6
CONTINUOUS
 62
     7
 10
194.0016447463077
 20
-1.059446425531902
 30
0.0
  0
VERTEX
  5
56E
  8
1
  6
CONTINUOUS
 62
     7
 10
192.2824794008785
 20
-0.8093613819225887
 30
0.0
  0
VERTEX
  5
56F
  8
1
  6
CONTINUOUS
 62
     7
 10
190.4999999999999
 20
-0.7250008661048835
 30
0.0
  0
SEQEND
  5
65C
  8
1
  6
CONTINUOUS
 62
     7
  0
LINE
  5
F1
  8
1
  6
CONTINUOUS
 62
     7
 10
163.9999999999999
 20
-35.22500086610491
 30
0.0
 11
163.9999999999999
 21
-36.09102626988935
 31
0.0
  0
LINE
  5
F2
  8
1
  6
CONTINUOUS
 62
     7
 10
111.0175601241062
 20
-16.68632544280846
 30
0.0
 11
111.0013293307048
 21
-16.97499999999996
 31
0.0
  0
LINE
  5
F3
  8
1
  6
CONTINUOUS
 62
     7
 10
187.4820654878747
 20
5.44764915340713
 30
0.0
 11
187.4439912508441
 21
6.025000000000064
 31
0.0
  0
LINE
  5
F4
  8
1
  6
CONTINUOUS
 62
     7
 10
187.4999999999999
 20
6.060115029602437
 30
0.0
 11
187.4820654878747
 21
6.313674557191575
 31
0.0
  0
LINE
  5
F5
  8
1
  6
CONTINUOUS
 62
     7
 10
187.4999999999999
 20
6.223993277254078
 30
0.0
 11
187.4999999999999
 21
6.025000000000058
 31
0.0
  0
LINE
  5
F6
  8
1
  6
CONTINUOUS
 62
     7
 10
120.0175601241062
 20
-5.186325442808448
 30
0.0
 11
120.0013293307048
 21
-5.474999999999966
 31
0.0
  0
POLYLINE
  5
F7
  8
1
  6
CONTINUOUS
 62
     7
 66
     1
 10
0.0
 20
0.0
 30
0.0
  0
VERTEX
  5
570
  8
1
  6
CONTINUOUS
 62
     7
 10
155.9999999999999
 20
-48.22500086610492
 30
0.0
  0
VERTEX
  5
571
  8
1
  6
CONTINUOUS
 62
     7
 10
156.076858878387
 20
-48.61518151013717
 30
0.0
  0
VERTEX
  5
572
  8
1
  6
CONTINUOUS
 62
     7
 10
156.3044818699547
 20
-48.99036773083509
 30
0.0
  0
VERTEX
  5
573
  8
1
  6
CONTINUOUS
 62
     7
 10
156.6741215507897
 20
-49.33614133214411
 30
0.0
  0
VERTEX
  5
574
  8
1
  6
CONTINUOUS
 62
     7
 10
157.1715728752537
 20
-49.63921442847799
 30
0.0
  0
VERTEX
  5
575
  8
1
  6
CONTINUOUS
 62
     7
 10
157.7777190679215
 20
-49.88794009070999
 30
0.0
  0
VERTEX
  5
576
  8
1
  6
CONTINUOUS
 62
     7
 10
158.4692662705395
 20
-50.07275993112746
 30
0.0
  0
VERTEX
  5
577
  8
1
  6
CONTINUOUS
 62
     7
 10
159.2196387119354
 20
-50.18657142691135
 30
0.0
  0
VERTEX
  5
578
  8
1
  6
CONTINUOUS
 62
     7
 10
159.9999999999999
 20
-50.22500086610489
 30
0.0
  0
SEQEND
  5
65D
  8
1
  6
CONTINUOUS
 62
     7
  0
ARC
  5
F8
  8
1
  6
CONTINUOUS
 62
     7
 10
183.4999999999999
 20
6.223993277254078
 30
0.0
 40
3.999999999999995
 50
0.0
 51
62.26734851948044
  0
LINE
  5
F9
  8
1
  6
CONTINUOUS
 62
     7
 10
106.5175601241062
 20
-28.18632544280847
 30
0.0
 11
106.5013293307048
 21
-28.47499999999997
 31
0.0
  0
POLYLINE
  5
FA
  8
1
  6
CONTINUOUS
 62
     7
 66
     1
 10
0.0
 20
0.0
 30
0.0
  0
VERTEX
  5
579
  8
1
  6
CONTINUOUS
 62
     7
 10
159.9999999999999
 20
-50.22500086610492
 30
0.0
  0
VERTEX
  5
57A
  8
1
  6
CONTINUOUS
 62
     7
 10
160.7803612880644
 20
-50.18657142691139
 30
0.0
  0
VERTEX
  5
57B
  8
1
  6
CONTINUOUS
 62
     7
 10
161.5307337294602
 20
-50.0727599311275
 30
0.0
  0
VERTEX
  5
57C
  8
1
  6
CONTINUOUS
 62
     7
 10
162.2222809320783
 20
-49.88794009071002
 30
0.0
  0
VERTEX
  5
57D
  8
1
  6
CONTINUOUS
 62
     7
 10
162.8284271247461
 20
-49.63921442847803
 30
0.0
  0
VERTEX
  5
57E
  8
1
  6
CONTINUOUS
 62
     7
 10
163.3258784492101
 20
-49.33614133214414
 30
0.0
  0
VERTEX
  5
57F
  8
1
  6
CONTINUOUS
 62
     7
 10
163.695518130045
 20
-48.99036773083511
 30
0.0
  0
VERTEX
  5
580
  8
1
  6
CONTINUOUS
 62
     7
 10
163.9231411216128
 20
-48.61518151013719
 30
0.0
  0
VERTEX
  5
581
  8
1
  6
CONTINUOUS
 62
     7
 10
163.9999999999999
 20
-48.22500086610493
 30
0.0
  0
SEQEND
  5
65E
  8
1
  6
CONTINUOUS
 62
     7
  0
POLYLINE
  5
FB
  8
1
  6
CONTINUOUS
 62
     7
 66
     1
 10
0.0
 20
0.0
 30
0.0
  0
VERTEX
  5
582
  8
1
  6
CONTINUOUS
 62
     7
 10
156.1270166537925
 20
-23.72500086610492
 30
0.0
  0
VERTEX
  5
583
  8
1
  6
CONTINUOUS
 62
     7
 10
156.4077777983337
 20
-24.10476498986997
 30
0.0
  0
VERTEX
  5
584
  8
1
  6
CONTINUOUS
 62
     7
 10
156.835754939419
 20
-24.44847473143567
 30
0.0
  0
VERTEX
  5
585
  8
1
  6
CONTINUOUS
 62
     7
 10
157.3934087719092
 20
-24.7420442215863
 30
0.0
  0
VERTEX
  5
586
  8
1
  6
CONTINUOUS
 62
     7
 10
158.0578855968771
 20
-24.97344243255652
 30
0.0
  0
VERTEX
  5
587
  8
1
  6
CONTINUOUS
 62
     7
 10
158.8019539090101
 20
-25.13318623209168
 30
0.0
  0
VERTEX
  5
588
  8
1
  6
CONTINUOUS
 62
     7
 10
159.5951203947219
 20
-25.21472901997607
 30
0.0
  0
VERTEX
  5
589
  8
1
  6
CONTINUOUS
 62
     7
 10
160.4048796052779
 20
-25.21472901997607
 30
0.0
  0
VERTEX
  5
58A
  8
1
  6
CONTINUOUS
 62
     7
 10
161.1980460909897
 20
-25.13318623209168
 30
0.0
  0
VERTEX
  5
58B
  8
1
  6
CONTINUOUS
 62
     7
 10
161.9421144031227
 20
-24.97344243255652
 30
0.0
  0
VERTEX
  5
58C
  8
1
  6
CONTINUOUS
 62
     7
 10
162.6065912280906
 20
-24.74204422158629
 30
0.0
  0
VERTEX
  5
58D
  8
1
  6
CONTINUOUS
 62
     7
 10
163.1642450605808
 20
-24.44847473143567
 30
0.0
  0
VERTEX
  5
58E
  8
1
  6
CONTINUOUS
 62
     7
 10
163.5922222016661
 20
-24.10476498986996
 30
0.0
  0
VERTEX
  5
58F
  8
1
  6
CONTINUOUS
 62
     7
 10
163.8729833462073
 20
-23.72500086610491
 30
0.0
  0
SEQEND
  5
65F
  8
1
  6
CONTINUOUS
 62
     7
  0
LINE
  5
FC
  8
1
  6
CONTINUOUS
 62
     7
 10
213.498670669295
 20
-28.47499999999996
 30
0.0
 11
213.4824398758935
 21
-28.18632544280845
 31
0.0
  0
ARC
  5
FD
  8
1
  6
CONTINUOUS
 62
     7
 10
210.2294734194973
 20
-9.474999999999955
 30
0.0
 40
3.500000000000007
 50
325.3769335251526
 51
343.5658853028565
  0
LINE
  5
FE
  8
1
  6
CONTINUOUS
 62
     7
 10
155.9999999999999
 20
-46.72500086610489
 30
0.0
 11
114.9999999999999
 21
-46.72500086610492
 31
0.0
  0
LINE
  5
FF
  8
1
  6
CONTINUOUS
 62
     7
 10
105.5395561150724
 20
-51.47499999999995
 30
0.0
 11
105.5175601241062
 21
-52.05235084659287
 31
0.0
  0
LINE
  5
100
  8
1
  6
CONTINUOUS
 62
     7
 10
120.0395561150724
 20
-5.474999999999952
 30
0.0
 11
120.0175601241062
 21
-6.05235084659287
 31
0.0
  0
LINE
  5
101
  8
1
  6
CONTINUOUS
 62
     7
 10
155.9999999999999
 20
-35.22500086610491
 30
0.0
 11
114.9999999999999
 21
-35.22500086610491
 31
0.0
  0
LINE
  5
102
  8
1
  6
CONTINUOUS
 62
     7
 10
214.4986706692949
 20
-51.47499999999997
 30
0.0
 11
214.4824398758935
 21
-51.18632544280845
 31
0.0
  0
LINE
  5
103
  8
1
  6
CONTINUOUS
 62
     7
 10
155.9999999999999
 20
-46.72500086610489
 30
0.0
 11
155.9999999999999
 21
-47.59102626988933
 31
0.0
  0
LINE
  5
104
  8
1
  6
CONTINUOUS
 62
     7
 10
105.5175601241062
 20
-51.18632544280847
 30
0.0
 11
105.5013293307048
 21
-51.47499999999997
 31
0.0
  0
LINE
  5
105
  8
1
  6
CONTINUOUS
 62
     7
 10
214.4824398758936
 20
-40.55235084659287
 30
0.0
 11
214.4604438849273
 21
-39.97499999999997
 31
0.0
  0
POLYLINE
  5
106
  8
1
  6
CONTINUOUS
 62
     7
 66
     1
 10
0.0
 20
0.0
 30
0.0
  0
VERTEX
  5
590
  8
1
  6
CONTINUOUS
 62
     7
 10
155.9999999999999
 20
-35.72500086610491
 30
0.0
  0
VERTEX
  5
591
  8
1
  6
CONTINUOUS
 62
     7
 10
156.076858878387
 20
-36.11518151013717
 30
0.0
  0
VERTEX
  5
592
  8
1
  6
CONTINUOUS
 62
     7
 10
156.3044818699547
 20
-36.4903677308351
 30
0.0
  0
VERTEX
  5
593
  8
1
  6
CONTINUOUS
 62
     7
 10
156.6741215507897
 20
-36.83614133214412
 30
0.0
  0
VERTEX
  5
594
  8
1
  6
CONTINUOUS
 62
     7
 10
157.1715728752537
 20
-37.13921442847801
 30
0.0
  0
VERTEX
  5
595
  8
1
  6
CONTINUOUS
 62
     7
 10
157.7777190679215
 20
-37.38794009071
 30
0.0
  0
VERTEX
  5
596
  8
1
  6
CONTINUOUS
 62
     7
 10
158.4692662705395
 20
-37.57275993112749
 30
0.0
  0
VERTEX
  5
597
  8
1
  6
CONTINUOUS
 62
     7
 10
159.2196387119354
 20
-37.68657142691138
 30
0.0
  0
VERTEX
  5
598
  8
1
  6
CONTINUOUS
 62
     7
 10
159.9999999999999
 20
-37.72500086610491
 30
0.0
  0
SEQEND
  5
660
  8
1
  6
CONTINUOUS
 62
     7
  0
LINE
  5
107
  8
1
  6
CONTINUOUS
 62
     7
 10
208.998670669295
 20
-16.97499999999995
 30
0.0
 11
208.9824398758935
 21
-16.68632544280844
 31
0.0
  0
POLYLINE
  5
108
  8
1
  6
CONTINUOUS
 62
     7
 66
     1
 10
0.0
 20
0.0
 30
0.0
  0
VERTEX
  5
599
  8
1
  6
CONTINUOUS
 62
     7
 10
159.9999999999999
 20
-37.72500086610491
 30
0.0
  0
VERTEX
  5
59A
  8
1
  6
CONTINUOUS
 62
     7
 10
160.7803612880644
 20
-37.68657142691138
 30
0.0
  0
VERTEX
  5
59B
  8
1
  6
CONTINUOUS
 62
     7
 10
161.5307337294603
 20
-37.57275993112749
 30
0.0
  0
VERTEX
  5
59C
  8
1
  6
CONTINUOUS
 62
     7
 10
162.2222809320783
 20
-37.38794009071
 30
0.0
  0
VERTEX
  5
59D
  8
1
  6
CONTINUOUS
 62
     7
 10
162.8284271247461
 20
-37.13921442847801
 30
0.0
  0
VERTEX
  5
59E
  8
1
  6
CONTINUOUS
 62
     7
 10
163.3258784492101
 20
-36.83614133214412
 30
0.0
  0
VERTEX
  5
59F
  8
1
  6
CONTINUOUS
 62
     7
 10
163.695518130045
 20
-36.4903677308351
 30
0.0
  0
VERTEX
  5
5A0
  8
1
  6
CONTINUOUS
 62
     7
 10
163.9231411216128
 20
-36.11518151013717
 30
0.0
  0
VERTEX
  5
5A1
  8
1
  6
CONTINUOUS
 62
     7
 10
163.9999999999999
 20
-35.72500086610491
 30
0.0
  0
SEQEND
  5
661
  8
1
  6
CONTINUOUS
 62
     7
  0
POLYLINE
  5
109
  8
1
  6
CONTINUOUS
 62
     7
 66
     1
 10
0.0
 20
0.0
 30
0.0
  0
VERTEX
  5
5A2
  8
1
  6
CONTINUOUS
 62
     7
 10
115.9999999999999
 20
-23.72500086610492
 30
0.0
  0
VERTEX
  5
5A3
  8
1
  6
CONTINUOUS
 62
     7
 10
114.2175205991212
 20
-23.80936138192263
 30
0.0
  0
VERTEX
  5
5A4
  8
1
  6
CONTINUOUS
 62
     7
 10
112.4983552536921
 20
-24.05944642553194
 30
0.0
  0
VERTEX
  5
5A5
  8
1
  6
CONTINUOUS
 62
     7
 10
110.9035690901614
 20
-24.46637292186879
 30
0.0
  0
VERTEX
  5
5A6
  8
1
  6
CONTINUOUS
 62
     7
 10
109.4898092594237
 20
-25.01568675340439
 30
0.0
  0
VERTEX
  5
5A7
  8
1
  6
CONTINUOUS
 62
     7
 10
108.3072928177161
 20
-25.6878761735391
 30
0.0
  0
VERTEX
  5
5A8
  8
1
  6
CONTINUOUS
 62
     7
 10
107.3980230058747
 20
-26.45906486807933
 30
0.0
  0
VERTEX
  5
5A9
  8
1
  6
CONTINUOUS
 62
     7
 10
106.7942972850971
 20
-27.30186004710331
 30
0.0
  0
VERTEX
  5
5AA
  8
1
  6
CONTINUOUS
 62
     7
 10
106.5175601241062
 20
-28.18632544280847
 30
0.0
  0
SEQEND
  5
662
  8
1
  6
CONTINUOUS
 62
     7
  0
POLYLINE
  5
10A
  8
1
  6
CONTINUOUS
 62
     7
 66
     1
 10
0.0
 20
0.0
 30
0.0
  0
VERTEX
  5
5AB
  8
1
  6
CONTINUOUS
 62
     7
 10
214.4824398758936
 20
-51.18632544280842
 30
0.0
  0
VERTEX
  5
5AC
  8
1
  6
CONTINUOUS
 62
     7
 10
214.2057027149027
 20
-50.30186004710326
 30
0.0
  0
VERTEX
  5
5AD
  8
1
  6
CONTINUOUS
 62
     7
 10
213.601976994125
 20
-49.45906486807928
 30
0.0
  0
VERTEX
  5
5AE
  8
1
  6
CONTINUOUS
 62
     7
 10
212.6927071822836
 20
-48.68787617353905
 30
0.0
  0
VERTEX
  5
5AF
  8
1
  6
CONTINUOUS
 62
     7
 10
211.510190740576
 20
-48.01568675340435
 30
0.0
  0
VERTEX
  5
5B0
  8
1
  6
CONTINUOUS
 62
     7
 10
210.0964309098383
 20
-47.46637292186875
 30
0.0
  0
VERTEX
  5
5B1
  8
1
  6
CONTINUOUS
 62
     7
 10
208.5016447463076
 20
-47.0594464255319
 30
0.0
  0
VERTEX
  5
5B2
  8
1
  6
CONTINUOUS
 62
     7
 10
206.7824794008785
 20
-46.80936138192259
 30
0.0
  0
VERTEX
  5
5B3
  8
1
  6
CONTINUOUS
 62
     7
 10
204.9999999999999
 20
-46.72500086610489
 30
0.0
  0
SEQEND
  5
663
  8
1
  6
CONTINUOUS
 62
     7
  0
LINE
  5
10B
  8
1
  6
CONTINUOUS
 62
     7
 10
213.4824398758936
 20
-29.05235084659289
 30
0.0
 11
213.4604438849273
 21
-28.47499999999996
 31
0.0
  0
LINE
  5
10C
  8
1
  6
CONTINUOUS
 62
     7
 10
163.9999999999999
 20
-46.72500086610489
 30
0.0
 11
163.9999999999999
 21
-47.59102626988933
 31
0.0
  0
LINE
  5
10D
  8
1
  6
CONTINUOUS
 62
     7
 10
214.4986706692949
 20
-39.97499999999995
 30
0.0
 11
214.4824398758935
 21
-39.68632544280845
 31
0.0
  0
LINE
  5
10E
  8
1
  6
CONTINUOUS
 62
     7
 10
155.9999999999999
 20
-35.22500086610491
 30
0.0
 11
155.9999999999999
 21
-36.09102626988935
 31
0.0
  0
ARC
  5
10F
  8
1
  6
CONTINUOUS
 62
     7
 10
210.2294734194973
 20
-9.474999999999955
 30
0.0
 40
3.500000000000019
 50
13.91074892313907
 51
42.63635445685003
  0
ARC
  5
110
  8
1
  6
CONTINUOUS
 62
     7
 10
109.7705265805024
 20
-9.47499999999997
 30
0.0
 40
2.499999999999999
 50
96.86989764584473
 51
203.1301023541556
  0
ARC
  5
111
  8
1
  6
CONTINUOUS
 62
     7
 10
109.7705265805024
 20
-9.47499999999997
 30
0.0
 40
3.5
 50
137.3636455431468
 51
166.0892510768643
  0
POLYLINE
  5
112
  8
1
  6
CONTINUOUS
 62
     7
 66
     1
 10
0.0
 20
0.0
 30
0.0
  0
VERTEX
  5
5B4
  8
1
  6
CONTINUOUS
 62
     7
 10
187.4820654878747
 20
6.313674557191558
 30
0.0
  0
VERTEX
  5
5B5
  8
1
  6
CONTINUOUS
 62
     7
 10
187.3293663686875
 20
6.702412984232467
 30
0.0
  0
VERTEX
  5
5B6
  8
1
  6
CONTINUOUS
 62
     7
 10
187.0264155310429
 20
7.068475844136311
 30
0.0
  0
VERTEX
  5
5B7
  8
1
  6
CONTINUOUS
 62
     7
 10
186.58509976758
 20
7.397500036465972
 30
0.0
  0
VERTEX
  5
5B8
  8
1
  6
CONTINUOUS
 62
     7
 10
186.0227348547118
 20
7.676575736056684
 30
0.0
  0
VERTEX
  5
5B9
  8
1
  6
CONTINUOUS
 62
     7
 10
185.3613861386137
 20
7.894752932017328
 30
0.0
  0
SEQEND
  5
664
  8
1
  6
CONTINUOUS
 62
     7
  0
LINE
  5
113
  8
1
  6
CONTINUOUS
 62
     7
 10
199.998670669295
 20
-5.474999999999952
 30
0.0
 11
199.9824398758936
 21
-5.186325442808434
 31
0.0
  0
LINE
  5
114
  8
1
  6
CONTINUOUS
 62
     7
 10
203.9999999999999
 20
-23.72500086610492
 30
0.0
 11
163.8729833462073
 21
-23.72500086610492
 31
0.0
  0
ARC
  5
115
  8
1
  6
CONTINUOUS
 62
     7
 10
210.2294734194973
 20
-9.474999999999955
 30
0.0
 40
2.499999999999999
 50
0.0
 51
83.13010235415526
  0
LINE
  5
116
  8
1
  6
CONTINUOUS
 62
     7
 10
111.7341487927879
 20
-3.68049458257419
 30
0.0
 11
112.3375138786102
 21
-4.02884757729334
 31
0.0
  0
LINE
  5
117
  8
1
  6
CONTINUOUS
 62
     7
 10
225.3999999999999
 20
-54.10386048741551
 30
0.0
 11
238.4964735377978
 21
-54.10386048741551
 31
0.0
  0
LINE
  5
118
  8
1
  6
CONTINUOUS
 62
     7
 10
81.50352646220213
 20
-54.10386048741551
 30
0.0
 11
94.60000000000004
 21
-54.10386048741551
 31
0.0
  0
LINE
  5
119
  8
1
  6
CONTINUOUS
 62
     7
 10
89.0671093859586
 20
-63.1177876096865
 30
0.0
 11
81.50352646220213
 21
-54.10386048741551
 31
0.0
  0
ARC
  5
11A
  8
1
  6
CONTINUOUS
 62
     7
 10
89.83315382907757
 20
-62.47499999999997
 30
0.0
 40
1.000000000000004
 50
220.0000000000003
 51
270.0000000000007
  0
ARC
  5
11B
  8
1
  6
CONTINUOUS
 62
     7
 10
203.9999999999999
 20
-28.47499999999996
 30
0.0
 40
9.500000000000009
 50
0.0
 51
90.0
  0
ARC
  5
11C
  8
1
  6
CONTINUOUS
 62
     7
 10
162.9999999999999
 20
-44.47499999999996
 30
0.0
 40
1.000000000000001
 50
359.9999999999998
 51
90.0
  0
LINE
  5
11D
  8
1
  6
CONTINUOUS
 62
     7
 10
119.9999999999999
 20
-5.474999999999966
 30
0.0
 11
120.0395561150724
 21
-5.474999999999966
 31
0.0
  0
ARC
  5
11E
  8
1
  6
CONTINUOUS
 62
     7
 10
204.9999999999999
 20
-51.47499999999997
 30
0.0
 40
9.500000000000009
 50
0.0
 51
90.0
  0
ARC
  5
11F
  8
1
  6
CONTINUOUS
 62
     7
 10
190.4999999999999
 20
-5.474999999999952
 30
0.0
 40
9.500000000000009
 50
0.0
 51
90.0
  0
LINE
  5
120
  8
1
  6
CONTINUOUS
 62
     7
 10
230.1668461709224
 20
-63.47499999999996
 30
0.0
 11
225.3999999999999
 21
-63.47499999999996
 31
0.0
  0
LINE
  5
121
  8
1
  6
CONTINUOUS
 62
     7
 10
105.4999999999999
 20
-51.47499999999997
 30
0.0
 11
105.5395561150724
 21
-51.47499999999997
 31
0.0
  0
LINE
  5
122
  8
1
  6
CONTINUOUS
 62
     7
 10
156.9999999999999
 20
-43.47499999999996
 30
0.0
 11
162.9999999999999
 21
-43.47499999999996
 31
0.0
  0
LINE
  5
123
  8
1
  6
CONTINUOUS
 62
     7
 10
203.9999999999999
 20
-18.97499999999996
 30
0.0
 11
115.9999999999999
 21
-18.97499999999998
 31
0.0
  0
LINE
  5
124
  8
1
  6
CONTINUOUS
 62
     7
 10
213.1624861213895
 20
-13.55512701892215
 30
0.0
 11
213.6624861213895
 21
-14.42115242270659
 31
0.0
  0
LINE
  5
125
  8
1
  6
CONTINUOUS
 62
     7
 10
155.9999999999999
 20
-46.7250008661049
 30
0.0
 11
155.9999999999999
 21
-44.47499999999996
 31
0.0
  0
LINE
  5
126
  8
1
  6
CONTINUOUS
 62
     7
 10
202.1672955930063
 20
-44.47499999999994
 30
0.0
 11
202.1672955930063
 21
-46.7250008661049
 31
0.0
  0
LINE
  5
127
  8
1
  6
CONTINUOUS
 62
     7
 10
94.60000000000007
 20
-53.78246668257223
 30
0.0
 11
225.3999999999999
 21
-53.78246668257225
 31
0.0
  0
LINE
  5
128
  8
1
  6
CONTINUOUS
 62
     7
 10
204.9999999999999
 20
-30.47499999999997
 30
0.0
 11
114.9999999999999
 21
-30.47499999999996
 31
0.0
  0
LINE
  5
129
  8
1
  6
CONTINUOUS
 62
     7
 10
199.4999999999999
 20
-7.474999999999968
 30
0.0
 11
120.4999999999999
 21
-7.474999999999968
 31
0.0
  0
LINE
  5
12A
  8
1
  6
CONTINUOUS
 62
     7
 10
190.4999999999999
 20
4.025000000000056
 30
0.0
 11
129.4999999999999
 21
4.025000000000029
 31
0.0
  0
ARC
  5
12B
  8
1
  6
CONTINUOUS
 62
     7
 10
115.9999999999999
 20
-28.47499999999997
 30
0.0
 40
9.499999999999995
 50
90.00000000000016
 51
180.0
  0
ARC
  5
12C
  8
1
  6
CONTINUOUS
 62
     7
 10
114.9999999999999
 20
-39.97499999999996
 30
0.0
 40
9.500000000000002
 50
89.99999999999987
 51
180.0
  0
LINE
  5
12D
  8
1
  6
CONTINUOUS
 62
     7
 10
132.4999999999999
 20
6.025000000000058
 30
0.0
 11
132.4999999999999
 21
6.22399327725405
 31
0.0
  0
LINE
  5
12E
  8
1
  6
CONTINUOUS
 62
     7
 10
208.9604438849273
 20
-16.97499999999995
 30
0.0
 11
208.9999999999999
 21
-16.97499999999995
 31
0.0
  0
LINE
  5
12F
  8
1
  6
CONTINUOUS
 62
     7
 10
199.9604438849273
 20
-5.474999999999952
 30
0.0
 11
199.9999999999999
 21
-5.474999999999952
 31
0.0
  0
LINE
  5
130
  8
1
  6
CONTINUOUS
 62
     7
 10
112.3375138786102
 20
-4.02884757729334
 30
0.0
 11
111.8375138786102
 21
-4.894872981077769
 31
0.0
  0
LINE
  5
131
  8
1
  6
CONTINUOUS
 62
     7
 10
132.5560087491556
 20
6.025000000000058
 30
0.0
 11
132.4999999999999
 21
6.025000000000058
 31
0.0
  0
LINE
  5
132
  8
1
  6
CONTINUOUS
 62
     7
 10
110.9999999999999
 20
-16.97499999999996
 30
0.0
 11
111.0395561150724
 21
-16.97499999999996
 31
0.0
  0
ARC
  5
133
  8
1
  6
CONTINUOUS
 62
     7
 10
159.9999999999999
 20
-38.47499999999997
 30
0.0
 40
59.49999999999999
 50
155.7875628101014
 51
180.0
  0
LINE
  5
134
  8
1
  6
CONTINUOUS
 62
     7
 10
225.3999999999999
 20
-53.78246668257225
 30
0.0
 11
238.1134513162383
 21
-53.78246668257225
 31
0.0
  0
LINE
  5
135
  8
1
  6
CONTINUOUS
 62
     7
 10
238.4964735377978
 20
-54.10386048741551
 30
0.0
 11
238.1134513162383
 21
-53.78246668257224
 31
0.0
  0
LINE
  5
136
  8
1
  6
CONTINUOUS
 62
     7
 10
81.88654868376162
 20
-53.78246668257225
 30
0.0
 11
94.60000000000007
 21
-53.78246668257225
 31
0.0
  0
ARC
  5
137
  8
1
  6
CONTINUOUS
 62
     7
 10
159.9999999999999
 20
-38.47499999999997
 30
0.0
 40
54.49999999999998
 50
62.26734851947997
 51
117.73265148052
  0
LINE
  5
138
  8
1
  6
CONTINUOUS
 62
     7
 10
105.4999999999999
 20
-39.97499999999996
 30
0.0
 11
105.5395561150724
 21
-39.97499999999996
 31
0.0
  0
LINE
  5
139
  8
1
  6
CONTINUOUS
 62
     7
 10
81.50352646220213
 20
-54.10386048741551
 30
0.0
 11
81.88654868376162
 21
-53.78246668257225
 31
0.0
  0
ARC
  5
13A
  8
1
  6
CONTINUOUS
 62
     7
 10
159.9999999999999
 20
-38.47499999999997
 30
0.0
 40
59.49999999999998
 50
35.78756281010141
 51
144.2124371898986
  0
ARC
  5
13B
  8
1
  6
CONTINUOUS
 62
     7
 10
136.4999999999999
 20
6.223993277254078
 30
0.0
 40
4.000000000000004
 50
117.7326514805199
 51
180.0000000000004
  0
LINE
  5
13C
  8
1
  6
CONTINUOUS
 62
     7
 10
213.6624861213895
 20
-14.42115242270659
 30
0.0
 11
214.2658512072119
 21
-14.07279942798744
 31
0.0
  0
LINE
  5
13D
  8
1
  6
CONTINUOUS
 62
     7
 10
214.4604438849273
 20
-51.47499999999997
 30
0.0
 11
214.4999999999999
 21
-51.47499999999997
 31
0.0
  0
LINE
  5
13E
  8
1
  6
CONTINUOUS
 62
     7
 10
225.3999999999999
 20
-63.47499999999996
 30
0.0
 11
94.60000000000007
 21
-63.47499999999996
 31
0.0
  0
LINE
  5
13F
  8
1
  6
CONTINUOUS
 62
     7
 10
94.60000000000007
 20
-63.47499999999996
 30
0.0
 11
89.83315382907759
 21
-63.47499999999996
 31
0.0
  0
LINE
  5
140
  8
1
  6
CONTINUOUS
 62
     7
 10
230.9328906140414
 20
-63.1177876096865
 30
0.0
 11
238.4964735377978
 21
-54.10386048741551
 31
0.0
  0
ARC
  5
141
  8
1
  6
CONTINUOUS
 62
     7
 10
156.9999999999999
 20
-44.47499999999996
 30
0.0
 40
1.000000000000001
 50
90.0
 51
180.0000000000001
  0
LINE
  5
142
  8
1
  6
CONTINUOUS
 62
     7
 10
163.9999999999999
 20
-46.72500086610489
 30
0.0
 11
163.9999999999999
 21
-44.47499999999996
 31
0.0
  0
ARC
  5
143
  8
1
  6
CONTINUOUS
 62
     7
 10
120.4999999999999
 20
-16.97499999999998
 30
0.0
 40
9.500000000000009
 50
89.99999999999996
 51
179.9999999999999
  0
LINE
  5
144
  8
1
  6
CONTINUOUS
 62
     7
 10
219.4999999999999
 20
-53.78246668257225
 30
0.0
 11
219.4999999999999
 21
-38.47499999999995
 31
0.0
  0
ARC
  5
145
  8
1
  6
CONTINUOUS
 62
     7
 10
199.4999999999999
 20
-16.97499999999996
 30
0.0
 40
9.49999999999998
 50
0.0000000000000837
 51
90.00000000000001
  0
LINE
  5
146
  8
1
  6
CONTINUOUS
 62
     7
 10
100.4999999999999
 20
-38.47499999999997
 30
0.0
 11
100.4999999999999
 21
-53.78246668257223
 31
0.0
  0
LINE
  5
147
  8
1
  6
CONTINUOUS
 62
     7
 10
207.6624861213895
 20
-4.028847577293326
 30
0.0
 11
208.1624861213895
 21
-4.894872981077769
 31
0.0
  0
LINE
  5
148
  8
1
  6
CONTINUOUS
 62
     7
 10
106.8375138786102
 20
-13.55512701892216
 30
0.0
 11
106.3375138786102
 21
-14.42115242270661
 31
0.0
  0
ARC
  5
149
  8
1
  6
CONTINUOUS
 62
     7
 10
204.9999999999999
 20
-39.97499999999997
 30
0.0
 40
9.500000000000009
 50
0.0000000000000418
 51
90.0
  0
LINE
  5
14A
  8
1
  6
CONTINUOUS
 62
     7
 10
94.60000000000004
 20
-54.10386048741551
 30
0.0
 11
225.3999999999999
 21
-54.10386048741552
 31
0.0
  0
LINE
  5
14B
  8
1
  6
CONTINUOUS
 62
     7
 10
204.9999999999999
 20
-41.97499999999997
 30
0.0
 11
114.9999999999999
 21
-41.97499999999997
 31
0.0
  0
LINE
  5
14C
  8
1
  6
CONTINUOUS
 62
     7
 10
106.4999999999999
 20
-28.47499999999997
 30
0.0
 11
106.5395561150724
 21
-28.47499999999997
 31
0.0
  0
ARC
  5
14D
  8
1
  6
CONTINUOUS
 62
     7
 10
230.1668461709224
 20
-62.47499999999996
 30
0.0
 40
1.0
 50
270.0
 51
320.0
  0
ARC
  5
14E
  8
1
  6
CONTINUOUS
 62
     7
 10
114.9999999999999
 20
-51.47499999999997
 30
0.0
 40
9.500000000000002
 50
89.99999999999987
 51
180.0
  0
ARC
  5
14F
  8
1
  6
CONTINUOUS
 62
     7
 10
129.4999999999999
 20
-5.474999999999966
 30
0.0
 40
9.500000000000009
 50
90.00000000000006
 51
180.0
  0
ARC
  5
150
  8
1
  6
CONTINUOUS
 62
     7
 10
159.9999999999999
 20
-38.47499999999997
 30
0.0
 40
59.49999999999999
 50
0.0000000000000134
 51
24.21243718989861
  0
LINE
  5
151
  8
1
  6
CONTINUOUS
 62
     7
 10
106.3375138786102
 20
-14.42115242270661
 30
0.0
 11
105.7341487927879
 21
-14.07279942798746
 31
0.0
  0
LINE
  5
152
  8
1
  6
CONTINUOUS
 62
     7
 10
208.2658512072119
 20
-3.680494582574176
 30
0.0
 11
207.6624861213895
 21
-4.028847577293326
 31
0.0
  0
LINE
  5
153
  8
1
  6
CONTINUOUS
 62
     7
 10
213.4604438849273
 20
-28.47499999999996
 30
0.0
 11
213.4999999999999
 21
-28.47499999999996
 31
0.0
  0
LINE
  5
154
  8
1
  6
CONTINUOUS
 62
     7
 10
214.4604438849273
 20
-39.97499999999996
 30
0.0
 11
214.4999999999999
 21
-39.97499999999996
 31
0.0
  0
POLYLINE
  5
155
  8
1
  6
CONTINUOUS
 62
     7
 66
     1
 10
0.0
 20
0.0
 30
0.0
  0
VERTEX
  5
5BA
  8
1
  6
CONTINUOUS
 62
     7
 10
206.1672955930063
 20
-44.47499999999994
 30
0.0
  0
VERTEX
  5
5BB
  8
1
  6
CONTINUOUS
 62
     7
 10
206.1576882332079
 20
-44.27990967798382
 30
0.0
  0
VERTEX
  5
5BC
  8
1
  6
CONTINUOUS
 62
     7
 10
206.1292353592619
 20
-44.09231656763485
 30
0.0
  0
VERTEX
  5
5BD
  8
1
  6
CONTINUOUS
 62
     7
 10
206.0830303991576
 20
-43.91942976698034
 30
0.0
  0
VERTEX
  5
5BE
  8
1
  6
CONTINUOUS
 62
     7
 10
206.0208489835996
 20
-43.7678932188134
 30
0.0
  0
VERTEX
  5
5BF
  8
1
  6
CONTINUOUS
 62
     7
 10
205.9450807095161
 20
-43.6435303876974
 30
0.0
  0
VERTEX
  5
5C0
  8
1
  6
CONTINUOUS
 62
     7
 10
205.8586373091888
 20
-43.55112046748866
 30
0.0
  0
VERTEX
  5
5C1
  8
1
  6
CONTINUOUS
 62
     7
 10
205.7648407540144
 20
-43.49421471959671
 30
0.0
  0
VERTEX
  5
5C2
  8
1
  6
CONTINUOUS
 62
     7
 10
205.6672955930063
 20
-43.47499999999994
 30
0.0
  0
SEQEND
  5
665
  8
1
  6
CONTINUOUS
 62
     7
  0
LINE
  5
156
  8
1
  6
CONTINUOUS
 62
     7
 10
213.5498025062507
 20
-10.57863287721719
 30
0.0
 11
213.8812907677556
 21
-11.06166399376533
 31
0.0
  0
LINE
  5
157
  8
1
  6
CONTINUOUS
 62
     7
 10
113.8327044069935
 20
-44.47499999999994
 30
0.0
 11
113.8327044069935
 21
-46.76099458167582
 31
0.0
  0
LINE
  5
158
  8
1
  6
CONTINUOUS
 62
     7
 10
108.9711948828143
 20
-6.067404806049101
 30
0.0
 11
109.2241484515337
 21
-5.464506717346939
 31
0.0
  0
LINE
  5
159
  8
1
  6
CONTINUOUS
 62
     7
 10
117.8327044069935
 20
-44.47499999999994
 30
0.0
 11
117.8327044069935
 21
-46.72500086610492
 31
0.0
  0
LINE
  5
15A
  8
1
  6
CONTINUOUS
 62
     7
 10
205.6672955930063
 20
-43.47499999999994
 30
0.0
 11
202.6672955930063
 21
-43.47499999999994
 31
0.0
  0
LINE
  5
15B
  8
1
  6
CONTINUOUS
 62
     7
 10
206.6003082948985
 20
-46.79288026318151
 30
0.0
 11
206.6003082948985
 21
-44.47499999999994
 31
0.0
  0
LINE
  5
15C
  8
1
  6
CONTINUOUS
 62
     7
 10
232.5385164807133
 20
-63.47499999999999
 30
0.0
 11
231.9999999999999
 21
-63.47499999999997
 31
0.0
  0
LINE
  5
15D
  8
1
  6
CONTINUOUS
 62
     7
 10
213.8812907677555
 20
-11.06166399376522
 30
0.0
 11
213.5864833502705
 21
-10.46519408435286
 31
0.0
  0
LINE
  5
15E
  8
1
  6
CONTINUOUS
 62
     7
 10
113.3996917051013
 20
-46.79288026318152
 30
0.0
 11
113.3996917051013
 21
-44.47499999999995
 31
0.0
  0
LINE
  5
15F
  8
1
  6
CONTINUOUS
 62
     7
 10
108.8291390439129
 20
-6.10397797308373
 30
0.0
 11
106.4135166497288
 21
-10.46519408435363
 31
0.0
  0
LINE
  5
160
  8
1
  6
CONTINUOUS
 62
     7
 10
210.7758515484661
 20
-5.464506717346912
 30
0.0
 11
211.0287824891341
 21
-6.067361507421348
 31
0.0
  0
POLYLINE
  5
161
  8
1
  6
CONTINUOUS
 62
     7
 66
     1
 10
0.0
 20
0.0
 30
0.0
  0
VERTEX
  5
5C3
  8
1
  6
CONTINUOUS
 62
     7
 10
114.3327044069935
 20
-43.47499999999994
 30
0.0
  0
VERTEX
  5
5C4
  8
1
  6
CONTINUOUS
 62
     7
 10
114.2351592459855
 20
-43.49421471959672
 30
0.0
  0
VERTEX
  5
5C5
  8
1
  6
CONTINUOUS
 62
     7
 10
114.141362690811
 20
-43.55112046748866
 30
0.0
  0
VERTEX
  5
5C6
  8
1
  6
CONTINUOUS
 62
     7
 10
114.0549192904837
 20
-43.6435303876974
 30
0.0
  0
VERTEX
  5
5C7
  8
1
  6
CONTINUOUS
 62
     7
 10
113.9791510164002
 20
-43.7678932188134
 30
0.0
  0
VERTEX
  5
5C8
  8
1
  6
CONTINUOUS
 62
     7
 10
113.9169696008422
 20
-43.91942976698034
 30
0.0
  0
VERTEX
  5
5C9
  8
1
  6
CONTINUOUS
 62
     7
 10
113.8707646407379
 20
-44.09231656763485
 30
0.0
  0
VERTEX
  5
5CA
  8
1
  6
CONTINUOUS
 62
     7
 10
113.8423117667919
 20
-44.27990967798382
 30
0.0
  0
VERTEX
  5
5CB
  8
1
  6
CONTINUOUS
 62
     7
 10
113.8327044069935
 20
-44.47499999999994
 30
0.0
  0
SEQEND
  5
666
  8
1
  6
CONTINUOUS
 62
     7
  0
LINE
  5
162
  8
1
  6
CONTINUOUS
 62
     7
 10
117.3327044069935
 20
-43.47499999999994
 30
0.0
 11
114.3327044069935
 21
-43.47499999999994
 31
0.0
  0
POLYLINE
  5
163
  8
1
  6
CONTINUOUS
 62
     7
 66
     1
 10
0.0
 20
0.0
 30
0.0
  0
VERTEX
  5
5CC
  8
1
  6
CONTINUOUS
 62
     7
 10
117.8327044069935
 20
-44.47499999999994
 30
0.0
  0
VERTEX
  5
5CD
  8
1
  6
CONTINUOUS
 62
     7
 10
117.8230970471951
 20
-44.27990967798382
 30
0.0
  0
VERTEX
  5
5CE
  8
1
  6
CONTINUOUS
 62
     7
 10
117.7946441732491
 20
-44.09231656763485
 30
0.0
  0
VERTEX
  5
5CF
  8
1
  6
CONTINUOUS
 62
     7
 10
117.7484392131448
 20
-43.91942976698034
 30
0.0
  0
VERTEX
  5
5D0
  8
1
  6
CONTINUOUS
 62
     7
 10
117.6862577975868
 20
-43.7678932188134
 30
0.0
  0
VERTEX
  5
5D1
  8
1
  6
CONTINUOUS
 62
     7
 10
117.6104895235033
 20
-43.6435303876974
 30
0.0
  0
VERTEX
  5
5D2
  8
1
  6
CONTINUOUS
 62
     7
 10
117.524046123176
 20
-43.55112046748866
 30
0.0
  0
VERTEX
  5
5D3
  8
1
  6
CONTINUOUS
 62
     7
 10
117.4302495680016
 20
-43.49421471959671
 30
0.0
  0
VERTEX
  5
5D4
  8
1
  6
CONTINUOUS
 62
     7
 10
117.3327044069935
 20
-43.47499999999994
 30
0.0
  0
SEQEND
  5
667
  8
1
  6
CONTINUOUS
 62
     7
  0
LINE
  5
164
  8
1
  6
CONTINUOUS
 62
     7
 10
213.5864833502705
 20
-10.46519408435286
 30
0.0
 11
211.170860956087
 21
-6.103977973084085
 31
0.0
  0
LINE
  5
165
  8
1
  6
CONTINUOUS
 62
     7
 10
205.6672955930063
 20
-43.47499999999994
 30
0.0
 11
206.1003082948985
 21
-43.47499999999994
 31
0.0
  0
LINE
  5
166
  8
1
  6
CONTINUOUS
 62
     7
 10
113.8996917051013
 20
-43.47499999999994
 30
0.0
 11
114.3327044069935
 21
-43.47499999999994
 31
0.0
  0
LINE
  5
167
  8
1
  6
CONTINUOUS
 62
     7
 10
211.170860956087
 20
-6.103977973084085
 30
0.0
 11
210.775851548466
 21
-5.46450671734685
 31
0.0
  0
POLYLINE
  5
168
  8
1
  6
CONTINUOUS
 62
     7
 66
     1
 10
0.0
 20
0.0
 30
0.0
  0
VERTEX
  5
5D5
  8
1
  6
CONTINUOUS
 62
     7
 10
219.9999999999999
 20
-36.78399847921029
 30
0.0
  0
VERTEX
  5
5D6
  8
1
  6
CONTINUOUS
 62
     7
 10
218.8471168241937
 20
-25.0187947488426
 30
0.0
  0
VERTEX
  5
5D7
  8
1
  6
CONTINUOUS
 62
     7
 10
215.4327719506771
 20
-13.70572119983068
 30
0.0
  0
VERTEX
  5
5D8
  8
1
  6
CONTINUOUS
 62
     7
 10
209.8881767381525
 20
-3.279532904218321
 30
0.0
  0
VERTEX
  5
5D9
  8
1
  6
CONTINUOUS
 62
     7
 10
202.4264068711927
 20
5.859097568867845
 30
0.0
  0
VERTEX
  5
5DA
  8
1
  6
CONTINUOUS
 62
     7
 10
193.3342139811759
 20
13.35897777535016
 30
0.0
  0
VERTEX
  5
5DB
  8
1
  6
CONTINUOUS
 62
     7
 10
182.9610059419051
 20
18.93189152487476
 30
0.0
  0
VERTEX
  5
5DC
  8
1
  6
CONTINUOUS
 62
     7
 10
171.7054193209674
 20
22.36367486737345
 30
0.0
  0
VERTEX
  5
5DD
  8
1
  6
CONTINUOUS
 62
     7
 10
159.9999999999997
 20
23.52244629356029
 30
0.0
  0
VERTEX
  5
5DE
  8
1
  6
CONTINUOUS
 62
     7
 10
148.294580679032
 20
22.36367486737339
 30
0.0
  0
VERTEX
  5
5DF
  8
1
  6
CONTINUOUS
 62
     7
 10
137.0389940580943
 20
18.93189152487464
 30
0.0
  0
VERTEX
  5
5E0
  8
1
  6
CONTINUOUS
 62
     7
 10
126.6657860188236
 20
13.35897777534999
 30
0.0
  0
VERTEX
  5
5E1
  8
1
  6
CONTINUOUS
 62
     7
 10
117.5735931288068
 20
5.859097568867625
 30
0.0
  0
VERTEX
  5
5E2
  8
1
  6
CONTINUOUS
 62
     7
 10
110.111823261847
 20
-3.279532904218605
 30
0.0
  0
VERTEX
  5
5E3
  8
1
  6
CONTINUOUS
 62
     7
 10
104.5672280493226
 20
-13.705721199831
 30
0.0
  0
VERTEX
  5
5E4
  8
1
  6
CONTINUOUS
 62
     7
 10
101.152883175806
 20
-25.01879474884295
 30
0.0
  0
VERTEX
  5
5E5
  8
1
  6
CONTINUOUS
 62
     7
 10
99.99999999999983
 20
-36.7839984792105
 30
0.0
  0
SEQEND
  5
668
  8
1
  6
CONTINUOUS
 62
     7
  0
LINE
  5
169
  8
1
  6
CONTINUOUS
 62
     7
 10
106.1187092322442
 20
-11.06166399376534
 30
0.0
 11
106.4501065761207
 21
-10.5787878815336
 31
0.0
  0
LINE
  5
16A
  8
1
  6
CONTINUOUS
 62
     7
 10
109.2241484515336
 20
-5.464506717346978
 30
0.0
 11
108.8291390439129
 21
-6.10397797308373
 31
0.0
  0
POLYLINE
  5
16B
  8
1
  6
CONTINUOUS
 62
     7
 66
     1
 10
0.0
 20
0.0
 30
0.0
  0
VERTEX
  5
5E6
  8
1
  6
CONTINUOUS
 62
     7
 10
220.4999999999999
 20
-36.78399847921031
 30
0.0
  0
VERTEX
  5
5E7
  8
1
  6
CONTINUOUS
 62
     7
 10
219.3375094643953
 20
-24.92075138442291
 30
0.0
  0
VERTEX
  5
5E8
  8
1
  6
CONTINUOUS
 62
     7
 10
215.8947117169327
 20
-13.51340222250257
 30
0.0
  0
VERTEX
  5
5E9
  8
1
  6
CONTINUOUS
 62
     7
 10
210.3039115443038
 20
-3.000329024426783
 30
0.0
  0
VERTEX
  5
5EA
  8
1
  6
CONTINUOUS
 62
     7
 10
202.779960261786
 20
6.214456702601787
 30
0.0
  0
VERTEX
  5
5EB
  8
1
  6
CONTINUOUS
 62
     7
 10
193.6119990976857
 20
13.77683591080478
 30
0.0
  0
VERTEX
  5
5EC
  8
1
  6
CONTINUOUS
 62
     7
 10
183.1523476580877
 20
19.39619060824208
 30
0.0
  0
VERTEX
  5
5ED
  8
1
  6
CONTINUOUS
 62
     7
 10
171.8029644819755
 20
22.85657214526159
 30
0.0
  0
VERTEX
  5
5EE
  8
1
  6
CONTINUOUS
 62
     7
 10
159.9999999999998
 20
24.02499999999998
 30
0.0
  0
VERTEX
  5
5EF
  8
1
  6
CONTINUOUS
 62
     7
 10
148.197035518024
 20
22.85657214526154
 30
0.0
  0
VERTEX
  5
5F0
  8
1
  6
CONTINUOUS
 62
     7
 10
136.8476523419118
 20
19.39619060824197
 30
0.0
  0
VERTEX
  5
5F1
  8
1
  6
CONTINUOUS
 62
     7
 10
126.3880009023138
 20
13.77683591080461
 30
0.0
  0
VERTEX
  5
5F2
  8
1
  6
CONTINUOUS
 62
     7
 10
117.2200397382137
 20
6.214456702601574
 30
0.0
  0
VERTEX
  5
5F3
  8
1
  6
CONTINUOUS
 62
     7
 10
109.6960884556958
 20
-3.000329024427039
 30
0.0
  0
VERTEX
  5
5F4
  8
1
  6
CONTINUOUS
 62
     7
 10
104.105288283067
 20
-13.51340222250287
 30
0.0
  0
VERTEX
  5
5F5
  8
1
  6
CONTINUOUS
 62
     7
 10
100.6624905356045
 20
-24.92075138442323
 30
0.0
  0
VERTEX
  5
5F6
  8
1
  6
CONTINUOUS
 62
     7
 10
99.49999999999994
 20
-36.7839984792105
 30
0.0
  0
SEQEND
  5
669
  8
1
  6
CONTINUOUS
 62
     7
  0
LINE
  5
16C
  8
1
  6
CONTINUOUS
 62
     7
 10
87.99999999999986
 20
-63.47499999999997
 30
0.0
 11
88.44123850464668
 21
-62.37190373838292
 31
0.0
  0
LINE
  5
16D
  8
1
  6
CONTINUOUS
 62
     7
 10
88.07656324449813
 20
-61.93730068697066
 30
0.0
 11
87.4614835192864
 21
-63.47499999999999
 31
0.0
  0
LINE
  5
16E
  8
1
  6
CONTINUOUS
 62
     7
 10
99.49999999999997
 20
-36.7839984792104
 30
0.0
 11
99.49999999999989
 21
-53.78246668257223
 31
0.0
  0
LINE
  5
16F
  8
1
  6
CONTINUOUS
 62
     7
 10
231.9999999999999
 20
-63.47499999999997
 30
0.0
 11
231.5587614953531
 21
-62.37190373838308
 31
0.0
  0
LINE
  5
170
  8
1
  6
CONTINUOUS
 62
     7
 10
87.4614835192864
 20
-63.47499999999999
 30
0.0
 11
87.99999999999986
 21
-63.47499999999997
 31
0.0
  0
LINE
  5
171
  8
1
  6
CONTINUOUS
 62
     7
 10
220.4999999999998
 20
-36.78399847921042
 30
0.0
 11
220.4999999999999
 21
-53.78246668257225
 31
0.0
  0
POLYLINE
  5
172
  8
1
  6
CONTINUOUS
 62
     7
 66
     1
 10
0.0
 20
0.0
 30
0.0
  0
VERTEX
  5
5F7
  8
1
  6
CONTINUOUS
 62
     7
 10
202.6672955930063
 20
-43.47499999999994
 30
0.0
  0
VERTEX
  5
5F8
  8
1
  6
CONTINUOUS
 62
     7
 10
202.5697504319982
 20
-43.49421471959671
 30
0.0
  0
VERTEX
  5
5F9
  8
1
  6
CONTINUOUS
 62
     7
 10
202.4759538768238
 20
-43.55112046748864
 30
0.0
  0
VERTEX
  5
5FA
  8
1
  6
CONTINUOUS
 62
     7
 10
202.3895104764965
 20
-43.64353038769737
 30
0.0
  0
VERTEX
  5
5FB
  8
1
  6
CONTINUOUS
 62
     7
 10
202.313742202413
 20
-43.76789321881337
 30
0.0
  0
VERTEX
  5
5FC
  8
1
  6
CONTINUOUS
 62
     7
 10
202.251560786855
 20
-43.91942976698031
 30
0.0
  0
VERTEX
  5
5FD
  8
1
  6
CONTINUOUS
 62
     7
 10
202.2053558267507
 20
-44.09231656763482
 30
0.0
  0
VERTEX
  5
5FE
  8
1
  6
CONTINUOUS
 62
     7
 10
202.1769029528047
 20
-44.2799096779838
 30
0.0
  0
VERTEX
  5
5FF
  8
1
  6
CONTINUOUS
 62
     7
 10
202.1672955930063
 20
-44.47499999999992
 30
0.0
  0
SEQEND
  5
66A
  8
1
  6
CONTINUOUS
 62
     7
  0
LINE
  5
173
  8
1
  6
CONTINUOUS
 62
     7
 10
206.1672955930063
 20
-44.47499999999994
 30
0.0
 11
206.1672955930063
 21
-46.7609945816758
 31
0.0
  0
POLYLINE
  5
174
  8
1
  6
CONTINUOUS
 62
     7
 66
     1
 10
0.0
 20
0.0
 30
0.0
  0
VERTEX
  5
600
  8
1
  6
CONTINUOUS
 62
     7
 10
206.6003082948985
 20
-44.47499999999994
 30
0.0
  0
VERTEX
  5
601
  8
1
  6
CONTINUOUS
 62
     7
 10
206.5907009351001
 20
-44.27990967798382
 30
0.0
  0
VERTEX
  5
602
  8
1
  6
CONTINUOUS
 62
     7
 10
206.5622480611542
 20
-44.09231656763485
 30
0.0
  0
VERTEX
  5
603
  8
1
  6
CONTINUOUS
 62
     7
 10
206.5160431010498
 20
-43.91942976698034
 30
0.0
  0
VERTEX
  5
604
  8
1
  6
CONTINUOUS
 62
     7
 10
206.4538616854918
 20
-43.7678932188134
 30
0.0
  0
VERTEX
  5
605
  8
1
  6
CONTINUOUS
 62
     7
 10
206.3780934114083
 20
-43.6435303876974
 30
0.0
  0
VERTEX
  5
606
  8
1
  6
CONTINUOUS
 62
     7
 10
206.291650011081
 20
-43.55112046748866
 30
0.0
  0
VERTEX
  5
607
  8
1
  6
CONTINUOUS
 62
     7
 10
206.1978534559066
 20
-43.49421471959671
 30
0.0
  0
VERTEX
  5
608
  8
1
  6
CONTINUOUS
 62
     7
 10
206.1003082948985
 20
-43.47499999999994
 30
0.0
  0
SEQEND
  5
66B
  8
1
  6
CONTINUOUS
 62
     7
  0
LINE
  5
175
  8
1
  6
CONTINUOUS
 62
     7
 10
106.4135166497288
 20
-10.46519408435363
 30
0.0
 11
106.1187092322441
 21
-11.06166399376542
 31
0.0
  0
LINE
  5
176
  8
1
  6
CONTINUOUS
 62
     7
 10
219.9999999999999
 20
-53.78246668257225
 30
0.0
 11
219.9999999999999
 21
-36.7839984792104
 31
0.0
  0
POLYLINE
  5
177
  8
1
  6
CONTINUOUS
 62
     7
 66
     1
 10
0.0
 20
0.0
 30
0.0
  0
VERTEX
  5
609
  8
1
  6
CONTINUOUS
 62
     7
 10
113.8996917051013
 20
-43.47499999999994
 30
0.0
  0
VERTEX
  5
60A
  8
1
  6
CONTINUOUS
 62
     7
 10
113.8021465440932
 20
-43.49421471959671
 30
0.0
  0
VERTEX
  5
60B
  8
1
  6
CONTINUOUS
 62
     7
 10
113.7083499889187
 20
-43.55112046748866
 30
0.0
  0
VERTEX
  5
60C
  8
1
  6
CONTINUOUS
 62
     7
 10
113.6219065885915
 20
-43.6435303876974
 30
0.0
  0
VERTEX
  5
60D
  8
1
  6
CONTINUOUS
 62
     7
 10
113.546138314508
 20
-43.7678932188134
 30
0.0
  0
VERTEX
  5
60E
  8
1
  6
CONTINUOUS
 62
     7
 10
113.48395689895
 20
-43.91942976698034
 30
0.0
  0
VERTEX
  5
60F
  8
1
  6
CONTINUOUS
 62
     7
 10
113.4377519388457
 20
-44.09231656763485
 30
0.0
  0
VERTEX
  5
610
  8
1
  6
CONTINUOUS
 62
     7
 10
113.4092990648997
 20
-44.27990967798382
 30
0.0
  0
VERTEX
  5
611
  8
1
  6
CONTINUOUS
 62
     7
 10
113.3996917051013
 20
-44.47499999999994
 30
0.0
  0
SEQEND
  5
66C
  8
1
  6
CONTINUOUS
 62
     7
  0
LINE
  5
178
  8
1
  6
CONTINUOUS
 62
     7
 10
99.99999999999986
 20
-53.78246668257223
 30
0.0
 11
99.99999999999986
 21
-36.7839984792104
 31
0.0
  0
LINE
  5
179
  8
1
  6
CONTINUOUS
 62
     7
 10
89.83315382907759
 20
-63.47499999999996
 30
0.0
 11
87.99999999999987
 21
-63.47499999999996
 31
0.0
  0
LINE
  5
17A
  8
1
  6
CONTINUOUS
 62
     7
 10
231.9999999999999
 20
-63.47499999999996
 30
0.0
 11
230.1668461709224
 21
-63.47499999999996
 31
0.0
  0
LINE
  5
17B
  8
1
  6
CONTINUOUS
 62
     7
 10
231.9234367555017
 20
-61.93730068697084
 30
0.0
 11
232.5385164807133
 21
-63.47499999999999
 31
0.0
  0
LINE
  5
17C
  8
1
  6
CONTINUOUS
 62
     7
 10
488.29481685262
 20
115.1456451952089
 30
0.0
 11
488.8333333333335
 21
115.1456451952089
 31
0.0
  0
LINE
  5
17D
  8
1
  6
CONTINUOUS
 62
     7
 10
633.371849814047
 20
115.145645195209
 30
0.0
 11
632.8333333333336
 21
115.145645195209
 31
0.0
  0
ARC
  5
17E
  8
1
  6
CONTINUOUS
 62
     7
 10
516.3849488270816
 20
223.1587849160233
 30
0.0
 40
0.500000000000002
 50
66.34461056156307
 51
149.9999999999998
  0
LINE
  5
17F
  8
1
  6
CONTINUOUS
 62
     7
 10
510.4519361251893
 20
213.8825054743945
 30
0.0
 11
510.8994148715704
 21
214.6575613984338
 31
0.0
  0
ARC
  5
180
  8
1
  6
CONTINUOUS
 62
     7
 10
626.8333333333336
 20
154.6456451952089
 30
0.0
 40
2.099999999999991
 50
0.000000000000007
 51
61.56310985114555
  0
ARC
  5
181
  8
1
  6
CONTINUOUS
 62
     7
 10
560.8333333333335
 20
191.1456451952089
 30
0.0
 40
53.49999999999996
 50
214.0304771527903
 51
215.9695228472095
  0
ARC
  5
182
  8
1
  6
CONTINUOUS
 62
     7
 10
626.8333333333336
 20
154.6456451952089
 30
0.0
 40
2.100000000000031
 50
298.4368901488544
 51
0.0
  0
CIRCLE
  5
183
  8
1
  6
CONTINUOUS
 62
     7
 10
560.8333333333335
 20
257.1456451952089
 30
0.0
 40
2.099999999999991
  0
LINE
  5
184
  8
1
  6
CONTINUOUS
 62
     7
 10
620.8333333333336
 20
141.8004373152972
 30
0.0
 11
620.8333333333336
 21
146.4908530751206
 31
0.0
  0
LINE
  5
185
  8
1
  6
CONTINUOUS
 62
     7
 10
488.29481685262
 20
191.1456451952089
 30
0.0
 11
488.29481685262
 21
115.1456451952089
 31
0.0
  0
LINE
  5
186
  8
1
  6
CONTINUOUS
 62
     7
 10
521.3666854797343
 20
163.9296874648016
 30
0.0
 11
517.5302986236777
 21
170.574504416981
 31
0.0
  0
ARC
  5
187
  8
1
  6
CONTINUOUS
 62
     7
 10
494.8333333333335
 20
154.6456451952089
 30
0.0
 40
2.100000000000046
 50
118.436890148854
 51
180.0
  0
ARC
  5
188
  8
1
  6
CONTINUOUS
 62
     7
 10
560.8333333333335
 20
191.1456451952089
 30
0.0
 40
53.49999999999999
 50
304.0304771527904
 51
305.9695228472095
  0
ARC
  5
189
  8
1
  6
CONTINUOUS
 62
     7
 10
605.2817178395854
 20
223.1587849160233
 30
0.0
 40
0.4999999999999977
 50
29.99999999999909
 51
113.6553894384473
  0
ARC
  5
18A
  8
1
  6
CONTINUOUS
 62
     7
 10
560.8333333333335
 20
191.1456451952089
 30
0.0
 40
72.53851648071347
 50
0.000000000000025
 51
180.0
  0
LINE
  5
18B
  8
1
  6
CONTINUOUS
 62
     7
 10
488.8333333333335
 20
115.1456451952089
 30
0.0
 11
489.2745718379802
 21
115.1456451952089
 31
0.0
  0
LINE
  5
18C
  8
1
  6
CONTINUOUS
 62
     7
 10
605.7147305414776
 20
223.4087849160233
 30
0.0
 11
606.1622092878587
 21
222.6337289919841
 31
0.0
  0
ARC
  5
18D
  8
1
  6
CONTINUOUS
 62
     7
 10
560.8333333333335
 20
191.1456451952089
 30
0.0
 40
53.49999999999996
 50
254.0304771527903
 51
255.9695228472095
  0
ARC
  5
18E
  8
1
  6
CONTINUOUS
 62
     7
 10
560.8333333333335
 20
191.1456451952089
 30
0.0
 40
53.50000000000002
 50
94.03047715279047
 51
95.96952284720952
  0
ARC
  5
18F
  8
1
  6
CONTINUOUS
 62
     7
 10
560.8333333333335
 20
191.1456451952089
 30
0.0
 40
53.49999999999999
 50
204.0304771527904
 51
205.9695228472096
  0
LINE
  5
190
  8
1
  6
CONTINUOUS
 62
     7
 10
632.8333333333336
 20
115.145645195209
 30
0.0
 11
632.8333333333336
 21
191.1456451952089
 31
0.0
  0
ARC
  5
191
  8
1
  6
CONTINUOUS
 62
     7
 10
560.8333333333335
 20
191.1456451952089
 30
0.0
 40
53.49999999999999
 50
294.0304771527904
 51
295.9695228472095
  0
ARC
  5
192
  8
1
  6
CONTINUOUS
 62
     7
 10
560.8333333333335
 20
191.1456451952089
 30
0.0
 40
72.0
 50
0.0000000000000251
 51
180.0
  0
ARC
  5
193
  8
1
  6
CONTINUOUS
 62
     7
 10
510.8849488270817
 20
213.6325054743945
 30
0.0
 40
0.5000000000000349
 50
150.0000000000005
 51
233.6553894384473
  0
ARC
  5
194
  8
1
  6
CONTINUOUS
 62
     7
 10
560.8333333333335
 20
191.1456451952089
 30
0.0
 40
53.5
 50
224.0304771527904
 51
225.9695228472096
  0
ARC
  5
195
  8
1
  6
CONTINUOUS
 62
     7
 10
555.3333333333335
 20
136.6456451952089
 30
0.0
 40
0.5000000000000004
 50
186.344610561547
 51
270.0
  0
CIRCLE
  5
196
  8
1
  6
CONTINUOUS
 62
     7
 10
560.8333333333335
 20
123.1456451952089
 30
0.0
 40
1.500000000000001
  0
ARC
  5
197
  8
1
  6
CONTINUOUS
 62
     7
 10
560.8333333333335
 20
191.1456451952089
 30
0.0
 40
53.5
 50
314.0304771527904
 51
315.9695228472095
  0
ARC
  5
198
  8
1
  6
CONTINUOUS
 62
     7
 10
560.8333333333335
 20
191.1456451952089
 30
0.0
 40
53.50000000000001
 50
234.0304771527905
 51
235.9695228472096
  0
LINE
  5
199
  8
1
  6
CONTINUOUS
 62
     7
 10
515.5044573788083
 20
222.633728991984
 30
0.0
 11
515.9519361251895
 21
223.4087849160233
 31
0.0
  0
LINE
  5
19A
  8
1
  6
CONTINUOUS
 62
     7
 10
556.2282908260956
 20
136.1456451952089
 30
0.0
 11
555.3333333333335
 21
136.1456451952089
 31
0.0
  0
LINE
  5
19B
  8
1
  6
CONTINUOUS
 62
     7
 10
488.8333333333335
 20
191.1456451952089
 30
0.0
 11
488.8333333333335
 21
115.1456451952089
 31
0.0
  0
LINE
  5
19C
  8
1
  6
CONTINUOUS
 62
     7
 10
632.8333333333336
 20
115.145645195209
 30
0.0
 11
632.3920948286867
 21
115.145645195209
 31
0.0
  0
ARC
  5
19D
  8
1
  6
CONTINUOUS
 62
     7
 10
560.8333333333335
 20
191.1456451952089
 30
0.0
 40
53.49999999999999
 50
124.0304771527905
 51
125.9695228472095
  0
ARC
  5
19E
  8
1
  6
CONTINUOUS
 62
     7
 10
494.8333333333335
 20
154.6456451952089
 30
0.0
 40
2.100000000000006
 50
180.0
 51
241.5631098511461
  0
LINE
  5
19F
  8
1
  6
CONTINUOUS
 62
     7
 10
500.8333333333334
 20
146.4908530751206
 30
0.0
 11
500.8333333333334
 21
141.8004373152972
 31
0.0
  0
ARC
  5
1A0
  8
1
  6
CONTINUOUS
 62
     7
 10
560.8333333333335
 20
191.1456451952089
 30
0.0
 40
53.49999999999999
 50
84.03047715279047
 51
85.96952284720953
  0
ARC
  5
1A1
  8
1
  6
CONTINUOUS
 62
     7
 10
560.8333333333335
 20
191.1456451952089
 30
0.0
 40
53.49999999999999
 50
244.0304771527904
 51
245.9695228472096
  0
ARC
  5
1A2
  8
1
  6
CONTINUOUS
 62
     7
 10
560.8333333333335
 20
191.1456451952089
 30
0.0
 40
53.50000000000002
 50
134.0304771527905
 51
135.9695228472095
  0
ARC
  5
1A3
  8
1
  6
CONTINUOUS
 62
     7
 10
560.8333333333335
 20
191.1456451952089
 30
0.0
 40
53.49999999999996
 50
174.0304771527905
 51
175.9695228472096
  0
ARC
  5
1A4
  8
1
  6
CONTINUOUS
 62
     7
 10
560.8333333333335
 20
191.1456451952089
 30
0.0
 40
53.5
 50
324.0304771527904
 51
325.9695228472096
  0
LINE
  5
1A5
  8
1
  6
CONTINUOUS
 62
     7
 10
610.7672517950966
 20
214.6575613984338
 30
0.0
 11
611.2147305414777
 21
213.8825054743945
 31
0.0
  0
ARC
  5
1A6
  8
1
  6
CONTINUOUS
 62
     7
 10
560.8333333333335
 20
191.1456451952089
 30
0.0
 40
53.50000000000001
 50
104.0304771527905
 51
105.9695228472095
  0
ARC
  5
1A7
  8
1
  6
CONTINUOUS
 62
     7
 10
610.7817178395853
 20
213.6325054743945
 30
0.0
 40
0.500000000000002
 50
306.3446105615595
 51
29.99999999999988
  0
ARC
  5
1A8
  8
1
  6
CONTINUOUS
 62
     7
 10
560.8333333333335
 20
191.1456451952089
 30
0.0
 40
53.50000000000001
 50
114.0304771527905
 51
115.9695228472096
  0
ARC
  5
1A9
  8
1
  6
CONTINUOUS
 62
     7
 10
560.8333333333335
 20
191.1456451952089
 30
0.0
 40
53.5
 50
54.03047715279046
 51
55.96952284720953
  0
ARC
  5
1AA
  8
1
  6
CONTINUOUS
 62
     7
 10
560.8333333333335
 20
191.1456451952089
 30
0.0
 40
53.5
 50
44.03047715279041
 51
45.96952284720953
  0
ARC
  5
1AB
  8
1
  6
CONTINUOUS
 62
     7
 10
560.8333333333335
 20
191.1456451952089
 30
0.0
 40
53.50000000000001
 50
194.0304771527904
 51
195.9695228472096
  0
ARC
  5
1AC
  8
1
  6
CONTINUOUS
 62
     7
 10
560.8333333333335
 20
191.1456451952089
 30
0.0
 40
53.49999999999999
 50
64.03047715279043
 51
65.96952284720953
  0
ARC
  5
1AD
  8
1
  6
CONTINUOUS
 62
     7
 10
560.8333333333335
 20
191.1456451952089
 30
0.0
 40
53.49999999999999
 50
74.03047715279047
 51
75.96952284720955
  0
ARC
  5
1AE
  8
1
  6
CONTINUOUS
 62
     7
 10
560.8333333333335
 20
191.1456451952089
 30
0.0
 40
53.49999999999999
 50
184.0304771527904
 51
185.9695228472094
  0
ARC
  5
1AF
  8
1
  6
CONTINUOUS
 62
     7
 10
560.8333333333335
 20
191.1456451952089
 30
0.0
 40
53.49999999999996
 50
164.0304771527905
 51
165.9695228472095
  0
CIRCLE
  5
1B0
  8
1
  6
CONTINUOUS
 62
     7
 10
560.8333333333335
 20
123.1456451952089
 30
0.0
 40
1.250000000000029
  0
ARC
  5
1B1
  8
1
  6
CONTINUOUS
 62
     7
 10
560.8333333333335
 20
191.1456451952089
 30
0.0
 40
53.49999999999999
 50
284.0304771527904
 51
285.9695228472095
  0
LINE
  5
1B2
  8
1
  6
CONTINUOUS
 62
     7
 10
633.371849814047
 20
115.145645195209
 30
0.0
 11
633.371849814047
 21
191.1456451952089
 31
0.0
  0
LINE
  5
1B3
  8
1
  6
CONTINUOUS
 62
     7
 10
533.0552213418496
 20
152.0726219928522
 30
0.0
 11
527.1775356763759
 21
157.0045858669272
 31
0.0
  0
LINE
  5
1B4
  8
1
  6
CONTINUOUS
 62
     7
 10
517.2402710783609
 20
171.1964704950513
 30
0.0
 11
514.6160279136386
 21
178.4065193332841
 31
0.0
  0
LINE
  5
1B5
  8
1
  6
CONTINUOUS
 62
     7
 10
540.2621925551057
 20
147.8426104855531
 30
0.0
 11
533.6173756029262
 21
151.6789973416097
 31
0.0
  0
LINE
  5
1B6
  8
1
  6
CONTINUOUS
 62
     7
 10
514.438409814451
 20
179.0693991037957
 30
0.0
 11
513.1060466416919
 21
186.625606142593
 31
0.0
  0
LINE
  5
1B7
  8
1
  6
CONTINUOUS
 62
     7
 10
513.0462348246983
 20
187.3092583391523
 30
0.0
 11
513.0462348246983
 21
194.9820320512655
 31
0.0
  0
LINE
  5
1B8
  8
1
  6
CONTINUOUS
 62
     7
 10
526.6922740050517
 20
157.4898475382513
 30
0.0
 11
521.7603101309768
 21
163.3675332037249
 31
0.0
  0
LINE
  5
1B9
  8
1
  6
CONTINUOUS
 62
     7
 10
609.7433951923578
 20
204.5312446815929
 30
0.0
 11
613.9269624277732
 21
206.7406581159358
 31
0.0
  0
LINE
  5
1BA
  8
1
  6
CONTINUOUS
 62
     7
 10
610.4123053267158
 20
166.5679436245781
 30
0.0
 11
606.6759564946173
 21
169.4702599309053
 31
0.0
  0
LINE
  5
1BB
  8
1
  6
CONTINUOUS
 62
     7
 10
602.2156128896079
 20
220.4522206244504
 30
0.0
 11
605.39121624981
 21
223.9592543904371
 31
0.0
  0
LINE
  5
1BC
  8
1
  6
CONTINUOUS
 62
     7
 10
582.0181509809557
 20
237.217023792994
 30
0.0
 11
581.6610041069414
 21
236.5006979834466
 31
0.0
  0
LINE
  5
1BD
  8
1
  6
CONTINUOUS
 62
     7
 10
520.971037578988
 20
218.4390744724346
 30
0.0
 11
517.2653823456893
 21
212.0206913330277
 31
0.0
  0
LINE
  5
1BE
  8
1
  6
CONTINUOUS
 62
     7
 10
517.2653823456894
 20
212.0206913330277
 30
0.0
 11
511.7813823848288
 21
214.2922384928697
 31
0.0
  0
LINE
  5
1BF
  8
1
  6
CONTINUOUS
 62
     7
 10
609.8834891471089
 20
204.0084069246285
 30
0.0
 11
609.1160280323518
 21
203.7810745855789
 31
0.0
  0
LINE
  5
1C0
  8
1
  6
CONTINUOUS
 62
     7
 10
611.3247264101973
 20
195.8347442367197
 30
0.0
 11
610.5257966247356
 21
195.7858795977246
 31
0.0
  0
LINE
  5
1C1
  8
1
  6
CONTINUOUS
 62
     7
 10
614.6112713685903
 20
204.1867823807328
 30
0.0
 11
609.8834891471089
 21
204.0084069246285
 31
0.0
  0
LINE
  5
1C2
  8
1
  6
CONTINUOUS
 62
     7
 10
605.39121624981
 20
158.3320359999807
 30
0.0
 11
602.2156128896079
 21
161.8390697659674
 31
0.0
  0
LINE
  5
1C3
  8
1
  6
CONTINUOUS
 62
     7
 10
606.9047119311186
 20
212.3304628428312
 30
0.0
 11
606.1883861215712
 21
211.9733159688168
 31
0.0
  0
LINE
  5
1C4
  8
1
  6
CONTINUOUS
 62
     7
 10
600.8858252422496
 20
229.3285703097389
 30
0.0
 11
596.8806334629381
 21
226.8102015226003
 31
0.0
  0
LINE
  5
1C5
  8
1
  6
CONTINUOUS
 62
     7
 10
582.5087185976372
 20
236.9882683564927
 30
0.0
 11
582.1895507772255
 21
236.254232623401
 31
0.0
  0
LINE
  5
1C6
  8
1
  6
CONTINUOUS
 62
     7
 10
520.971037578988
 20
218.4390744724346
 30
0.0
 11
516.2618200522402
 21
222.0525841729718
 31
0.0
  0
LINE
  5
1C7
  8
1
  6
CONTINUOUS
 62
     7
 10
557.1276781000347
 20
142.9771697801643
 30
0.0
 11
564.5389885666322
 21
142.9771697801643
 31
0.0
  0
LINE
  5
1C8
  8
1
  6
CONTINUOUS
 62
     7
 10
557.1276781000347
 20
142.9771697801643
 30
0.0
 11
556.352895665922
 21
137.0921129197852
 31
0.0
  0
LINE
  5
1C9
  8
1
  6
CONTINUOUS
 62
     7
 10
602.5260791896773
 20
162.2824615935721
 30
0.0
 11
606.9077332568237
 21
160.497846740738
 31
0.0
  0
LINE
  5
1CA
  8
1
  6
CONTINUOUS
 62
     7
 10
604.4012843209777
 20
212.0206913330278
 30
0.0
 11
609.8852842818382
 21
214.2922384928697
 31
0.0
  0
LINE
  5
1CB
  8
1
  6
CONTINUOUS
 62
     7
 10
589.6965169349704
 20
232.8383910515526
 30
0.0
 11
589.2204072530334
 21
232.1949657444596
 31
0.0
  0
LINE
  5
1CC
  8
1
  6
CONTINUOUS
 62
     7
 10
615.8283964754688
 20
185.0071675005249
 30
0.0
 11
611.3247264101973
 21
186.4565461536981
 31
0.0
  0
LINE
  5
1CD
  8
1
  6
CONTINUOUS
 62
     7
 10
611.5296939444939
 20
213.3270991421161
 30
0.0
 11
606.9047119311186
 21
212.3304628428312
 31
0.0
  0
LINE
  5
1CE
  8
1
  6
CONTINUOUS
 62
     7
 10
564.9832106382736
 20
241.6842140611494
 30
0.0
 11
564.8926002122749
 21
240.8889365588005
 31
0.0
  0
LINE
  5
1CF
  8
1
  6
CONTINUOUS
 62
     7
 10
596.8806334629381
 20
155.4810888678176
 30
0.0
 11
600.8858252422496
 21
152.9627200806789
 31
0.0
  0
LINE
  5
1D0
  8
1
  6
CONTINUOUS
 62
     7
 10
609.7433951923579
 20
177.7600457088249
 30
0.0
 11
608.9650882010367
 21
177.9469006854846
 31
0.0
  0
LINE
  5
1D1
  8
1
  6
CONTINUOUS
 62
     7
 10
566.9718110280176
 20
246.1407083373442
 30
0.0
 11
565.5224323748444
 21
241.6370382720727
 31
0.0
  0
LINE
  5
1D2
  8
1
  6
CONTINUOUS
 62
     7
 10
590.139908762575
 20
232.5279247514833
 30
0.0
 11
589.6981258511277
 21
231.8604635809309
 31
0.0
  0
LINE
  5
1D3
  8
1
  6
CONTINUOUS
 62
     7
 10
593.6469425285617
 20
235.7035281116853
 30
0.0
 11
590.139908762575
 21
232.5279247514833
 31
0.0
  0
LINE
  5
1D4
  8
1
  6
CONTINUOUS
 62
     7
 10
611.371902199274
 20
186.9957678902688
 30
0.0
 11
616.0588333584353
 21
187.6410731253167
 31
0.0
  0
LINE
  5
1D5
  8
1
  6
CONTINUOUS
 62
     7
 10
609.7433951923578
 20
204.5312446815929
 30
0.0
 11
608.9650882010367
 21
204.3443897049332
 31
0.0
  0
LINE
  5
1D6
  8
1
  6
CONTINUOUS
 62
     7
 10
602.2156128896079
 20
220.4522206244504
 30
0.0
 11
601.5481517190556
 21
220.0104377130031
 31
0.0
  0
LINE
  5
1D7
  8
1
  6
CONTINUOUS
 62
     7
 10
585.4110349039643
 20
240.7246171885913
 30
0.0
 11
582.5087185976372
 21
236.9882683564927
 31
0.0
  0
LINE
  5
1D8
  8
1
  6
CONTINUOUS
 62
     7
 10
564.5389885666323
 20
142.9771697801643
 30
0.0
 11
565.313771000745
 21
137.0921129197852
 31
0.0
  0
LINE
  5
1D9
  8
1
  6
CONTINUOUS
 62
     7
 10
604.4012843209777
 20
212.0206913330278
 30
0.0
 11
600.6956290876788
 21
218.4390744724347
 31
0.0
  0
LINE
  5
1DA
  8
1
  6
CONTINUOUS
 62
     7
 10
600.6956290876789
 20
218.4390744724347
 30
0.0
 11
605.4048466144267
 21
222.0525841729718
 31
0.0
  0
LINE
  5
1DB
  8
1
  6
CONTINUOUS
 62
     7
 10
576.4283462540604
 20
244.2392742896487
 30
0.0
 11
574.2189328197176
 21
240.0557070542332
 31
0.0
  0
LINE
  5
1DC
  8
1
  6
CONTINUOUS
 62
     7
 10
609.8834891471089
 20
178.2828834657893
 30
0.0
 11
614.6112713685903
 21
178.1045080096851
 31
0.0
  0
LINE
  5
1DD
  8
1
  6
CONTINUOUS
 62
     7
 10
613.9269624277732
 20
175.550632274482
 30
0.0
 11
609.7433951923578
 21
177.7600457088249
 31
0.0
  0
LINE
  5
1DE
  8
1
  6
CONTINUOUS
 62
     7
 10
611.3247264101973
 20
186.4565461536981
 30
0.0
 11
610.5257966247356
 21
186.5054107926932
 31
0.0
  0
LINE
  5
1DF
  8
1
  6
CONTINUOUS
 62
     7
 10
556.6834560283934
 20
241.6842140611494
 30
0.0
 11
556.7740664543921
 21
240.8889365588005
 31
0.0
  0
LINE
  5
1E0
  8
1
  6
CONTINUOUS
 62
     7
 10
574.2189328197176
 20
240.0557070542332
 30
0.0
 11
574.0320778430579
 21
239.277400062912
 31
0.0
  0
LINE
  5
1E1
  8
1
  6
CONTINUOUS
 62
     7
 10
606.6759564946174
 20
169.4702599309053
 30
0.0
 11
605.9419207615256
 21
169.7894277513171
 31
0.0
  0
LINE
  5
1E2
  8
1
  6
CONTINUOUS
 62
     7
 10
609.8834891471089
 20
178.2828834657893
 30
0.0
 11
609.1160280323519
 21
178.510215804839
 31
0.0
  0
LINE
  5
1E3
  8
1
  6
CONTINUOUS
 62
     7
 10
606.9047119311186
 20
169.9608275475867
 30
0.0
 11
606.1883861215712
 21
170.317974421601
 31
0.0
  0
LINE
  5
1E4
  8
1
  6
CONTINUOUS
 62
     7
 10
616.0588333584352
 20
194.6502172651011
 30
0.0
 11
611.371902199274
 21
195.295522500149
 31
0.0
  0
LINE
  5
1E5
  8
1
  6
CONTINUOUS
 62
     7
 10
596.8806334629381
 20
226.8102015226003
 30
0.0
 11
596.3296588106667
 21
226.229595384503
 31
0.0
  0
LINE
  5
1E6
  8
1
  6
CONTINUOUS
 62
     7
 10
602.5260791896773
 20
162.2824615935721
 30
0.0
 11
601.8826538825842
 21
162.7585712755091
 31
0.0
  0
LINE
  5
1E7
  8
1
  6
CONTINUOUS
 62
     7
 10
565.5224323748444
 20
241.6370382720727
 30
0.0
 11
565.4735677358492
 21
240.838108486611
 31
0.0
  0
LINE
  5
1E8
  8
1
  6
CONTINUOUS
 62
     7
 10
564.9832106382736
 20
241.6842140611494
 30
0.0
 11
564.3379054032258
 21
246.3711452203106
 31
0.0
  0
LINE
  5
1E9
  8
1
  6
CONTINUOUS
 62
     7
 10
573.6960950627532
 20
240.1958010089843
 30
0.0
 11
573.4687627237035
 21
239.4283398942272
 31
0.0
  0
LINE
  5
1EA
  8
1
  6
CONTINUOUS
 62
     7
 10
573.6960950627532
 20
240.1958010089843
 30
0.0
 11
573.8744705188574
 21
244.9235832304658
 31
0.0
  0
LINE
  5
1EB
  8
1
  6
CONTINUOUS
 62
     7
 10
589.6965169349704
 20
232.8383910515526
 30
0.0
 11
591.4811317878044
 21
237.2200451186991
 31
0.0
  0
LINE
  5
1EC
  8
1
  6
CONTINUOUS
 62
     7
 10
606.9047119311186
 20
169.9608275475867
 30
0.0
 11
611.5296939444938
 21
168.9641912483017
 31
0.0
  0
LINE
  5
1ED
  8
1
  6
CONTINUOUS
 62
     7
 10
596.4978896607249
 20
227.1929453248135
 30
0.0
 11
595.9172835226276
 21
226.641970672542
 31
0.0
  0
LINE
  5
1EE
  8
1
  6
CONTINUOUS
 62
     7
 10
557.3287612634412
 20
246.3711452203107
 30
0.0
 11
556.6834560283933
 21
241.6842140611494
 31
0.0
  0
LINE
  5
1EF
  8
1
  6
CONTINUOUS
 62
     7
 10
596.4978896607249
 20
227.1929453248135
 30
0.0
 11
599.0162584478635
 21
231.1981371041248
 31
0.0
  0
LINE
  5
1F0
  8
1
  6
CONTINUOUS
 62
     7
 10
611.371902199274
 20
195.295522500149
 30
0.0
 11
610.576624696925
 21
195.2049120741503
 31
0.0
  0
LINE
  5
1F1
  8
1
  6
CONTINUOUS
 62
     7
 10
611.371902199274
 20
186.9957678902688
 30
0.0
 11
610.576624696925
 21
187.0863783162676
 31
0.0
  0
LINE
  5
1F2
  8
1
  6
CONTINUOUS
 62
     7
 10
582.0181509809557
 20
237.217023792994
 30
0.0
 11
583.0147872802407
 21
241.8420058063693
 31
0.0
  0
LINE
  5
1F3
  8
1
  6
CONTINUOUS
 62
     7
 10
611.3247264101973
 20
195.8347442367197
 30
0.0
 11
615.8283964754688
 21
197.2841228898929
 31
0.0
  0
LINE
  5
1F4
  8
1
  6
CONTINUOUS
 62
     7
 10
595.9172835226276
 20
226.641970672542
 30
0.0
 11
594.4891309902911
 21
225.2867045234906
 31
0.0
  0
LINE
  5
1F5
  8
1
  6
CONTINUOUS
 62
     7
 10
589.6981258511277
 20
231.8604635809309
 30
0.0
 11
588.6114453248174
 21
230.2186683975656
 31
0.0
  0
LINE
  5
1F6
  8
1
  6
CONTINUOUS
 62
     7
 10
589.6981258511277
 20
150.4308268094869
 30
0.0
 11
588.6114453248174
 21
152.0726219928522
 31
0.0
  0
LINE
  5
1F7
  8
1
  6
CONTINUOUS
 62
     7
 10
515.4782805450957
 20
211.9733159688168
 30
0.0
 11
517.2402710783609
 21
211.0948198953666
 31
0.0
  0
LINE
  5
1F8
  8
1
  6
CONTINUOUS
 62
     7
 10
596.3296588106666
 20
156.0616950059149
 30
0.0
 11
594.9743926616151
 21
157.4898475382513
 31
0.0
  0
LINE
  5
1F9
  8
1
  6
CONTINUOUS
 62
     7
 10
519.7840127840828
 20
162.7585712755092
 30
0.0
 11
521.3666854797343
 21
163.9296874648016
 31
0.0
  0
LINE
  5
1FA
  8
1
  6
CONTINUOUS
 62
     7
 10
539.4771158894417
 20
146.0370577670169
 30
0.0
 11
540.2621925551057
 21
147.8426104855531
 31
0.0
  0
LINE
  5
1FB
  8
1
  6
CONTINUOUS
 62
     7
 10
512.5506386343153
 20
203.7810745855789
 30
0.0
 11
514.4384098144511
 21
203.2218912866222
 31
0.0
  0
LINE
  5
1FC
  8
1
  6
CONTINUOUS
 62
     7
 10
565.4735677358492
 20
141.4531819038068
 30
0.0
 11
565.3533723859493
 21
143.4183585035673
 31
0.0
  0
LINE
  5
1FD
  8
1
  6
CONTINUOUS
 62
     7
 10
605.9419207615255
 20
169.7894277513171
 30
0.0
 11
604.1363680429891
 21
170.574504416981
 31
0.0
  0
LINE
  5
1FE
  8
1
  6
CONTINUOUS
 62
     7
 10
582.1895507772253
 20
236.254232623401
 30
0.0
 11
581.4044741115614
 21
234.4486799048647
 31
0.0
  0
LINE
  5
1FF
  8
1
  6
CONTINUOUS
 62
     7
 10
608.9650882010367
 20
204.3443897049332
 30
0.0
 11
607.0506387530286
 21
203.8847710571337
 31
0.0
  0
LINE
  5
200
  8
1
  6
CONTINUOUS
 62
     7
 10
606.1883861215713
 20
211.9733159688168
 30
0.0
 11
604.4263955883061
 21
211.0948198953666
 31
0.0
  0
LINE
  5
201
  8
1
  6
CONTINUOUS
 62
     7
 10
515.4782805450957
 20
170.317974421601
 30
0.0
 11
517.2402710783608
 21
171.1964704950513
 31
0.0
  0
LINE
  5
202
  8
1
  6
CONTINUOUS
 62
     7
 10
512.7015784656303
 20
177.9469006854846
 30
0.0
 11
514.6160279136385
 21
178.4065193332841
 31
0.0
  0
LINE
  5
203
  8
1
  6
CONTINUOUS
 62
     7
 10
520.1185149476115
 20
162.2808526774148
 30
0.0
 11
521.7603101309769
 21
163.3675332037249
 31
0.0
  0
LINE
  5
204
  8
1
  6
CONTINUOUS
 62
     7
 10
601.5481517190555
 20
220.0104377130031
 30
0.0
 11
599.9063565356901
 21
218.9237571866929
 31
0.0
  0
LINE
  5
205
  8
1
  6
CONTINUOUS
 62
     7
 10
596.3296588106666
 20
226.229595384503
 30
0.0
 11
594.9743926616151
 21
224.8014428521665
 31
0.0
  0
LINE
  5
206
  8
1
  6
CONTINUOUS
 62
     7
 10
515.7247459051415
 20
169.7894277513171
 30
0.0
 11
517.5302986236777
 21
170.574504416981
 31
0.0
  0
LINE
  5
207
  8
1
  6
CONTINUOUS
 62
     7
 10
547.6345888236092
 20
143.0138903275058
 30
0.0
 11
548.0942074714086
 21
144.928339775514
 31
0.0
  0
LINE
  5
208
  8
1
  6
CONTINUOUS
 62
     7
 10
512.7015784656303
 20
204.3443897049332
 30
0.0
 11
514.6160279136385
 21
203.8847710571337
 31
0.0
  0
LINE
  5
209
  8
1
  6
CONTINUOUS
 62
     7
 10
548.1979039429635
 20
142.8629504961906
 30
0.0
 11
548.7570872419203
 21
144.7507216763264
 31
0.0
  0
LINE
  5
20A
  8
1
  6
CONTINUOUS
 62
     7
 10
601.5481517190555
 20
162.2808526774148
 30
0.0
 11
599.9063565356901
 21
163.3675332037249
 31
0.0
  0
LINE
  5
20B
  8
1
  6
CONTINUOUS
 62
     7
 10
564.8926002122749
 20
240.8889365588005
 30
0.0
 11
564.6697201893902
 21
238.9327437038441
 31
0.0
  0
LINE
  5
20C
  8
1
  6
CONTINUOUS
 62
     7
 10
609.1160280323518
 20
178.510215804839
 30
0.0
 11
607.228256852216
 21
179.0693991037957
 31
0.0
  0
LINE
  5
20D
  8
1
  6
CONTINUOUS
 62
     7
 10
606.1883861215713
 20
170.317974421601
 30
0.0
 11
604.4263955883063
 21
171.1964704950512
 31
0.0
  0
LINE
  5
20E
  8
1
  6
CONTINUOUS
 62
     7
 10
531.9685408155393
 20
150.4308268094869
 30
0.0
 11
533.0552213418496
 21
152.0726219928523
 31
0.0
  0
LINE
  5
20F
  8
1
  6
CONTINUOUS
 62
     7
 10
532.4462594136337
 20
150.0963246459582
 30
0.0
 11
533.6173756029261
 21
151.6789973416097
 31
0.0
  0
LINE
  5
210
  8
1
  6
CONTINUOUS
 62
     7
 10
525.3370078560005
 20
226.229595384503
 30
0.0
 11
526.6922740050519
 21
224.8014428521665
 31
0.0
  0
LINE
  5
211
  8
1
  6
CONTINUOUS
 62
     7
 10
589.2204072530334
 20
150.0963246459582
 30
0.0
 11
588.049291063741
 21
151.6789973416097
 31
0.0
  0
LINE
  5
212
  8
1
  6
CONTINUOUS
 62
     7
 10
547.6345888236093
 20
239.277400062912
 30
0.0
 11
548.0942074714087
 21
237.3629506149039
 31
0.0
  0
LINE
  5
213
  8
1
  6
CONTINUOUS
 62
     7
 10
540.0056625597256
 20
236.5006979834467
 30
0.0
 11
540.8841586331758
 21
234.7387074501815
 31
0.0
  0
LINE
  5
214
  8
1
  6
CONTINUOUS
 62
     7
 10
548.1979039429636
 20
239.4283398942272
 30
0.0
 11
548.7570872419203
 21
237.5405687140914
 31
0.0
  0
LINE
  5
215
  8
1
  6
CONTINUOUS
 62
     7
 10
540.0056625597256
 20
145.7905924069712
 30
0.0
 11
540.8841586331758
 21
147.5525829402363
 31
0.0
  0
LINE
  5
216
  8
1
  6
CONTINUOUS
 62
     7
 10
582.1895507772253
 20
146.0370577670169
 30
0.0
 11
581.4044741115614
 21
147.8426104855531
 31
0.0
  0
LINE
  5
217
  8
1
  6
CONTINUOUS
 62
     7
 10
573.4687627237034
 20
142.8629504961906
 30
0.0
 11
572.9095794247468
 21
144.7507216763264
 31
0.0
  0
LINE
  5
218
  8
1
  6
CONTINUOUS
 62
     7
 10
595.9172835226276
 20
155.6493197178758
 30
0.0
 11
594.4891309902912
 21
157.0045858669272
 31
0.0
  0
LINE
  5
219
  8
1
  6
CONTINUOUS
 62
     7
 10
556.1930989308178
 20
240.838108486611
 30
0.0
 11
556.3132942807176
 21
238.8729318868506
 31
0.0
  0
LINE
  5
21A
  8
1
  6
CONTINUOUS
 62
     7
 10
601.8826538825842
 20
162.7585712755091
 30
0.0
 11
600.2999811869328
 21
163.9296874648016
 31
0.0
  0
LINE
  5
21B
  8
1
  6
CONTINUOUS
 62
     7
 10
573.4687627237034
 20
239.4283398942272
 30
0.0
 11
572.9095794247468
 21
237.5405687140914
 31
0.0
  0
LINE
  5
21C
  8
1
  6
CONTINUOUS
 62
     7
 10
525.7493831440394
 20
226.641970672542
 30
0.0
 11
527.1775356763759
 21
225.2867045234906
 31
0.0
  0
LINE
  5
21D
  8
1
  6
CONTINUOUS
 62
     7
 10
565.4735677358492
 20
240.838108486611
 30
0.0
 11
565.3533723859493
 21
238.8729318868506
 31
0.0
  0
LINE
  5
21E
  8
1
  6
CONTINUOUS
 62
     7
 10
581.6610041069414
 20
236.5006979834467
 30
0.0
 11
580.7825080334911
 21
234.7387074501815
 31
0.0
  0
LINE
  5
21F
  8
1
  6
CONTINUOUS
 62
     7
 10
589.2204072530334
 20
232.1949657444596
 30
0.0
 11
588.049291063741
 21
230.6122930488081
 31
0.0
  0
LINE
  5
220
  8
1
  6
CONTINUOUS
 62
     7
 10
525.3370078560005
 20
156.0616950059149
 30
0.0
 11
526.6922740050518
 21
157.4898475382513
 31
0.0
  0
LINE
  5
221
  8
1
  6
CONTINUOUS
 62
     7
 10
511.1408700419314
 20
186.5054107926932
 30
0.0
 11
513.1060466416919
 21
186.625606142593
 31
0.0
  0
LINE
  5
222
  8
1
  6
CONTINUOUS
 62
     7
 10
511.0900419697419
 20
187.0863783162676
 30
0.0
 11
513.0462348246983
 21
187.3092583391523
 31
0.0
  0
LINE
  5
223
  8
1
  6
CONTINUOUS
 62
     7
 10
511.1408700419314
 20
195.7858795977246
 30
0.0
 11
513.1060466416919
 21
195.6656842478249
 31
0.0
  0
LINE
  5
224
  8
1
  6
CONTINUOUS
 62
     7
 10
520.1185149476115
 20
220.0104377130031
 30
0.0
 11
521.7603101309769
 21
218.9237571866929
 31
0.0
  0
LINE
  5
225
  8
1
  6
CONTINUOUS
 62
     7
 10
574.0320778430578
 20
143.0138903275058
 30
0.0
 11
573.5724591952585
 21
144.9283397755139
 31
0.0
  0
LINE
  5
226
  8
1
  6
CONTINUOUS
 62
     7
 10
532.4462594136338
 20
232.1949657444596
 30
0.0
 11
533.6173756029262
 21
230.6122930488081
 31
0.0
  0
LINE
  5
227
  8
1
  6
CONTINUOUS
 62
     7
 10
556.1930989308177
 20
141.4531819038068
 30
0.0
 11
556.3132942807175
 21
143.4183585035673
 31
0.0
  0
LINE
  5
228
  8
1
  6
CONTINUOUS
 62
     7
 10
556.774066454392
 20
240.8889365588005
 30
0.0
 11
556.9969464772768
 21
238.9327437038441
 31
0.0
  0
LINE
  5
229
  8
1
  6
CONTINUOUS
 62
     7
 10
511.0900419697419
 20
195.2049120741503
 30
0.0
 11
513.0462348246983
 21
194.9820320512655
 31
0.0
  0
LINE
  5
22A
  8
1
  6
CONTINUOUS
 62
     7
 10
608.9650882010367
 20
177.9469006854846
 30
0.0
 11
607.0506387530286
 21
178.4065193332841
 31
0.0
  0
LINE
  5
22B
  8
1
  6
CONTINUOUS
 62
     7
 10
525.7493831440394
 20
155.6493197178758
 30
0.0
 11
527.1775356763758
 21
157.0045858669272
 31
0.0
  0
LINE
  5
22C
  8
1
  6
CONTINUOUS
 62
     7
 10
512.5506386343153
 20
178.510215804839
 30
0.0
 11
514.4384098144511
 21
179.0693991037957
 31
0.0
  0
LINE
  5
22D
  8
1
  6
CONTINUOUS
 62
     7
 10
574.0320778430578
 20
239.277400062912
 30
0.0
 11
573.5724591952585
 21
237.3629506149039
 31
0.0
  0
LINE
  5
22E
  8
1
  6
CONTINUOUS
 62
     7
 10
581.6610041069414
 20
145.7905924069711
 30
0.0
 11
580.7825080334911
 21
147.5525829402363
 31
0.0
  0
LINE
  5
22F
  8
1
  6
CONTINUOUS
 62
     7
 10
539.4771158894417
 20
236.254232623401
 30
0.0
 11
540.2621925551057
 21
234.4486799048647
 31
0.0
  0
LINE
  5
230
  8
1
  6
CONTINUOUS
 62
     7
 10
610.5257966247356
 20
186.5054107926932
 30
0.0
 11
608.5606200249752
 21
186.625606142593
 31
0.0
  0
LINE
  5
231
  8
1
  6
CONTINUOUS
 62
     7
 10
531.9685408155393
 20
231.8604635809309
 30
0.0
 11
533.0552213418496
 21
230.2186683975656
 31
0.0
  0
LINE
  5
232
  8
1
  6
CONTINUOUS
 62
     7
 10
610.576624696925
 20
187.0863783162676
 30
0.0
 11
608.6204318419686
 21
187.3092583391523
 31
0.0
  0
LINE
  5
233
  8
1
  6
CONTINUOUS
 62
     7
 10
610.576624696925
 20
195.2049120741503
 30
0.0
 11
608.6204318419686
 21
194.9820320512655
 31
0.0
  0
ARC
  5
234
  8
1
  6
CONTINUOUS
 62
     7
 10
560.8333333333333
 20
191.1456451952089
 30
0.0
 40
57.50000000000011
 50
283.1939879469195
 51
286.806012053081
  0
ARC
  5
235
  8
1
  6
CONTINUOUS
 62
     7
 10
560.8333333333333
 20
191.1456451952089
 30
0.0
 40
57.50000000000011
 50
293.1939879469196
 51
296.8060120530807
  0
ARC
  5
236
  8
1
  6
CONTINUOUS
 62
     7
 10
560.8333333333333
 20
191.1456451952089
 30
0.0
 40
57.50000000000012
 50
303.1939879469195
 51
306.8060120530806
  0
LINE
  5
237
  8
1
  6
CONTINUOUS
 62
     7
 10
493.8333333333335
 20
115.1456451952089
 30
0.0
 11
493.8333333333335
 21
115.6456451952089
 31
0.0
  0
LINE
  5
238
  8
1
  6
CONTINUOUS
 62
     7
 10
482.3368597955356
 20
102.7456451952089
 30
0.0
 11
482.3368597955356
 21
115.1456451952089
 31
0.0
  0
LINE
  5
239
  8
1
  6
CONTINUOUS
 62
     7
 10
631.7662239473749
 20
115.1456451952089
 30
0.0
 11
632.3920948286867
 21
115.145645195209
 31
0.0
  0
LINE
  5
23A
  8
1
  6
CONTINUOUS
 62
     7
 10
631.2333333333336
 20
114.8787990242866
 30
0.0
 11
631.2333333333333
 21
115.1456451952089
 31
0.0
  0
ARC
  5
23B
  8
1
  6
CONTINUOUS
 62
     7
 10
560.8333333333333
 20
191.1456451952089
 30
0.0
 40
57.50000000000016
 50
213.1939879469194
 51
216.8060120530807
  0
ARC
  5
23C
  8
1
  6
CONTINUOUS
 62
     7
 10
560.8333333333333
 20
191.1456451952089
 30
0.0
 40
57.50000000000007
 50
333.1939879469195
 51
336.8060120530808
  0
LINE
  5
23D
  8
1
  6
CONTINUOUS
 62
     7
 10
490.4333333333336
 20
115.1456451952089
 30
0.0
 11
490.4333333333336
 21
114.8787990242864
 31
0.0
  0
LINE
  5
23E
  8
1
  6
CONTINUOUS
 62
     7
 10
493.8333333333335
 20
115.6456451952089
 30
0.0
 11
627.8333333333335
 21
115.6456451952089
 31
0.0
  0
LINE
  5
23F
  8
1
  6
CONTINUOUS
 62
     7
 10
631.0001795042559
 20
114.6456451952089
 30
0.0
 11
631.2333333333336
 21
114.8787990242866
 31
0.0
  0
LINE
  5
240
  8
1
  6
CONTINUOUS
 62
     7
 10
493.8333333333335
 20
116.1456451952089
 30
0.0
 11
493.8333333333335
 21
115.6456451952089
 31
0.0
  0
ARC
  5
241
  8
1
  6
CONTINUOUS
 62
     7
 10
560.8333333333333
 20
191.1456451952089
 30
0.0
 40
57.50000000000011
 50
183.1939879469192
 51
186.8060120530807
  0
LINE
  5
242
  8
1
  6
CONTINUOUS
 62
     7
 10
609.1160280323518
 20
203.7810745855789
 30
0.0
 11
607.228256852216
 21
203.2218912866221
 31
0.0
  0
LINE
  5
243
  8
1
  6
CONTINUOUS
 62
     7
 10
633.371849814047
 20
115.1456451952089
 30
0.0
 11
639.3298068711314
 21
115.145645195209
 31
0.0
  0
LINE
  5
244
  8
1
  6
CONTINUOUS
 62
     7
 10
490.4333333333335
 20
114.8787990242864
 30
0.0
 11
490.666487162411
 21
114.6456451952089
 31
0.0
  0
LINE
  5
245
  8
1
  6
CONTINUOUS
 62
     7
 10
639.3298068711313
 20
115.145645195209
 30
0.0
 11
639.3298068711312
 21
102.745645195209
 31
0.0
  0
ARC
  5
246
  8
1
  6
CONTINUOUS
 62
     7
 10
560.8333333333333
 20
191.1456451952089
 30
0.0
 40
57.50000000000014
 50
243.1939879469195
 51
246.8060120530808
  0
ARC
  5
247
  8
1
  6
CONTINUOUS
 62
     7
 10
560.8333333333333
 20
191.1456451952089
 30
0.0
 40
57.50000000000014
 50
253.1939879469195
 51
256.8060120530808
  0
ARC
  5
248
  8
1
  6
CONTINUOUS
 62
     7
 10
560.8333333333333
 20
191.1456451952089
 30
0.0
 40
57.50000000000011
 50
263.1939879469195
 51
265.1049106042262
  0
LINE
  5
249
  8
1
  6
CONTINUOUS
 62
     7
 10
610.5257966247356
 20
195.7858795977246
 30
0.0
 11
608.5606200249752
 21
195.6656842478249
 31
0.0
  0
ARC
  5
24A
  8
1
  6
CONTINUOUS
 62
     7
 10
560.8333333333333
 20
191.1456451952089
 30
0.0
 40
57.50000000000011
 50
313.1939879469195
 51
316.8060120530807
  0
ARC
  5
24B
  8
1
  6
CONTINUOUS
 62
     7
 10
560.8333333333333
 20
191.1456451952089
 30
0.0
 40
57.50000000000012
 50
274.8950893957743
 51
276.8060120530809
  0
ARC
  5
24C
  8
1
  6
CONTINUOUS
 62
     7
 10
560.8333333333333
 20
191.1456451952089
 30
0.0
 40
57.50000000000011
 50
323.1939879469195
 51
326.8060120530807
  0
ARC
  5
24D
  8
1
  6
CONTINUOUS
 62
     7
 10
560.8333333333333
 20
191.1456451952089
 30
0.0
 40
57.50000000000012
 50
343.1939879469194
 51
346.8060120530806
  0
LINE
  5
24E
  8
1
  6
CONTINUOUS
 62
     7
 10
490.4333333333336
 20
115.1456451952089
 30
0.0
 11
493.8333333333335
 21
115.1456451952089
 31
0.0
  0
ARC
  5
24F
  8
1
  6
CONTINUOUS
 62
     7
 10
626.2333333333335
 20
102.7456451952089
 30
0.0
 40
13.09647353779786
 50
270.0000000000002
 51
0.0000000000002274
  0
ARC
  5
250
  8
1
  6
CONTINUOUS
 62
     7
 10
495.4333333333335
 20
102.7456451952089
 30
0.0
 40
13.09647353779796
 50
180.0
 51
270.0
  0
LINE
  5
251
  8
1
  6
CONTINUOUS
 62
     7
 10
631.2333333333333
 20
115.1456451952089
 30
0.0
 11
631.7662239473749
 21
115.1456451952089
 31
0.0
  0
LINE
  5
252
  8
1
  6
CONTINUOUS
 62
     7
 10
626.2333333333335
 20
89.64917165741097
 30
0.0
 11
495.4333333333336
 21
89.64917165741093
 31
0.0
  0
LINE
  5
253
  8
1
  6
CONTINUOUS
 62
     7
 10
488.29481685262
 20
115.1456451952089
 30
0.0
 11
482.3368597955356
 21
115.1456451952089
 31
0.0
  0
LINE
  5
254
  8
1
  6
CONTINUOUS
 62
     7
 10
627.8333333333335
 20
115.6456451952089
 30
0.0
 11
627.8333333333335
 21
115.1456451952089
 31
0.0
  0
ARC
  5
255
  8
1
  6
CONTINUOUS
 62
     7
 10
560.8333333333333
 20
191.1456451952089
 30
0.0
 40
57.50000000000014
 50
203.1939879469194
 51
206.8060120530807
  0
LINE
  5
256
  8
1
  6
CONTINUOUS
 62
     7
 10
489.9004427192921
 20
115.1456451952089
 30
0.0
 11
489.2745718379802
 21
115.1456451952089
 31
0.0
  0
LINE
  5
257
  8
1
  6
CONTINUOUS
 62
     7
 10
489.9004427192921
 20
115.1456451952089
 30
0.0
 11
490.4333333333336
 21
115.1456451952089
 31
0.0
  0
LINE
  5
258
  8
1
  6
CONTINUOUS
 62
     7
 10
627.8333333333335
 20
115.1456451952089
 30
0.0
 11
631.2333333333332
 21
115.1456451952089
 31
0.0
  0
ARC
  5
259
  8
1
  6
CONTINUOUS
 62
     7
 10
560.8333333333333
 20
191.1456451952089
 30
0.0
 40
57.50000000000013
 50
193.1939879469193
 51
196.8060120530807
  0
ARC
  5
25A
  8
1
  6
CONTINUOUS
 62
     7
 10
560.8333333333333
 20
191.1456451952089
 30
0.0
 40
57.50000000000012
 50
223.1939879469195
 51
226.8060120530809
  0
LINE
  5
25B
  8
1
  6
CONTINUOUS
 62
     7
 10
627.8333333333335
 20
115.6456451952089
 30
0.0
 11
627.8333333333335
 21
116.1456451952089
 31
0.0
  0
ARC
  5
25C
  8
1
  6
CONTINUOUS
 62
     7
 10
560.8333333333333
 20
191.1456451952089
 30
0.0
 40
57.50000000000013
 50
233.1939879469195
 51
236.806012053081
  0
LINE
  5
25D
  8
1
  6
CONTINUOUS
 62
     7
 10
623.0833333333336
 20
147.3956451952089
 30
0.0
 11
627.8333333333336
 21
147.3956451952089
 31
0.0
  0
LINE
  5
25E
  8
1
  6
CONTINUOUS
 62
     7
 10
566.3333333333336
 20
136.1456451952089
 30
0.0
 11
565.4383758405714
 21
136.1456451952089
 31
0.0
  0
ARC
  5
25F
  8
1
  6
CONTINUOUS
 62
     7
 10
566.3333333333336
 20
136.6456451952089
 30
0.0
 40
0.5000000000000235
 50
270.0
 51
353.6553894384458
  0
ARC
  5
260
  8
1
  6
CONTINUOUS
 62
     7
 10
560.8333333333335
 20
191.1456451952089
 30
0.0
 40
53.50000000000001
 50
14.03047715279041
 51
15.96952284720953
  0
ARC
  5
261
  8
1
  6
CONTINUOUS
 62
     7
 10
560.8333333333335
 20
191.1456451952089
 30
0.0
 40
53.49999999999999
 50
4.030477152790411
 51
5.969522847209533
  0
ARC
  5
262
  8
1
  6
CONTINUOUS
 62
     7
 10
560.8333333333335
 20
191.1456451952089
 30
0.0
 40
53.50000000000002
 50
354.0304771527906
 51
355.9695228472097
  0
ARC
  5
263
  8
1
  6
CONTINUOUS
 62
     7
 10
560.8333333333335
 20
191.1456451952089
 30
0.0
 40
53.50000000000002
 50
344.0304771527904
 51
345.9695228472095
  0
ARC
  5
264
  8
1
  6
CONTINUOUS
 62
     7
 10
560.8333333333333
 20
191.1456451952089
 30
0.0
 40
57.50000000000013
 50
353.1939879469194
 51
356.8060120530807
  0
ARC
  5
265
  8
1
  6
CONTINUOUS
 62
     7
 10
560.8333333333333
 20
191.1456451952089
 30
0.0
 40
57.50000000000013
 50
13.19398794691932
 51
16.80601205308045
  0
ARC
  5
266
  8
1
  6
CONTINUOUS
 62
     7
 10
560.8333333333335
 20
191.1456451952089
 30
0.0
 40
53.50000000000001
 50
334.0304771527904
 51
335.9695228472096
  0
ARC
  5
267
  8
1
  6
CONTINUOUS
 62
     7
 10
560.8333333333333
 20
191.1456451952089
 30
0.0
 40
57.50000000000013
 50
53.19398794691918
 51
56.80601205308031
  0
ARC
  5
268
  8
1
  6
CONTINUOUS
 62
     7
 10
560.8333333333333
 20
191.1456451952089
 30
0.0
 40
57.50000000000012
 50
113.1939879469191
 51
116.8060120530803
  0
ARC
  5
269
  8
1
  6
CONTINUOUS
 62
     7
 10
560.8333333333333
 20
191.1456451952089
 30
0.0
 40
57.50000000000012
 50
34.89508939577398
 51
36.80601205308047
  0
ARC
  5
26A
  8
1
  6
CONTINUOUS
 62
     7
 10
560.8333333333333
 20
191.1456451952089
 30
0.0
 40
57.50000000000013
 50
43.1939879469192
 51
46.80601205308032
  0
ARC
  5
26B
  8
1
  6
CONTINUOUS
 62
     7
 10
560.8333333333333
 20
191.1456451952089
 30
0.0
 40
57.50000000000011
 50
83.19398794691911
 51
86.80601205308044
  0
ARC
  5
26C
  8
1
  6
CONTINUOUS
 62
     7
 10
560.8333333333333
 20
191.1456451952089
 30
0.0
 40
57.50000000000013
 50
73.19398794691911
 51
76.80601205308024
  0
ARC
  5
26D
  8
1
  6
CONTINUOUS
 62
     7
 10
560.8333333333333
 20
191.1456451952089
 30
0.0
 40
57.50000000000016
 50
154.895089395774
 51
156.8060120530806
  0
ARC
  5
26E
  8
1
  6
CONTINUOUS
 62
     7
 10
560.8333333333333
 20
191.1456451952089
 30
0.0
 40
57.50000000000013
 50
133.1939879469192
 51
136.8060120530805
  0
LINE
  5
26F
  8
1
  6
CONTINUOUS
 62
     7
 10
493.8333333333335
 20
147.3956451952089
 30
0.0
 11
498.5833333333335
 21
147.3956451952089
 31
0.0
  0
ARC
  5
270
  8
1
  6
CONTINUOUS
 62
     7
 10
560.8333333333335
 20
191.1456451952089
 30
0.0
 40
66.99999999999997
 50
92.78036396861381
 51
180.0
  0
ARC
  5
271
  8
1
  6
CONTINUOUS
 62
     7
 10
498.5833333333335
 20
144.1456451952089
 30
0.0
 40
3.250000000000031
 50
270.0
 51
0.0
  0
ARC
  5
272
  8
1
  6
CONTINUOUS
 62
     7
 10
560.8333333333333
 20
191.1456451952089
 30
0.0
 40
57.50000000000011
 50
93.1939879469191
 51
96.80601205308052
  0
ARC
  5
273
  8
1
  6
CONTINUOUS
 62
     7
 10
560.8333333333333
 20
191.1456451952089
 30
0.0
 40
57.50000000000012
 50
3.193987946919386
 51
6.806012053080615
  0
LINE
  5
274
  8
1
  6
CONTINUOUS
 62
     7
 10
557.5833333333335
 20
255.8956451952089
 30
0.0
 11
557.5833333333335
 21
258.0667741456382
 31
0.0
  0
ARC
  5
275
  8
1
  6
CONTINUOUS
 62
     7
 10
560.8333333333335
 20
255.8956451952089
 30
0.0
 40
3.249999999999975
 50
180.0
 51
270.0
  0
ARC
  5
276
  8
1
  6
CONTINUOUS
 62
     7
 10
560.8333333333335
 20
255.8956451952089
 30
0.0
 40
3.249999999999975
 50
270.0
 51
0.0
  0
ARC
  5
277
  8
1
  6
CONTINUOUS
 62
     7
 10
560.8333333333333
 20
191.1456451952089
 30
0.0
 40
57.50000000000012
 50
23.1939879469193
 51
25.10491060422585
  0
ARC
  5
278
  8
1
  6
CONTINUOUS
 62
     7
 10
560.8333333333333
 20
191.1456451952089
 30
0.0
 40
57.50000000000014
 50
163.1939879469192
 51
166.8060120530805
  0
ARC
  5
279
  8
1
  6
CONTINUOUS
 62
     7
 10
560.8333333333335
 20
191.1456451952089
 30
0.0
 40
67.0
 50
0.000000000000007
 51
87.21963603138622
  0
LINE
  5
27A
  8
1
  6
CONTINUOUS
 62
     7
 10
627.8333333333335
 20
147.3956451952089
 30
0.0
 11
627.8333333333335
 21
191.1456451952089
 31
0.0
  0
ARC
  5
27B
  8
1
  6
CONTINUOUS
 62
     7
 10
560.8333333333333
 20
191.1456451952089
 30
0.0
 40
57.50000000000014
 50
123.1939879469191
 51
126.8060120530805
  0
ARC
  5
27C
  8
1
  6
CONTINUOUS
 62
     7
 10
560.8333333333333
 20
191.1456451952089
 30
0.0
 40
57.50000000000012
 50
143.1939879469192
 51
145.1049106042258
  0
LINE
  5
27D
  8
1
  6
CONTINUOUS
 62
     7
 10
564.0833333333335
 20
258.0667741456382
 30
0.0
 11
564.0833333333335
 21
255.8956451952089
 31
0.0
  0
ARC
  5
27E
  8
1
  6
CONTINUOUS
 62
     7
 10
623.0833333333336
 20
144.1456451952089
 30
0.0
 40
3.250000000000031
 50
90.0
 51
180.0
  0
ARC
  5
27F
  8
1
  6
CONTINUOUS
 62
     7
 10
623.0833333333336
 20
144.1456451952089
 30
0.0
 40
3.250000000000003
 50
180.0
 51
270.0
  0
ARC
  5
280
  8
1
  6
CONTINUOUS
 62
     7
 10
498.5833333333335
 20
144.1456451952089
 30
0.0
 40
3.250000000000031
 50
0.0
 51
90.0
  0
ARC
  5
281
  8
1
  6
CONTINUOUS
 62
     7
 10
560.8333333333333
 20
191.1456451952089
 30
0.0
 40
57.50000000000011
 50
103.1939879469191
 51
106.8060120530804
  0
LINE
  5
282
  8
1
  6
CONTINUOUS
 62
     7
 10
627.8333333333335
 20
140.8956451952089
 30
0.0
 11
623.0833333333335
 21
140.8956451952089
 31
0.0
  0
LINE
  5
283
  8
1
  6
CONTINUOUS
 62
     7
 10
627.8333333333335
 20
116.1456451952089
 30
0.0
 11
627.8333333333335
 21
140.8956451952089
 31
0.0
  0
LINE
  5
284
  8
1
  6
CONTINUOUS
 62
     7
 10
493.8333333333335
 20
140.8956451952089
 30
0.0
 11
493.8333333333335
 21
116.1456451952089
 31
0.0
  0
LINE
  5
285
  8
1
  6
CONTINUOUS
 62
     7
 10
493.8333333333335
 20
191.1456451952089
 30
0.0
 11
493.8333333333335
 21
147.3956451952089
 31
0.0
  0
ARC
  5
286
  8
1
  6
CONTINUOUS
 62
     7
 10
560.8333333333333
 20
191.1456451952089
 30
0.0
 40
57.50000000000011
 50
63.19398794691914
 51
66.80601205308038
  0
LINE
  5
287
  8
1
  6
CONTINUOUS
 62
     7
 10
498.5833333333335
 20
140.8956451952089
 30
0.0
 11
493.8333333333335
 21
140.8956451952089
 31
0.0
  0
ARC
  5
288
  8
1
  6
CONTINUOUS
 62
     7
 10
560.8333333333333
 20
191.1456451952089
 30
0.0
 40
57.50000000000015
 50
173.1939879469192
 51
176.8060120530807
  0
LINE
  5
289
  8
1
  6
CONTINUOUS
 62
     7
 10
530.1855348788625
 20
145.0712452717188
 30
0.0
 11
529.2583570295204
 21
142.7948030533396
 31
0.0
  0
LINE
  5
28A
  8
1
  6
CONTINUOUS
 62
     7
 10
503.4984358461945
 20
198.0371323027629
 30
0.0
 11
505.8382701911983
 21
197.2841228898929
 31
0.0
  0
LINE
  5
28B
  8
1
  6
CONTINUOUS
 62
     7
 10
613.9325546343495
 20
168.446399356634
 30
0.0
 11
614.1838952959877
 21
168.3922380158655
 31
0.0
  0
LINE
  5
28C
  8
1
  6
CONTINUOUS
 62
     7
 10
616.3278430751342
 20
174.2826861275603
 30
0.0
 11
616.1004907191865
 21
174.4027547965441
 31
0.0
  0
ARC
  5
28D
  8
1
  6
CONTINUOUS
 62
     7
 10
560.8333333333335
 20
191.1456451952089
 30
0.0
 40
57.99999999999999
 50
343.0976957329353
 51
345.0
  0
ARC
  5
28E
  8
1
  6
CONTINUOUS
 62
     7
 10
560.8333333333335
 20
191.1456451952089
 30
0.0
 40
58.00000000000001
 50
333.0976957329353
 51
334.9999999999999
  0
LINE
  5
28F
  8
1
  6
CONTINUOUS
 62
     7
 10
518.6999862223848
 20
151.65432810344
 30
0.0
 11
520.7808414244176
 21
152.9627200806789
 31
0.0
  0
LINE
  5
290
  8
1
  6
CONTINUOUS
 62
     7
 10
503.172787592197
 20
187.9763346631498
 30
0.0
 11
505.6078333082319
 21
187.6410731253167
 31
0.0
  0
LINE
  5
291
  8
1
  6
CONTINUOUS
 62
     7
 10
538.6518793864263
 20
140.4492845840485
 30
0.0
 11
538.1340874947587
 21
138.0464238941929
 31
0.0
  0
LINE
  5
292
  8
1
  6
CONTINUOUS
 62
     7
 10
526.1976816847693
 20
144.9379110017469
 30
0.0
 11
528.0197241381054
 21
146.5877622787325
 31
0.0
  0
LINE
  5
293
  8
1
  6
CONTINUOUS
 62
     7
 10
516.2754504168571
 20
158.3320359999808
 30
0.0
 11
514.6255991398714
 21
156.5099935466447
 31
0.0
  0
LINE
  5
294
  8
1
  6
CONTINUOUS
 62
     7
 10
512.4824911914642
 20
159.5706688913958
 30
0.0
 11
514.7589334098434
 21
160.497846740738
 31
0.0
  0
LINE
  5
295
  8
1
  6
CONTINUOUS
 62
     7
 10
511.2543613399512
 20
166.5679436245781
 30
0.0
 11
509.3131806594051
 21
165.0600757578854
 31
0.0
  0
LINE
  5
296
  8
1
  6
CONTINUOUS
 62
     7
 10
534.7477638960099
 20
139.6254925212804
 30
0.0
 11
536.2556317627027
 21
141.5666732018265
 31
0.0
  0
LINE
  5
297
  8
1
  6
CONTINUOUS
 62
     7
 10
505.6078333082318
 20
194.6502172651012
 30
0.0
 11
503.172787592197
 21
194.3149557272681
 31
0.0
  0
ARC
  5
298
  8
1
  6
CONTINUOUS
 62
     7
 10
560.8333333333335
 20
191.1456451952089
 30
0.0
 40
57.99999999999999
 50
354.9999999999999
 51
356.9023042670646
  0
LINE
  5
299
  8
1
  6
CONTINUOUS
 62
     7
 10
612.5565346645011
 20
164.9023518794777
 30
0.0
 11
612.3534860072621
 21
165.0600757578854
 31
0.0
  0
LINE
  5
29A
  8
1
  6
CONTINUOUS
 62
     7
 10
618.7485863090474
 20
194.2798871704031
 30
0.0
 11
618.4938790744701
 21
194.3149557272681
 31
0.0
  0
ARC
  5
29B
  8
1
  6
CONTINUOUS
 62
     7
 10
560.8333333333335
 20
191.1456451952089
 30
0.0
 40
57.99999999999998
 50
13.09769573293538
 51
15.00000000000002
  0
LINE
  5
29C
  8
1
  6
CONTINUOUS
 62
     7
 10
618.4129788888395
 20
184.1753928538444
 30
0.0
 11
618.1682308204726
 21
184.254158087655
 31
0.0
  0
LINE
  5
29D
  8
1
  6
CONTINUOUS
 62
     7
 10
618.1682308204726
 20
198.0371323027629
 30
0.0
 11
618.4129788888395
 21
198.1158975365734
 31
0.0
  0
LINE
  5
29E
  8
1
  6
CONTINUOUS
 62
     7
 10
616.1004907191863
 20
207.8885355938737
 30
0.0
 11
616.3278430751341
 21
208.0086042628575
 31
0.0
  0
ARC
  5
29F
  8
1
  6
CONTINUOUS
 62
     7
 10
560.8333333333335
 20
191.1456451952089
 30
0.0
 40
58.00000000000001
 50
25.00000000000001
 51
25.08243919316382
  0
LINE
  5
2A0
  8
1
  6
CONTINUOUS
 62
     7
 10
607.2136429546233
 20
156.3194068190463
 30
0.0
 11
607.0410675267956
 21
156.5099935466447
 31
0.0
  0
ARC
  5
2A1
  8
1
  6
CONTINUOUS
 62
     7
 10
560.8333333333335
 20
191.1456451952089
 30
0.0
 40
58.00000000000001
 50
345.0
 51
346.9023042670647
  0
LINE
  5
2A2
  8
1
  6
CONTINUOUS
 62
     7
 10
609.1841754752029
 20
159.5706688913958
 30
0.0
 11
609.4222926893069
 21
159.4736855352263
 31
0.0
  0
ARC
  5
2A3
  8
1
  6
CONTINUOUS
 62
     7
 10
560.8333333333335
 20
191.1456451952089
 30
0.0
 40
58.0
 50
15.00000000000002
 51
16.90230426706468
  0
LINE
  5
2A4
  8
1
  6
CONTINUOUS
 62
     7
 10
613.3202611196638
 20
215.7150524855346
 30
0.0
 11
613.3638620519177
 21
215.7331125830063
 31
0.0
  0
LINE
  5
2A5
  8
1
  6
CONTINUOUS
 62
     7
 10
504.5991258428998
 20
178.0118349203048
 30
0.0
 11
507.0553952980766
 21
178.1045080096851
 31
0.0
  0
LINE
  5
2A6
  8
1
  6
CONTINUOUS
 62
     7
 10
507.0553952980766
 20
204.1867823807328
 30
0.0
 11
504.5991258428999
 21
204.2794554701131
 31
0.0
  0
LINE
  5
2A7
  8
1
  6
CONTINUOUS
 62
     7
 10
505.5661759474808
 20
207.8885355938737
 30
0.0
 11
507.7397042388938
 21
206.7406581159358
 31
0.0
  0
ARC
  5
2A8
  8
1
  6
CONTINUOUS
 62
     7
 10
560.8333333333335
 20
191.1456451952089
 30
0.0
 40
58.00000000000001
 50
334.9999999999999
 51
336.9023042670646
  0
ARC
  5
2A9
  8
1
  6
CONTINUOUS
 62
     7
 10
560.8333333333335
 20
191.1456451952089
 30
0.0
 40
57.99999999999997
 50
3.097695732935353
 51
4.999999999999971
  0
LINE
  5
2AA
  8
1
  6
CONTINUOUS
 62
     7
 10
608.3545280958471
 20
224.3159543796075
 30
0.0
 11
608.3919690651794
 21
224.3446838458322
 31
0.0
  0
LINE
  5
2AB
  8
1
  6
CONTINUOUS
 62
     7
 10
617.3244680741202
 20
204.2891491305484
 30
0.0
 11
617.0675408237672
 21
204.279455470113
 31
0.0
  0
LINE
  5
2AC
  8
1
  6
CONTINUOUS
 62
     7
 10
510.136972722173
 20
213.3270991421161
 30
0.0
 11
507.7341120323176
 21
213.8448910337838
 31
0.0
  0
LINE
  5
2AD
  8
1
  6
CONTINUOUS
 62
     7
 10
544.0904429346687
 20
135.8784878093561
 30
0.0
 11
545.2383204126065
 21
138.0520161007691
 31
0.0
  0
LINE
  5
2AE
  8
1
  6
CONTINUOUS
 62
     7
 10
618.4938790744701
 20
187.9763346631497
 30
0.0
 11
618.7485863090474
 21
188.0114032200147
 31
0.0
  0
LINE
  5
2AF
  8
1
  6
CONTINUOUS
 62
     7
 10
617.0675408237672
 20
178.0118349203048
 30
0.0
 11
617.3244680741202
 21
178.0021412598694
 31
0.0
  0
LINE
  5
2B0
  8
1
  6
CONTINUOUS
 62
     7
 10
507.7397042388938
 20
175.550632274482
 30
0.0
 11
505.5661759474808
 21
174.4027547965441
 31
0.0
  0
LINE
  5
2B1
  8
1
  6
CONTINUOUS
 62
     7
 10
505.8382701911982
 20
185.0071675005249
 30
0.0
 11
503.4984358461945
 21
184.254158087655
 31
0.0
  0
ARC
  5
2B2
  8
1
  6
CONTINUOUS
 62
     7
 10
560.8333333333335
 20
191.1456451952089
 30
0.0
 40
58.00000000000001
 50
323.0976957329353
 51
324.9999999999999
  0
LINE
  5
2B3
  8
1
  6
CONTINUOUS
 62
     7
 10
522.6504082188035
 20
151.093153286293
 30
0.0
 11
521.3420162415645
 21
149.0122980842602
 31
0.0
  0
ARC
  5
2B4
  8
1
  6
CONTINUOUS
 62
     7
 10
560.8333333333335
 20
191.1456451952089
 30
0.0
 40
57.99999999999998
 50
324.9999999999999
 51
326.9023042670647
  0
ARC
  5
2B5
  8
1
  6
CONTINUOUS
 62
     7
 10
560.8333333333335
 20
191.1456451952089
 30
0.0
 40
57.99999999999997
 50
353.0976957329352
 51
354.9999999999999
  0
ARC
  5
2B6
  8
1
  6
CONTINUOUS
 62
     7
 10
560.8333333333335
 20
191.1456451952089
 30
0.0
 40
57.99999999999999
 50
5.000000000000063
 51
6.902304267064755
  0
ARC
  5
2B7
  8
1
  6
CONTINUOUS
 62
     7
 10
560.8333333333335
 20
191.1456451952089
 30
0.0
 40
58.00000000000001
 50
34.91756080683626
 51
34.99999999999999
  0
ARC
  5
2B8
  8
1
  6
CONTINUOUS
 62
     7
 10
560.8333333333335
 20
191.1456451952089
 30
0.0
 40
58.00000000000003
 50
23.09769573293536
 51
24.99999999999999
  0
LINE
  5
2B9
  8
1
  6
CONTINUOUS
 62
     7
 10
614.1838952959877
 20
213.8990523745524
 30
0.0
 11
613.9325546343495
 21
213.8448910337838
 31
0.0
  0
LINE
  5
2BA
  8
1
  6
CONTINUOUS
 62
     7
 10
507.7341120323176
 20
168.4463993566341
 30
0.0
 11
510.1369727221731
 21
168.9641912483018
 31
0.0
  0
LINE
  5
2BB
  8
1
  6
CONTINUOUS
 62
     7
 10
510.3419402564697
 20
186.4565461536981
 30
0.0
 11
505.8382701911982
 21
185.0071675005249
 31
0.0
  0
LINE
  5
2BC
  8
1
  6
CONTINUOUS
 62
     7
 10
554.6948556386495
 20
246.1407083373442
 30
0.0
 11
553.9418462257796
 21
248.480542682348
 31
0.0
  0
LINE
  5
2BD
  8
1
  6
CONTINUOUS
 62
     7
 10
507.0553952980766
 20
178.1045080096851
 30
0.0
 11
511.783177519558
 21
178.2828834657893
 31
0.0
  0
LINE
  5
2BE
  8
1
  6
CONTINUOUS
 62
     7
 10
616.1004907191864
 20
174.4027547965441
 30
0.0
 11
613.9269624277732
 21
175.550632274482
 31
0.0
  0
LINE
  5
2BF
  8
1
  6
CONTINUOUS
 62
     7
 10
547.6995230584293
 20
247.3798526856426
 30
0.0
 11
547.7921961478097
 21
244.9235832304658
 31
0.0
  0
LINE
  5
2C0
  8
1
  6
CONTINUOUS
 62
     7
 10
547.7921961478096
 20
137.367707159952
 30
0.0
 11
547.6995230584292
 21
134.9114377047752
 31
0.0
  0
LINE
  5
2C1
  8
1
  6
CONTINUOUS
 62
     7
 10
605.3912162498099
 20
223.9592543904371
 30
0.0
 11
607.0410675267955
 21
225.7812968437731
 31
0.0
  0
LINE
  5
2C2
  8
1
  6
CONTINUOUS
 62
     7
 10
613.9325546343495
 20
213.8448910337838
 30
0.0
 11
611.5296939444938
 21
213.3270991421161
 31
0.0
  0
LINE
  5
2C3
  8
1
  6
CONTINUOUS
 62
     7
 10
514.7619547355483
 20
169.9608275475867
 30
0.0
 11
515.4782805450958
 21
170.317974421601
 31
0.0
  0
LINE
  5
2C4
  8
1
  6
CONTINUOUS
 62
     7
 10
606.9077332568237
 20
160.4978467407379
 30
0.0
 11
609.1841754752029
 21
159.5706688913958
 31
0.0
  0
LINE
  5
2C5
  8
1
  6
CONTINUOUS
 62
     7
 10
573.9671436082376
 20
134.9114377047752
 30
0.0
 11
573.8744705188573
 21
137.367707159952
 31
0.0
  0
LINE
  5
2C6
  8
1
  6
CONTINUOUS
 62
     7
 10
611.5296939444939
 20
168.9641912483017
 30
0.0
 11
613.9325546343495
 21
168.446399356634
 31
0.0
  0
LINE
  5
2C7
  8
1
  6
CONTINUOUS
 62
     7
 10
511.9232714743092
 20
177.7600457088249
 30
0.0
 11
512.7015784656303
 21
177.9469006854847
 31
0.0
  0
LINE
  5
2C8
  8
1
  6
CONTINUOUS
 62
     7
 10
605.4048466144267
 20
222.0525841729718
 30
0.0
 11
608.3545280958471
 21
224.3159543796075
 31
0.0
  0
LINE
  5
2C9
  8
1
  6
CONTINUOUS
 62
     7
 10
511.9232714743092
 20
177.7600457088249
 30
0.0
 11
507.7397042388937
 21
175.550632274482
 31
0.0
  0
LINE
  5
2CA
  8
1
  6
CONTINUOUS
 62
     7
 10
510.136972722173
 20
168.9641912483018
 30
0.0
 11
514.7619547355483
 21
169.9608275475867
 31
0.0
  0
LINE
  5
2CB
  8
1
  6
CONTINUOUS
 62
     7
 10
520.7808414244175
 20
229.3285703097389
 30
0.0
 11
518.6999862223847
 21
230.6369622869778
 31
0.0
  0
LINE
  5
2CC
  8
1
  6
CONTINUOUS
 62
     7
 10
521.3420162415645
 20
233.2789923061576
 30
0.0
 11
522.6504082188035
 21
231.1981371041248
 31
0.0
  0
LINE
  5
2CD
  8
1
  6
CONTINUOUS
 62
     7
 10
553.9418462257795
 20
133.8107477080698
 30
0.0
 11
554.6948556386494
 21
136.1505820530736
 31
0.0
  0
LINE
  5
2CE
  8
1
  6
CONTINUOUS
 62
     7
 10
528.0197241381054
 20
235.7035281116853
 30
0.0
 11
526.1976816847693
 21
237.3533793886709
 31
0.0
  0
LINE
  5
2CF
  8
1
  6
CONTINUOUS
 62
     7
 10
583.5325791719083
 20
138.0464238941929
 30
0.0
 11
583.0147872802407
 21
140.4492845840485
 31
0.0
  0
LINE
  5
2D0
  8
1
  6
CONTINUOUS
 62
     7
 10
565.313771000745
 20
137.0921129197852
 30
0.0
 11
565.7990663571502
 21
133.4059287204848
 31
0.0
  0
LINE
  5
2D1
  8
1
  6
CONTINUOUS
 62
     7
 10
538.1340874947587
 20
244.2448664962249
 30
0.0
 11
538.6518793864263
 21
241.8420058063693
 31
0.0
  0
LINE
  5
2D2
  8
1
  6
CONTINUOUS
 62
     7
 10
511.7813823848287
 20
214.2922384928697
 30
0.0
 11
508.3464055470031
 21
215.7150524855345
 31
0.0
  0
LINE
  5
2D3
  8
1
  6
CONTINUOUS
 62
     7
 10
516.2618200522402
 20
222.0525841729718
 30
0.0
 11
513.3121385708197
 21
224.3159543796074
 31
0.0
  0
LINE
  5
2D4
  8
1
  6
CONTINUOUS
 62
     7
 10
576.4283462540604
 20
138.0520161007691
 30
0.0
 11
577.5762237319983
 21
135.8784878093561
 31
0.0
  0
LINE
  5
2D5
  8
1
  6
CONTINUOUS
 62
     7
 10
593.6469425285618
 20
146.5877622787325
 30
0.0
 11
595.4689849818978
 21
144.9379110017469
 31
0.0
  0
LINE
  5
2D6
  8
1
  6
CONTINUOUS
 62
     7
 10
607.0410675267955
 20
156.5099935466447
 30
0.0
 11
605.39121624981
 21
158.3320359999807
 31
0.0
  0
LINE
  5
2D7
  8
1
  6
CONTINUOUS
 62
     7
 10
564.3379054032258
 20
246.3711452203107
 30
0.0
 11
564.0026438653927
 21
248.8061909363455
 31
0.0
  0
LINE
  5
2D8
  8
1
  6
CONTINUOUS
 62
     7
 10
573.8744705188574
 20
244.9235832304658
 30
0.0
 11
573.9671436082377
 21
247.3798526856426
 31
0.0
  0
LINE
  5
2D9
  8
1
  6
CONTINUOUS
 62
     7
 10
612.3534860072621
 20
165.0600757578854
 30
0.0
 11
610.4123053267158
 21
166.5679436245781
 31
0.0
  0
LINE
  5
2DA
  8
1
  6
CONTINUOUS
 62
     7
 10
583.0147872802407
 20
241.8420058063693
 30
0.0
 11
583.5325791719083
 21
244.2448664962249
 31
0.0
  0
LINE
  5
2DB
  8
1
  6
CONTINUOUS
 62
     7
 10
536.2556317627027
 20
240.7246171885913
 30
0.0
 11
534.7477638960099
 21
242.6657978691374
 31
0.0
  0
LINE
  5
2DC
  8
1
  6
CONTINUOUS
 62
     7
 10
617.0675408237672
 20
204.279455470113
 30
0.0
 11
614.6112713685903
 21
204.1867823807328
 31
0.0
  0
LINE
  5
2DD
  8
1
  6
CONTINUOUS
 62
     7
 10
577.5762237319983
 20
246.4128025810617
 30
0.0
 11
576.4283462540604
 21
244.2392742896487
 31
0.0
  0
LINE
  5
2DE
  8
1
  6
CONTINUOUS
 62
     7
 10
556.352895665922
 20
137.0921129197852
 30
0.0
 11
555.8676003095169
 21
133.4059287204848
 31
0.0
  0
LINE
  5
2DF
  8
1
  6
CONTINUOUS
 62
     7
 10
615.8283964754688
 20
197.2841228898929
 30
0.0
 11
618.1682308204726
 21
198.0371323027629
 31
0.0
  0
LINE
  5
2E0
  8
1
  6
CONTINUOUS
 62
     7
 10
602.9666804442821
 20
230.6369622869778
 30
0.0
 11
600.8858252422494
 21
229.3285703097389
 31
0.0
  0
LINE
  5
2E1
  8
1
  6
CONTINUOUS
 62
     7
 10
613.9269624277732
 20
206.7406581159358
 30
0.0
 11
616.1004907191863
 21
207.8885355938737
 31
0.0
  0
LINE
  5
2E2
  8
1
  6
CONTINUOUS
 62
     7
 10
595.4689849818977
 20
237.3533793886709
 30
0.0
 11
593.6469425285617
 21
235.7035281116853
 31
0.0
  0
LINE
  5
2E3
  8
1
  6
CONTINUOUS
 62
     7
 10
529.2583570295204
 20
239.4964873370783
 30
0.0
 11
530.1855348788625
 21
237.2200451186991
 31
0.0
  0
LINE
  5
2E4
  8
1
  6
CONTINUOUS
 62
     7
 10
600.3246504251025
 20
149.0122980842602
 30
0.0
 11
599.0162584478635
 21
151.093153286293
 31
0.0
  0
LINE
  5
2E5
  8
1
  6
CONTINUOUS
 62
     7
 10
567.7248204408875
 20
248.480542682348
 30
0.0
 11
566.9718110280176
 21
246.1407083373442
 31
0.0
  0
LINE
  5
2E6
  8
1
  6
CONTINUOUS
 62
     7
 10
614.6112713685903
 20
178.1045080096851
 30
0.0
 11
617.0675408237672
 21
178.0118349203048
 31
0.0
  0
LINE
  5
2E7
  8
1
  6
CONTINUOUS
 62
     7
 10
618.4938790744701
 20
194.3149557272681
 30
0.0
 11
616.0588333584351
 21
194.6502172651011
 31
0.0
  0
LINE
  5
2E8
  8
1
  6
CONTINUOUS
 62
     7
 10
609.8852842818383
 20
214.2922384928697
 30
0.0
 11
613.3202611196638
 21
215.7150524855346
 31
0.0
  0
LINE
  5
2E9
  8
1
  6
CONTINUOUS
 62
     7
 10
592.4083096371467
 20
142.7948030533396
 30
0.0
 11
591.4811317878044
 21
145.0712452717188
 31
0.0
  0
LINE
  5
2EA
  8
1
  6
CONTINUOUS
 62
     7
 10
585.4110349039643
 20
141.5666732018265
 30
0.0
 11
586.918902770657
 21
139.6254925212804
 31
0.0
  0
LINE
  5
2EB
  8
1
  6
CONTINUOUS
 62
     7
 10
520.7808414244175
 20
152.9627200806789
 30
0.0
 11
524.7860332037288
 21
155.4810888678176
 31
0.0
  0
LINE
  5
2EC
  8
1
  6
CONTINUOUS
 62
     7
 10
586.9189027706569
 20
242.6657978691374
 30
0.0
 11
585.4110349039642
 21
240.7246171885913
 31
0.0
  0
LINE
  5
2ED
  8
1
  6
CONTINUOUS
 62
     7
 10
566.9718110280176
 20
136.1505820530736
 30
0.0
 11
567.7248204408874
 21
133.8107477080698
 31
0.0
  0
LINE
  5
2EE
  8
1
  6
CONTINUOUS
 62
     7
 10
557.6640228012743
 20
248.8061909363455
 30
0.0
 11
557.3287612634412
 21
246.3711452203107
 31
0.0
  0
LINE
  5
2EF
  8
1
  6
CONTINUOUS
 62
     7
 10
519.4510537770591
 20
161.8390697659674
 30
0.0
 11
516.2754504168571
 21
158.3320359999808
 31
0.0
  0
LINE
  5
2F0
  8
1
  6
CONTINUOUS
 62
     7
 10
511.783177519558
 20
178.2828834657893
 30
0.0
 11
512.5506386343152
 21
178.510215804839
 31
0.0
  0
LINE
  5
2F1
  8
1
  6
CONTINUOUS
 62
     7
 10
519.4510537770591
 20
161.8390697659674
 30
0.0
 11
520.1185149476115
 21
162.2808526774148
 31
0.0
  0
LINE
  5
2F2
  8
1
  6
CONTINUOUS
 62
     7
 10
618.1682308204726
 20
184.254158087655
 30
0.0
 11
615.8283964754688
 21
185.0071675005249
 31
0.0
  0
LINE
  5
2F3
  8
1
  6
CONTINUOUS
 62
     7
 10
616.0588333584352
 20
187.6410731253167
 30
0.0
 11
618.4938790744701
 21
187.9763346631497
 31
0.0
  0
LINE
  5
2F4
  8
1
  6
CONTINUOUS
 62
     7
 10
600.8858252422496
 20
152.9627200806789
 30
0.0
 11
602.9666804442822
 21
151.65432810344
 31
0.0
  0
LINE
  5
2F5
  8
1
  6
CONTINUOUS
 62
     7
 10
591.4811317878044
 20
237.2200451186991
 30
0.0
 11
592.4083096371467
 21
239.4964873370783
 31
0.0
  0
LINE
  5
2F6
  8
1
  6
CONTINUOUS
 62
     7
 10
524.7860332037288
 20
155.4810888678176
 30
0.0
 11
525.3370078560004
 21
156.0616950059149
 31
0.0
  0
LINE
  5
2F7
  8
1
  6
CONTINUOUS
 62
     7
 10
599.0162584478635
 20
231.1981371041248
 30
0.0
 11
600.3246504251025
 21
233.2789923061576
 31
0.0
  0
LINE
  5
2F8
  8
1
  6
CONTINUOUS
 62
     7
 10
514.6255991398715
 20
225.7812968437731
 30
0.0
 11
516.2754504168572
 21
223.9592543904371
 31
0.0
  0
LINE
  5
2F9
  8
1
  6
CONTINUOUS
 62
     7
 10
545.2383204126065
 20
244.2392742896487
 30
0.0
 11
544.0904429346687
 21
246.4128025810617
 31
0.0
  0
LINE
  5
2FA
  8
1
  6
CONTINUOUS
 62
     7
 10
510.3419402564697
 20
186.4565461536981
 30
0.0
 11
511.1408700419314
 21
186.5054107926932
 31
0.0
  0
LINE
  5
2FB
  8
1
  6
CONTINUOUS
 62
     7
 10
547.9705716039139
 20
240.1958010089843
 30
0.0
 11
548.1979039429635
 21
239.4283398942272
 31
0.0
  0
LINE
  5
2FC
  8
1
  6
CONTINUOUS
 62
     7
 10
565.5224323748444
 20
140.6542521183451
 30
0.0
 11
565.4735677358492
 21
141.4531819038068
 31
0.0
  0
LINE
  5
2FD
  8
1
  6
CONTINUOUS
 62
     7
 10
539.1579480690298
 20
145.3030220339251
 30
0.0
 11
539.4771158894416
 21
146.0370577670169
 31
0.0
  0
LINE
  5
2FE
  8
1
  6
CONTINUOUS
 62
     7
 10
531.9701497316967
 20
232.8383910515526
 30
0.0
 11
532.4462594136338
 21
232.1949657444596
 31
0.0
  0
LINE
  5
2FF
  8
1
  6
CONTINUOUS
 62
     7
 10
556.1442342918227
 20
241.6370382720727
 30
0.0
 11
556.1930989308178
 21
240.838108486611
 31
0.0
  0
LINE
  5
300
  8
1
  6
CONTINUOUS
 62
     7
 10
531.5267579040919
 20
232.5279247514833
 30
0.0
 11
531.9685408155393
 21
231.8604635809309
 31
0.0
  0
LINE
  5
301
  8
1
  6
CONTINUOUS
 62
     7
 10
531.5267579040919
 20
149.7633656389346
 30
0.0
 11
531.9685408155393
 21
150.4308268094869
 31
0.0
  0
LINE
  5
302
  8
1
  6
CONTINUOUS
 62
     7
 10
507.7397042388938
 20
206.7406581159358
 30
0.0
 11
511.9232714743093
 21
204.5312446815929
 31
0.0
  0
LINE
  5
303
  8
1
  6
CONTINUOUS
 62
     7
 10
573.6960950627532
 20
142.0954893814335
 30
0.0
 11
573.4687627237035
 21
142.8629504961906
 31
0.0
  0
LINE
  5
304
  8
1
  6
CONTINUOUS
 62
     7
 10
556.1442342918227
 20
241.6370382720727
 30
0.0
 11
554.6948556386495
 21
246.1407083373442
 31
0.0
  0
LINE
  5
305
  8
1
  6
CONTINUOUS
 62
     7
 10
547.7921961478096
 20
244.9235832304658
 30
0.0
 11
547.9705716039139
 21
240.1958010089843
 31
0.0
  0
LINE
  5
306
  8
1
  6
CONTINUOUS
 62
     7
 10
554.6948556386495
 20
136.1505820530736
 30
0.0
 11
556.1442342918227
 21
140.6542521183451
 31
0.0
  0
LINE
  5
307
  8
1
  6
CONTINUOUS
 62
     7
 10
565.5224323748444
 20
140.6542521183451
 30
0.0
 11
566.9718110280176
 21
136.1505820530736
 31
0.0
  0
LINE
  5
308
  8
1
  6
CONTINUOUS
 62
     7
 10
528.0197241381053
 20
146.5877622787325
 30
0.0
 11
531.5267579040918
 21
149.7633656389346
 31
0.0
  0
LINE
  5
309
  8
1
  6
CONTINUOUS
 62
     7
 10
525.168777005942
 20
155.0983450656043
 30
0.0
 11
525.7493831440394
 21
155.6493197178758
 31
0.0
  0
LINE
  5
30A
  8
1
  6
CONTINUOUS
 62
     7
 10
547.4477338469494
 20
142.2355833361846
 30
0.0
 11
547.6345888236092
 21
143.0138903275058
 31
0.0
  0
LINE
  5
30B
  8
1
  6
CONTINUOUS
 62
     7
 10
574.2189328197176
 20
142.2355833361846
 30
0.0
 11
576.4283462540604
 21
138.0520161007691
 31
0.0
  0
LINE
  5
30C
  8
1
  6
CONTINUOUS
 62
     7
 10
525.168777005942
 20
155.0983450656043
 30
0.0
 11
522.6504082188035
 21
151.093153286293
 31
0.0
  0
LINE
  5
30D
  8
1
  6
CONTINUOUS
 62
     7
 10
539.6485156857112
 20
145.0742665974238
 30
0.0
 11
540.0056625597256
 21
145.7905924069712
 31
0.0
  0
LINE
  5
30E
  8
1
  6
CONTINUOUS
 62
     7
 10
582.0181509809557
 20
145.0742665974237
 30
0.0
 11
581.6610041069414
 21
145.7905924069711
 31
0.0
  0
LINE
  5
30F
  8
1
  6
CONTINUOUS
 62
     7
 10
583.0147872802407
 20
140.4492845840485
 30
0.0
 11
582.0181509809557
 21
145.0742665974237
 31
0.0
  0
LINE
  5
310
  8
1
  6
CONTINUOUS
 62
     7
 10
514.7619547355484
 20
212.3304628428312
 30
0.0
 11
510.1369727221731
 21
213.3270991421161
 31
0.0
  0
LINE
  5
311
  8
1
  6
CONTINUOUS
 62
     7
 10
547.9705716039139
 20
142.0954893814335
 30
0.0
 11
548.1979039429634
 21
142.8629504961906
 31
0.0
  0
LINE
  5
312
  8
1
  6
CONTINUOUS
 62
     7
 10
573.8744705188574
 20
137.367707159952
 30
0.0
 11
573.6960950627532
 21
142.0954893814335
 31
0.0
  0
LINE
  5
313
  8
1
  6
CONTINUOUS
 62
     7
 10
545.2383204126065
 20
138.0520161007691
 30
0.0
 11
547.4477338469494
 21
142.2355833361846
 31
0.0
  0
LINE
  5
314
  8
1
  6
CONTINUOUS
 62
     7
 10
510.294764467393
 20
186.9957678902688
 30
0.0
 11
511.0900419697419
 21
187.0863783162676
 31
0.0
  0
LINE
  5
315
  8
1
  6
CONTINUOUS
 62
     7
 10
519.1405874769897
 20
162.2824615935721
 30
0.0
 11
519.7840127840828
 21
162.7585712755091
 31
0.0
  0
LINE
  5
316
  8
1
  6
CONTINUOUS
 62
     7
 10
511.7831775195581
 20
204.0084069246286
 30
0.0
 11
512.5506386343152
 21
203.7810745855789
 31
0.0
  0
LINE
  5
317
  8
1
  6
CONTINUOUS
 62
     7
 10
514.7619547355484
 20
212.3304628428312
 30
0.0
 11
515.4782805450958
 21
211.9733159688168
 31
0.0
  0
LINE
  5
318
  8
1
  6
CONTINUOUS
 62
     7
 10
547.9705716039139
 20
142.0954893814335
 30
0.0
 11
547.7921961478096
 21
137.367707159952
 31
0.0
  0
LINE
  5
319
  8
1
  6
CONTINUOUS
 62
     7
 10
589.6965169349704
 20
149.4528993388652
 30
0.0
 11
589.2204072530334
 21
150.0963246459582
 31
0.0
  0
LINE
  5
31A
  8
1
  6
CONTINUOUS
 62
     7
 10
510.294764467393
 20
195.295522500149
 30
0.0
 11
511.0900419697419
 21
195.2049120741503
 31
0.0
  0
LINE
  5
31B
  8
1
  6
CONTINUOUS
 62
     7
 10
582.5087185976372
 20
145.3030220339251
 30
0.0
 11
582.1895507772255
 21
146.0370577670169
 31
0.0
  0
LINE
  5
31C
  8
1
  6
CONTINUOUS
 62
     7
 10
536.2556317627027
 20
141.5666732018265
 30
0.0
 11
539.1579480690299
 21
145.3030220339251
 31
0.0
  0
LINE
  5
31D
  8
1
  6
CONTINUOUS
 62
     7
 10
531.9701497316967
 20
149.4528993388652
 30
0.0
 11
530.1855348788625
 21
145.0712452717188
 31
0.0
  0
LINE
  5
31E
  8
1
  6
CONTINUOUS
 62
     7
 10
530.1855348788625
 20
237.2200451186991
 30
0.0
 11
531.9701497316967
 21
232.8383910515526
 31
0.0
  0
LINE
  5
31F
  8
1
  6
CONTINUOUS
 62
     7
 10
591.4811317878044
 20
145.0712452717188
 30
0.0
 11
589.6965169349704
 21
149.4528993388652
 31
0.0
  0
LINE
  5
320
  8
1
  6
CONTINUOUS
 62
     7
 10
524.7860332037288
 20
226.8102015226003
 30
0.0
 11
525.3370078560004
 21
226.229595384503
 31
0.0
  0
LINE
  5
321
  8
1
  6
CONTINUOUS
 62
     7
 10
582.5087185976372
 20
145.3030220339251
 30
0.0
 11
585.4110349039644
 21
141.5666732018265
 31
0.0
  0
LINE
  5
322
  8
1
  6
CONTINUOUS
 62
     7
 10
505.6078333082318
 20
187.6410731253167
 30
0.0
 11
510.294764467393
 21
186.9957678902688
 31
0.0
  0
LINE
  5
323
  8
1
  6
CONTINUOUS
 62
     7
 10
539.1579480690298
 20
236.9882683564927
 30
0.0
 11
536.2556317627027
 21
240.7246171885913
 31
0.0
  0
LINE
  5
324
  8
1
  6
CONTINUOUS
 62
     7
 10
539.6485156857112
 20
237.2170237929941
 30
0.0
 11
540.0056625597256
 21
236.5006979834467
 31
0.0
  0
LINE
  5
325
  8
1
  6
CONTINUOUS
 62
     7
 10
547.4477338469494
 20
240.0557070542332
 30
0.0
 11
547.6345888236092
 21
239.277400062912
 31
0.0
  0
LINE
  5
326
  8
1
  6
CONTINUOUS
 62
     7
 10
525.168777005942
 20
227.1929453248135
 30
0.0
 11
525.7493831440394
 21
226.641970672542
 31
0.0
  0
LINE
  5
327
  8
1
  6
CONTINUOUS
 62
     7
 10
547.4477338469494
 20
240.0557070542332
 30
0.0
 11
545.2383204126065
 21
244.2392742896487
 31
0.0
  0
LINE
  5
328
  8
1
  6
CONTINUOUS
 62
     7
 10
514.9907101720496
 20
169.4702599309053
 30
0.0
 11
515.7247459051414
 21
169.7894277513171
 31
0.0
  0
LINE
  5
329
  8
1
  6
CONTINUOUS
 62
     7
 10
531.9701497316967
 20
149.4528993388652
 30
0.0
 11
532.4462594136337
 21
150.0963246459582
 31
0.0
  0
LINE
  5
32A
  8
1
  6
CONTINUOUS
 62
     7
 10
511.7831775195581
 20
204.0084069246286
 30
0.0
 11
507.0553952980766
 21
204.1867823807328
 31
0.0
  0
LINE
  5
32B
  8
1
  6
CONTINUOUS
 62
     7
 10
556.1442342918227
 20
140.6542521183451
 30
0.0
 11
556.1930989308177
 21
141.4531819038068
 31
0.0
  0
LINE
  5
32C
  8
1
  6
CONTINUOUS
 62
     7
 10
514.9907101720496
 20
169.4702599309053
 30
0.0
 11
511.2543613399511
 21
166.5679436245781
 31
0.0
  0
LINE
  5
32D
  8
1
  6
CONTINUOUS
 62
     7
 10
511.9232714743092
 20
204.5312446815929
 30
0.0
 11
512.7015784656303
 21
204.3443897049332
 31
0.0
  0
LINE
  5
32E
  8
1
  6
CONTINUOUS
 62
     7
 10
510.3419402564697
 20
195.8347442367197
 30
0.0
 11
511.1408700419314
 21
195.7858795977246
 31
0.0
  0
LINE
  5
32F
  8
1
  6
CONTINUOUS
 62
     7
 10
505.8382701911982
 20
197.2841228898929
 30
0.0
 11
510.3419402564697
 21
195.8347442367197
 31
0.0
  0
LINE
  5
330
  8
1
  6
CONTINUOUS
 62
     7
 10
524.7860332037288
 20
226.8102015226003
 30
0.0
 11
520.7808414244175
 21
229.3285703097389
 31
0.0
  0
LINE
  5
331
  8
1
  6
CONTINUOUS
 62
     7
 10
539.6485156857112
 20
145.0742665974238
 30
0.0
 11
538.6518793864263
 21
140.4492845840485
 31
0.0
  0
LINE
  5
332
  8
1
  6
CONTINUOUS
 62
     7
 10
516.2754504168572
 20
223.9592543904371
 30
0.0
 11
519.4510537770592
 21
220.4522206244504
 31
0.0
  0
LINE
  5
333
  8
1
  6
CONTINUOUS
 62
     7
 10
531.5267579040919
 20
232.5279247514833
 30
0.0
 11
528.0197241381054
 21
235.7035281116853
 31
0.0
  0
LINE
  5
334
  8
1
  6
CONTINUOUS
 62
     7
 10
522.6504082188035
 20
231.1981371041248
 30
0.0
 11
525.168777005942
 21
227.1929453248135
 31
0.0
  0
LINE
  5
335
  8
1
  6
CONTINUOUS
 62
     7
 10
514.7589334098434
 20
160.497846740738
 30
0.0
 11
519.1405874769897
 21
162.2824615935721
 31
0.0
  0
LINE
  5
336
  8
1
  6
CONTINUOUS
 62
     7
 10
510.294764467393
 20
195.295522500149
 30
0.0
 11
505.6078333082316
 21
194.6502172651011
 31
0.0
  0
LINE
  5
337
  8
1
  6
CONTINUOUS
 62
     7
 10
574.2189328197176
 20
142.2355833361846
 30
0.0
 11
574.0320778430579
 21
143.0138903275058
 31
0.0
  0
LINE
  5
338
  8
1
  6
CONTINUOUS
 62
     7
 10
539.1579480690298
 20
236.9882683564927
 30
0.0
 11
539.4771158894416
 21
236.254232623401
 31
0.0
  0
LINE
  5
339
  8
1
  6
CONTINUOUS
 62
     7
 10
519.4510537770591
 20
220.4522206244504
 30
0.0
 11
520.1185149476114
 21
220.0104377130031
 31
0.0
  0
LINE
  5
33A
  8
1
  6
CONTINUOUS
 62
     7
 10
538.6518793864263
 20
241.8420058063693
 30
0.0
 11
539.6485156857111
 21
237.2170237929941
 31
0.0
  0
LINE
  5
33B
  8
1
  6
CONTINUOUS
 62
     7
 10
596.8806334629381
 20
155.4810888678176
 30
0.0
 11
596.3296588106666
 21
156.0616950059149
 31
0.0
  0
LINE
  5
33C
  8
1
  6
CONTINUOUS
 62
     7
 10
590.139908762575
 20
149.7633656389345
 30
0.0
 11
593.6469425285618
 21
146.5877622787325
 31
0.0
  0
LINE
  5
33D
  8
1
  6
CONTINUOUS
 62
     7
 10
596.4978896607249
 20
155.0983450656043
 30
0.0
 11
595.9172835226276
 21
155.6493197178758
 31
0.0
  0
LINE
  5
33E
  8
1
  6
CONTINUOUS
 62
     7
 10
602.2156128896079
 20
161.8390697659674
 30
0.0
 11
601.5481517190555
 21
162.2808526774148
 31
0.0
  0
LINE
  5
33F
  8
1
  6
CONTINUOUS
 62
     7
 10
599.0162584478635
 20
151.093153286293
 30
0.0
 11
596.4978896607249
 21
155.0983450656043
 31
0.0
  0
LINE
  5
340
  8
1
  6
CONTINUOUS
 62
     7
 10
590.139908762575
 20
149.7633656389345
 30
0.0
 11
589.6981258511277
 21
150.4308268094869
 31
0.0
  0
ARC
  5
341
  8
1
  6
CONTINUOUS
 62
     7
 10
159.9999999999999
 20
191.1456451952089
 30
0.0
 40
72.53851648071347
 50
0.0
 51
180.0
  0
LINE
  5
342
  8
1
  6
CONTINUOUS
 62
     7
 10
108.0508122730292
 20
123.1456451952089
 30
0.0
 11
106.2705265805024
 21
123.1456451952089
 31
0.0
  0
ARC
  5
343
  8
1
  6
CONTINUOUS
 62
     7
 10
94.6000000000001
 20
102.7456451952089
 30
0.0
 40
12.71345131623847
 50
179.9999999999998
 51
269.9999999999999
  0
ARC
  5
344
  8
1
  6
CONTINUOUS
 62
     7
 10
209.7949860454575
 20
123.2529978074763
 30
0.0
 40
4.522075525065897
 50
358.6396889090734
 51
38.61803337900682
  0
POLYLINE
  5
345
  8
1
  6
CONTINUOUS
 62
     7
 66
     1
 10
0.0
 20
0.0
 30
0.0
  0
VERTEX
  5
612
  8
1
  6
CONTINUOUS
 62
     7
 10
213.3281925117629
 20
126.07534065002
 30
0.0
  0
VERTEX
  5
613
  8
1
  6
CONTINUOUS
 62
     7
 10
213.2036923759362
 20
126.1745419949402
 30
0.0
  0
VERTEX
  5
614
  8
1
  6
CONTINUOUS
 62
     7
 10
213.079071363818
 20
126.2497822230135
 30
0.0
  0
VERTEX
  5
615
  8
1
  6
CONTINUOUS
 62
     7
 10
212.9518009582116
 20
126.3036224844992
 30
0.0
  0
VERTEX
  5
616
  8
1
  6
CONTINUOUS
 62
     7
 10
212.8189506390102
 20
126.3362160550698
 30
0.0
  0
VERTEX
  5
617
  8
1
  6
CONTINUOUS
 62
     7
 10
212.6989967195564
 20
126.3456451952032
 30
0.0
  0
SEQEND
  5
66D
  8
1
  6
CONTINUOUS
 62
     7
  0
LINE
  5
346
  8
1
  6
CONTINUOUS
 62
     7
 10
99.49999999999997
 20
115.1456451952089
 30
0.0
 11
99.4999999999999
 21
191.1456451952089
 31
0.0
  0
CIRCLE
  5
347
  8
1
  6
CONTINUOUS
 62
     7
 10
225.9999999999999
 20
154.6456451952089
 30
0.0
 40
2.100000000000005
  0
ARC
  5
348
  8
1
  6
CONTINUOUS
 62
     7
 10
159.9999999999999
 20
191.1456451952089
 30
0.0
 40
60.50000000000001
 50
0.0
 51
90.0
  0
LINE
  5
349
  8
1
  6
CONTINUOUS
 62
     7
 10
220.4999999999999
 20
115.1456451952089
 30
0.0
 11
220.4999999999999
 21
191.1456451952089
 31
0.0
  0
POLYLINE
  5
34A
  8
1
  6
CONTINUOUS
 62
     7
 66
     1
 10
0.0
 20
0.0
 30
0.0
  0
VERTEX
  5
618
  8
1
  6
CONTINUOUS
 62
     7
 10
107.3010030581631
 20
126.345645195204
 30
0.0
  0
VERTEX
  5
619
  8
1
  6
CONTINUOUS
 62
     7
 10
107.1863289018414
 20
126.3370366907805
 30
0.0
  0
VERTEX
  5
61A
  8
1
  6
CONTINUOUS
 62
     7
 10
107.0553269525161
 20
126.3059635947357
 30
0.0
  0
VERTEX
  5
61B
  8
1
  6
CONTINUOUS
 62
     7
 10
106.9278547245537
 20
126.2533060292287
 30
0.0
  0
VERTEX
  5
61C
  8
1
  6
CONTINUOUS
 62
     7
 10
106.8013143253851
 20
126.1780023553505
 30
0.0
  0
VERTEX
  5
61D
  8
1
  6
CONTINUOUS
 62
     7
 10
106.6764634089341
 20
126.0795175716622
 30
0.0
  0
SEQEND
  5
66E
  8
1
  6
CONTINUOUS
 62
     7
  0
ARC
  5
34B
  8
1
  6
CONTINUOUS
 62
     7
 10
110.1911207937102
 20
123.256114314642
 30
0.0
 40
4.508261581154533
 50
141.2243043603991
 51
181.4040995102131
  0
LINE
  5
34C
  8
1
  6
CONTINUOUS
 62
     7
 10
220.4999999999999
 20
115.1456451952089
 30
0.0
 11
99.49999999999997
 21
115.1456451952089
 31
0.0
  0
CIRCLE
  5
34D
  8
1
  6
CONTINUOUS
 62
     7
 10
159.9999999999999
 20
257.1456451952089
 30
0.0
 40
2.1
  0
LINE
  5
34E
  8
1
  6
CONTINUOUS
 62
     7
 10
232.5385164807134
 20
191.1456451952089
 30
0.0
 11
232.5385164807134
 21
115.1456451952089
 31
0.0
  0
LINE
  5
34F
  8
1
  6
CONTINUOUS
 62
     7
 10
87.46148351928642
 20
115.145645195209
 30
0.0
 11
87.46148351928643
 21
191.1456451952089
 31
0.0
  0
LINE
  5
350
  8
1
  6
CONTINUOUS
 62
     7
 10
97.99999999999986
 20
115.145645195209
 30
0.0
 11
90.33851648071332
 21
115.145645195209
 31
0.0
  0
LINE
  5
351
  8
1
  6
CONTINUOUS
 62
     7
 10
221.9999999999999
 20
115.1456451952089
 30
0.0
 11
229.6614835192865
 21
115.1456451952089
 31
0.0
  0
LINE
  5
352
  8
1
  6
CONTINUOUS
 62
     7
 10
238.1134513162384
 20
102.7456451952089
 30
0.0
 11
238.1134513162384
 21
115.1456451952089
 31
0.0
  0
LINE
  5
353
  8
1
  6
CONTINUOUS
 62
     7
 10
94.60000000000005
 20
89.64917165741099
 30
0.0
 11
225.3999999999999
 21
89.64917165741095
 31
0.0
  0
LINE
  5
354
  8
1
  6
CONTINUOUS
 62
     7
 10
229.6614835192864
 20
115.1456451952089
 30
0.0
 11
230.5899602101717
 21
115.1456451952089
 31
0.0
  0
LINE
  5
355
  8
1
  6
CONTINUOUS
 62
     7
 10
211.2098114883896
 20
123.1456451952089
 30
0.0
 11
211.9491877269707
 21
123.1456451952089
 31
0.0
  0
LINE
  5
356
  8
1
  6
CONTINUOUS
 62
     7
 10
105.6842128672305
 20
123.145645195209
 30
0.0
 11
106.2705265805024
 21
123.145645195209
 31
0.0
  0
LINE
  5
357
  8
1
  6
CONTINUOUS
 62
     7
 10
81.50352646220213
 20
115.145645195209
 30
0.0
 11
81.88654868376162
 21
115.145645195209
 31
0.0
  0
ARC
  5
358
  8
1
  6
CONTINUOUS
 62
     7
 10
225.3999999999999
 20
102.7456451952089
 30
0.0
 40
13.09647353779796
 50
269.9999999999999
 51
0.0000000000000568
  0
CIRCLE
  5
359
  8
1
  6
CONTINUOUS
 62
     7
 10
93.99999999999987
 20
154.6456451952089
 30
0.0
 40
2.100000000000005
  0
LINE
  5
35A
  8
1
  6
CONTINUOUS
 62
     7
 10
90.33851648071332
 20
115.145645195209
 30
0.0
 11
89.41003978982808
 21
115.145645195209
 31
0.0
  0
LINE
  5
35B
  8
1
  6
CONTINUOUS
 62
     7
 10
226.9999999999999
 20
114.6456451952089
 30
0.0
 11
226.9999999999999
 21
115.1456451952089
 31
0.0
  0
LINE
  5
35C
  8
1
  6
CONTINUOUS
 62
     7
 10
213.7294734194973
 20
123.1456451952089
 30
0.0
 11
214.3157871327693
 21
123.1456451952089
 31
0.0
  0
POLYLINE
  5
35D
  8
1
  6
CONTINUOUS
 62
     7
 66
     1
 10
0.0
 20
0.0
 30
0.0
  0
VERTEX
  5
61E
  8
1
  6
CONTINUOUS
 62
     7
 10
212.6989967195564
 20
126.3456451952032
 30
0.0
  0
VERTEX
  5
61F
  8
1
  6
CONTINUOUS
 62
     7
 10
212.5551443910933
 20
126.3320983953466
 30
0.0
  0
VERTEX
  5
620
  8
1
  6
CONTINUOUS
 62
     7
 10
212.4261080366649
 20
126.2967011611392
 30
0.0
  0
VERTEX
  5
621
  8
1
  6
CONTINUOUS
 62
     7
 10
212.2953361287607
 20
126.2375109295213
 30
0.0
  0
VERTEX
  5
622
  8
1
  6
CONTINUOUS
 62
     7
 10
212.1676285310961
 20
126.1557430341995
 30
0.0
  0
VERTEX
  5
623
  8
1
  6
CONTINUOUS
 62
     7
 10
212.047453823989
 20
126.0551462595322
 30
0.0
  0
SEQEND
  5
66F
  8
1
  6
CONTINUOUS
 62
     7
  0
ARC
  5
35E
  8
1
  6
CONTINUOUS
 62
     7
 10
215.2235953203373
 20
123.5653473448707
 30
0.0
 40
4.03571225935088
 50
141.9068612780592
 51
185.9693851212206
  0
LINE
  5
35F
  8
1
  6
CONTINUOUS
 62
     7
 10
230.5899602101717
 20
115.1456451952089
 30
0.0
 11
231.7127342007617
 21
115.1456451952089
 31
0.0
  0
LINE
  5
360
  8
1
  6
CONTINUOUS
 62
     7
 10
81.88654868376162
 20
115.1456451952089
 30
0.0
 11
88.28726579923816
 21
115.145645195209
 31
0.0
  0
LINE
  5
361
  8
1
  6
CONTINUOUS
 62
     7
 10
92.99999999999989
 20
115.1456451952089
 30
0.0
 11
92.99999999999989
 21
114.6456451952089
 31
0.0
  0
LINE
  5
362
  8
1
  6
CONTINUOUS
 62
     7
 10
106.1187092322442
 20
123.1456451952089
 30
0.0
 11
106.1220556411689
 21
123.222136208651
 31
0.0
  0
POLYLINE
  5
363
  8
1
  6
CONTINUOUS
 62
     7
 66
     1
 10
0.0
 20
0.0
 30
0.0
  0
VERTEX
  5
624
  8
1
  6
CONTINUOUS
 62
     7
 10
212.4815440367554
 20
126.3149813109017
 30
0.0
  0
VERTEX
  5
625
  8
1
  6
CONTINUOUS
 62
     7
 10
212.6384658041557
 20
126.2533179877046
 30
0.0
  0
VERTEX
  5
626
  8
1
  6
CONTINUOUS
 62
     7
 10
212.7649627855883
 20
126.1780185826536
 30
0.0
  0
VERTEX
  5
627
  8
1
  6
CONTINUOUS
 62
     7
 10
212.8897623310685
 20
126.0795381738742
 30
0.0
  0
SEQEND
  5
670
  8
1
  6
CONTINUOUS
 62
     7
  0
ARC
  5
364
  8
1
  6
CONTINUOUS
 62
     7
 10
209.4074510387713
 20
123.2756680865135
 30
0.0
 40
4.470814176775501
 50
359.3138694925672
 51
38.84014946549149
  0
LINE
  5
365
  8
1
  6
CONTINUOUS
 62
     7
 10
221.9999999999999
 20
115.1456451952089
 30
0.0
 11
220.4999999999999
 21
115.1456451952089
 31
0.0
  0
LINE
  5
366
  8
1
  6
CONTINUOUS
 62
     7
 10
94.60000000000008
 20
90.03219387897047
 30
0.0
 11
225.3999999999999
 21
90.03219387897043
 31
0.0
  0
LINE
  5
367
  8
1
  6
CONTINUOUS
 62
     7
 10
81.88654868376162
 20
115.1456451952089
 30
0.0
 11
81.88654868376163
 21
102.745645195209
 31
0.0
  0
LINE
  5
368
  8
1
  6
CONTINUOUS
 62
     7
 10
81.50352646220213
 20
115.145645195209
 30
0.0
 11
81.50352646220215
 21
102.745645195209
 31
0.0
  0
LINE
  5
369
  8
1
  6
CONTINUOUS
 62
     7
 10
238.4964735377978
 20
102.7456451952089
 30
0.0
 11
238.4964735377978
 21
115.1456451952089
 31
0.0
  0
ARC
  5
36A
  8
1
  6
CONTINUOUS
 62
     7
 10
225.3999999999999
 20
102.7456451952089
 30
0.0
 40
12.71345131623847
 50
269.9999999999999
 51
0.0000000000000568
  0
LINE
  5
36B
  8
1
  6
CONTINUOUS
 62
     7
 10
211.209766282393
 20
123.1456451952089
 30
0.0
 11
211.9491877269707
 21
123.1456451952089
 31
0.0
  0
LINE
  5
36C
  8
1
  6
CONTINUOUS
 62
     7
 10
211.9491877269707
 20
123.1456451952089
 30
0.0
 11
213.7294734194973
 21
123.1456451952089
 31
0.0
  0
ARC
  5
36D
  8
1
  6
CONTINUOUS
 62
     7
 10
104.7592748562797
 20
123.5622983847104
 30
0.0
 40
4.052434974436101
 50
354.0986764240981
 51
37.85337860999346
  0
POLYLINE
  5
36E
  8
1
  6
CONTINUOUS
 62
     7
 66
     1
 10
0.0
 20
0.0
 30
0.0
  0
VERTEX
  5
628
  8
1
  6
CONTINUOUS
 62
     7
 10
107.9590113173027
 20
126.049046422215
 30
0.0
  0
VERTEX
  5
629
  8
1
  6
CONTINUOUS
 62
     7
 10
107.8373758640892
 20
126.1520152747218
 30
0.0
  0
VERTEX
  5
62A
  8
1
  6
CONTINUOUS
 62
     7
 10
107.7097799429772
 20
126.2347117977381
 30
0.0
  0
VERTEX
  5
62B
  8
1
  6
CONTINUOUS
 62
     7
 10
107.5810433945058
 20
126.2940703439462
 30
0.0
  0
VERTEX
  5
62C
  8
1
  6
CONTINUOUS
 62
     7
 10
107.4520367906595
 20
126.330719387708
 30
0.0
  0
VERTEX
  5
62D
  8
1
  6
CONTINUOUS
 62
     7
 10
107.3202269481577
 20
126.3453919475014
 30
0.0
  0
VERTEX
  5
62E
  8
1
  6
CONTINUOUS
 62
     7
 10
107.3010030581631
 20
126.345645195204
 30
0.0
  0
SEQEND
  5
671
  8
1
  6
CONTINUOUS
 62
     7
  0
ARC
  5
36F
  8
1
  6
CONTINUOUS
 62
     7
 10
110.6066681578908
 20
123.2724130582088
 30
0.0
 40
4.484894333954801
 50
141.3208700813111
 51
180.6423142689736
  0
POLYLINE
  5
370
  8
1
  6
CONTINUOUS
 62
     7
 66
     1
 10
0.0
 20
0.0
 30
0.0
  0
VERTEX
  5
62F
  8
1
  6
CONTINUOUS
 62
     7
 10
107.1054990629774
 20
126.0752851843614
 30
0.0
  0
VERTEX
  5
630
  8
1
  6
CONTINUOUS
 62
     7
 10
107.2299445539334
 20
126.1744970857256
 30
0.0
  0
VERTEX
  5
631
  8
1
  6
CONTINUOUS
 62
     7
 10
107.3545213605229
 20
126.2497488315065
 30
0.0
  0
VERTEX
  5
632
  8
1
  6
CONTINUOUS
 62
     7
 10
107.4817557633466
 20
126.3036005777108
 30
0.0
  0
VERTEX
  5
633
  8
1
  6
CONTINUOUS
 62
     7
 10
107.5189170938699
 20
126.3151127196136
 30
0.0
  0
SEQEND
  5
672
  8
1
  6
CONTINUOUS
 62
     7
  0
ARC
  5
371
  8
1
  6
CONTINUOUS
 62
     7
 10
94.6000000000001
 20
102.7456451952089
 30
0.0
 40
13.09647353779796
 50
179.9999999999997
 51
269.9999999999998
  0
LINE
  5
372
  8
1
  6
CONTINUOUS
 62
     7
 10
238.4964735377978
 20
115.1456451952089
 30
0.0
 11
238.1134513162383
 21
115.1456451952089
 31
0.0
  0
LINE
  5
373
  8
1
  6
CONTINUOUS
 62
     7
 10
238.1134513162384
 20
115.1456451952089
 30
0.0
 11
231.7127342007617
 21
115.1456451952089
 31
0.0
  0
LINE
  5
374
  8
1
  6
CONTINUOUS
 62
     7
 10
108.0508122730291
 20
123.145645195209
 30
0.0
 11
108.7902337176068
 21
123.145645195209
 31
0.0
  0
LINE
  5
375
  8
1
  6
CONTINUOUS
 62
     7
 10
108.7901885116102
 20
123.1456451952089
 30
0.0
 11
108.0508122730292
 21
123.1456451952089
 31
0.0
  0
ARC
  5
376
  8
1
  6
CONTINUOUS
 62
     7
 10
159.9999999999999
 20
191.1456451952089
 30
0.0
 40
60.50000000000001
 50
90.0
 51
180.0
  0
LINE
  5
377
  8
1
  6
CONTINUOUS
 62
     7
 10
213.8779446479448
 20
123.2221303092392
 30
0.0
 11
213.8812907677556
 21
123.1456451952089
 31
0.0
  0
LINE
  5
378
  8
1
  6
CONTINUOUS
 62
     7
 10
97.99999999999986
 20
115.145645195209
 30
0.0
 11
99.49999999999986
 21
115.145645195209
 31
0.0
  0
LINE
  5
379
  8
1
  6
CONTINUOUS
 62
     7
 10
494.8333333333335
 20
140.1456451952089
 30
0.0
 11
494.8333333333335
 21
116.1456451952089
 31
0.0
  0
LINE
  5
37A
  8
1
  6
CONTINUOUS
 62
     7
 10
414.8083333333333
 20
140.1456451952089
 30
0.0
 11
414.8083333333333
 21
116.1456451952089
 31
0.0
  0
LINE
  5
37B
  8
1
  6
CONTINUOUS
 62
     7
 10
412.7706340203042
 20
115.1456451952089
 30
0.0
 11
404.9371938207489
 21
115.1456451952089
 31
0.0
  0
ARC
  5
37C
  8
1
  6
CONTINUOUS
 62
     7
 10
109.7705265805024
 20
123.1456451952089
 30
0.0
 40
3.500000000000005
 50
122.3243920079593
 51
180.0
  0
ARC
  5
37D
  8
1
  6
CONTINUOUS
 62
     7
 10
395.3083333333333
 20
191.1456451952089
 30
0.0
 40
60.50000000000002
 50
89.99999999999999
 51
174.2214889030867
  0
LINE
  5
37E
  8
1
  6
CONTINUOUS
 62
     7
 10
404.9371938207489
 20
89.64917165741093
 30
0.0
 11
404.6158000159056
 21
90.03219387897042
 31
0.0
  0
LINE
  5
37F
  8
1
  6
CONTINUOUS
 62
     7
 10
387.6173318125437
 20
115.1456451952089
 30
0.0
 11
326.8083333333333
 21
115.1456451952089
 31
0.0
  0
LINE
  5
380
  8
1
  6
CONTINUOUS
 62
     7
 10
414.8083333333333
 20
257.0243215632113
 30
0.0
 11
414.8083333333333
 21
191.1456451952089
 31
0.0
  0
LINE
  5
381
  8
1
  6
CONTINUOUS
 62
     7
 10
404.9371938207489
 20
102.7456451952089
 30
0.0
 11
404.9371938207489
 21
115.1456451952089
 31
0.0
  0
ARC
  5
382
  8
1
  6
CONTINUOUS
 62
     7
 10
360.3083333333333
 20
123.1456451952089
 30
0.0
 40
3.500000000000021
 50
148.9972808661262
 51
180.0
  0
LINE
  5
383
  8
1
  6
CONTINUOUS
 62
     7
 10
622.8333333333336
 20
148.1456451952089
 30
0.0
 11
626.8333333333336
 21
148.1456451952089
 31
0.0
  0
LINE
  5
384
  8
1
  6
CONTINUOUS
 62
     7
 10
414.3083333333333
 20
263.6841616759223
 30
0.0
 11
409.4369426569792
 21
261.7356054053807
 31
0.0
  0
LINE
  5
385
  8
1
  6
CONTINUOUS
 62
     7
 10
626.8333333333336
 20
116.1456451952089
 30
0.0
 11
626.8333333333336
 21
140.1456451952089
 31
0.0
  0
ARC
  5
386
  8
1
  6
CONTINUOUS
 62
     7
 10
210.2294734194973
 20
123.1456451952089
 30
0.0
 40
3.500000000000003
 50
0.0
 51
57.67178812763768
  0
LINE
  5
387
  8
1
  6
CONTINUOUS
 62
     7
 10
89.41003978982808
 20
115.145645195209
 30
0.0
 11
88.28726579923816
 21
115.145645195209
 31
0.0
  0
LINE
  5
388
  8
1
  6
CONTINUOUS
 62
     7
 10
404.9371938207489
 20
89.64917165741093
 30
0.0
 11
404.9371938207489
 21
102.7456451952089
 31
0.0
  0
LINE
  5
389
  8
1
  6
CONTINUOUS
 62
     7
 10
413.9511209430199
 20
97.2127545811674
 30
0.0
 11
404.9371938207489
 21
89.64917165741093
 31
0.0
  0
LINE
  5
38A
  8
1
  6
CONTINUOUS
 62
     7
 10
414.8083333333333
 20
140.1456451952089
 30
0.0
 11
414.8083333333333
 21
144.1456451952089
 31
0.0
  0
LINE
  5
38B
  8
1
  6
CONTINUOUS
 62
     7
 10
414.3083333333333
 20
102.7456451952089
 30
0.0
 11
414.3083333333333
 21
97.97879902428639
 31
0.0
  0
POLYLINE
  5
38C
  8
1
  6
CONTINUOUS
 62
     7
 66
     1
 10
0.0
 20
0.0
 30
0.0
  0
VERTEX
  5
634
  8
1
  6
CONTINUOUS
 62
     7
 10
359.1340107045224
 20
126.2697344612573
 30
0.0
  0
VERTEX
  5
635
  8
1
  6
CONTINUOUS
 62
     7
 10
358.5994330096144
 20
126.1077413379591
 30
0.0
  0
VERTEX
  5
636
  8
1
  6
CONTINUOUS
 62
     7
 10
358.1039087219104
 20
125.8251100795188
 30
0.0
  0
VERTEX
  5
637
  8
1
  6
CONTINUOUS
 62
     7
 10
357.6676192005243
 20
125.4333514898765
 30
0.0
  0
VERTEX
  5
638
  8
1
  6
CONTINUOUS
 62
     7
 10
357.3083333333333
 20
124.9484208329409
 30
0.0
  0
SEQEND
  5
673
  8
1
  6
CONTINUOUS
 62
     7
  0
LINE
  5
38D
  8
1
  6
CONTINUOUS
 62
     7
 10
360.4678554402509
 20
123.1456451952089
 30
0.0
 11
361.6441407337961
 21
123.1456451952089
 31
0.0
  0
ARC
  5
38E
  8
1
  6
CONTINUOUS
 62
     7
 10
359.1227012797017
 20
123.2768482919751
 30
0.0
 40
3.078179462915474
 50
94.47467714419237
 51
182.4428925880738
  0
ARC
  5
38F
  8
1
  6
CONTINUOUS
 62
     7
 10
409.8083333333333
 20
260.8071287144954
 30
0.0
 40
0.9999999999999932
 50
111.8014094863518
 51
180.0000000000008
  0
LINE
  5
390
  8
1
  6
CONTINUOUS
 62
     7
 10
414.3083333333333
 20
114.6456451952089
 30
0.0
 11
414.3083333333333
 21
102.7456451952089
 31
0.0
  0
LINE
  5
391
  8
1
  6
CONTINUOUS
 62
     7
 10
360.4678554402509
 20
123.1456451952089
 30
0.0
 11
361.644140733796
 21
123.1456451952089
 31
0.0
  0
ARC
  5
392
  8
1
  6
CONTINUOUS
 62
     7
 10
358.6818241017114
 20
123.3807966962894
 30
0.0
 40
2.971635249687634
 50
355.4613240063708
 51
86.12694628842966
  0
LINE
  5
393
  8
1
  6
CONTINUOUS
 62
     7
 10
404.9371938207489
 20
115.1456451952089
 30
0.0
 11
404.6158000159056
 21
115.1456451952089
 31
0.0
  0
LINE
  5
394
  8
1
  6
CONTINUOUS
 62
     7
 10
414.8083333333333
 20
116.1456451952089
 30
0.0
 11
414.3083333333333
 21
116.1456451952089
 31
0.0
  0
LINE
  5
395
  8
1
  6
CONTINUOUS
 62
     7
 10
414.3083333333333
 20
191.1456451952089
 30
0.0
 11
414.3083333333333
 21
115.1456451952089
 31
0.0
  0
ARC
  5
396
  8
1
  6
CONTINUOUS
 62
     7
 10
407.3083333333333
 20
253.1456451952089
 30
0.0
 40
1.500000000000001
 50
269.9999999999998
 51
0.0
  0
LINE
  5
397
  8
1
  6
CONTINUOUS
 62
     7
 10
414.2807731988194
 20
115.1456451952089
 30
0.0
 11
414.2807731988194
 21
114.8787990242864
 31
0.0
  0
ARC
  5
398
  8
1
  6
CONTINUOUS
 62
     7
 10
560.8333333333335
 20
256.1456451952089
 30
0.0
 40
4.000000000000004
 50
270.0
 51
0.0
  0
LINE
  5
399
  8
1
  6
CONTINUOUS
 62
     7
 10
564.8333333333335
 20
256.1456451952089
 30
0.0
 11
564.8333333333335
 21
257.0243215632113
 31
0.0
  0
LINE
  5
39A
  8
1
  6
CONTINUOUS
 62
     7
 10
414.8083333333333
 20
144.1456451952089
 30
0.0
 11
414.8083333333333
 21
148.1456451952089
 31
0.0
  0
LINE
  5
39B
  8
1
  6
CONTINUOUS
 62
     7
 10
404.6158000159056
 20
102.7456451952089
 30
0.0
 11
404.6158000159056
 21
115.1456451952089
 31
0.0
  0
LINE
  5
39C
  8
1
  6
CONTINUOUS
 62
     7
 10
357.2599595536483
 20
123.1456451952089
 30
0.0
 11
360.467855440251
 21
123.1456451952089
 31
0.0
  0
LINE
  5
39D
  8
1
  6
CONTINUOUS
 62
     7
 10
414.2807731988194
 20
114.8787990242864
 30
0.0
 11
414.3083333333333
 21
114.6456451952089
 31
0.0
  0
LINE
  5
39E
  8
1
  6
CONTINUOUS
 62
     7
 10
407.3083333333333
 20
251.6456451952089
 30
0.0
 11
395.3083333333333
 21
251.6456451952089
 31
0.0
  0
ARC
  5
39F
  8
1
  6
CONTINUOUS
 62
     7
 10
560.8333333333335
 20
191.1456451952089
 30
0.0
 40
66.0
 50
0.000000000000001
 51
86.5253992069278
  0
LINE
  5
3A0
  8
1
  6
CONTINUOUS
 62
     7
 10
626.8333333333336
 20
148.1456451952089
 30
0.0
 11
626.8333333333336
 21
191.1456451952089
 31
0.0
  0
ARC
  5
3A1
  8
1
  6
CONTINUOUS
 62
     7
 10
622.8333333333336
 20
144.1456451952089
 30
0.0
 40
4.000000000000004
 50
90.0
 51
180.0
  0
ARC
  5
3A2
  8
1
  6
CONTINUOUS
 62
     7
 10
622.8333333333336
 20
144.1456451952089
 30
0.0
 40
4.000000000000004
 50
180.0
 51
270.0
  0
LINE
  5
3A3
  8
1
  6
CONTINUOUS
 62
     7
 10
498.8333333333335
 20
140.1456451952089
 30
0.0
 11
494.8333333333335
 21
140.1456451952089
 31
0.0
  0
LINE
  5
3A4
  8
1
  6
CONTINUOUS
 62
     7
 10
414.8083333333333
 20
140.1456451952089
 30
0.0
 11
414.3083333333333
 21
140.1456451952089
 31
0.0
  0
ARC
  5
3A5
  8
1
  6
CONTINUOUS
 62
     7
 10
359.4088666066181
 20
123.2554488587948
 30
0.0
 40
3.112963712651847
 50
97.41140942762969
 51
182.0214150884788
  0
LINE
  5
3A6
  8
1
  6
CONTINUOUS
 62
     7
 10
414.8083333333333
 20
148.1456451952089
 30
0.0
 11
414.3083333333333
 21
148.1456451952089
 31
0.0
  0
LINE
  5
3A7
  8
1
  6
CONTINUOUS
 62
     7
 10
626.8333333333336
 20
140.1456451952089
 30
0.0
 11
622.8333333333336
 21
140.1456451952089
 31
0.0
  0
ARC
  5
3A8
  8
1
  6
CONTINUOUS
 62
     7
 10
498.8333333333335
 20
144.1456451952089
 30
0.0
 40
4.000000000000004
 50
270.0
 51
0.0
  0
ARC
  5
3A9
  8
1
  6
CONTINUOUS
 62
     7
 10
498.8333333333335
 20
144.1456451952089
 30
0.0
 40
4.000000000000004
 50
0.0
 51
90.0
  0
LINE
  5
3AA
  8
1
  6
CONTINUOUS
 62
     7
 10
494.8333333333335
 20
148.1456451952089
 30
0.0
 11
498.8333333333335
 21
148.1456451952089
 31
0.0
  0
LINE
  5
3AB
  8
1
  6
CONTINUOUS
 62
     7
 10
404.6158000159056
 20
90.03219387897042
 30
0.0
 11
404.6158000159056
 21
102.7456451952089
 31
0.0
  0
LINE
  5
3AC
  8
1
  6
CONTINUOUS
 62
     7
 10
408.8083333333333
 20
260.8071287144954
 30
0.0
 11
408.8083333333333
 21
191.1456451952089
 31
0.0
  0
LINE
  5
3AD
  8
1
  6
CONTINUOUS
 62
     7
 10
494.8333333333335
 20
116.1456451952089
 30
0.0
 11
626.8333333333336
 21
116.1456451952089
 31
0.0
  0
LINE
  5
3AE
  8
1
  6
CONTINUOUS
 62
     7
 10
414.3083333333333
 20
263.6841616759223
 30
0.0
 11
414.3083333333333
 21
191.1456451952089
 31
0.0
  0
LINE
  5
3AF
  8
1
  6
CONTINUOUS
 62
     7
 10
359.3579468122114
 20
126.2994461278726
 30
0.0
 11
359.1340107045224
 21
126.2697344612573
 31
0.0
  0
LINE
  5
3B0
  8
1
  6
CONTINUOUS
 62
     7
 10
412.7706340203042
 20
115.1456451952089
 30
0.0
 11
414.3083333333333
 21
115.1456451952089
 31
0.0
  0
LINE
  5
3B1
  8
1
  6
CONTINUOUS
 62
     7
 10
408.8083333333333
 20
191.1456451952089
 30
0.0
 11
408.8083333333333
 21
115.1456451952089
 31
0.0
  0
LINE
  5
3B2
  8
1
  6
CONTINUOUS
 62
     7
 10
356.0473192622422
 20
123.1456451952089
 30
0.0
 11
357.2599595536483
 21
123.1456451952089
 31
0.0
  0
LINE
  5
3B3
  8
1
  6
CONTINUOUS
 62
     7
 10
414.3083333333333
 20
257.0243215632113
 30
0.0
 11
414.8083333333333
 21
257.0243215632113
 31
0.0
  0
LINE
  5
3B4
  8
1
  6
CONTINUOUS
 62
     7
 10
414.8083333333333
 20
191.1456451952089
 30
0.0
 11
414.8083333333333
 21
148.1456451952089
 31
0.0
  0
ARC
  5
3B5
  8
1
  6
CONTINUOUS
 62
     7
 10
413.3083333333333
 20
97.9787990242864
 30
0.0
 40
1.000000000000023
 50
309.9999999999986
 51
359.9999999999985
  0
LINE
  5
3B6
  8
1
  6
CONTINUOUS
 62
     7
 10
387.6173318125437
 20
115.1456451952089
 30
0.0
 11
404.6158000159056
 21
115.1456451952089
 31
0.0
  0
LINE
  5
3B7
  8
1
  6
CONTINUOUS
 62
     7
 10
335.1157616492038
 20
197.2369762526152
 30
0.0
 11
326.8083333333333
 21
115.1456451952089
 31
0.0
  0
ARC
  5
3B8
  8
1
  6
CONTINUOUS
 62
     7
 10
560.8333333333335
 20
256.1456451952089
 30
0.0
 40
4.000000000000004
 50
180.0
 51
270.0
  0
ARC
  5
3B9
  8
1
  6
CONTINUOUS
 62
     7
 10
560.8333333333335
 20
191.1456451952089
 30
0.0
 40
57.99999999999997
 50
173.0976957329354
 51
175.0000000000001
  0
ARC
  5
3BA
  8
1
  6
CONTINUOUS
 62
     7
 10
560.8333333333335
 20
191.1456451952089
 30
0.0
 40
58.00000000000001
 50
35.0
 51
36.90230426706469
  0
LINE
  5
3BB
  8
1
  6
CONTINUOUS
 62
     7
 10
529.1613736733509
 20
239.7346045511823
 30
0.0
 11
529.2583570295204
 21
239.4964873370783
 31
0.0
  0
LINE
  5
3BC
  8
1
  6
CONTINUOUS
 62
     7
 10
592.4083096371467
 20
239.4964873370783
 30
0.0
 11
592.5052929933161
 21
239.7346045511823
 31
0.0
  0
ARC
  5
3BD
  8
1
  6
CONTINUOUS
 62
     7
 10
560.8333333333335
 20
191.1456451952089
 30
0.0
 40
57.99999999999997
 50
123.0976957329354
 51
125.0
  0
ARC
  5
3BE
  8
1
  6
CONTINUOUS
 62
     7
 10
560.8333333333335
 20
191.1456451952089
 30
0.0
 40
58.00000000000001
 50
44.99999999999998
 51
46.90230426706469
  0
LINE
  5
3BF
  8
1
  6
CONTINUOUS
 62
     7
 10
577.6962924009821
 20
246.6401549370096
 30
0.0
 11
577.5762237319982
 21
246.4128025810617
 31
0.0
  0
CIRCLE
  5
3C0
  8
1
  6
CONTINUOUS
 62
     7
 10
560.8333333333335
 20
123.1456451952089
 30
0.0
 40
3.000000000000003
  0
LINE
  5
3C1
  8
1
  6
CONTINUOUS
 62
     7
 10
603.1843391397946
 20
230.773820868347
 30
0.0
 11
602.9666804442821
 21
230.6369622869778
 31
0.0
  0
ARC
  5
3C2
  8
1
  6
CONTINUOUS
 62
     7
 10
560.8333333333335
 20
191.1456451952089
 30
0.0
 40
57.99999999999998
 50
75.00000000000001
 51
76.90230426706466
  0
LINE
  5
3C3
  8
1
  6
CONTINUOUS
 62
     7
 10
564.0026438653927
 20
248.8061909363455
 30
0.0
 11
563.9675753085277
 21
249.0608981709227
 31
0.0
  0
LINE
  5
3C4
  8
1
  6
CONTINUOUS
 62
     7
 10
557.6990913581393
 20
249.0608981709227
 30
0.0
 11
557.6640228012743
 21
248.8061909363455
 31
0.0
  0
ARC
  5
3C5
  8
1
  6
CONTINUOUS
 62
     7
 10
560.8333333333335
 20
191.1456451952089
 30
0.0
 40
58.0
 50
54.99999999999997
 51
56.90230426706469
  0
ARC
  5
3C6
  8
1
  6
CONTINUOUS
 62
     7
 10
560.8333333333335
 20
191.1456451952089
 30
0.0
 40
57.99999999999998
 50
65.00000000000003
 51
66.90230426706466
  0
ARC
  5
3C7
  8
1
  6
CONTINUOUS
 62
     7
 10
560.8333333333335
 20
191.1456451952089
 30
0.0
 40
57.99999999999996
 50
95.00000000000003
 51
96.90230426706464
  0
LINE
  5
3C8
  8
1
  6
CONTINUOUS
 62
     7
 10
556.8333333333335
 20
257.0243215632113
 30
0.0
 11
556.8333333333335
 21
256.1456451952089
 31
0.0
  0
ARC
  5
3C9
  8
1
  6
CONTINUOUS
 62
     7
 10
560.8333333333335
 20
191.1456451952089
 30
0.0
 40
57.99999999999999
 50
73.09769573293534
 51
75.0
  0
ARC
  5
3CA
  8
1
  6
CONTINUOUS
 62
     7
 10
560.8333333333335
 20
191.1456451952089
 30
0.0
 40
57.99999999999997
 50
63.09769573293536
 51
65.00000000000003
  0
LINE
  5
3CB
  8
1
  6
CONTINUOUS
 62
     7
 10
583.5325791719083
 20
244.2448664962249
 30
0.0
 11
583.5867405126769
 21
244.4962071578631
 31
0.0
  0
ARC
  5
3CC
  8
1
  6
CONTINUOUS
 62
     7
 10
560.8333333333335
 20
191.1456451952089
 30
0.0
 40
58.0
 50
93.09769573293535
 51
95.00000000000003
  0
ARC
  5
3CD
  8
1
  6
CONTINUOUS
 62
     7
 10
560.8333333333335
 20
191.1456451952089
 30
0.0
 40
57.99999999999997
 50
83.09769573293535
 51
85.00000000000003
  0
LINE
  5
3CE
  8
1
  6
CONTINUOUS
 62
     7
 10
544.0904429346687
 20
246.4128025810617
 30
0.0
 11
543.970374265685
 21
246.6401549370096
 31
0.0
  0
LINE
  5
3CF
  8
1
  6
CONTINUOUS
 62
     7
 10
538.0799261539901
 20
244.4962071578631
 30
0.0
 11
538.1340874947587
 21
244.2448664962249
 31
0.0
  0
ARC
  5
3D0
  8
1
  6
CONTINUOUS
 62
     7
 10
560.8333333333335
 20
191.1456451952089
 30
0.0
 40
57.99999999999999
 50
113.0976957329354
 51
115.0000000000001
  0
LINE
  5
3D1
  8
1
  6
CONTINUOUS
 62
     7
 10
534.74776389601
 20
242.6657978691374
 30
0.0
 11
534.5900400176023
 21
242.8688465263765
 31
0.0
  0
ARC
  5
3D2
  8
1
  6
CONTINUOUS
 62
     7
 10
560.8333333333335
 20
191.1456451952089
 30
0.0
 40
57.99999999999998
 50
125.0
 51
126.9023042670647
  0
LINE
  5
3D3
  8
1
  6
CONTINUOUS
 62
     7
 10
587.0766266490648
 20
242.8688465263765
 30
0.0
 11
586.918902770657
 21
242.6657978691374
 31
0.0
  0
LINE
  5
3D4
  8
1
  6
CONTINUOUS
 62
     7
 10
494.8333333333335
 20
191.1456451952089
 30
0.0
 11
494.8333333333335
 21
148.1456451952089
 31
0.0
  0
LINE
  5
3D5
  8
1
  6
CONTINUOUS
 62
     7
 10
573.9671436082376
 20
247.3798526856426
 30
0.0
 11
573.976837268673
 21
247.6367799359956
 31
0.0
  0
LINE
  5
3D6
  8
1
  6
CONTINUOUS
 62
     7
 10
526.1976816847693
 20
237.3533793886709
 30
0.0
 11
526.0070949571709
 21
237.5259548164986
 31
0.0
  0
LINE
  5
3D7
  8
1
  6
CONTINUOUS
 62
     7
 10
521.2051576601955
 20
233.49665100167
 30
0.0
 11
521.3420162415645
 21
233.2789923061576
 31
0.0
  0
ARC
  5
3D8
  8
1
  6
CONTINUOUS
 62
     7
 10
560.8333333333335
 20
191.1456451952089
 30
0.0
 40
57.99999999999995
 50
133.0976957329353
 51
135.0
  0
ARC
  5
3D9
  8
1
  6
CONTINUOUS
 62
     7
 10
560.8333333333335
 20
191.1456451952089
 30
0.0
 40
57.99999999999999
 50
135.0000000000001
 51
136.9023042670647
  0
LINE
  5
3DA
  8
1
  6
CONTINUOUS
 62
     7
 10
518.6999862223848
 20
230.6369622869778
 30
0.0
 11
518.4823275268724
 21
230.773820868347
 31
0.0
  0
ARC
  5
3DB
  8
1
  6
CONTINUOUS
 62
     7
 10
560.8333333333335
 20
191.1456451952089
 30
0.0
 40
57.99999999999997
 50
143.0976957329354
 51
145.0000000000001
  0
LINE
  5
3DC
  8
1
  6
CONTINUOUS
 62
     7
 10
508.3464055470033
 20
215.7150524855345
 30
0.0
 11
508.3028046147493
 21
215.7331125830062
 31
0.0
  0
LINE
  5
3DD
  8
1
  6
CONTINUOUS
 62
     7
 10
514.4530237120437
 20
225.9718835713715
 30
0.0
 11
514.6255991398714
 21
225.7812968437731
 31
0.0
  0
LINE
  5
3DE
  8
1
  6
CONTINUOUS
 62
     7
 10
507.7341120323176
 20
213.8448910337838
 30
0.0
 11
507.4827713706793
 21
213.8990523745523
 31
0.0
  0
ARC
  5
3DF
  8
1
  6
CONTINUOUS
 62
     7
 10
560.8333333333335
 20
191.1456451952089
 30
0.0
 40
57.99999999999998
 50
115.0000000000001
 51
116.9023042670647
  0
LINE
  5
3E0
  8
1
  6
CONTINUOUS
 62
     7
 10
505.3388235915328
 20
208.0086042628575
 30
0.0
 11
505.5661759474806
 21
207.8885355938737
 31
0.0
  0
ARC
  5
3E1
  8
1
  6
CONTINUOUS
 62
     7
 10
560.8333333333335
 20
191.1456451952089
 30
0.0
 40
65.99999999999999
 50
93.47460079307223
 51
180.0
  0
LINE
  5
3E2
  8
1
  6
CONTINUOUS
 62
     7
 10
595.6595717094962
 20
237.5259548164987
 30
0.0
 11
595.4689849818977
 21
237.3533793886709
 31
0.0
  0
ARC
  5
3E3
  8
1
  6
CONTINUOUS
 62
     7
 10
560.8333333333335
 20
191.1456451952089
 30
0.0
 40
58.00000000000001
 50
43.09769573293535
 51
44.99999999999998
  0
LINE
  5
3E4
  8
1
  6
CONTINUOUS
 62
     7
 10
567.8035856746978
 20
248.7252907507149
 30
0.0
 11
567.7248204408874
 21
248.480542682348
 31
0.0
  0
ARC
  5
3E5
  8
1
  6
CONTINUOUS
 62
     7
 10
560.8333333333335
 20
191.1456451952089
 30
0.0
 40
57.99999999999999
 50
85.00000000000001
 51
86.90230426706464
  0
ARC
  5
3E6
  8
1
  6
CONTINUOUS
 62
     7
 10
560.8333333333335
 20
191.1456451952089
 30
0.0
 40
57.99999999999997
 50
53.09769573293535
 51
54.99999999999997
  0
LINE
  5
3E7
  8
1
  6
CONTINUOUS
 62
     7
 10
553.9418462257796
 20
248.480542682348
 30
0.0
 11
553.8630809919691
 21
248.7252907507149
 31
0.0
  0
LINE
  5
3E8
  8
1
  6
CONTINUOUS
 62
     7
 10
607.0410675267955
 20
225.7812968437731
 30
0.0
 11
607.2136429546233
 21
225.9718835713715
 31
0.0
  0
LINE
  5
3E9
  8
1
  6
CONTINUOUS
 62
     7
 10
547.6898293979939
 20
247.6367799359956
 30
0.0
 11
547.6995230584293
 21
247.3798526856426
 31
0.0
  0
LINE
  5
3EA
  8
1
  6
CONTINUOUS
 62
     7
 10
513.3121385708198
 20
224.3159543796074
 30
0.0
 11
513.2746976014874
 21
224.3446838458322
 31
0.0
  0
ARC
  5
3EB
  8
1
  6
CONTINUOUS
 62
     7
 10
560.8333333333335
 20
191.1456451952089
 30
0.0
 40
57.99999999999995
 50
154.9175608068363
 51
155.0
  0
ARC
  5
3EC
  8
1
  6
CONTINUOUS
 62
     7
 10
560.8333333333335
 20
191.1456451952089
 30
0.0
 40
57.99999999999996
 50
145.0000000000001
 51
145.0824391931638
  0
ARC
  5
3ED
  8
1
  6
CONTINUOUS
 62
     7
 10
560.8333333333335
 20
191.1456451952089
 30
0.0
 40
57.99999999999994
 50
155.0
 51
156.9023042670646
  0
ARC
  5
3EE
  8
1
  6
CONTINUOUS
 62
     7
 10
560.8333333333335
 20
191.1456451952089
 30
0.0
 40
57.99999999999999
 50
163.0976957329353
 51
165.0
  0
LINE
  5
3EF
  8
1
  6
CONTINUOUS
 62
     7
 10
600.3246504251025
 20
233.2789923061576
 30
0.0
 11
600.4615090064716
 21
233.4966510016701
 31
0.0
  0
ARC
  5
3F0
  8
1
  6
CONTINUOUS
 62
     7
 10
560.8333333333335
 20
191.1456451952089
 30
0.0
 40
57.99999999999997
 50
103.0976957329353
 51
105.0
  0
ARC
  5
3F1
  8
1
  6
CONTINUOUS
 62
     7
 10
560.8333333333335
 20
191.1456451952089
 30
0.0
 40
57.99999999999998
 50
105.0
 51
106.9023042670646
  0
ARC
  5
3F2
  8
1
  6
CONTINUOUS
 62
     7
 10
560.8333333333335
 20
191.1456451952089
 30
0.0
 40
58.0
 50
165.0
 51
166.9023042670646
  0
LINE
  5
3F3
  8
1
  6
CONTINUOUS
 62
     7
 10
504.5991258428999
 20
204.2794554701131
 30
0.0
 11
504.3421985925469
 21
204.2891491305484
 31
0.0
  0
LINE
  5
3F4
  8
1
  6
CONTINUOUS
 62
     7
 10
503.2536877778275
 20
198.1158975365734
 30
0.0
 11
503.4984358461945
 21
198.0371323027629
 31
0.0
  0
LINE
  5
3F5
  8
1
  6
CONTINUOUS
 62
     7
 10
600.4615090064715
 20
148.7946393887478
 30
0.0
 11
600.3246504251024
 21
149.0122980842602
 31
0.0
  0
LINE
  5
3F6
  8
1
  6
CONTINUOUS
 62
     7
 10
505.5661759474806
 20
174.4027547965441
 30
0.0
 11
505.3388235915328
 21
174.2826861275604
 31
0.0
  0
LINE
  5
3F7
  8
1
  6
CONTINUOUS
 62
     7
 10
529.2583570295204
 20
142.7948030533396
 30
0.0
 11
529.1613736733509
 21
142.5566858392355
 31
0.0
  0
LINE
  5
3F8
  8
1
  6
CONTINUOUS
 62
     7
 10
555.8676003095169
 20
133.4059287204848
 30
0.0
 11
555.8614403465953
 21
133.3591391567883
 31
0.0
  0
ARC
  5
3F9
  8
1
  6
CONTINUOUS
 62
     7
 10
560.8333333333335
 20
191.1456451952089
 30
0.0
 40
57.99999999999998
 50
285.0
 51
286.9023042670647
  0
LINE
  5
3FA
  8
1
  6
CONTINUOUS
 62
     7
 10
509.313180659405
 20
165.0600757578854
 30
0.0
 11
509.1101320021659
 21
164.9023518794777
 31
0.0
  0
ARC
  5
3FB
  8
1
  6
CONTINUOUS
 62
     7
 10
560.8333333333335
 20
191.1456451952089
 30
0.0
 40
57.99999999999996
 50
195.0
 51
196.9023042670646
  0
ARC
  5
3FC
  8
1
  6
CONTINUOUS
 62
     7
 10
560.8333333333335
 20
191.1456451952089
 30
0.0
 40
57.99999999999996
 50
315.0
 51
316.9023042670647
  0
LINE
  5
3FD
  8
1
  6
CONTINUOUS
 62
     7
 10
543.970374265685
 20
135.6511354534083
 30
0.0
 11
544.0904429346688
 21
135.8784878093561
 31
0.0
  0
ARC
  5
3FE
  8
1
  6
CONTINUOUS
 62
     7
 10
560.8333333333335
 20
191.1456451952089
 30
0.0
 40
58.0
 50
305.0
 51
306.9023042670647
  0
ARC
  5
3FF
  8
1
  6
CONTINUOUS
 62
     7
 10
560.8333333333335
 20
191.1456451952089
 30
0.0
 40
57.99999999999999
 50
313.0976957329353
 51
314.9999999999999
  0
ARC
  5
400
  8
1
  6
CONTINUOUS
 62
     7
 10
560.8333333333335
 20
191.1456451952089
 30
0.0
 40
57.99999999999997
 50
183.0976957329353
 51
185.0
  0
ARC
  5
401
  8
1
  6
CONTINUOUS
 62
     7
 10
560.8333333333335
 20
191.1456451952089
 30
0.0
 40
57.99999999999998
 50
255.0
 51
256.9023042670646
  0
LINE
  5
402
  8
1
  6
CONTINUOUS
 62
     7
 10
602.9666804442821
 20
151.65432810344
 30
0.0
 11
603.1843391397946
 21
151.5174695220708
 31
0.0
  0
ARC
  5
403
  8
1
  6
CONTINUOUS
 62
     7
 10
560.8333333333335
 20
191.1456451952089
 30
0.0
 40
57.99999999999997
 50
193.0976957329353
 51
194.9999999999999
  0
LINE
  5
404
  8
1
  6
CONTINUOUS
 62
     7
 10
503.172787592197
 20
194.3149557272681
 30
0.0
 11
502.9180803576198
 21
194.2798871704031
 31
0.0
  0
LINE
  5
405
  8
1
  6
CONTINUOUS
 62
     7
 10
502.9180803576197
 20
188.0114032200148
 30
0.0
 11
503.1727875921969
 21
187.9763346631498
 31
0.0
  0
LINE
  5
406
  8
1
  6
CONTINUOUS
 62
     7
 10
512.24437397736
 20
159.4736855352263
 30
0.0
 11
512.4824911914642
 21
159.5706688913958
 31
0.0
  0
LINE
  5
407
  8
1
  6
CONTINUOUS
 62
     7
 10
514.6255991398714
 20
156.5099935466447
 30
0.0
 11
514.4530237120437
 21
156.3194068190464
 31
0.0
  0
LINE
  5
408
  8
1
  6
CONTINUOUS
 62
     7
 10
503.4984358461945
 20
184.254158087655
 30
0.0
 11
503.2536877778275
 21
184.1753928538445
 31
0.0
  0
LINE
  5
409
  8
1
  6
CONTINUOUS
 62
     7
 10
526.0070949571709
 20
144.7653355739192
 30
0.0
 11
526.1976816847693
 21
144.9379110017469
 31
0.0
  0
ARC
  5
40A
  8
1
  6
CONTINUOUS
 62
     7
 10
560.8333333333335
 20
191.1456451952089
 30
0.0
 40
57.99999999999999
 50
223.0976957329353
 51
225.0
  0
ARC
  5
40B
  8
1
  6
CONTINUOUS
 62
     7
 10
560.8333333333335
 20
191.1456451952089
 30
0.0
 40
57.99999999999999
 50
175.0
 51
176.9023042670645
  0
ARC
  5
40C
  8
1
  6
CONTINUOUS
 62
     7
 10
560.8333333333335
 20
191.1456451952089
 30
0.0
 40
57.99999999999996
 50
235.0
 51
236.9023042670646
  0
LINE
  5
40D
  8
1
  6
CONTINUOUS
 62
     7
 10
538.1340874947587
 20
138.0464238941929
 30
0.0
 11
538.0799261539901
 21
137.7950832325547
 31
0.0
  0
ARC
  5
40E
  8
1
  6
CONTINUOUS
 62
     7
 10
560.8333333333335
 20
191.1456451952089
 30
0.0
 40
57.99999999999997
 50
243.0976957329353
 51
245.0
  0
LINE
  5
40F
  8
1
  6
CONTINUOUS
 62
     7
 10
567.7248204408876
 20
133.8107477080698
 30
0.0
 11
567.803585674698
 21
133.5659996397029
 31
0.0
  0
LINE
  5
410
  8
1
  6
CONTINUOUS
 62
     7
 10
583.5867405126769
 20
137.7950832325547
 30
0.0
 11
583.5325791719083
 21
138.0464238941929
 31
0.0
  0
ARC
  5
411
  8
1
  6
CONTINUOUS
 62
     7
 10
560.8333333333335
 20
191.1456451952089
 30
0.0
 40
57.99999999999996
 50
215.0
 51
216.9023042670646
  0
ARC
  5
412
  8
1
  6
CONTINUOUS
 62
     7
 10
560.8333333333335
 20
191.1456451952089
 30
0.0
 40
57.99999999999996
 50
225.0
 51
226.9023042670646
  0
ARC
  5
413
  8
1
  6
CONTINUOUS
 62
     7
 10
560.8333333333335
 20
191.1456451952089
 30
0.0
 40
57.99999999999999
 50
275.0
 51
276.9023042670647
  0
ARC
  5
414
  8
1
  6
CONTINUOUS
 62
     7
 10
560.8333333333335
 20
191.1456451952089
 30
0.0
 40
58.0
 50
295.0000000000001
 51
296.9023042670647
  0
LINE
  5
415
  8
1
  6
CONTINUOUS
 62
     7
 10
586.918902770657
 20
139.6254925212804
 30
0.0
 11
587.0766266490648
 21
139.4224438640414
 31
0.0
  0
ARC
  5
416
  8
1
  6
CONTINUOUS
 62
     7
 10
560.8333333333335
 20
191.1456451952089
 30
0.0
 40
57.99999999999999
 50
293.0976957329353
 51
295.0000000000001
  0
LINE
  5
417
  8
1
  6
CONTINUOUS
 62
     7
 10
534.5900400176022
 20
139.4224438640414
 30
0.0
 11
534.7477638960098
 21
139.6254925212804
 31
0.0
  0
ARC
  5
418
  8
1
  6
CONTINUOUS
 62
     7
 10
560.8333333333335
 20
191.1456451952089
 30
0.0
 40
57.99999999999994
 50
185.0000000000001
 51
186.9023042670647
  0
LINE
  5
419
  8
1
  6
CONTINUOUS
 62
     7
 10
504.3421985925469
 20
178.0021412598694
 30
0.0
 11
504.5991258428999
 21
178.0118349203048
 31
0.0
  0
LINE
  5
41A
  8
1
  6
CONTINUOUS
 62
     7
 10
565.7990663571502
 20
133.4059287204848
 30
0.0
 11
565.8052263200719
 21
133.3591391567883
 31
0.0
  0
LINE
  5
41B
  8
1
  6
CONTINUOUS
 62
     7
 10
518.4823275268724
 20
151.5174695220709
 30
0.0
 11
518.6999862223848
 21
151.65432810344
 31
0.0
  0
LINE
  5
41C
  8
1
  6
CONTINUOUS
 62
     7
 10
547.6995230584293
 20
134.9114377047752
 30
0.0
 11
547.689829397994
 21
134.6545104544223
 31
0.0
  0
ARC
  5
41D
  8
1
  6
CONTINUOUS
 62
     7
 10
560.8333333333335
 20
191.1456451952089
 30
0.0
 40
58.00000000000001
 50
283.0976957329353
 51
285.0
  0
ARC
  5
41E
  8
1
  6
CONTINUOUS
 62
     7
 10
560.8333333333335
 20
191.1456451952089
 30
0.0
 40
57.99999999999996
 50
204.9999999999999
 51
206.9023042670646
  0
LINE
  5
41F
  8
1
  6
CONTINUOUS
 62
     7
 10
521.3420162415645
 20
149.0122980842602
 30
0.0
 11
521.2051576601954
 21
148.7946393887478
 31
0.0
  0
LINE
  5
420
  8
1
  6
CONTINUOUS
 62
     7
 10
592.5052929933161
 20
142.5566858392355
 30
0.0
 11
592.4083096371467
 21
142.7948030533396
 31
0.0
  0
ARC
  5
421
  8
1
  6
CONTINUOUS
 62
     7
 10
560.8333333333335
 20
191.1456451952089
 30
0.0
 40
57.99999999999996
 50
265.0
 51
265.0824391931638
  0
ARC
  5
422
  8
1
  6
CONTINUOUS
 62
     7
 10
560.8333333333335
 20
191.1456451952089
 30
0.0
 40
57.99999999999996
 50
245.0
 51
246.9023042670646
  0
LINE
  5
423
  8
1
  6
CONTINUOUS
 62
     7
 10
507.4827713706793
 20
168.3922380158655
 30
0.0
 11
507.7341120323176
 21
168.4463993566341
 31
0.0
  0
ARC
  5
424
  8
1
  6
CONTINUOUS
 62
     7
 10
560.8333333333335
 20
191.1456451952089
 30
0.0
 40
57.99999999999999
 50
253.0976957329354
 51
255.0
  0
ARC
  5
425
  8
1
  6
CONTINUOUS
 62
     7
 10
560.8333333333335
 20
191.1456451952089
 30
0.0
 40
57.99999999999995
 50
203.0976957329353
 51
205.0
  0
ARC
  5
426
  8
1
  6
CONTINUOUS
 62
     7
 10
560.8333333333335
 20
191.1456451952089
 30
0.0
 40
58.0
 50
263.0976957329353
 51
265.0
  0
ARC
  5
427
  8
1
  6
CONTINUOUS
 62
     7
 10
560.8333333333335
 20
191.1456451952089
 30
0.0
 40
57.99999999999999
 50
274.9175608068362
 51
275.0
  0
LINE
  5
428
  8
1
  6
CONTINUOUS
 62
     7
 10
553.8630809919691
 20
133.5659996397029
 30
0.0
 11
553.9418462257796
 21
133.8107477080698
 31
0.0
  0
ARC
  5
429
  8
1
  6
CONTINUOUS
 62
     7
 10
560.8333333333335
 20
191.1456451952089
 30
0.0
 40
57.99999999999995
 50
233.0976957329354
 51
235.0000000000001
  0
LINE
  5
42A
  8
1
  6
CONTINUOUS
 62
     7
 10
573.9768372686731
 20
134.6545104544223
 30
0.0
 11
573.9671436082377
 21
134.9114377047752
 31
0.0
  0
LINE
  5
42B
  8
1
  6
CONTINUOUS
 62
     7
 10
577.5762237319983
 20
135.8784878093561
 30
0.0
 11
577.6962924009822
 21
135.6511354534083
 31
0.0
  0
ARC
  5
42C
  8
1
  6
CONTINUOUS
 62
     7
 10
560.8333333333335
 20
191.1456451952089
 30
0.0
 40
57.99999999999997
 50
303.0976957329353
 51
305.0
  0
ARC
  5
42D
  8
1
  6
CONTINUOUS
 62
     7
 10
560.8333333333335
 20
191.1456451952089
 30
0.0
 40
57.99999999999994
 50
213.0976957329353
 51
215.0
  0
LINE
  5
42E
  8
1
  6
CONTINUOUS
 62
     7
 10
595.4689849818977
 20
144.9379110017469
 30
0.0
 11
595.6595717094962
 21
144.7653355739192
 31
0.0
  0
ENDSEC
  0
EOF
