  0
SECTION
  2
HEADER
  9
$ACADVER
  1
AC1006
  9
$DWGCODEPAGE
  3
ansi_932
  9
$INSBASE
 10
0.0
 20
0.0
 30
0.0
  9
$EXTMIN
 10
296.5801341374163
 20
-136.3216956604594
  9
$EXTMAX
 10
1028.419865862584
 20
262.3099329312919
  9
$LIMMIN
 10
0.0
 20
0.0
  9
$LIMMAX
 10
12.0
 20
9.0
  9
$ORTHOMODE
 70
     0
  9
$REGENMODE
 70
     1
  9
$FILLMODE
 70
     1
  9
$QTEXTMODE
 70
     0
  9
$MIRRTEXT
 70
     1
  9
$DRAGMODE
 70
     2
  9
$LTSCALE
 40
1.0
  9
$OSMODE
 70
    37
  9
$ATTMODE
 70
     1
  9
$TEXTSIZE
 40
0.2
  9
$TRACEWID
 40
0.05
  9
$TEXTSTYLE
  7
STANDARD
  9
$CLAYER
  8
0
  9
$CELTYPE
  6
BYLAYER
  9
$CECOLOR
 62
   256
  9
$DIMSCALE
 40
1.0
  9
$DIMASZ
 40
3.0
  9
$DIMEXO
 40
0.0625
  9
$DIMDLI
 40
0.38
  9
$DIMRND
 40
0.0
  9
$DIMDLE
 40
0.0
  9
$DIMEXE
 40
1.5
  9
$DIMTP
 40
0.0
  9
$DIMTM
 40
0.0
  9
$DIMTXT
 40
3.0
  9
$DIMCEN
 40
0.09
  9
$DIMTSZ
 40
0.0
  9
$DIMTOL
 70
     0
  9
$DIMLIM
 70
     0
  9
$DIMTIH
 70
     1
  9
$DIMTOH
 70
     1
  9
$DIMSE1
 70
     0
  9
$DIMSE2
 70
     0
  9
$DIMTAD
 70
     1
  9
$DIMZIN
 70
     0
  9
$DIMBLK
  1

  9
$DIMASO
 70
     1
  9
$DIMSHO
 70
     1
  9
$DIMPOST
  1

  9
$DIMAPOST
  1

  9
$DIMALT
 70
     0
  9
$DIMALTD
 70
     2
  9
$DIMALTF
 40
25.4
  9
$DIMLFAC
 40
1.0
  9
$DIMTOFL
 70
     0
  9
$DIMTVP
 40
0.0
  9
$DIMTIX
 70
     0
  9
$DIMSOXD
 70
     0
  9
$DIMSAH
 70
     0
  9
$DIMBLK1
  1

  9
$DIMBLK2
  1

  9
$LUNITS
 70
     2
  9
$LUPREC
 70
     4
  9
$SKETCHINC
 40
0.1
  9
$FILLETRAD
 40
0.5
  9
$AUNITS
 70
     0
  9
$AUPREC
 70
     0
  9
$MENU
  1
.
  9
$ELEVATION
 40
0.0
  9
$THICKNESS
 40
0.0
  9
$LIMCHECK
 70
     0
  9
$CHAMFERA
 40
0.0
  9
$CHAMFERB
 40
0.0
  9
$SKPOLY
 70
     0
  9
$TDCREATE
 40
2459754.586917384
  9
$TDUPDATE
 40
2459754.586917604
  9
$TDINDWG
 40
0.0000000116
  9
$TDUSRTIMER
 40
0.0000000116
  9
$USRTIMER
 70
     1
  9
$ANGBASE
 50
0.0
  9
$ANGDIR
 70
     0
  9
$PDMODE
 70
     0
  9
$PDSIZE
 40
0.0
  9
$PLINEWID
 40
0.0
  9
$COORDS
 70
     1
  9
$SPLFRAME
 70
     0
  9
$SPLINETYPE
 70
     6
  9
$SPLINESEGS
 70
     8
  9
$ATTDIA
 70
     0
  9
$ATTREQ
 70
     1
  9
$HANDLING
 70
     1
  9
$HANDSEED
  5
5D1
  9
$SURFTAB1
 70
     6
  9
$SURFTAB2
 70
     6
  9
$SURFTYPE
 70
     6
  9
$SURFU
 70
     6
  9
$SURFV
 70
     6
  9
$UCSNAME
  2

  9
$UCSORG
 10
0.0
 20
0.0
 30
0.0
  9
$UCSXDIR
 10
1.0
 20
0.0
 30
0.0
  9
$UCSYDIR
 10
0.0
 20
1.0
 30
0.0
  9
$USERI1
 70
     0
  9
$USERI2
 70
     0
  9
$USERI3
 70
     0
  9
$USERI4
 70
     0
  9
$USERI5
 70
     0
  9
$USERR1
 40
0.0
  9
$USERR2
 40
0.0
  9
$USERR3
 40
0.0
  9
$USERR4
 40
0.0
  9
$USERR5
 40
0.0
  9
$WORLDVIEW
 70
     1
  0
ENDSEC
  0
SECTION
  2
TABLES
  0
TABLE
  2
VPORT
 70
     1
  0
VPORT
  2
*ACTIVE
 70
     0
 10
0.0
 20
0.0
 11
1.0
 21
1.0
 12
662.5
 22
62.99411863541626
 13
0.0
 23
0.0
 14
0.5
 24
0.5
 15
0.5
 25
0.5
 16
0.0
 26
0.0
 36
1.0
 17
0.0
 27
0.0
 37
0.0
 40
398.6316285917512
 41
1.6
 42
50.0
 43
0.0
 44
0.0
 50
0.0
 51
0.0
 71
     0
 72
   100
 73
     1
 74
     3
 75
     0
 76
     0
 77
     0
 78
     0
  0
ENDTAB
  0
TABLE
  2
LTYPE
 70
     1
  0
LTYPE
  2
CONTINUOUS
 70
     0
  3
Solid line
 72
    65
 73
     0
 40
0.0
  0
ENDTAB
  0
TABLE
  2
LAYER
 70
     2
  0
LAYER
  2
0
 70
     0
 62
     7
  6
CONTINUOUS
  0
LAYER
  2
1
 70
     0
 62
     7
  6
CONTINUOUS
  0
ENDTAB
  0
TABLE
  2
STYLE
 70
     2
  0
STYLE
  2
STANDARD
 70
     0
 40
0.0
 41
1.0
 50
0.0
 71
     0
 42
0.2
  3
txt
  4

  0
STYLE
  2
ＭＳ_ゴシック
 70
     0
 40
0.0
 41
1.0
 50
0.0
 71
     0
 42
0.2
  3
ＭＳ ゴシック.shx
  4

  0
ENDTAB
  0
TABLE
  2
VIEW
 70
     0
  0
ENDTAB
  0
TABLE
  2
UCS
 70
     0
  0
ENDTAB
  0
ENDSEC
  0
SECTION
  2
BLOCKS
  0
ENDSEC
  0
SECTION
  2
ENTITIES
  0
LINE
  5
70
  8
1
  6
CONTINUOUS
 62
     7
 10
1011.666666666667
 20
123.3099329312919
 30
0.0
 11
1011.666666666667
 21
166.3099329312919
 31
0.0
  0
POLYLINE
  5
71
  8
1
  6
CONTINUOUS
 62
     7
 66
     1
 10
0.0
 20
0.0
 30
0.0
  0
VERTEX
  5
2D9
  8
1
  6
CONTINUOUS
 62
     7
 10
928.508392472358
 20
244.5112167314939
 30
0.0
  0
VERTEX
  5
2DA
  8
1
  6
CONTINUOUS
 62
     7
 10
925.0928241422529
 20
244.7352121665607
 30
0.0
  0
VERTEX
  5
2DB
  8
1
  6
CONTINUOUS
 62
     7
 10
921.6666666666667
 20
244.8099329312919
 30
0.0
  0
SEQEND
  5
57F
  8
1
  6
CONTINUOUS
 62
     7
  0
LINE
  5
72
  8
1
  6
CONTINUOUS
 62
     7
 10
848.1666666666667
 20
172.7403497004473
 30
0.0
 11
843.4653828664647
 21
173.1516587369831
 31
0.0
  0
ARC
  5
73
  8
1
  6
CONTINUOUS
 62
     7
 10
921.6666666666667
 20
166.3099329312919
 30
0.0
 40
78.50000000000001
 50
220.0002293180903
 51
224.9999999999999
  0
ARC
  5
74
  8
1
  6
CONTINUOUS
 62
     7
 10
921.6666666666667
 20
166.3099329312919
 30
0.0
 40
78.5
 50
260.0002293641372
 51
264.9999999999998
  0
ARC
  5
75
  8
1
  6
CONTINUOUS
 62
     7
 10
921.6666666666667
 20
166.3099329312919
 30
0.0
 40
78.5
 50
340.0002245968079
 51
345.0
  0
LINE
  5
76
  8
1
  6
CONTINUOUS
 62
     7
 10
831.6666666666667
 20
166.3099329312919
 30
0.0
 11
831.6666666666667
 21
123.3099329312919
 31
0.0
  0
LINE
  5
77
  8
1
  6
CONTINUOUS
 62
     7
 10
890.4855709456768
 20
233.1780084940258
 30
0.0
 11
902.5708013187834
 21
237.5766726240865
 31
0.0
  0
ARC
  5
78
  8
1
  6
CONTINUOUS
 62
     7
 10
1007.666666666667
 20
119.3099329312919
 30
0.0
 40
4.000000000000004
 50
90.0
 51
270.0
  0
LINE
  5
79
  8
1
  6
CONTINUOUS
 62
     7
 10
1011.666666666667
 20
115.3099329312919
 30
0.0
 11
1007.666666666667
 21
115.3099329312919
 31
0.0
  0
ARC
  5
7A
  8
1
  6
CONTINUOUS
 62
     7
 10
835.6666666666667
 20
119.3099329312919
 30
0.0
 40
4.000000000000004
 50
270.0
 51
90.0
  0
ARC
  5
7B
  8
1
  6
CONTINUOUS
 62
     7
 10
921.6666666666667
 20
166.3099329312919
 30
0.0
 40
78.50000000000006
 50
355.0000000000001
 51
0.0
  0
LINE
  5
7C
  8
1
  6
CONTINUOUS
 62
     7
 10
831.6666666666667
 20
115.3099329312919
 30
0.0
 11
831.6666666666667
 21
73.90993293129189
 31
0.0
  0
POLYLINE
  5
7D
  8
1
  6
CONTINUOUS
 62
     7
 66
     1
 10
0.0
 20
0.0
 30
0.0
  0
VERTEX
  5
2DC
  8
1
  6
CONTINUOUS
 62
     7
 10
960.9166666666667
 20
234.2929271283703
 30
0.0
  0
VERTEX
  5
2DD
  8
1
  6
CONTINUOUS
 62
     7
 10
957.9121668730778
 20
235.9412957857159
 30
0.0
  0
VERTEX
  5
2DE
  8
1
  6
CONTINUOUS
 62
     7
 10
954.8422002133119
 20
237.4550942136688
 30
0.0
  0
SEQEND
  5
580
  8
1
  6
CONTINUOUS
 62
     7
  0
LINE
  5
7E
  8
1
  6
CONTINUOUS
 62
     7
 10
854.7985911039328
 20
135.128837210302
 30
0.0
 11
850.3999269738721
 21
147.2140675834085
 31
0.0
  0
LINE
  5
7F
  8
1
  6
CONTINUOUS
 62
     7
 10
854.7985911039327
 20
197.4910286522818
 30
0.0
 11
861.2290078730882
 21
208.628837210302
 31
0.0
  0
POLYLINE
  5
80
  8
1
  6
CONTINUOUS
 62
     7
 66
     1
 10
0.0
 20
0.0
 30
0.0
  0
VERTEX
  5
2DF
  8
1
  6
CONTINUOUS
 62
     7
 10
850.5215053842898
 20
133.134399384647
 30
0.0
  0
VERTEX
  5
2E0
  8
1
  6
CONTINUOUS
 62
     7
 10
852.0353038122425
 20
130.064432724881
 30
0.0
  0
VERTEX
  5
2E1
  8
1
  6
CONTINUOUS
 62
     7
 10
853.6836724695883
 20
127.0599329312919
 30
0.0
  0
SEQEND
  5
581
  8
1
  6
CONTINUOUS
 62
     7
  0
ARC
  5
81
  8
1
  6
CONTINUOUS
 62
     7
 10
921.6666666666667
 20
166.3099329312919
 30
0.0
 40
89.99999999999997
 50
0.0
 51
87.45331127718462
  0
ARC
  5
82
  8
1
  6
CONTINUOUS
 62
     7
 10
921.6666666666667
 20
166.3099329312919
 30
0.0
 40
78.50000000000001
 50
290.0001202775815
 51
294.9999999999999
  0
ARC
  5
83
  8
1
  6
CONTINUOUS
 62
     7
 10
921.6666666666667
 20
166.3099329312919
 30
0.0
 40
78.5
 50
230.0
 51
234.9999999999999
  0
POLYLINE
  5
84
  8
1
  6
CONTINUOUS
 62
     7
 66
     1
 10
0.0
 20
0.0
 30
0.0
  0
VERTEX
  5
2E2
  8
1
  6
CONTINUOUS
 62
     7
 10
843.1666666666667
 20
166.3099329312919
 30
0.0
  0
VERTEX
  5
2E3
  8
1
  6
CONTINUOUS
 62
     7
 10
843.2413874313978
 20
162.8837754557057
 30
0.0
  0
VERTEX
  5
2E4
  8
1
  6
CONTINUOUS
 62
     7
 10
843.4653828664647
 20
159.4682071256007
 30
0.0
  0
SEQEND
  5
582
  8
1
  6
CONTINUOUS
 62
     7
  0
ARC
  5
85
  8
1
  6
CONTINUOUS
 62
     7
 10
921.6666666666667
 20
166.3099329312919
 30
0.0
 40
78.50000000000001
 50
200.0
 51
204.9999999999999
  0
ARC
  5
86
  8
1
  6
CONTINUOUS
 62
     7
 10
921.6666666666667
 20
166.3099329312919
 30
0.0
 40
78.5
 50
270.0002026673982
 51
274.9999999999999
  0
LINE
  5
87
  8
1
  6
CONTINUOUS
 62
     7
 10
848.1666666666667
 20
172.7403497004473
 30
0.0
 11
850.3999269738721
 21
185.4057982791753
 31
0.0
  0
LINE
  5
88
  8
1
  6
CONTINUOUS
 62
     7
 10
850.5215053842898
 20
133.134399384647
 30
0.0
 11
854.7985911039327
 21
135.128837210302
 31
0.0
  0
ARC
  5
89
  8
1
  6
CONTINUOUS
 62
     7
 10
921.6666666666667
 20
166.3099329312919
 30
0.0
 40
78.50000000000004
 50
20.00016378393201
 51
24.99999999999987
  0
ARC
  5
8A
  8
1
  6
CONTINUOUS
 62
     7
 10
921.6666666666667
 20
166.3099329312919
 30
0.0
 40
78.5
 50
110.0
 51
115.0
  0
ARC
  5
8B
  8
1
  6
CONTINUOUS
 62
     7
 10
921.6666666666667
 20
166.3099329312919
 30
0.0
 40
78.50000000000001
 50
170.0
 51
174.9999999999999
  0
ARC
  5
8C
  8
1
  6
CONTINUOUS
 62
     7
 10
921.6666666666667
 20
166.3099329312919
 30
0.0
 40
78.49999999999994
 50
190.0001081588027
 51
194.9999999999999
  0
LINE
  5
8D
  8
1
  6
CONTINUOUS
 62
     7
 10
879.3477623876566
 20
105.8722741377134
 30
0.0
 11
869.4957923217555
 21
114.1390585863807
 31
0.0
  0
ARC
  5
8E
  8
1
  6
CONTINUOUS
 62
     7
 10
921.6666666666667
 20
166.3099329312919
 30
0.0
 40
78.50000000000006
 50
0.0002026674037166
 51
4.999999999999929
  0
ARC
  5
8F
  8
1
  6
CONTINUOUS
 62
     7
 10
921.6666666666667
 20
256.3099329312919
 30
0.0
 40
3.999999999999974
 50
181.2733443614076
 51
358.7266556385913
  0
ARC
  5
90
  8
1
  6
CONTINUOUS
 62
     7
 10
921.6666666666667
 20
166.3099329312919
 30
0.0
 40
78.50000000000003
 50
310.0001493372168
 51
314.9999999999998
  0
ARC
  5
91
  8
1
  6
CONTINUOUS
 62
     7
 10
921.6666666666667
 20
166.3099329312919
 30
0.0
 40
78.49999999999999
 50
130.0001152994165
 51
135.0
  0
ARC
  5
92
  8
1
  6
CONTINUOUS
 62
     7
 10
921.6666666666667
 20
166.3099329312919
 30
0.0
 40
78.5
 50
350.0002318956616
 51
354.9999999999999
  0
LINE
  5
93
  8
1
  6
CONTINUOUS
 62
     7
 10
831.6666666666667
 20
73.90993293129189
 30
0.0
 11
1011.666666666667
 21
73.90993293129189
 31
0.0
  0
ARC
  5
94
  8
1
  6
CONTINUOUS
 62
     7
 10
921.6666666666667
 20
166.3099329312919
 30
0.0
 40
78.49999999999997
 50
140.0001395569253
 51
145.0
  0
ARC
  5
95
  8
1
  6
CONTINUOUS
 62
     7
 10
921.6666666666667
 20
166.3099329312919
 30
0.0
 40
78.50000000000003
 50
300.0002512217127
 51
304.9999999999999
  0
ARC
  5
96
  8
1
  6
CONTINUOUS
 62
     7
 10
921.6666666666667
 20
166.3099329312919
 30
0.0
 40
78.49999999999996
 50
30.00017840257346
 51
34.99999999999985
  0
ARC
  5
97
  8
1
  6
CONTINUOUS
 62
     7
 10
921.6666666666667
 20
166.3099329312919
 30
0.0
 40
78.50000000000001
 50
240.0001783588515
 51
244.9999999999997
  0
ARC
  5
98
  8
1
  6
CONTINUOUS
 62
     7
 10
921.6666666666667
 20
166.3099329312919
 30
0.0
 40
78.50000000000004
 50
320.0002293075326
 51
324.9999999999998
  0
ARC
  5
99
  8
1
  6
CONTINUOUS
 62
     7
 10
921.6666666666667
 20
166.3099329312919
 30
0.0
 40
78.50000000000003
 50
160.0000839178213
 51
165.0
  0
ARC
  5
9A
  8
1
  6
CONTINUOUS
 62
     7
 10
921.6666666666667
 20
166.3099329312919
 30
0.0
 40
89.99999999999997
 50
92.54668872281519
 51
180.0
  0
LINE
  5
9B
  8
1
  6
CONTINUOUS
 62
     7
 10
831.6666666666667
 20
123.3099329312919
 30
0.0
 11
835.6666666666667
 21
123.3099329312919
 31
0.0
  0
ARC
  5
9C
  8
1
  6
CONTINUOUS
 62
     7
 10
921.6666666666667
 20
166.3099329312919
 30
0.0
 40
78.50000000000001
 50
80.00016382136204
 51
84.99999999999979
  0
LINE
  5
9D
  8
1
  6
CONTINUOUS
 62
     7
 10
1011.666666666667
 20
73.90993293129189
 30
0.0
 11
1011.666666666667
 21
115.3099329312919
 31
0.0
  0
ARC
  5
9E
  8
1
  6
CONTINUOUS
 62
     7
 10
921.6666666666667
 20
166.3099329312919
 30
0.0
 40
78.5
 50
330.0002293411114
 51
334.9999999999999
  0
ARC
  5
9F
  8
1
  6
CONTINUOUS
 62
     7
 10
921.6666666666667
 20
166.3099329312919
 30
0.0
 40
78.50000000000003
 50
70.0001128730509
 51
74.99999999999991
  0
ARC
  5
A0
  8
1
  6
CONTINUOUS
 62
     7
 10
921.6666666666667
 20
166.3099329312919
 30
0.0
 40
78.50000000000003
 50
40.00024873110051
 51
44.99999999999991
  0
POLYLINE
  5
A1
  8
1
  6
CONTINUOUS
 62
     7
 66
     1
 10
0.0
 20
0.0
 30
0.0
  0
VERTEX
  5
2E5
  8
1
  6
CONTINUOUS
 62
     7
 10
966.6924169202239
 20
230.6133684079777
 30
0.0
  0
VERTEX
  5
2E6
  8
1
  6
CONTINUOUS
 62
     7
 10
963.8464456955247
 20
232.5151383101299
 30
0.0
  0
VERTEX
  5
2E7
  8
1
  6
CONTINUOUS
 62
     7
 10
960.9166666666667
 20
234.2929271283703
 30
0.0
  0
SEQEND
  5
583
  8
1
  6
CONTINUOUS
 62
     7
  0
POLYLINE
  5
A2
  8
1
  6
CONTINUOUS
 62
     7
 66
     1
 10
0.0
 20
0.0
 30
0.0
  0
VERTEX
  5
2E8
  8
1
  6
CONTINUOUS
 62
     7
 10
843.4653828664647
 20
173.1516587369831
 30
0.0
  0
VERTEX
  5
2E9
  8
1
  6
CONTINUOUS
 62
     7
 10
843.2413874313978
 20
169.736090406878
 30
0.0
  0
VERTEX
  5
2EA
  8
1
  6
CONTINUOUS
 62
     7
 10
843.1666666666667
 20
166.3099329312919
 30
0.0
  0
SEQEND
  5
584
  8
1
  6
CONTINUOUS
 62
     7
  0
LINE
  5
A3
  8
1
  6
CONTINUOUS
 62
     7
 10
1007.666666666667
 20
123.3099329312919
 30
0.0
 11
1011.666666666667
 21
123.3099329312919
 31
0.0
  0
ARC
  5
A4
  8
1
  6
CONTINUOUS
 62
     7
 10
921.6666666666667
 20
166.3099329312919
 30
0.0
 40
78.49999999999997
 50
150.0000911268355
 51
154.9999999999999
  0
ARC
  5
A5
  8
1
  6
CONTINUOUS
 62
     7
 10
921.6666666666667
 20
166.3099329312919
 30
0.0
 40
78.49999999999999
 50
250.0002195882996
 51
255.0
  0
ARC
  5
A6
  8
1
  6
CONTINUOUS
 62
     7
 10
921.6666666666667
 20
166.3099329312919
 30
0.0
 40
78.5
 50
280.0002536497462
 51
284.9999999999998
  0
LINE
  5
A7
  8
1
  6
CONTINUOUS
 62
     7
 10
869.4957923217555
 20
218.4808072762031
 30
0.0
 11
879.3477623876566
 21
226.7475917248704
 31
0.0
  0
ARC
  5
A8
  8
1
  6
CONTINUOUS
 62
     7
 10
921.6666666666667
 20
166.3099329312919
 30
0.0
 40
78.49999999999996
 50
120.0001152877201
 51
125.0
  0
ARC
  5
A9
  8
1
  6
CONTINUOUS
 62
     7
 10
921.6666666666667
 20
166.3099329312919
 30
0.0
 40
78.49999999999999
 50
50.00013963168892
 51
54.99999999999991
  0
LINE
  5
AA
  8
1
  6
CONTINUOUS
 62
     7
 10
902.5708013187834
 20
95.04319323849731
 30
0.0
 11
890.4855709456768
 21
99.44185736855795
 31
0.0
  0
LINE
  5
AB
  8
1
  6
CONTINUOUS
 62
     7
 10
835.6666666666667
 20
115.3099329312919
 30
0.0
 11
831.6666666666667
 21
115.3099329312919
 31
0.0
  0
ARC
  5
AC
  8
1
  6
CONTINUOUS
 62
     7
 10
921.6666666666667
 20
166.3099329312919
 30
0.0
 40
78.50000000000001
 50
265.0
 51
269.9999999999999
  0
CIRCLE
  5
AD
  8
1
  6
CONTINUOUS
 62
     7
 10
921.6666666666667
 20
79.90993293129188
 30
0.0
 40
3.000000000000003
  0
POLYLINE
  5
AE
  8
1
  6
CONTINUOUS
 62
     7
 66
     1
 10
0.0
 20
0.0
 30
0.0
  0
VERTEX
  5
2EB
  8
1
  6
CONTINUOUS
 62
     7
 10
853.6836724695883
 20
127.0599329312919
 30
0.0
  0
VERTEX
  5
2EC
  8
1
  6
CONTINUOUS
 62
     7
 10
855.4614612878286
 20
124.130153902434
 30
0.0
  0
VERTEX
  5
2ED
  8
1
  6
CONTINUOUS
 62
     7
 10
857.3632311899806
 20
121.284182677735
 30
0.0
  0
SEQEND
  5
585
  8
1
  6
CONTINUOUS
 62
     7
  0
POLYLINE
  5
AF
  8
1
  6
CONTINUOUS
 62
     7
 66
     1
 10
0.0
 20
0.0
 30
0.0
  0
VERTEX
  5
2EE
  8
1
  6
CONTINUOUS
 62
     7
 10
921.6666666666667
 20
244.8099329312919
 30
0.0
  0
VERTEX
  5
2EF
  8
1
  6
CONTINUOUS
 62
     7
 10
918.2405091910808
 20
244.7352121665607
 30
0.0
  0
VERTEX
  5
2F0
  8
1
  6
CONTINUOUS
 62
     7
 10
914.8249408609759
 20
244.511216731494
 30
0.0
  0
SEQEND
  5
586
  8
1
  6
CONTINUOUS
 62
     7
  0
LINE
  5
B0
  8
1
  6
CONTINUOUS
 62
     7
 10
861.2290078730882
 20
123.9910286522819
 30
0.0
 11
854.7985911039328
 21
135.128837210302
 31
0.0
  0
ARC
  5
B1
  8
1
  6
CONTINUOUS
 62
     7
 10
921.6666666666667
 20
166.3099329312919
 30
0.0
 40
78.5
 50
105.0
 51
109.9999239364152
  0
ARC
  5
B2
  8
1
  6
CONTINUOUS
 62
     7
 10
921.6666666666667
 20
166.3099329312919
 30
0.0
 40
78.50000000000001
 50
235.0
 51
240.0
  0
ARC
  5
B3
  8
1
  6
CONTINUOUS
 62
     7
 10
921.6666666666667
 20
166.3099329312919
 30
0.0
 40
78.5
 50
315.0
 51
319.9999999999998
  0
ARC
  5
B4
  8
1
  6
CONTINUOUS
 62
     7
 10
921.6666666666667
 20
166.3099329312919
 30
0.0
 40
78.5
 50
245.0
 51
250.0
  0
ARC
  5
B5
  8
1
  6
CONTINUOUS
 62
     7
 10
921.6666666666667
 20
166.3099329312919
 30
0.0
 40
78.5
 50
285.0
 51
289.9999999999998
  0
ARC
  5
B6
  8
1
  6
CONTINUOUS
 62
     7
 10
921.6666666666667
 20
166.3099329312919
 30
0.0
 40
78.5
 50
24.99999999999999
 51
29.99999999999998
  0
LINE
  5
B7
  8
1
  6
CONTINUOUS
 62
     7
 10
995.1666666666667
 20
172.7403497004473
 30
0.0
 11
995.1666666666667
 21
159.8795161621365
 31
0.0
  0
LINE
  5
B8
  8
1
  6
CONTINUOUS
 62
     7
 10
1016.233512837589
 20
69.80993293129201
 30
0.0
 11
1011.666666666667
 21
69.8099329312919
 31
0.0
  0
LINE
  5
B9
  8
1
  6
CONTINUOUS
 62
     7
 10
848.1666666666667
 20
159.8795161621365
 30
0.0
 11
848.1666666666667
 21
172.7403497004473
 31
0.0
  0
LINE
  5
BA
  8
1
  6
CONTINUOUS
 62
     7
 10
921.6666666666667
 20
81.64486992177214
 30
0.0
 11
920.8261665615221
 21
81.56753220155515
 31
0.0
  0
LINE
  5
BB
  8
1
  6
CONTINUOUS
 62
     7
 10
1011.666666666667
 20
69.8099329312919
 30
0.0
 11
1011.666666666667
 21
70.80993293129201
 31
0.0
  0
LINE
  5
BC
  8
1
  6
CONTINUOUS
 62
     7
 10
814.9134674707497
 20
51.30993293129189
 30
0.0
 11
814.9134674707497
 21
69.80993293129188
 31
0.0
  0
ARC
  5
BD
  8
1
  6
CONTINUOUS
 62
     7
 10
921.6666666666667
 20
166.3099329312919
 30
0.0
 40
78.50000000000001
 50
15.0
 51
19.99999999999984
  0
ARC
  5
BE
  8
1
  6
CONTINUOUS
 62
     7
 10
921.6666666666667
 20
166.3099329312919
 30
0.0
 40
78.50000000000001
 50
115.0
 51
120.0
  0
ARC
  5
BF
  8
1
  6
CONTINUOUS
 62
     7
 10
921.6666666666667
 20
166.3099329312919
 30
0.0
 40
78.50000000000001
 50
275.0
 51
279.9999999999999
  0
ARC
  5
C0
  8
1
  6
CONTINUOUS
 62
     7
 10
921.6666666666667
 20
166.3099329312919
 30
0.0
 40
78.50000000000006
 50
184.9999999999999
 51
189.9999999999999
  0
ARC
  5
C1
  8
1
  6
CONTINUOUS
 62
     7
 10
921.6666666666667
 20
166.3099329312919
 30
0.0
 40
78.50000000000003
 50
95.0
 51
99.9999999999999
  0
ARC
  5
C2
  8
1
  6
CONTINUOUS
 62
     7
 10
921.6666666666667
 20
166.3099329312919
 30
0.0
 40
78.50000000000001
 50
125.0
 51
129.9999999999999
  0
ARC
  5
C3
  8
1
  6
CONTINUOUS
 62
     7
 10
921.6666666666667
 20
166.3099329312919
 30
0.0
 40
78.5
 50
45.00000000000001
 51
50.0
  0
LINE
  5
C4
  8
1
  6
CONTINUOUS
 62
     7
 10
1028.419865862584
 20
69.80993293129194
 30
0.0
 11
1028.419865862584
 21
51.30993293129184
 31
0.0
  0
LINE
  5
C5
  8
1
  6
CONTINUOUS
 62
     7
 10
1028.419865862584
 20
69.80993293129194
 30
0.0
 11
1016.999557280708
 21
69.80993293129193
 31
0.0
  0
ARC
  5
C6
  8
1
  6
CONTINUOUS
 62
     7
 10
921.6666666666667
 20
78.30993293129188
 30
0.0
 40
1.724999999999977
 50
321.1264173414318
 51
0.0
  0
ARC
  5
C7
  8
1
  6
CONTINUOUS
 62
     7
 10
921.6666666666667
 20
78.30993293129188
 30
0.0
 40
1.725000000000034
 50
90.0
 51
218.8735826585682
  0
ARC
  5
C8
  8
1
  6
CONTINUOUS
 62
     7
 10
921.6666666666667
 20
166.3099329312919
 30
0.0
 40
78.50000000000001
 50
165.0
 51
169.9999118456612
  0
LINE
  5
C9
  8
1
  6
CONTINUOUS
 62
     7
 10
826.3337760526252
 20
69.8099329312919
 30
0.0
 11
827.0998204957442
 21
69.8099329312919
 31
0.0
  0
LINE
  5
CA
  8
1
  6
CONTINUOUS
 62
     7
 10
814.9134674707497
 20
69.80993293129188
 30
0.0
 11
826.3337760526252
 21
69.8099329312919
 31
0.0
  0
ARC
  5
CB
  8
1
  6
CONTINUOUS
 62
     7
 10
921.6666666666667
 20
166.3099329312919
 30
0.0
 40
78.50000000000003
 50
334.9999999999999
 51
339.9999999999999
  0
ARC
  5
CC
  8
1
  6
CONTINUOUS
 62
     7
 10
921.6666666666667
 20
166.3099329312919
 30
0.0
 40
78.50000000000001
 50
345.0
 51
349.9999999999999
  0
ARC
  5
CD
  8
1
  6
CONTINUOUS
 62
     7
 10
921.6666666666667
 20
166.3099329312919
 30
0.0
 40
78.50000000000001
 50
305.0
 51
309.9999999999998
  0
ARC
  5
CE
  8
1
  6
CONTINUOUS
 62
     7
 10
921.6666666666667
 20
166.3099329312919
 30
0.0
 40
78.50000000000001
 50
295.0000000000001
 51
299.9999999999998
  0
LINE
  5
CF
  8
1
  6
CONTINUOUS
 62
     7
 10
915.2362498975114
 20
239.8099329312919
 30
0.0
 11
928.0970834358221
 21
239.8099329312919
 31
0.0
  0
LINE
  5
D0
  8
1
  6
CONTINUOUS
 62
     7
 10
1016.233512837589
 20
69.8099329312919
 30
0.0
 11
1016.999557280708
 21
69.8099329312919
 31
0.0
  0
LINE
  5
D1
  8
1
  6
CONTINUOUS
 62
     7
 10
1011.666666666667
 20
70.80993293129201
 30
0.0
 11
831.6666666666667
 21
70.80993293129201
 31
0.0
  0
ARC
  5
D2
  8
1
  6
CONTINUOUS
 62
     7
 10
1011.466666666667
 20
51.3099329312919
 30
0.0
 40
16.95319919591698
 50
269.9999999999998
 51
359.9999999999998
  0
ARC
  5
D3
  8
1
  6
CONTINUOUS
 62
     7
 10
921.6666666666667
 20
166.3099329312919
 30
0.0
 40
78.5
 50
135.0
 51
139.9999999999999
  0
ARC
  5
D4
  8
1
  6
CONTINUOUS
 62
     7
 10
921.6666666666667
 20
166.3099329312919
 30
0.0
 40
78.5
 50
75.0
 51
79.99999999999999
  0
ARC
  5
D5
  8
1
  6
CONTINUOUS
 62
     7
 10
921.6666666666667
 20
166.3099329312919
 30
0.0
 40
78.49999999999997
 50
34.99999999999999
 51
39.99999999999984
  0
LINE
  5
D6
  8
1
  6
CONTINUOUS
 62
     7
 10
831.6666666666667
 20
70.80993293129201
 30
0.0
 11
831.6666666666667
 21
69.8099329312919
 31
0.0
  0
ARC
  5
D7
  8
1
  6
CONTINUOUS
 62
     7
 10
921.6666666666667
 20
166.3099329312919
 30
0.0
 40
78.49999999999994
 50
10.00020517274617
 51
14.99999999999996
  0
ARC
  5
D8
  8
1
  6
CONTINUOUS
 62
     7
 10
921.6666666666667
 20
166.3099329312919
 30
0.0
 40
78.50000000000001
 50
194.9999999999999
 51
199.9999166244864
  0
LINE
  5
D9
  8
1
  6
CONTINUOUS
 62
     7
 10
928.0970834358221
 20
92.8099329312919
 30
0.0
 11
915.2362498975112
 21
92.8099329312919
 31
0.0
  0
LINE
  5
DA
  8
1
  6
CONTINUOUS
 62
     7
 10
831.6666666666667
 20
69.8099329312919
 30
0.0
 11
827.0998204957442
 21
69.80993293129201
 31
0.0
  0
LINE
  5
DB
  8
1
  6
CONTINUOUS
 62
     7
 10
831.6666666666667
 20
70.80993293129201
 30
0.0
 11
831.6666666666667
 21
71.30993293129201
 31
0.0
  0
ARC
  5
DC
  8
1
  6
CONTINUOUS
 62
     7
 10
921.6666666666667
 20
166.3099329312919
 30
0.0
 40
78.50000000000006
 50
4.999999999999918
 51
9.999999999999837
  0
LINE
  5
DD
  8
1
  6
CONTINUOUS
 62
     7
 10
952.8477623876566
 20
233.1780084940259
 30
0.0
 11
963.9855709456768
 21
226.7475917248704
 31
0.0
  0
LINE
  5
DE
  8
1
  6
CONTINUOUS
 62
     7
 10
922.5071667718112
 20
81.5675322015552
 30
0.0
 11
921.6666666666667
 21
81.64486992177214
 31
0.0
  0
LINE
  5
DF
  8
1
  6
CONTINUOUS
 62
     7
 10
1011.466666666667
 20
34.35673373537485
 30
0.0
 11
831.8666666666668
 21
34.35673373537485
 31
0.0
  0
ARC
  5
E0
  8
1
  6
CONTINUOUS
 62
     7
 10
831.8666666666668
 20
51.3099329312919
 30
0.0
 40
16.95319919591706
 50
180.0
 51
270.0
  0
ARC
  5
E1
  8
1
  6
CONTINUOUS
 62
     7
 10
921.6666666666667
 20
78.30993293129188
 30
0.0
 40
1.725000000000004
 50
0.0
 51
90.0
  0
ARC
  5
E2
  8
1
  6
CONTINUOUS
 62
     7
 10
921.6666666666667
 20
166.3099329312919
 30
0.0
 40
78.5
 50
225.0
 51
229.9999166488675
  0
ARC
  5
E3
  8
1
  6
CONTINUOUS
 62
     7
 10
921.6666666666667
 20
166.3099329312919
 30
0.0
 40
78.49999999999999
 50
100.0000814641702
 51
105.0
  0
LINE
  5
E4
  8
1
  6
CONTINUOUS
 62
     7
 10
1011.666666666667
 20
71.30993293129201
 30
0.0
 11
1011.666666666667
 21
70.80993293129201
 31
0.0
  0
ARC
  5
E5
  8
1
  6
CONTINUOUS
 62
     7
 10
921.6666666666667
 20
166.3099329312919
 30
0.0
 40
78.5
 50
155.0
 51
159.9999999999999
  0
ARC
  5
E6
  8
1
  6
CONTINUOUS
 62
     7
 10
921.6666666666667
 20
166.3099329312919
 30
0.0
 40
78.49999999999997
 50
215.0
 51
219.9999999999999
  0
ARC
  5
E7
  8
1
  6
CONTINUOUS
 62
     7
 10
921.6666666666667
 20
166.3099329312919
 30
0.0
 40
78.49999999999997
 50
145.0
 51
149.9999999999998
  0
ARC
  5
E8
  8
1
  6
CONTINUOUS
 62
     7
 10
921.6666666666667
 20
166.3099329312919
 30
0.0
 40
78.49999999999999
 50
255.0
 51
260.0000000000001
  0
ARC
  5
E9
  8
1
  6
CONTINUOUS
 62
     7
 10
921.6666666666667
 20
166.3099329312919
 30
0.0
 40
78.50000000000001
 50
65.0
 51
69.99999999999984
  0
ARC
  5
EA
  8
1
  6
CONTINUOUS
 62
     7
 10
921.6666666666667
 20
166.3099329312919
 30
0.0
 40
78.49999999999999
 50
325.0
 51
330.0
  0
POLYLINE
  5
EB
  8
1
  6
CONTINUOUS
 62
     7
 66
     1
 10
0.0
 20
0.0
 30
0.0
  0
VERTEX
  5
2F1
  8
1
  6
CONTINUOUS
 62
     7
 10
470.4215518539364
 20
-50.3147919462406
 30
0.0
  0
VERTEX
  5
2F2
  8
1
  6
CONTINUOUS
 62
     7
 10
470.2567609901234
 20
-50.44321486641782
 30
0.0
  0
VERTEX
  5
2F3
  8
1
  6
CONTINUOUS
 62
     7
 10
470.1271250261861
 20
-50.6166238716852
 30
0.0
  0
VERTEX
  5
2F4
  8
1
  6
CONTINUOUS
 62
     7
 10
470.0376257995181
 20
-50.82835495121923
 30
0.0
  0
VERTEX
  5
2F5
  8
1
  6
CONTINUOUS
 62
     7
 10
469.9917027152082
 20
-51.07027139837358
 30
0.0
  0
VERTEX
  5
2F6
  8
1
  6
CONTINUOUS
 62
     7
 10
469.9911205716326
 20
-51.33307649975239
 30
0.0
  0
VERTEX
  5
2F7
  8
1
  6
CONTINUOUS
 62
     7
 10
470.0359017402425
 20
-51.6066708026925
 30
0.0
  0
VERTEX
  5
2F8
  8
1
  6
CONTINUOUS
 62
     7
 10
470.1243253058417
 20
-51.88054023156536
 30
0.0
  0
VERTEX
  5
2F9
  8
1
  6
CONTINUOUS
 62
     7
 10
470.2529932003927
 20
-52.14416013780713
 30
0.0
  0
SEQEND
  5
587
  8
1
  6
CONTINUOUS
 62
     7
  0
LINE
  5
EC
  8
1
  6
CONTINUOUS
 62
     7
 10
476.0339242896322
 20
-58.62149259349167
 30
0.0
 11
475.4215518539364
 21
-58.97504598408494
 31
0.0
  0
ARC
  5
ED
  8
1
  6
CONTINUOUS
 62
     7
 10
921.6666666666667
 20
254.0599329312919
 30
0.0
 40
3.249999999999999
 50
180.0
 51
181.4692835813532
  0
LINE
  5
EE
  8
1
  6
CONTINUOUS
 62
     7
 10
335.6327423770347
 20
-49.96123855564728
 30
0.0
 11
335.3265561591868
 21
-49.78446186035064
 31
0.0
  0
LINE
  5
EF
  8
1
  6
CONTINUOUS
 62
     7
 10
1004.166666666667
 20
117.577882123723
 30
0.0
 11
1004.166666666667
 21
121.0419837388608
 31
0.0
  0
LINE
  5
F0
  8
1
  6
CONTINUOUS
 62
     7
 10
335.6327423770347
 20
-49.96123855564728
 30
0.0
 11
336.2451148127304
 21
-50.31479194624055
 31
0.0
  0
ARC
  5
F1
  8
1
  6
CONTINUOUS
 62
     7
 10
921.6666666666667
 20
82.80993293129188
 30
0.0
 40
1.500000000000001
 50
190.999743315873
 51
270.0
  0
POLYLINE
  5
F2
  8
1
  6
CONTINUOUS
 62
     7
 66
     1
 10
0.0
 20
0.0
 30
0.0
  0
VERTEX
  5
2FA
  8
1
  6
CONTINUOUS
 62
     7
 10
336.4136734662741
 20
-52.1441601378071
 30
0.0
  0
VERTEX
  5
2FB
  8
1
  6
CONTINUOUS
 62
     7
 10
336.5423413608252
 20
-51.88054023156531
 30
0.0
  0
VERTEX
  5
2FC
  8
1
  6
CONTINUOUS
 62
     7
 10
336.6307649264244
 20
-51.60667080269244
 30
0.0
  0
VERTEX
  5
2FD
  8
1
  6
CONTINUOUS
 62
     7
 10
336.6755460950343
 20
-51.33307649975232
 30
0.0
  0
VERTEX
  5
2FE
  8
1
  6
CONTINUOUS
 62
     7
 10
336.6749639514587
 20
-51.0702713983735
 30
0.0
  0
VERTEX
  5
2FF
  8
1
  6
CONTINUOUS
 62
     7
 10
336.6290408671488
 20
-50.82835495121916
 30
0.0
  0
VERTEX
  5
300
  8
1
  6
CONTINUOUS
 62
     7
 10
336.5395416404806
 20
-50.61662387168513
 30
0.0
  0
VERTEX
  5
301
  8
1
  6
CONTINUOUS
 62
     7
 10
336.4099056765434
 20
-50.44321486641774
 30
0.0
  0
VERTEX
  5
302
  8
1
  6
CONTINUOUS
 62
     7
 10
336.2451148127304
 20
-50.31479194624054
 30
0.0
  0
SEQEND
  5
588
  8
1
  6
CONTINUOUS
 62
     7
  0
LINE
  5
F3
  8
1
  6
CONTINUOUS
 62
     7
 10
831.6666666666667
 20
116.0599329312919
 30
0.0
 11
831.6666666666667
 21
115.3099329312919
 31
0.0
  0
ARC
  5
F4
  8
1
  6
CONTINUOUS
 62
     7
 10
921.6666666666667
 20
166.3099329312919
 30
0.0
 40
95.45424221260711
 50
0.0
 51
180.0
  0
LINE
  5
F5
  8
1
  6
CONTINUOUS
 62
     7
 10
1011.666666666667
 20
115.3099329312919
 30
0.0
 11
1011.666666666667
 21
116.0599329312919
 31
0.0
  0
CIRCLE
  5
F6
  8
1
  6
CONTINUOUS
 62
     7
 10
832.9166666666665
 20
119.309932931292
 30
0.0
 40
2.099999999999991
  0
LINE
  5
F7
  8
1
  6
CONTINUOUS
 62
     7
 10
1013.970729759332
 20
71.30993293129188
 30
0.0
 11
1013.512651091881
 21
71.30993293129188
 31
0.0
  0
LINE
  5
F8
  8
1
  6
CONTINUOUS
 62
     7
 10
825.6666666666667
 20
166.3099329312919
 30
0.0
 11
825.6666666666667
 21
71.3099329312919
 31
0.0
  0
CIRCLE
  5
F9
  8
1
  6
CONTINUOUS
 62
     7
 10
1009.916666666667
 20
119.309932931292
 30
0.0
 40
2.100000000000102
  0
LINE
  5
FA
  8
1
  6
CONTINUOUS
 62
     7
 10
1011.666666666667
 20
71.30993293129201
 30
0.0
 11
1011.666666666667
 21
73.90993293129189
 31
0.0
  0
ARC
  5
FB
  8
1
  6
CONTINUOUS
 62
     7
 10
921.6666666666667
 20
78.30993293129188
 30
0.0
 40
1.499999999999983
 50
0.0
 51
240.7993645679526
  0
LINE
  5
FC
  8
1
  6
CONTINUOUS
 62
     7
 10
1013.970729759332
 20
71.30993293129188
 30
0.0
 11
1017.120908879274
 21
71.30993293129188
 31
0.0
  0
LINE
  5
FD
  8
1
  6
CONTINUOUS
 62
     7
 10
1011.666666666667
 20
71.3099329312919
 30
0.0
 11
1013.512651091881
 21
71.30993293129188
 31
0.0
  0
LINE
  5
FE
  8
1
  6
CONTINUOUS
 62
     7
 10
479.1204207708785
 20
-119.8216956604594
 30
0.0
 11
479.280555147179
 21
-119.8216956604594
 31
0.0
  0
LINE
  5
FF
  8
1
  6
CONTINUOUS
 62
     7
 10
829.3626035740015
 20
71.3099329312919
 30
0.0
 11
826.2124244540596
 21
71.3099329312919
 31
0.0
  0
LINE
  5
100
  8
1
  6
CONTINUOUS
 62
     7
 10
470.2529932003927
 20
-52.14416013780713
 30
0.0
 11
473.7529932003927
 21
-58.20633796429819
 31
0.0
  0
POLYLINE
  5
101
  8
1
  6
CONTINUOUS
 62
     7
 66
     1
 10
0.0
 20
0.0
 30
0.0
  0
VERTEX
  5
303
  8
1
  6
CONTINUOUS
 62
     7
 10
471.0339242896322
 20
-49.96123855564731
 30
0.0
  0
VERTEX
  5
304
  8
1
  6
CONTINUOUS
 62
     7
 10
470.8691334258192
 20
-50.08966147582451
 30
0.0
  0
VERTEX
  5
305
  8
1
  6
CONTINUOUS
 62
     7
 10
470.739497461882
 20
-50.26307048109189
 30
0.0
  0
VERTEX
  5
306
  8
1
  6
CONTINUOUS
 62
     7
 10
470.6499982352138
 20
-50.47480156062593
 30
0.0
  0
VERTEX
  5
307
  8
1
  6
CONTINUOUS
 62
     7
 10
470.604075150904
 20
-50.71671800778028
 30
0.0
  0
VERTEX
  5
308
  8
1
  6
CONTINUOUS
 62
     7
 10
470.6034930073284
 20
-50.9795231091591
 30
0.0
  0
VERTEX
  5
309
  8
1
  6
CONTINUOUS
 62
     7
 10
470.6482741759382
 20
-51.25311741209922
 30
0.0
  0
VERTEX
  5
30A
  8
1
  6
CONTINUOUS
 62
     7
 10
470.7366977415375
 20
-51.52698684097209
 30
0.0
  0
VERTEX
  5
30B
  8
1
  6
CONTINUOUS
 62
     7
 10
470.8653656360885
 20
-51.79060674721388
 30
0.0
  0
SEQEND
  5
589
  8
1
  6
CONTINUOUS
 62
     7
  0
LINE
  5
102
  8
1
  6
CONTINUOUS
 62
     7
 10
831.6666666666667
 20
123.3099329312919
 30
0.0
 11
831.6666666666667
 21
122.5599329312919
 31
0.0
  0
POLYLINE
  5
103
  8
1
  6
CONTINUOUS
 62
     7
 66
     1
 10
0.0
 20
0.0
 30
0.0
  0
VERTEX
  5
30C
  8
1
  6
CONTINUOUS
 62
     7
 10
474.3653656360885
 20
-57.85278457370493
 30
0.0
  0
VERTEX
  5
30D
  8
1
  6
CONTINUOUS
 62
     7
 10
474.5293332245616
 20
-58.09602419215851
 30
0.0
  0
VERTEX
  5
30E
  8
1
  6
CONTINUOUS
 62
     7
 10
474.7222993244859
 20
-58.30953596069705
 30
0.0
  0
VERTEX
  5
30F
  8
1
  6
CONTINUOUS
 62
     7
 10
474.9368483568578
 20
-58.4851147417944
 30
0.0
  0
VERTEX
  5
310
  8
1
  6
CONTINUOUS
 62
     7
 10
475.1647353226838
 20
-58.6160131413587
 30
0.0
  0
VERTEX
  5
311
  8
1
  6
CONTINUOUS
 62
     7
 10
475.3972026536677
 20
-58.69720080730337
 30
0.0
  0
VERTEX
  5
312
  8
1
  6
CONTINUOUS
 62
     7
 10
475.6253167606489
 20
-58.72555774315672
 30
0.0
  0
VERTEX
  5
313
  8
1
  6
CONTINUOUS
 62
     7
 10
475.8403113464241
 20
-58.69999420777665
 30
0.0
  0
VERTEX
  5
314
  8
1
  6
CONTINUOUS
 62
     7
 10
476.0339242896322
 20
-58.62149259349164
 30
0.0
  0
SEQEND
  5
58A
  8
1
  6
CONTINUOUS
 62
     7
  0
POLYLINE
  5
104
  8
1
  6
CONTINUOUS
 62
     7
 66
     1
 10
0.0
 20
0.0
 30
0.0
  0
VERTEX
  5
315
  8
1
  6
CONTINUOUS
 62
     7
 10
473.7529932003927
 20
-58.20633796429817
 30
0.0
  0
VERTEX
  5
316
  8
1
  6
CONTINUOUS
 62
     7
 10
473.9169607888658
 20
-58.44957758275175
 30
0.0
  0
VERTEX
  5
317
  8
1
  6
CONTINUOUS
 62
     7
 10
474.10992688879
 20
-58.6630893512903
 30
0.0
  0
VERTEX
  5
318
  8
1
  6
CONTINUOUS
 62
     7
 10
474.3244759211619
 20
-58.83866813238766
 30
0.0
  0
VERTEX
  5
319
  8
1
  6
CONTINUOUS
 62
     7
 10
474.5523628869879
 20
-58.96956653195197
 30
0.0
  0
VERTEX
  5
31A
  8
1
  6
CONTINUOUS
 62
     7
 10
474.7848302179718
 20
-59.05075419789665
 30
0.0
  0
VERTEX
  5
31B
  8
1
  6
CONTINUOUS
 62
     7
 10
475.0129443249531
 20
-59.07911113375
 30
0.0
  0
VERTEX
  5
31C
  8
1
  6
CONTINUOUS
 62
     7
 10
475.2279389107283
 20
-59.05354759836995
 30
0.0
  0
VERTEX
  5
31D
  8
1
  6
CONTINUOUS
 62
     7
 10
475.4215518539364
 20
-58.97504598408494
 30
0.0
  0
SEQEND
  5
58B
  8
1
  6
CONTINUOUS
 62
     7
  0
LINE
  5
105
  8
1
  6
CONTINUOUS
 62
     7
 10
330.6327423770347
 20
-58.62149259349168
 30
0.0
 11
330.3265561591867
 21
-58.44471589819504
 31
0.0
  0
LINE
  5
106
  8
1
  6
CONTINUOUS
 62
     7
 10
476.0339242896322
 20
-58.62149259349167
 30
0.0
 11
476.3401105074801
 21
-58.44471589819504
 31
0.0
  0
LINE
  5
107
  8
1
  6
CONTINUOUS
 62
     7
 10
831.6666666666667
 20
71.3099329312919
 30
0.0
 11
829.8206822414526
 21
71.3099329312919
 31
0.0
  0
ARC
  5
108
  8
1
  6
CONTINUOUS
 62
     7
 10
1006.916666666667
 20
119.3099329312919
 30
0.0
 40
3.250000000000003
 50
180.0
 51
270.0
  0
ARC
  5
109
  8
1
  6
CONTINUOUS
 62
     7
 10
921.6666666666667
 20
82.80993293129188
 30
0.0
 40
1.500000000000005
 50
270.0
 51
349.0002566841344
  0
LINE
  5
10A
  8
1
  6
CONTINUOUS
 62
     7
 10
831.6666666666667
 20
73.90993293129189
 30
0.0
 11
831.6666666666667
 21
71.30993293129201
 31
0.0
  0
LINE
  5
10B
  8
1
  6
CONTINUOUS
 62
     7
 10
826.2124244540596
 20
166.3099329312919
 30
0.0
 11
826.2124244540596
 21
71.30993293129193
 31
0.0
  0
ARC
  5
10C
  8
1
  6
CONTINUOUS
 62
     7
 10
921.6666666666667
 20
253.8099329312918
 30
0.0
 40
2.099999999999991
 50
329.4312799141384
 51
180.0
  0
LINE
  5
10D
  8
1
  6
CONTINUOUS
 62
     7
 10
1017.120908879274
 20
71.30993293129188
 30
0.0
 11
1017.120908879274
 21
166.3099329312919
 31
0.0
  0
ARC
  5
10E
  8
1
  6
CONTINUOUS
 62
     7
 10
921.6666666666667
 20
254.0599329312919
 30
0.0
 40
3.249999999999975
 50
358.5307164186368
 51
0.0
  0
LINE
  5
10F
  8
1
  6
CONTINUOUS
 62
     7
 10
829.3626035740015
 20
71.3099329312919
 30
0.0
 11
829.8206822414526
 21
71.3099329312919
 31
0.0
  0
ARC
  5
110
  8
1
  6
CONTINUOUS
 62
     7
 10
921.6666666666667
 20
78.30993293129188
 30
0.0
 40
1.500000000000057
 50
299.2006354320476
 51
0.0
  0
LINE
  5
111
  8
1
  6
CONTINUOUS
 62
     7
 10
335.8013010305784
 20
-51.79060674721385
 30
0.0
 11
332.3013010305784
 21
-57.85278457370493
 31
0.0
  0
LINE
  5
112
  8
1
  6
CONTINUOUS
 62
     7
 10
836.4166666666667
 20
116.0599329312919
 30
0.0
 11
831.6666666666667
 21
116.0599329312919
 31
0.0
  0
LINE
  5
113
  8
1
  6
CONTINUOUS
 62
     7
 10
918.4166666666667
 20
254.0599329312919
 30
0.0
 11
918.4166666666667
 21
256.251233233211
 31
0.0
  0
ARC
  5
114
  8
1
  6
CONTINUOUS
 62
     7
 10
836.4166666666667
 20
119.3099329312919
 30
0.0
 40
3.249999999999975
 50
270.0
 51
0.0
  0
LINE
  5
115
  8
1
  6
CONTINUOUS
 62
     7
 10
1011.666666666667
 20
116.0599329312919
 30
0.0
 11
1006.916666666667
 21
116.0599329312919
 31
0.0
  0
LINE
  5
116
  8
1
  6
CONTINUOUS
 62
     7
 10
831.6666666666667
 20
122.5599329312919
 30
0.0
 11
836.4166666666667
 21
122.5599329312919
 31
0.0
  0
ARC
  5
117
  8
1
  6
CONTINUOUS
 62
     7
 10
921.6666666666667
 20
166.3099329312919
 30
0.0
 40
95.99999999999997
 50
0.0
 51
180.0
  0
LINE
  5
118
  8
1
  6
CONTINUOUS
 62
     7
 10
924.9166666666667
 20
256.251233233211
 30
0.0
 11
924.9166666666667
 21
254.0599329312919
 31
0.0
  0
LINE
  5
119
  8
1
  6
CONTINUOUS
 62
     7
 10
1017.666666666667
 20
71.30993293129188
 30
0.0
 11
1017.666666666667
 21
166.3099329312919
 31
0.0
  0
LINE
  5
11A
  8
1
  6
CONTINUOUS
 62
     7
 10
1017.120908879274
 20
71.30993293129188
 30
0.0
 11
1017.666666666667
 21
71.30993293129188
 31
0.0
  0
ARC
  5
11B
  8
1
  6
CONTINUOUS
 62
     7
 10
836.4166666666667
 20
119.3099329312919
 30
0.0
 40
3.250000000000003
 50
0.0
 51
90.0
  0
ARC
  5
11C
  8
1
  6
CONTINUOUS
 62
     7
 10
1006.916666666667
 20
119.3099329312919
 30
0.0
 40
3.249999999999975
 50
90.0
 51
180.0
  0
LINE
  5
11D
  8
1
  6
CONTINUOUS
 62
     7
 10
470.4215518539364
 20
-50.31479194624057
 30
0.0
 11
471.0339242896322
 21
-49.9612385556473
 31
0.0
  0
LINE
  5
11E
  8
1
  6
CONTINUOUS
 62
     7
 10
471.0339242896322
 20
-49.9612385556473
 30
0.0
 11
471.3401105074801
 21
-49.78446186035064
 31
0.0
  0
POLYLINE
  5
11F
  8
1
  6
CONTINUOUS
 62
     7
 66
     1
 10
0.0
 20
0.0
 30
0.0
  0
VERTEX
  5
31E
  8
1
  6
CONTINUOUS
 62
     7
 10
330.6327423770347
 20
-58.62149259349169
 30
0.0
  0
VERTEX
  5
31F
  8
1
  6
CONTINUOUS
 62
     7
 10
330.8263553202428
 20
-58.6999942077767
 30
0.0
  0
VERTEX
  5
320
  8
1
  6
CONTINUOUS
 62
     7
 10
331.041349906018
 20
-58.72555774315676
 30
0.0
  0
VERTEX
  5
321
  8
1
  6
CONTINUOUS
 62
     7
 10
331.2694640129992
 20
-58.6972008073034
 30
0.0
  0
VERTEX
  5
322
  8
1
  6
CONTINUOUS
 62
     7
 10
331.5019313439831
 20
-58.61601314135872
 30
0.0
  0
VERTEX
  5
323
  8
1
  6
CONTINUOUS
 62
     7
 10
331.7298183098091
 20
-58.4851147417944
 30
0.0
  0
VERTEX
  5
324
  8
1
  6
CONTINUOUS
 62
     7
 10
331.944367342181
 20
-58.30953596069705
 30
0.0
  0
VERTEX
  5
325
  8
1
  6
CONTINUOUS
 62
     7
 10
332.1373334421053
 20
-58.0960241921585
 30
0.0
  0
VERTEX
  5
326
  8
1
  6
CONTINUOUS
 62
     7
 10
332.3013010305784
 20
-57.85278457370491
 30
0.0
  0
SEQEND
  5
58C
  8
1
  6
CONTINUOUS
 62
     7
  0
POLYLINE
  5
120
  8
1
  6
CONTINUOUS
 62
     7
 66
     1
 10
0.0
 20
0.0
 30
0.0
  0
VERTEX
  5
327
  8
1
  6
CONTINUOUS
 62
     7
 10
335.8013010305783
 20
-51.79060674721385
 30
0.0
  0
VERTEX
  5
328
  8
1
  6
CONTINUOUS
 62
     7
 10
335.9299689251294
 20
-51.52698684097207
 30
0.0
  0
VERTEX
  5
329
  8
1
  6
CONTINUOUS
 62
     7
 10
336.0183924907286
 20
-51.25311741209921
 30
0.0
  0
VERTEX
  5
32A
  8
1
  6
CONTINUOUS
 62
     7
 10
336.0631736593384
 20
-50.9795231091591
 30
0.0
  0
VERTEX
  5
32B
  8
1
  6
CONTINUOUS
 62
     7
 10
336.0625915157628
 20
-50.71671800778028
 30
0.0
  0
VERTEX
  5
32C
  8
1
  6
CONTINUOUS
 62
     7
 10
336.016668431453
 20
-50.47480156062593
 30
0.0
  0
VERTEX
  5
32D
  8
1
  6
CONTINUOUS
 62
     7
 10
335.9271692047848
 20
-50.2630704810919
 30
0.0
  0
VERTEX
  5
32E
  8
1
  6
CONTINUOUS
 62
     7
 10
335.7975332408476
 20
-50.08966147582452
 30
0.0
  0
VERTEX
  5
32F
  8
1
  6
CONTINUOUS
 62
     7
 10
335.6327423770347
 20
-49.96123855564732
 30
0.0
  0
SEQEND
  5
58D
  8
1
  6
CONTINUOUS
 62
     7
  0
ARC
  5
121
  8
1
  6
CONTINUOUS
 62
     7
 10
921.6666666666667
 20
166.3099329312919
 30
0.0
 40
89.99999999999999
 50
92.06946419429161
 51
92.54668872281519
  0
ARC
  5
122
  8
1
  6
CONTINUOUS
 62
     7
 10
921.6666666666667
 20
166.3099329312919
 30
0.0
 40
89.99999999999999
 50
87.45331127718462
 51
87.93053580570837
  0
LINE
  5
123
  8
1
  6
CONTINUOUS
 62
     7
 10
1011.666666666667
 20
122.5599329312919
 30
0.0
 11
1011.666666666667
 21
123.3099329312919
 31
0.0
  0
ARC
  5
124
  8
1
  6
CONTINUOUS
 62
     7
 10
921.6666666666667
 20
253.8099329312918
 30
0.0
 40
2.099999999999971
 50
180.0
 51
210.5687200858617
  0
LINE
  5
125
  8
1
  6
CONTINUOUS
 62
     7
 10
1006.916666666667
 20
122.5599329312919
 30
0.0
 11
1011.666666666667
 21
122.5599329312919
 31
0.0
  0
LINE
  5
126
  8
1
  6
CONTINUOUS
 62
     7
 10
327.3861115194878
 20
-119.8216956604594
 30
0.0
 11
327.5462458957884
 21
-119.8216956604594
 31
0.0
  0
LINE
  5
127
  8
1
  6
CONTINUOUS
 62
     7
 10
839.1666666666667
 20
121.0419837388608
 30
0.0
 11
839.1666666666667
 21
117.577882123723
 31
0.0
  0
LINE
  5
128
  8
1
  6
CONTINUOUS
 62
     7
 10
470.8653656360885
 20
-51.79060674721386
 30
0.0
 11
474.3653656360885
 21
-57.85278457370492
 31
0.0
  0
CIRCLE
  5
129
  8
1
  6
CONTINUOUS
 62
     7
 10
921.6666666666667
 20
78.30993293129188
 30
0.0
 40
1.249999999999973
  0
LINE
  5
12A
  8
1
  6
CONTINUOUS
 62
     7
 10
826.2124244540596
 20
71.3099329312919
 30
0.0
 11
825.6666666666667
 21
71.3099329312919
 31
0.0
  0
POLYLINE
  5
12B
  8
1
  6
CONTINUOUS
 62
     7
 66
     1
 10
0.0
 20
0.0
 30
0.0
  0
VERTEX
  5
330
  8
1
  6
CONTINUOUS
 62
     7
 10
479.24262716183
 20
-121.0328956843178
 30
0.0
  0
VERTEX
  5
331
  8
1
  6
CONTINUOUS
 62
     7
 10
478.7801460588553
 20
-120.0904944843698
 30
0.0
  0
VERTEX
  5
332
  8
1
  6
CONTINUOUS
 62
     7
 10
477.9442910298841
 20
-119.214749768741
 30
0.0
  0
VERTEX
  5
333
  8
1
  6
CONTINUOUS
 62
     7
 10
476.7699444943107
 20
-118.4422086579176
 30
0.0
  0
VERTEX
  5
334
  8
1
  6
CONTINUOUS
 62
     7
 10
475.3061150085805
 20
-117.8051113156751
 30
0.0
  0
VERTEX
  5
335
  8
1
  6
CONTINUOUS
 62
     7
 10
473.613892010781
 20
-117.3300454826105
 30
0.0
  0
VERTEX
  5
336
  8
1
  6
CONTINUOUS
 62
     7
 10
471.7638963984022
 20
-117.0368369000956
 30
0.0
  0
VERTEX
  5
337
  8
1
  6
CONTINUOUS
 62
     7
 10
469.8333333333334
 20
-116.9377219301677
 30
0.0
  0
SEQEND
  5
58E
  8
1
  6
CONTINUOUS
 62
     7
  0
LINE
  5
12C
  8
1
  6
CONTINUOUS
 62
     7
 10
462.3333333333334
 20
-59.4377219301676
 30
0.0
 11
344.3333333333334
 21
-59.43772193016762
 31
0.0
  0
LINE
  5
12D
  8
1
  6
CONTINUOUS
 62
     7
 10
471.3401105074801
 20
-49.78446186035064
 30
0.0
 11
471.8474164436574
 21
-49.49156864153719
 31
0.0
  0
POLYLINE
  5
12E
  8
1
  6
CONTINUOUS
 62
     7
 66
     1
 10
0.0
 20
0.0
 30
0.0
  0
VERTEX
  5
338
  8
1
  6
CONTINUOUS
 62
     7
 10
363.8333333333334
 20
-35.57169652638319
 30
0.0
  0
VERTEX
  5
339
  8
1
  6
CONTINUOUS
 62
     7
 10
362.0508539324398
 20
-35.65605704220231
 30
0.0
  0
VERTEX
  5
33A
  8
1
  6
CONTINUOUS
 62
     7
 10
360.3316885869975
 20
-35.90614208581579
 30
0.0
  0
VERTEX
  5
33B
  8
1
  6
CONTINUOUS
 62
     7
 10
358.7369024234566
 20
-36.31306858215923
 30
0.0
  0
VERTEX
  5
33C
  8
1
  6
CONTINUOUS
 62
     7
 10
357.3231425927131
 20
-36.86238241370339
 30
0.0
  0
VERTEX
  5
33D
  8
1
  6
CONTINUOUS
 62
     7
 10
356.1406261510053
 20
-37.53457183384799
 30
0.0
  0
VERTEX
  5
33E
  8
1
  6
CONTINUOUS
 62
     7
 10
355.2313563391697
 20
-38.30576052839869
 30
0.0
  0
VERTEX
  5
33F
  8
1
  6
CONTINUOUS
 62
     7
 10
354.6276306184044
 20
-39.1485557074329
 30
0.0
  0
VERTEX
  5
340
  8
1
  6
CONTINUOUS
 62
     7
 10
354.3508934574323
 20
-40.03302110314715
 30
0.0
  0
SEQEND
  5
58F
  8
1
  6
CONTINUOUS
 62
     7
  0
LINE
  5
12F
  8
1
  6
CONTINUOUS
 62
     7
 10
399.3333333333334
 20
-116.9377219301676
 30
0.0
 11
336.8333333333334
 21
-116.9377219301676
 31
0.0
  0
LINE
  5
130
  8
1
  6
CONTINUOUS
 62
     7
 10
399.3333333333334
 20
-105.4377219301676
 30
0.0
 11
336.8333333333334
 21
-105.4377219301676
 31
0.0
  0
POLYLINE
  5
131
  8
1
  6
CONTINUOUS
 62
     7
 66
     1
 10
0.0
 20
0.0
 30
0.0
  0
VERTEX
  5
341
  8
1
  6
CONTINUOUS
 62
     7
 10
399.3333333333334
 20
-106.1877219301676
 30
0.0
  0
VERTEX
  5
342
  8
1
  6
CONTINUOUS
 62
     7
 10
399.4101922117205
 20
-106.5779025741999
 30
0.0
  0
VERTEX
  5
343
  8
1
  6
CONTINUOUS
 62
     7
 10
399.6378152032883
 20
-106.9530887948978
 30
0.0
  0
VERTEX
  5
344
  8
1
  6
CONTINUOUS
 62
     7
 10
400.0074548841233
 20
-107.2988623962068
 30
0.0
  0
VERTEX
  5
345
  8
1
  6
CONTINUOUS
 62
     7
 10
400.5049062085872
 20
-107.6019354925407
 30
0.0
  0
VERTEX
  5
346
  8
1
  6
CONTINUOUS
 62
     7
 10
401.111052401255
 20
-107.8506611547727
 30
0.0
  0
VERTEX
  5
347
  8
1
  6
CONTINUOUS
 62
     7
 10
401.8025996038731
 20
-108.0354809951902
 30
0.0
  0
VERTEX
  5
348
  8
1
  6
CONTINUOUS
 62
     7
 10
402.5529720452689
 20
-108.1492924909741
 30
0.0
  0
VERTEX
  5
349
  8
1
  6
CONTINUOUS
 62
     7
 10
403.3333333333334
 20
-108.1877219301676
 30
0.0
  0
SEQEND
  5
590
  8
1
  6
CONTINUOUS
 62
     7
  0
POLYLINE
  5
132
  8
1
  6
CONTINUOUS
 62
     7
 66
     1
 10
0.0
 20
0.0
 30
0.0
  0
VERTEX
  5
34A
  8
1
  6
CONTINUOUS
 62
     7
 10
403.3333333333334
 20
-108.1877219301676
 30
0.0
  0
VERTEX
  5
34B
  8
1
  6
CONTINUOUS
 62
     7
 10
404.1136946213979
 20
-108.1492924909741
 30
0.0
  0
VERTEX
  5
34C
  8
1
  6
CONTINUOUS
 62
     7
 10
404.8640670627938
 20
-108.0354809951902
 30
0.0
  0
VERTEX
  5
34D
  8
1
  6
CONTINUOUS
 62
     7
 10
405.5556142654119
 20
-107.8506611547727
 30
0.0
  0
VERTEX
  5
34E
  8
1
  6
CONTINUOUS
 62
     7
 10
406.1617604580796
 20
-107.6019354925407
 30
0.0
  0
VERTEX
  5
34F
  8
1
  6
CONTINUOUS
 62
     7
 10
406.6592117825436
 20
-107.2988623962068
 30
0.0
  0
VERTEX
  5
350
  8
1
  6
CONTINUOUS
 62
     7
 10
407.0288514633786
 20
-106.9530887948978
 30
0.0
  0
VERTEX
  5
351
  8
1
  6
CONTINUOUS
 62
     7
 10
407.2564744549463
 20
-106.5779025741999
 30
0.0
  0
VERTEX
  5
352
  8
1
  6
CONTINUOUS
 62
     7
 10
407.3333333333334
 20
-106.1877219301676
 30
0.0
  0
SEQEND
  5
591
  8
1
  6
CONTINUOUS
 62
     7
  0
LINE
  5
133
  8
1
  6
CONTINUOUS
 62
     7
 10
334.8508934574324
 20
-63.03302110314709
 30
0.0
 11
334.8346626640341
 21
-63.32169566045942
 31
0.0
  0
LINE
  5
134
  8
1
  6
CONTINUOUS
 62
     7
 10
335.3265561591867
 20
-49.78446186035064
 30
0.0
 11
334.8192502230095
 21
-49.49156864153719
 31
0.0
  0
POLYLINE
  5
135
  8
1
  6
CONTINUOUS
 62
     7
 66
     1
 10
0.0
 20
0.0
 30
0.0
  0
VERTEX
  5
353
  8
1
  6
CONTINUOUS
 62
     7
 10
437.8310207668579
 20
-29.39904650693156
 30
0.0
  0
VERTEX
  5
354
  8
1
  6
CONTINUOUS
 62
     7
 10
437.7652389578619
 20
-29.18840344401864
 30
0.0
  0
VERTEX
  5
355
  8
1
  6
CONTINUOUS
 62
     7
 10
437.6116475725308
 20
-28.98951972638432
 30
0.0
  0
VERTEX
  5
356
  8
1
  6
CONTINUOUS
 62
     7
 10
437.3772276943623
 20
-28.81143507872514
 30
0.0
  0
VERTEX
  5
357
  8
1
  6
CONTINUOUS
 62
     7
 10
437.0726342486929
 20
-28.66224385992913
 30
0.0
  0
VERTEX
  5
358
  8
1
  6
CONTINUOUS
 62
     7
 10
436.7117117117118
 20
-28.54872715575386
 30
0.0
  0
SEQEND
  5
592
  8
1
  6
CONTINUOUS
 62
     7
  0
LINE
  5
136
  8
1
  6
CONTINUOUS
 62
     7
 10
452.3157732092345
 20
-40.89904650693159
 30
0.0
 11
452.2937772182775
 21
-40.32169566045941
 31
0.0
  0
POLYLINE
  5
137
  8
1
  6
CONTINUOUS
 62
     7
 66
     1
 10
0.0
 20
0.0
 30
0.0
  0
VERTEX
  5
359
  8
1
  6
CONTINUOUS
 62
     7
 10
471.8157732092345
 20
-63.89904650693154
 30
0.0
  0
VERTEX
  5
35A
  8
1
  6
CONTINUOUS
 62
     7
 10
471.5390360482624
 20
-63.0145811112173
 30
0.0
  0
VERTEX
  5
35B
  8
1
  6
CONTINUOUS
 62
     7
 10
470.9353103274971
 20
-62.1717859321831
 30
0.0
  0
VERTEX
  5
35C
  8
1
  6
CONTINUOUS
 62
     7
 10
470.0260405156615
 20
-61.4005972376324
 30
0.0
  0
VERTEX
  5
35D
  8
1
  6
CONTINUOUS
 62
     7
 10
468.8435240739537
 20
-60.72840781748781
 30
0.0
  0
VERTEX
  5
35E
  8
1
  6
CONTINUOUS
 62
     7
 10
467.4297642432102
 20
-60.17909398594364
 30
0.0
  0
VERTEX
  5
35F
  8
1
  6
CONTINUOUS
 62
     7
 10
465.8349780796693
 20
-59.7721674896002
 30
0.0
  0
VERTEX
  5
360
  8
1
  6
CONTINUOUS
 62
     7
 10
464.1158127342269
 20
-59.52208244598673
 30
0.0
  0
VERTEX
  5
361
  8
1
  6
CONTINUOUS
 62
     7
 10
462.3333333333334
 20
-59.4377219301676
 30
0.0
  0
SEQEND
  5
593
  8
1
  6
CONTINUOUS
 62
     7
  0
POLYLINE
  5
138
  8
1
  6
CONTINUOUS
 62
     7
 66
     1
 10
0.0
 20
0.0
 30
0.0
  0
VERTEX
  5
362
  8
1
  6
CONTINUOUS
 62
     7
 10
363.8333333333334
 20
-36.43772193016763
 30
0.0
  0
VERTEX
  5
363
  8
1
  6
CONTINUOUS
 62
     7
 10
362.0508539324398
 20
-36.52208244598675
 30
0.0
  0
VERTEX
  5
364
  8
1
  6
CONTINUOUS
 62
     7
 10
360.3316885869975
 20
-36.77216748960022
 30
0.0
  0
VERTEX
  5
365
  8
1
  6
CONTINUOUS
 62
     7
 10
358.7369024234566
 20
-37.17909398594367
 30
0.0
  0
VERTEX
  5
366
  8
1
  6
CONTINUOUS
 62
     7
 10
357.3231425927131
 20
-37.72840781748783
 30
0.0
  0
VERTEX
  5
367
  8
1
  6
CONTINUOUS
 62
     7
 10
356.1406261510053
 20
-38.40059723763243
 30
0.0
  0
VERTEX
  5
368
  8
1
  6
CONTINUOUS
 62
     7
 10
355.2313563391697
 20
-39.17178593218313
 30
0.0
  0
VERTEX
  5
369
  8
1
  6
CONTINUOUS
 62
     7
 10
354.6276306184044
 20
-40.01458111121734
 30
0.0
  0
VERTEX
  5
36A
  8
1
  6
CONTINUOUS
 62
     7
 10
354.3508934574323
 20
-40.89904650693159
 30
0.0
  0
SEQEND
  5
594
  8
1
  6
CONTINUOUS
 62
     7
  0
POLYLINE
  5
139
  8
1
  6
CONTINUOUS
 62
     7
 66
     1
 10
0.0
 20
0.0
 30
0.0
  0
VERTEX
  5
36B
  8
1
  6
CONTINUOUS
 62
     7
 10
351.8333333333334
 20
-47.07169652638319
 30
0.0
  0
VERTEX
  5
36C
  8
1
  6
CONTINUOUS
 62
     7
 10
350.05085393244
 20
-47.15605704220232
 30
0.0
  0
VERTEX
  5
36D
  8
1
  6
CONTINUOUS
 62
     7
 10
348.3316885869975
 20
-47.40614208581579
 30
0.0
  0
VERTEX
  5
36E
  8
1
  6
CONTINUOUS
 62
     7
 10
346.7369024234567
 20
-47.81306858215923
 30
0.0
  0
VERTEX
  5
36F
  8
1
  6
CONTINUOUS
 62
     7
 10
345.3231425927132
 20
-48.36238241370339
 30
0.0
  0
VERTEX
  5
370
  8
1
  6
CONTINUOUS
 62
     7
 10
344.1406261510054
 20
-49.03457183384798
 30
0.0
  0
VERTEX
  5
371
  8
1
  6
CONTINUOUS
 62
     7
 10
343.2313563391698
 20
-49.80576052839867
 30
0.0
  0
VERTEX
  5
372
  8
1
  6
CONTINUOUS
 62
     7
 10
342.6276306184045
 20
-50.64855570743286
 30
0.0
  0
VERTEX
  5
373
  8
1
  6
CONTINUOUS
 62
     7
 10
342.3508934574324
 20
-51.53302110314711
 30
0.0
  0
SEQEND
  5
595
  8
1
  6
CONTINUOUS
 62
     7
  0
LINE
  5
13A
  8
1
  6
CONTINUOUS
 62
     7
 10
354.3728894483893
 20
-40.32169566045942
 30
0.0
 11
354.3508934574323
 21
-40.8990465069316
 31
0.0
  0
POLYLINE
  5
13B
  8
1
  6
CONTINUOUS
 62
     7
 66
     1
 10
0.0
 20
0.0
 30
0.0
  0
VERTEX
  5
374
  8
1
  6
CONTINUOUS
 62
     7
 10
452.3157732092345
 20
-40.03302110314715
 30
0.0
  0
VERTEX
  5
375
  8
1
  6
CONTINUOUS
 62
     7
 10
452.0390360482624
 20
-39.1485557074329
 30
0.0
  0
VERTEX
  5
376
  8
1
  6
CONTINUOUS
 62
     7
 10
451.4353103274971
 20
-38.30576052839869
 30
0.0
  0
VERTEX
  5
377
  8
1
  6
CONTINUOUS
 62
     7
 10
450.5260405156615
 20
-37.53457183384799
 30
0.0
  0
VERTEX
  5
378
  8
1
  6
CONTINUOUS
 62
     7
 10
449.3435240739537
 20
-36.86238241370339
 30
0.0
  0
VERTEX
  5
379
  8
1
  6
CONTINUOUS
 62
     7
 10
447.9297642432102
 20
-36.31306858215923
 30
0.0
  0
VERTEX
  5
37A
  8
1
  6
CONTINUOUS
 62
     7
 10
446.3349780796693
 20
-35.90614208581578
 30
0.0
  0
VERTEX
  5
37B
  8
1
  6
CONTINUOUS
 62
     7
 10
444.6158127342269
 20
-35.65605704220231
 30
0.0
  0
VERTEX
  5
37C
  8
1
  6
CONTINUOUS
 62
     7
 10
442.8333333333334
 20
-35.57169652638319
 30
0.0
  0
SEQEND
  5
596
  8
1
  6
CONTINUOUS
 62
     7
  0
POLYLINE
  5
13C
  8
1
  6
CONTINUOUS
 62
     7
 66
     1
 10
0.0
 20
0.0
 30
0.0
  0
VERTEX
  5
37D
  8
1
  6
CONTINUOUS
 62
     7
 10
344.3333333333334
 20
-58.5716965263832
 30
0.0
  0
VERTEX
  5
37E
  8
1
  6
CONTINUOUS
 62
     7
 10
342.5508539324399
 20
-58.65605704220233
 30
0.0
  0
VERTEX
  5
37F
  8
1
  6
CONTINUOUS
 62
     7
 10
340.8316885869975
 20
-58.9061420858158
 30
0.0
  0
VERTEX
  5
380
  8
1
  6
CONTINUOUS
 62
     7
 10
339.2369024234567
 20
-59.31306858215925
 30
0.0
  0
VERTEX
  5
381
  8
1
  6
CONTINUOUS
 62
     7
 10
337.8231425927132
 20
-59.8623824137034
 30
0.0
  0
VERTEX
  5
382
  8
1
  6
CONTINUOUS
 62
     7
 10
336.6406261510054
 20
-60.53457183384799
 30
0.0
  0
VERTEX
  5
383
  8
1
  6
CONTINUOUS
 62
     7
 10
335.7313563391698
 20
-61.30576052839868
 30
0.0
  0
VERTEX
  5
384
  8
1
  6
CONTINUOUS
 62
     7
 10
335.1276306184045
 20
-62.14855570743286
 30
0.0
  0
VERTEX
  5
385
  8
1
  6
CONTINUOUS
 62
     7
 10
334.8508934574324
 20
-63.0330211031471
 30
0.0
  0
SEQEND
  5
597
  8
1
  6
CONTINUOUS
 62
     7
  0
LINE
  5
13D
  8
1
  6
CONTINUOUS
 62
     7
 10
330.3728894483894
 20
-74.82169566045937
 30
0.0
 11
330.3508934574324
 21
-75.39904650693153
 31
0.0
  0
LINE
  5
13E
  8
1
  6
CONTINUOUS
 62
     7
 10
330.3508934574324
 20
-74.5330211031471
 30
0.0
 11
330.3346626640341
 21
-74.8216956604594
 31
0.0
  0
POLYLINE
  5
13F
  8
1
  6
CONTINUOUS
 62
     7
 66
     1
 10
0.0
 20
0.0
 30
0.0
  0
VERTEX
  5
386
  8
1
  6
CONTINUOUS
 62
     7
 10
331.2451148127304
 20
-58.97504598408491
 30
0.0
  0
VERTEX
  5
387
  8
1
  6
CONTINUOUS
 62
     7
 10
331.4387277559385
 20
-59.05354759836993
 30
0.0
  0
VERTEX
  5
388
  8
1
  6
CONTINUOUS
 62
     7
 10
331.6537223417138
 20
-59.07911113374999
 30
0.0
  0
VERTEX
  5
389
  8
1
  6
CONTINUOUS
 62
     7
 10
331.881836448695
 20
-59.05075419789664
 30
0.0
  0
VERTEX
  5
38A
  8
1
  6
CONTINUOUS
 62
     7
 10
332.1143037796788
 20
-58.96956653195198
 30
0.0
  0
VERTEX
  5
38B
  8
1
  6
CONTINUOUS
 62
     7
 10
332.3421907455049
 20
-58.83866813238768
 30
0.0
  0
VERTEX
  5
38C
  8
1
  6
CONTINUOUS
 62
     7
 10
332.5567397778768
 20
-58.66308935129034
 30
0.0
  0
VERTEX
  5
38D
  8
1
  6
CONTINUOUS
 62
     7
 10
332.749705877801
 20
-58.44957758275181
 30
0.0
  0
VERTEX
  5
38E
  8
1
  6
CONTINUOUS
 62
     7
 10
332.9136734662741
 20
-58.20633796429824
 30
0.0
  0
SEQEND
  5
598
  8
1
  6
CONTINUOUS
 62
     7
  0
POLYLINE
  5
140
  8
1
  6
CONTINUOUS
 62
     7
 66
     1
 10
0.0
 20
0.0
 30
0.0
  0
VERTEX
  5
38F
  8
1
  6
CONTINUOUS
 62
     7
 10
464.3157732092345
 20
-52.39904650693155
 30
0.0
  0
VERTEX
  5
390
  8
1
  6
CONTINUOUS
 62
     7
 10
464.0390360482624
 20
-51.5145811112173
 30
0.0
  0
VERTEX
  5
391
  8
1
  6
CONTINUOUS
 62
     7
 10
463.4353103274971
 20
-50.6717859321831
 30
0.0
  0
VERTEX
  5
392
  8
1
  6
CONTINUOUS
 62
     7
 10
462.5260405156615
 20
-49.9005972376324
 30
0.0
  0
VERTEX
  5
393
  8
1
  6
CONTINUOUS
 62
     7
 10
461.3435240739537
 20
-49.22840781748781
 30
0.0
  0
VERTEX
  5
394
  8
1
  6
CONTINUOUS
 62
     7
 10
459.9297642432102
 20
-48.67909398594364
 30
0.0
  0
VERTEX
  5
395
  8
1
  6
CONTINUOUS
 62
     7
 10
458.3349780796693
 20
-48.2721674896002
 30
0.0
  0
VERTEX
  5
396
  8
1
  6
CONTINUOUS
 62
     7
 10
456.6158127342269
 20
-48.02208244598673
 30
0.0
  0
VERTEX
  5
397
  8
1
  6
CONTINUOUS
 62
     7
 10
454.8333333333334
 20
-47.9377219301676
 30
0.0
  0
SEQEND
  5
599
  8
1
  6
CONTINUOUS
 62
     7
  0
LINE
  5
141
  8
1
  6
CONTINUOUS
 62
     7
 10
342.3728894483894
 20
-51.82169566045939
 30
0.0
 11
342.3508934574324
 21
-52.39904650693157
 31
0.0
  0
LINE
  5
142
  8
1
  6
CONTINUOUS
 62
     7
 10
330.3265561591867
 20
-58.44471589819503
 30
0.0
 11
329.8192502230094
 21
-58.15182267938158
 31
0.0
  0
LINE
  5
143
  8
1
  6
CONTINUOUS
 62
     7
 10
471.8320040026328
 20
-63.3216956604594
 30
0.0
 11
471.8157732092345
 21
-63.03302110314711
 31
0.0
  0
POLYLINE
  5
144
  8
1
  6
CONTINUOUS
 62
     7
 66
     1
 10
0.0
 20
0.0
 30
0.0
  0
VERTEX
  5
398
  8
1
  6
CONTINUOUS
 62
     7
 10
399.3333333333334
 20
-118.4377219301676
 30
0.0
  0
VERTEX
  5
399
  8
1
  6
CONTINUOUS
 62
     7
 10
399.4101922117205
 20
-118.8279025741999
 30
0.0
  0
VERTEX
  5
39A
  8
1
  6
CONTINUOUS
 62
     7
 10
399.6378152032883
 20
-119.2030887948978
 30
0.0
  0
VERTEX
  5
39B
  8
1
  6
CONTINUOUS
 62
     7
 10
400.0074548841233
 20
-119.5488623962068
 30
0.0
  0
VERTEX
  5
39C
  8
1
  6
CONTINUOUS
 62
     7
 10
400.5049062085872
 20
-119.8519354925407
 30
0.0
  0
VERTEX
  5
39D
  8
1
  6
CONTINUOUS
 62
     7
 10
401.111052401255
 20
-120.1006611547727
 30
0.0
  0
VERTEX
  5
39E
  8
1
  6
CONTINUOUS
 62
     7
 10
401.8025996038731
 20
-120.2854809951902
 30
0.0
  0
VERTEX
  5
39F
  8
1
  6
CONTINUOUS
 62
     7
 10
402.5529720452689
 20
-120.3992924909741
 30
0.0
  0
VERTEX
  5
3A0
  8
1
  6
CONTINUOUS
 62
     7
 10
403.3333333333334
 20
-120.4377219301676
 30
0.0
  0
SEQEND
  5
59A
  8
1
  6
CONTINUOUS
 62
     7
  0
LINE
  5
145
  8
1
  6
CONTINUOUS
 62
     7
 10
399.3333333333334
 20
-106.1877219301676
 30
0.0
 11
399.3333333333334
 21
-105.4377219301676
 31
0.0
  0
LINE
  5
146
  8
1
  6
CONTINUOUS
 62
     7
 10
407.3333333333334
 20
-105.4377219301676
 30
0.0
 11
407.3333333333334
 21
-106.1877219301676
 31
0.0
  0
LINE
  5
147
  8
1
  6
CONTINUOUS
 62
     7
 10
437.8310207668579
 20
-29.39904650693157
 30
0.0
 11
368.8356458998089
 21
-29.39904650693155
 31
0.0
  0
LINE
  5
148
  8
1
  6
CONTINUOUS
 62
     7
 10
442.8333333333334
 20
-36.43772193016763
 30
0.0
 11
363.8333333333334
 21
-36.43772193016763
 31
0.0
  0
LINE
  5
149
  8
1
  6
CONTINUOUS
 62
     7
 10
342.3508934574324
 20
-52.39904650693155
 30
0.0
 11
464.3157732092345
 21
-52.39904650693155
 31
0.0
  0
POLYLINE
  5
14A
  8
1
  6
CONTINUOUS
 62
     7
 66
     1
 10
0.0
 20
0.0
 30
0.0
  0
VERTEX
  5
3A1
  8
1
  6
CONTINUOUS
 62
     7
 10
464.3157732092345
 20
-51.53302110314711
 30
0.0
  0
VERTEX
  5
3A2
  8
1
  6
CONTINUOUS
 62
     7
 10
464.0390360482624
 20
-50.64855570743286
 30
0.0
  0
VERTEX
  5
3A3
  8
1
  6
CONTINUOUS
 62
     7
 10
463.4353103274971
 20
-49.80576052839866
 30
0.0
  0
VERTEX
  5
3A4
  8
1
  6
CONTINUOUS
 62
     7
 10
462.5260405156615
 20
-49.03457183384796
 30
0.0
  0
VERTEX
  5
3A5
  8
1
  6
CONTINUOUS
 62
     7
 10
461.3435240739537
 20
-48.36238241370337
 30
0.0
  0
VERTEX
  5
3A6
  8
1
  6
CONTINUOUS
 62
     7
 10
459.9297642432102
 20
-47.8130685821592
 30
0.0
  0
VERTEX
  5
3A7
  8
1
  6
CONTINUOUS
 62
     7
 10
458.3349780796693
 20
-47.40614208581576
 30
0.0
  0
VERTEX
  5
3A8
  8
1
  6
CONTINUOUS
 62
     7
 10
456.6158127342269
 20
-47.15605704220229
 30
0.0
  0
VERTEX
  5
3A9
  8
1
  6
CONTINUOUS
 62
     7
 10
454.8333333333334
 20
-47.07169652638316
 30
0.0
  0
SEQEND
  5
59B
  8
1
  6
CONTINUOUS
 62
     7
  0
LINE
  5
14B
  8
1
  6
CONTINUOUS
 62
     7
 10
464.3320040026328
 20
-51.82169566045941
 30
0.0
 11
464.3157732092345
 21
-51.53302110314711
 31
0.0
  0
POLYLINE
  5
14C
  8
1
  6
CONTINUOUS
 62
     7
 66
     1
 10
0.0
 20
0.0
 30
0.0
  0
VERTEX
  5
3AA
  8
1
  6
CONTINUOUS
 62
     7
 10
336.8333333333334
 20
-116.9377219301676
 30
0.0
  0
VERTEX
  5
3AB
  8
1
  6
CONTINUOUS
 62
     7
 10
334.9027702682647
 20
-117.0368369000956
 30
0.0
  0
VERTEX
  5
3AC
  8
1
  6
CONTINUOUS
 62
     7
 10
333.0527746558858
 20
-117.3300454826105
 30
0.0
  0
VERTEX
  5
3AD
  8
1
  6
CONTINUOUS
 62
     7
 10
331.3605516580864
 20
-117.8051113156751
 30
0.0
  0
VERTEX
  5
3AE
  8
1
  6
CONTINUOUS
 62
     7
 10
329.8967221723561
 20
-118.4422086579176
 30
0.0
  0
VERTEX
  5
3AF
  8
1
  6
CONTINUOUS
 62
     7
 10
328.7223756367827
 20
-119.214749768741
 30
0.0
  0
VERTEX
  5
3B0
  8
1
  6
CONTINUOUS
 62
     7
 10
327.8865206078116
 20
-120.0904944843698
 30
0.0
  0
VERTEX
  5
3B1
  8
1
  6
CONTINUOUS
 62
     7
 10
327.4240395048368
 20
-121.0328956843178
 30
0.0
  0
SEQEND
  5
59C
  8
1
  6
CONTINUOUS
 62
     7
  0
LINE
  5
14D
  8
1
  6
CONTINUOUS
 62
     7
 10
471.8474164436574
 20
-49.49156864153719
 30
0.0
 11
476.8474164436574
 21
-58.15182267938157
 31
0.0
  0
LINE
  5
14E
  8
1
  6
CONTINUOUS
 62
     7
 10
334.8192502230095
 20
-49.49156864153719
 30
0.0
 11
329.8192502230094
 21
-58.15182267938157
 31
0.0
  0
LINE
  5
14F
  8
1
  6
CONTINUOUS
 62
     7
 10
334.8728894483894
 20
-63.3216956604594
 30
0.0
 11
334.8508934574324
 21
-63.89904650693151
 31
0.0
  0
LINE
  5
150
  8
1
  6
CONTINUOUS
 62
     7
 10
476.3401105074801
 20
-58.44471589819503
 30
0.0
 11
476.8474164436574
 21
-58.15182267938158
 31
0.0
  0
POLYLINE
  5
151
  8
1
  6
CONTINUOUS
 62
     7
 66
     1
 10
0.0
 20
0.0
 30
0.0
  0
VERTEX
  5
3B2
  8
1
  6
CONTINUOUS
 62
     7
 10
436.7117117117119
 20
-27.68270175196941
 30
0.0
  0
VERTEX
  5
3B3
  8
1
  6
CONTINUOUS
 62
     7
 10
423.8112197574486
 20
-25.2271061898285
 30
0.0
  0
VERTEX
  5
3B4
  8
1
  6
CONTINUOUS
 62
     7
 10
410.2351898031762
 20
-23.9787170676061
 30
0.0
  0
VERTEX
  5
3B5
  8
1
  6
CONTINUOUS
 62
     7
 10
396.4314768634909
 20
-23.97871706760608
 30
0.0
  0
VERTEX
  5
3B6
  8
1
  6
CONTINUOUS
 62
     7
 10
382.8554469092184
 20
-25.22710618982847
 30
0.0
  0
VERTEX
  5
3B7
  8
1
  6
CONTINUOUS
 62
     7
 10
369.954954954955
 20
-27.68270175196939
 30
0.0
  0
SEQEND
  5
59D
  8
1
  6
CONTINUOUS
 62
     7
  0
LINE
  5
152
  8
1
  6
CONTINUOUS
 62
     7
 10
354.3508934574323
 20
-40.03302110314714
 30
0.0
 11
354.3346626640341
 21
-40.32169566045941
 31
0.0
  0
LINE
  5
153
  8
1
  6
CONTINUOUS
 62
     7
 10
442.8333333333334
 20
-35.57169652638319
 30
0.0
 11
363.8333333333334
 21
-35.57169652638319
 31
0.0
  0
LINE
  5
154
  8
1
  6
CONTINUOUS
 62
     7
 10
454.8333333333334
 20
-47.07169652638317
 30
0.0
 11
351.8333333333334
 21
-47.07169652638319
 31
0.0
  0
LINE
  5
155
  8
1
  6
CONTINUOUS
 62
     7
 10
464.3157732092345
 20
-52.39904650693155
 30
0.0
 11
464.2937772182775
 21
-51.8216956604594
 31
0.0
  0
LINE
  5
156
  8
1
  6
CONTINUOUS
 62
     7
 10
471.8157732092345
 20
-63.89904650693152
 30
0.0
 11
471.7937772182775
 21
-63.32169566045939
 31
0.0
  0
POLYLINE
  5
157
  8
1
  6
CONTINUOUS
 62
     7
 66
     1
 10
0.0
 20
0.0
 30
0.0
  0
VERTEX
  5
3B8
  8
1
  6
CONTINUOUS
 62
     7
 10
339.8333333333334
 20
-70.07169652638316
 30
0.0
  0
VERTEX
  5
3B9
  8
1
  6
CONTINUOUS
 62
     7
 10
338.0508539324399
 20
-70.15605704220229
 30
0.0
  0
VERTEX
  5
3BA
  8
1
  6
CONTINUOUS
 62
     7
 10
336.3316885869975
 20
-70.40614208581576
 30
0.0
  0
VERTEX
  5
3BB
  8
1
  6
CONTINUOUS
 62
     7
 10
334.7369024234567
 20
-70.8130685821592
 30
0.0
  0
VERTEX
  5
3BC
  8
1
  6
CONTINUOUS
 62
     7
 10
333.3231425927132
 20
-71.36238241370337
 30
0.0
  0
VERTEX
  5
3BD
  8
1
  6
CONTINUOUS
 62
     7
 10
332.1406261510053
 20
-72.03457183384796
 30
0.0
  0
VERTEX
  5
3BE
  8
1
  6
CONTINUOUS
 62
     7
 10
331.2313563391698
 20
-72.80576052839866
 30
0.0
  0
VERTEX
  5
3BF
  8
1
  6
CONTINUOUS
 62
     7
 10
330.6276306184045
 20
-73.64855570743286
 30
0.0
  0
VERTEX
  5
3C0
  8
1
  6
CONTINUOUS
 62
     7
 10
330.3508934574324
 20
-74.5330211031471
 30
0.0
  0
SEQEND
  5
59E
  8
1
  6
CONTINUOUS
 62
     7
  0
POLYLINE
  5
158
  8
1
  6
CONTINUOUS
 62
     7
 66
     1
 10
0.0
 20
0.0
 30
0.0
  0
VERTEX
  5
3C1
  8
1
  6
CONTINUOUS
 62
     7
 10
471.8157732092345
 20
-63.0330211031471
 30
0.0
  0
VERTEX
  5
3C2
  8
1
  6
CONTINUOUS
 62
     7
 10
471.5390360482624
 20
-62.14855570743286
 30
0.0
  0
VERTEX
  5
3C3
  8
1
  6
CONTINUOUS
 62
     7
 10
470.9353103274971
 20
-61.30576052839866
 30
0.0
  0
VERTEX
  5
3C4
  8
1
  6
CONTINUOUS
 62
     7
 10
470.0260405156615
 20
-60.53457183384796
 30
0.0
  0
VERTEX
  5
3C5
  8
1
  6
CONTINUOUS
 62
     7
 10
468.8435240739537
 20
-59.86238241370337
 30
0.0
  0
VERTEX
  5
3C6
  8
1
  6
CONTINUOUS
 62
     7
 10
467.4297642432102
 20
-59.3130685821592
 30
0.0
  0
VERTEX
  5
3C7
  8
1
  6
CONTINUOUS
 62
     7
 10
465.8349780796693
 20
-58.90614208581576
 30
0.0
  0
VERTEX
  5
3C8
  8
1
  6
CONTINUOUS
 62
     7
 10
464.1158127342269
 20
-58.65605704220229
 30
0.0
  0
VERTEX
  5
3C9
  8
1
  6
CONTINUOUS
 62
     7
 10
462.3333333333334
 20
-58.57169652638316
 30
0.0
  0
SEQEND
  5
59F
  8
1
  6
CONTINUOUS
 62
     7
  0
POLYLINE
  5
159
  8
1
  6
CONTINUOUS
 62
     7
 66
     1
 10
0.0
 20
0.0
 30
0.0
  0
VERTEX
  5
3CA
  8
1
  6
CONTINUOUS
 62
     7
 10
344.3333333333334
 20
-59.43772193016764
 30
0.0
  0
VERTEX
  5
3CB
  8
1
  6
CONTINUOUS
 62
     7
 10
342.5508539324399
 20
-59.52208244598677
 30
0.0
  0
VERTEX
  5
3CC
  8
1
  6
CONTINUOUS
 62
     7
 10
340.8316885869975
 20
-59.77216748960024
 30
0.0
  0
VERTEX
  5
3CD
  8
1
  6
CONTINUOUS
 62
     7
 10
339.2369024234567
 20
-60.17909398594369
 30
0.0
  0
VERTEX
  5
3CE
  8
1
  6
CONTINUOUS
 62
     7
 10
337.8231425927132
 20
-60.72840781748784
 30
0.0
  0
VERTEX
  5
3CF
  8
1
  6
CONTINUOUS
 62
     7
 10
336.6406261510054
 20
-61.40059723763243
 30
0.0
  0
VERTEX
  5
3D0
  8
1
  6
CONTINUOUS
 62
     7
 10
335.7313563391698
 20
-62.17178593218312
 30
0.0
  0
VERTEX
  5
3D1
  8
1
  6
CONTINUOUS
 62
     7
 10
335.1276306184045
 20
-63.0145811112173
 30
0.0
  0
VERTEX
  5
3D2
  8
1
  6
CONTINUOUS
 62
     7
 10
334.8508934574324
 20
-63.89904650693154
 30
0.0
  0
SEQEND
  5
5A0
  8
1
  6
CONTINUOUS
 62
     7
  0
LINE
  5
15A
  8
1
  6
CONTINUOUS
 62
     7
 10
462.3333333333334
 20
-58.57169652638316
 30
0.0
 11
344.3333333333334
 21
-58.57169652638318
 31
0.0
  0
POLYLINE
  5
15B
  8
1
  6
CONTINUOUS
 62
     7
 66
     1
 10
0.0
 20
0.0
 30
0.0
  0
VERTEX
  5
3D3
  8
1
  6
CONTINUOUS
 62
     7
 10
369.954954954955
 20
-28.54872715575385
 30
0.0
  0
VERTEX
  5
3D4
  8
1
  6
CONTINUOUS
 62
     7
 10
369.5940324179739
 20
-28.66224385992913
 30
0.0
  0
VERTEX
  5
3D5
  8
1
  6
CONTINUOUS
 62
     7
 10
369.2894389723045
 20
-28.81143507872512
 30
0.0
  0
VERTEX
  5
3D6
  8
1
  6
CONTINUOUS
 62
     7
 10
369.0550190941359
 20
-28.9895197263843
 30
0.0
  0
VERTEX
  5
3D7
  8
1
  6
CONTINUOUS
 62
     7
 10
368.9014277088048
 20
-29.18840344401862
 30
0.0
  0
VERTEX
  5
3D8
  8
1
  6
CONTINUOUS
 62
     7
 10
368.8356458998089
 20
-29.39904650693154
 30
0.0
  0
SEQEND
  5
5A1
  8
1
  6
CONTINUOUS
 62
     7
  0
LINE
  5
15C
  8
1
  6
CONTINUOUS
 62
     7
 10
331.2451148127304
 20
-58.97504598408494
 30
0.0
 11
330.6327423770347
 21
-58.62149259349168
 31
0.0
  0
POLYLINE
  5
15D
  8
1
  6
CONTINUOUS
 62
     7
 66
     1
 10
0.0
 20
0.0
 30
0.0
  0
VERTEX
  5
3D9
  8
1
  6
CONTINUOUS
 62
     7
 10
351.8333333333334
 20
-47.93772193016763
 30
0.0
  0
VERTEX
  5
3DA
  8
1
  6
CONTINUOUS
 62
     7
 10
350.05085393244
 20
-48.02208244598675
 30
0.0
  0
VERTEX
  5
3DB
  8
1
  6
CONTINUOUS
 62
     7
 10
348.3316885869975
 20
-48.27216748960023
 30
0.0
  0
VERTEX
  5
3DC
  8
1
  6
CONTINUOUS
 62
     7
 10
346.7369024234567
 20
-48.67909398594367
 30
0.0
  0
VERTEX
  5
3DD
  8
1
  6
CONTINUOUS
 62
     7
 10
345.3231425927132
 20
-49.22840781748783
 30
0.0
  0
VERTEX
  5
3DE
  8
1
  6
CONTINUOUS
 62
     7
 10
344.1406261510054
 20
-49.90059723763242
 30
0.0
  0
VERTEX
  5
3DF
  8
1
  6
CONTINUOUS
 62
     7
 10
343.2313563391698
 20
-50.67178593218311
 30
0.0
  0
VERTEX
  5
3E0
  8
1
  6
CONTINUOUS
 62
     7
 10
342.6276306184045
 20
-51.5145811112173
 30
0.0
  0
VERTEX
  5
3E1
  8
1
  6
CONTINUOUS
 62
     7
 10
342.3508934574324
 20
-52.39904650693155
 30
0.0
  0
SEQEND
  5
5A2
  8
1
  6
CONTINUOUS
 62
     7
  0
LINE
  5
15E
  8
1
  6
CONTINUOUS
 62
     7
 10
334.8508934574324
 20
-63.89904650693154
 30
0.0
 11
471.8157732092345
 21
-63.89904650693154
 31
0.0
  0
LINE
  5
15F
  8
1
  6
CONTINUOUS
 62
     7
 10
399.3333333333334
 20
-118.4377219301676
 30
0.0
 11
399.3333333333334
 21
-116.9377219301676
 31
0.0
  0
POLYLINE
  5
160
  8
1
  6
CONTINUOUS
 62
     7
 66
     1
 10
0.0
 20
0.0
 30
0.0
  0
VERTEX
  5
3E2
  8
1
  6
CONTINUOUS
 62
     7
 10
403.3333333333334
 20
-120.4377219301676
 30
0.0
  0
VERTEX
  5
3E3
  8
1
  6
CONTINUOUS
 62
     7
 10
404.1136946213979
 20
-120.3992924909741
 30
0.0
  0
VERTEX
  5
3E4
  8
1
  6
CONTINUOUS
 62
     7
 10
404.8640670627938
 20
-120.2854809951902
 30
0.0
  0
VERTEX
  5
3E5
  8
1
  6
CONTINUOUS
 62
     7
 10
405.5556142654119
 20
-120.1006611547727
 30
0.0
  0
VERTEX
  5
3E6
  8
1
  6
CONTINUOUS
 62
     7
 10
406.1617604580796
 20
-119.8519354925407
 30
0.0
  0
VERTEX
  5
3E7
  8
1
  6
CONTINUOUS
 62
     7
 10
406.6592117825436
 20
-119.5488623962068
 30
0.0
  0
VERTEX
  5
3E8
  8
1
  6
CONTINUOUS
 62
     7
 10
407.0288514633786
 20
-119.2030887948978
 30
0.0
  0
VERTEX
  5
3E9
  8
1
  6
CONTINUOUS
 62
     7
 10
407.2564744549463
 20
-118.8279025741999
 30
0.0
  0
VERTEX
  5
3EA
  8
1
  6
CONTINUOUS
 62
     7
 10
407.3333333333334
 20
-118.4377219301676
 30
0.0
  0
SEQEND
  5
5A3
  8
1
  6
CONTINUOUS
 62
     7
  0
LINE
  5
161
  8
1
  6
CONTINUOUS
 62
     7
 10
407.3333333333334
 20
-116.9377219301676
 30
0.0
 11
407.3333333333334
 21
-118.4377219301676
 31
0.0
  0
POLYLINE
  5
162
  8
1
  6
CONTINUOUS
 62
     7
 66
     1
 10
0.0
 20
0.0
 30
0.0
  0
VERTEX
  5
3EB
  8
1
  6
CONTINUOUS
 62
     7
 10
436.7117117117119
 20
-28.54872715575386
 30
0.0
  0
VERTEX
  5
3EC
  8
1
  6
CONTINUOUS
 62
     7
 10
423.8112197574486
 20
-26.09313159361295
 30
0.0
  0
VERTEX
  5
3ED
  8
1
  6
CONTINUOUS
 62
     7
 10
410.2351898031762
 20
-24.84474247139055
 30
0.0
  0
VERTEX
  5
3EE
  8
1
  6
CONTINUOUS
 62
     7
 10
396.4314768634909
 20
-24.84474247139053
 30
0.0
  0
VERTEX
  5
3EF
  8
1
  6
CONTINUOUS
 62
     7
 10
382.8554469092184
 20
-26.09313159361292
 30
0.0
  0
VERTEX
  5
3F0
  8
1
  6
CONTINUOUS
 62
     7
 10
369.954954954955
 20
-28.54872715575384
 30
0.0
  0
SEQEND
  5
5A4
  8
1
  6
CONTINUOUS
 62
     7
  0
POLYLINE
  5
163
  8
1
  6
CONTINUOUS
 62
     7
 66
     1
 10
0.0
 20
0.0
 30
0.0
  0
VERTEX
  5
3F1
  8
1
  6
CONTINUOUS
 62
     7
 10
339.8333333333334
 20
-70.93772193016761
 30
0.0
  0
VERTEX
  5
3F2
  8
1
  6
CONTINUOUS
 62
     7
 10
338.0508539324399
 20
-71.02208244598674
 30
0.0
  0
VERTEX
  5
3F3
  8
1
  6
CONTINUOUS
 62
     7
 10
336.3316885869975
 20
-71.2721674896002
 30
0.0
  0
VERTEX
  5
3F4
  8
1
  6
CONTINUOUS
 62
     7
 10
334.7369024234567
 20
-71.67909398594365
 30
0.0
  0
VERTEX
  5
3F5
  8
1
  6
CONTINUOUS
 62
     7
 10
333.3231425927132
 20
-72.22840781748782
 30
0.0
  0
VERTEX
  5
3F6
  8
1
  6
CONTINUOUS
 62
     7
 10
332.1406261510053
 20
-72.90059723763241
 30
0.0
  0
VERTEX
  5
3F7
  8
1
  6
CONTINUOUS
 62
     7
 10
331.2313563391698
 20
-73.67178593218311
 30
0.0
  0
VERTEX
  5
3F8
  8
1
  6
CONTINUOUS
 62
     7
 10
330.6276306184045
 20
-74.51458111121731
 30
0.0
  0
VERTEX
  5
3F9
  8
1
  6
CONTINUOUS
 62
     7
 10
330.3508934574324
 20
-75.39904650693155
 30
0.0
  0
SEQEND
  5
5A5
  8
1
  6
CONTINUOUS
 62
     7
  0
LINE
  5
164
  8
1
  6
CONTINUOUS
 62
     7
 10
469.8333333333334
 20
-116.9377219301676
 30
0.0
 11
407.3333333333334
 21
-116.9377219301676
 31
0.0
  0
LINE
  5
165
  8
1
  6
CONTINUOUS
 62
     7
 10
336.4136734662741
 20
-52.14416013780711
 30
0.0
 11
332.9136734662741
 21
-58.20633796429821
 31
0.0
  0
LINE
  5
166
  8
1
  6
CONTINUOUS
 62
     7
 10
354.3508934574323
 20
-40.89904650693159
 30
0.0
 11
452.3157732092344
 21
-40.89904650693159
 31
0.0
  0
LINE
  5
167
  8
1
  6
CONTINUOUS
 62
     7
 10
452.3320040026328
 20
-40.32169566045941
 30
0.0
 11
452.3157732092344
 21
-40.03302110314717
 31
0.0
  0
LINE
  5
168
  8
1
  6
CONTINUOUS
 62
     7
 10
342.3508934574324
 20
-51.53302110314711
 30
0.0
 11
342.3346626640341
 21
-51.82169566045943
 31
0.0
  0
POLYLINE
  5
169
  8
1
  6
CONTINUOUS
 62
     7
 66
     1
 10
0.0
 20
0.0
 30
0.0
  0
VERTEX
  5
3FA
  8
1
  6
CONTINUOUS
 62
     7
 10
452.3157732092345
 20
-40.89904650693159
 30
0.0
  0
VERTEX
  5
3FB
  8
1
  6
CONTINUOUS
 62
     7
 10
452.0390360482624
 20
-40.01458111121734
 30
0.0
  0
VERTEX
  5
3FC
  8
1
  6
CONTINUOUS
 62
     7
 10
451.4353103274971
 20
-39.17178593218313
 30
0.0
  0
VERTEX
  5
3FD
  8
1
  6
CONTINUOUS
 62
     7
 10
450.5260405156615
 20
-38.40059723763243
 30
0.0
  0
VERTEX
  5
3FE
  8
1
  6
CONTINUOUS
 62
     7
 10
449.3435240739537
 20
-37.72840781748783
 30
0.0
  0
VERTEX
  5
3FF
  8
1
  6
CONTINUOUS
 62
     7
 10
447.9297642432102
 20
-37.17909398594367
 30
0.0
  0
VERTEX
  5
400
  8
1
  6
CONTINUOUS
 62
     7
 10
446.3349780796693
 20
-36.77216748960022
 30
0.0
  0
VERTEX
  5
401
  8
1
  6
CONTINUOUS
 62
     7
 10
444.6158127342269
 20
-36.52208244598675
 30
0.0
  0
VERTEX
  5
402
  8
1
  6
CONTINUOUS
 62
     7
 10
442.8333333333334
 20
-36.43772193016763
 30
0.0
  0
SEQEND
  5
5A6
  8
1
  6
CONTINUOUS
 62
     7
  0
LINE
  5
16A
  8
1
  6
CONTINUOUS
 62
     7
 10
454.8333333333334
 20
-47.93772193016761
 30
0.0
 11
351.8333333333334
 21
-47.93772193016763
 31
0.0
  0
LINE
  5
16B
  8
1
  6
CONTINUOUS
 62
     7
 10
479.3157732092344
 20
-109.8990465069315
 30
0.0
 11
479.2937772182775
 21
-109.3216956604594
 31
0.0
  0
POLYLINE
  5
16C
  8
1
  6
CONTINUOUS
 62
     7
 66
     1
 10
0.0
 20
0.0
 30
0.0
  0
VERTEX
  5
403
  8
1
  6
CONTINUOUS
 62
     7
 10
479.3157732092344
 20
-109.8990465069315
 30
0.0
  0
VERTEX
  5
404
  8
1
  6
CONTINUOUS
 62
     7
 10
479.0390360482623
 20
-109.0145811112173
 30
0.0
  0
VERTEX
  5
405
  8
1
  6
CONTINUOUS
 62
     7
 10
478.435310327497
 20
-108.1717859321831
 30
0.0
  0
VERTEX
  5
406
  8
1
  6
CONTINUOUS
 62
     7
 10
477.5260405156615
 20
-107.4005972376324
 30
0.0
  0
VERTEX
  5
407
  8
1
  6
CONTINUOUS
 62
     7
 10
476.3435240739536
 20
-106.7284078174878
 30
0.0
  0
VERTEX
  5
408
  8
1
  6
CONTINUOUS
 62
     7
 10
474.9297642432101
 20
-106.1790939859437
 30
0.0
  0
VERTEX
  5
409
  8
1
  6
CONTINUOUS
 62
     7
 10
473.3349780796693
 20
-105.7721674896002
 30
0.0
  0
VERTEX
  5
40A
  8
1
  6
CONTINUOUS
 62
     7
 10
471.6158127342269
 20
-105.5220824459868
 30
0.0
  0
VERTEX
  5
40B
  8
1
  6
CONTINUOUS
 62
     7
 10
469.8333333333334
 20
-105.4377219301676
 30
0.0
  0
SEQEND
  5
5A7
  8
1
  6
CONTINUOUS
 62
     7
  0
POLYLINE
  5
16D
  8
1
  6
CONTINUOUS
 62
     7
 66
     1
 10
0.0
 20
0.0
 30
0.0
  0
VERTEX
  5
40C
  8
1
  6
CONTINUOUS
 62
     7
 10
476.3157732092344
 20
-75.39904650693155
 30
0.0
  0
VERTEX
  5
40D
  8
1
  6
CONTINUOUS
 62
     7
 10
476.0390360482623
 20
-74.51458111121731
 30
0.0
  0
VERTEX
  5
40E
  8
1
  6
CONTINUOUS
 62
     7
 10
475.4353103274971
 20
-73.67178593218313
 30
0.0
  0
VERTEX
  5
40F
  8
1
  6
CONTINUOUS
 62
     7
 10
474.5260405156615
 20
-72.90059723763244
 30
0.0
  0
VERTEX
  5
410
  8
1
  6
CONTINUOUS
 62
     7
 10
473.3435240739536
 20
-72.22840781748783
 30
0.0
  0
VERTEX
  5
411
  8
1
  6
CONTINUOUS
 62
     7
 10
471.9297642432102
 20
-71.6790939859437
 30
0.0
  0
VERTEX
  5
412
  8
1
  6
CONTINUOUS
 62
     7
 10
470.3349780796693
 20
-71.27216748960025
 30
0.0
  0
VERTEX
  5
413
  8
1
  6
CONTINUOUS
 62
     7
 10
468.6158127342269
 20
-71.02208244598677
 30
0.0
  0
VERTEX
  5
414
  8
1
  6
CONTINUOUS
 62
     7
 10
466.8333333333334
 20
-70.93772193016765
 30
0.0
  0
SEQEND
  5
5A8
  8
1
  6
CONTINUOUS
 62
     7
  0
LINE
  5
16E
  8
1
  6
CONTINUOUS
 62
     7
 10
327.3728894483894
 20
-86.32169566045938
 30
0.0
 11
327.3508934574324
 21
-86.89904650693154
 31
0.0
  0
LINE
  5
16F
  8
1
  6
CONTINUOUS
 62
     7
 10
469.8333333333334
 20
-82.43772193016763
 30
0.0
 11
407.0414325768812
 21
-82.43772193016761
 31
0.0
  0
LINE
  5
170
  8
1
  6
CONTINUOUS
 62
     7
 10
479.3157732092345
 20
-86.89904650693154
 30
0.0
 11
479.2937772182775
 21
-86.3216956604594
 31
0.0
  0
LINE
  5
171
  8
1
  6
CONTINUOUS
 62
     7
 10
469.8333333333334
 20
-93.93772193016764
 30
0.0
 11
407.3333333333334
 21
-93.93772193016763
 31
0.0
  0
LINE
  5
172
  8
1
  6
CONTINUOUS
 62
     7
 10
469.8333333333334
 20
-116.0716965263832
 30
0.0
 11
407.3333333333334
 21
-116.0716965263832
 31
0.0
  0
LINE
  5
173
  8
1
  6
CONTINUOUS
 62
     7
 10
479.3157732092345
 20
-98.39904650693154
 30
0.0
 11
479.2937772182775
 21
-97.8216956604594
 31
0.0
  0
POLYLINE
  5
174
  8
1
  6
CONTINUOUS
 62
     7
 66
     1
 10
0.0
 20
0.0
 30
0.0
  0
VERTEX
  5
415
  8
1
  6
CONTINUOUS
 62
     7
 10
336.8333333333334
 20
-105.4377219301676
 30
0.0
  0
VERTEX
  5
416
  8
1
  6
CONTINUOUS
 62
     7
 10
335.0508539324399
 20
-105.5220824459867
 30
0.0
  0
VERTEX
  5
417
  8
1
  6
CONTINUOUS
 62
     7
 10
333.3316885869975
 20
-105.7721674896002
 30
0.0
  0
VERTEX
  5
418
  8
1
  6
CONTINUOUS
 62
     7
 10
331.7369024234567
 20
-106.1790939859437
 30
0.0
  0
VERTEX
  5
419
  8
1
  6
CONTINUOUS
 62
     7
 10
330.3231425927132
 20
-106.7284078174878
 30
0.0
  0
VERTEX
  5
41A
  8
1
  6
CONTINUOUS
 62
     7
 10
329.1406261510053
 20
-107.4005972376324
 30
0.0
  0
VERTEX
  5
41B
  8
1
  6
CONTINUOUS
 62
     7
 10
328.2313563391698
 20
-108.1717859321831
 30
0.0
  0
VERTEX
  5
41C
  8
1
  6
CONTINUOUS
 62
     7
 10
327.6276306184045
 20
-109.0145811112173
 30
0.0
  0
VERTEX
  5
41D
  8
1
  6
CONTINUOUS
 62
     7
 10
327.3508934574324
 20
-109.8990465069315
 30
0.0
  0
SEQEND
  5
5A9
  8
1
  6
CONTINUOUS
 62
     7
  0
LINE
  5
175
  8
1
  6
CONTINUOUS
 62
     7
 10
407.3333333333334
 20
-93.07169652638318
 30
0.0
 11
407.3333333333334
 21
-93.93772193016763
 31
0.0
  0
LINE
  5
176
  8
1
  6
CONTINUOUS
 62
     7
 10
327.3508934574324
 20
-109.0330211031471
 30
0.0
 11
327.3346626640341
 21
-109.3216956604594
 31
0.0
  0
LINE
  5
177
  8
1
  6
CONTINUOUS
 62
     7
 10
407.3333333333334
 20
-104.5716965263832
 30
0.0
 11
407.3333333333334
 21
-105.4377219301676
 31
0.0
  0
POLYLINE
  5
178
  8
1
  6
CONTINUOUS
 62
     7
 66
     1
 10
0.0
 20
0.0
 30
0.0
  0
VERTEX
  5
41E
  8
1
  6
CONTINUOUS
 62
     7
 10
336.8333333333334
 20
-104.5716965263832
 30
0.0
  0
VERTEX
  5
41F
  8
1
  6
CONTINUOUS
 62
     7
 10
335.0508539324399
 20
-104.6560570422023
 30
0.0
  0
VERTEX
  5
420
  8
1
  6
CONTINUOUS
 62
     7
 10
333.3316885869975
 20
-104.9061420858158
 30
0.0
  0
VERTEX
  5
421
  8
1
  6
CONTINUOUS
 62
     7
 10
331.7369024234567
 20
-105.3130685821592
 30
0.0
  0
VERTEX
  5
422
  8
1
  6
CONTINUOUS
 62
     7
 10
330.3231425927132
 20
-105.8623824137034
 30
0.0
  0
VERTEX
  5
423
  8
1
  6
CONTINUOUS
 62
     7
 10
329.1406261510053
 20
-106.5345718338479
 30
0.0
  0
VERTEX
  5
424
  8
1
  6
CONTINUOUS
 62
     7
 10
328.2313563391698
 20
-107.3057605283987
 30
0.0
  0
VERTEX
  5
425
  8
1
  6
CONTINUOUS
 62
     7
 10
327.6276306184045
 20
-108.1485557074328
 30
0.0
  0
VERTEX
  5
426
  8
1
  6
CONTINUOUS
 62
     7
 10
327.3508934574324
 20
-109.0330211031471
 30
0.0
  0
SEQEND
  5
5AA
  8
1
  6
CONTINUOUS
 62
     7
  0
LINE
  5
179
  8
1
  6
CONTINUOUS
 62
     7
 10
469.8333333333334
 20
-104.5716965263832
 30
0.0
 11
407.3333333333334
 21
-104.5716965263832
 31
0.0
  0
POLYLINE
  5
17A
  8
1
  6
CONTINUOUS
 62
     7
 66
     1
 10
0.0
 20
0.0
 30
0.0
  0
VERTEX
  5
427
  8
1
  6
CONTINUOUS
 62
     7
 10
399.3333333333334
 20
-93.93772193016763
 30
0.0
  0
VERTEX
  5
428
  8
1
  6
CONTINUOUS
 62
     7
 10
399.4101922117205
 20
-94.32790257419988
 30
0.0
  0
VERTEX
  5
429
  8
1
  6
CONTINUOUS
 62
     7
 10
399.6378152032883
 20
-94.70308879489781
 30
0.0
  0
VERTEX
  5
42A
  8
1
  6
CONTINUOUS
 62
     7
 10
400.0074548841233
 20
-95.04886239620683
 30
0.0
  0
VERTEX
  5
42B
  8
1
  6
CONTINUOUS
 62
     7
 10
400.5049062085872
 20
-95.35193549254072
 30
0.0
  0
VERTEX
  5
42C
  8
1
  6
CONTINUOUS
 62
     7
 10
401.111052401255
 20
-95.60066115477272
 30
0.0
  0
VERTEX
  5
42D
  8
1
  6
CONTINUOUS
 62
     7
 10
401.8025996038731
 20
-95.7854809951902
 30
0.0
  0
VERTEX
  5
42E
  8
1
  6
CONTINUOUS
 62
     7
 10
402.5529720452689
 20
-95.89929249097409
 30
0.0
  0
VERTEX
  5
42F
  8
1
  6
CONTINUOUS
 62
     7
 10
403.3333333333334
 20
-95.93772193016763
 30
0.0
  0
VERTEX
  5
430
  8
1
  6
CONTINUOUS
 62
     7
 10
404.1136946213979
 20
-95.89929249097409
 30
0.0
  0
VERTEX
  5
431
  8
1
  6
CONTINUOUS
 62
     7
 10
404.8640670627938
 20
-95.7854809951902
 30
0.0
  0
VERTEX
  5
432
  8
1
  6
CONTINUOUS
 62
     7
 10
405.5556142654119
 20
-95.60066115477272
 30
0.0
  0
VERTEX
  5
433
  8
1
  6
CONTINUOUS
 62
     7
 10
406.1617604580796
 20
-95.35193549254072
 30
0.0
  0
VERTEX
  5
434
  8
1
  6
CONTINUOUS
 62
     7
 10
406.6592117825436
 20
-95.04886239620683
 30
0.0
  0
VERTEX
  5
435
  8
1
  6
CONTINUOUS
 62
     7
 10
407.0288514633786
 20
-94.70308879489781
 30
0.0
  0
VERTEX
  5
436
  8
1
  6
CONTINUOUS
 62
     7
 10
407.2564744549463
 20
-94.32790257419988
 30
0.0
  0
VERTEX
  5
437
  8
1
  6
CONTINUOUS
 62
     7
 10
407.3333333333334
 20
-93.93772193016763
 30
0.0
  0
SEQEND
  5
5AB
  8
1
  6
CONTINUOUS
 62
     7
  0
LINE
  5
17B
  8
1
  6
CONTINUOUS
 62
     7
 10
327.3508934574324
 20
-86.03302110314709
 30
0.0
 11
327.3346626640341
 21
-86.32169566045938
 31
0.0
  0
POLYLINE
  5
17C
  8
1
  6
CONTINUOUS
 62
     7
 66
     1
 10
0.0
 20
0.0
 30
0.0
  0
VERTEX
  5
438
  8
1
  6
CONTINUOUS
 62
     7
 10
476.3157732092344
 20
-74.5330211031471
 30
0.0
  0
VERTEX
  5
439
  8
1
  6
CONTINUOUS
 62
     7
 10
476.0390360482623
 20
-73.64855570743286
 30
0.0
  0
VERTEX
  5
43A
  8
1
  6
CONTINUOUS
 62
     7
 10
475.4353103274971
 20
-72.80576052839868
 30
0.0
  0
VERTEX
  5
43B
  8
1
  6
CONTINUOUS
 62
     7
 10
474.5260405156615
 20
-72.03457183384799
 30
0.0
  0
VERTEX
  5
43C
  8
1
  6
CONTINUOUS
 62
     7
 10
473.3435240739536
 20
-71.36238241370339
 30
0.0
  0
VERTEX
  5
43D
  8
1
  6
CONTINUOUS
 62
     7
 10
471.9297642432102
 20
-70.81306858215925
 30
0.0
  0
VERTEX
  5
43E
  8
1
  6
CONTINUOUS
 62
     7
 10
470.3349780796693
 20
-70.4061420858158
 30
0.0
  0
VERTEX
  5
43F
  8
1
  6
CONTINUOUS
 62
     7
 10
468.6158127342269
 20
-70.15605704220233
 30
0.0
  0
VERTEX
  5
440
  8
1
  6
CONTINUOUS
 62
     7
 10
466.8333333333334
 20
-70.0716965263832
 30
0.0
  0
SEQEND
  5
5AC
  8
1
  6
CONTINUOUS
 62
     7
  0
LINE
  5
17D
  8
1
  6
CONTINUOUS
 62
     7
 10
327.3728894483894
 20
-120.8216956604594
 30
0.0
 11
327.3638163495332
 21
-121.0328956843178
 31
0.0
  0
POLYLINE
  5
17E
  8
1
  6
CONTINUOUS
 62
     7
 66
     1
 10
0.0
 20
0.0
 30
0.0
  0
VERTEX
  5
441
  8
1
  6
CONTINUOUS
 62
     7
 10
336.8333333333334
 20
-116.0716965263832
 30
0.0
  0
VERTEX
  5
442
  8
1
  6
CONTINUOUS
 62
     7
 10
335.0508539324399
 20
-116.1560570422023
 30
0.0
  0
VERTEX
  5
443
  8
1
  6
CONTINUOUS
 62
     7
 10
333.3316885869975
 20
-116.4061420858158
 30
0.0
  0
VERTEX
  5
444
  8
1
  6
CONTINUOUS
 62
     7
 10
331.7369024234567
 20
-116.8130685821592
 30
0.0
  0
VERTEX
  5
445
  8
1
  6
CONTINUOUS
 62
     7
 10
330.3231425927132
 20
-117.3623824137034
 30
0.0
  0
VERTEX
  5
446
  8
1
  6
CONTINUOUS
 62
     7
 10
329.1406261510053
 20
-118.034571833848
 30
0.0
  0
VERTEX
  5
447
  8
1
  6
CONTINUOUS
 62
     7
 10
328.2313563391698
 20
-118.8057605283987
 30
0.0
  0
VERTEX
  5
448
  8
1
  6
CONTINUOUS
 62
     7
 10
327.6276306184045
 20
-119.6485557074328
 30
0.0
  0
VERTEX
  5
449
  8
1
  6
CONTINUOUS
 62
     7
 10
327.3508934574324
 20
-120.5330211031471
 30
0.0
  0
SEQEND
  5
5AD
  8
1
  6
CONTINUOUS
 62
     7
  0
LINE
  5
17F
  8
1
  6
CONTINUOUS
 62
     7
 10
399.3333333333334
 20
-93.93772193016763
 30
0.0
 11
336.8333333333334
 21
-93.93772193016763
 31
0.0
  0
POLYLINE
  5
180
  8
1
  6
CONTINUOUS
 62
     7
 66
     1
 10
0.0
 20
0.0
 30
0.0
  0
VERTEX
  5
44A
  8
1
  6
CONTINUOUS
 62
     7
 10
336.8333333333334
 20
-81.57169652638315
 30
0.0
  0
VERTEX
  5
44B
  8
1
  6
CONTINUOUS
 62
     7
 10
335.0508539324399
 20
-81.65605704220228
 30
0.0
  0
VERTEX
  5
44C
  8
1
  6
CONTINUOUS
 62
     7
 10
333.3316885869975
 20
-81.90614208581574
 30
0.0
  0
VERTEX
  5
44D
  8
1
  6
CONTINUOUS
 62
     7
 10
331.7369024234567
 20
-82.31306858215919
 30
0.0
  0
VERTEX
  5
44E
  8
1
  6
CONTINUOUS
 62
     7
 10
330.3231425927132
 20
-82.86238241370336
 30
0.0
  0
VERTEX
  5
44F
  8
1
  6
CONTINUOUS
 62
     7
 10
329.1406261510053
 20
-83.53457183384795
 30
0.0
  0
VERTEX
  5
450
  8
1
  6
CONTINUOUS
 62
     7
 10
328.2313563391698
 20
-84.30576052839865
 30
0.0
  0
VERTEX
  5
451
  8
1
  6
CONTINUOUS
 62
     7
 10
327.6276306184045
 20
-85.14855570743285
 30
0.0
  0
VERTEX
  5
452
  8
1
  6
CONTINUOUS
 62
     7
 10
327.3508934574324
 20
-86.03302110314709
 30
0.0
  0
SEQEND
  5
5AE
  8
1
  6
CONTINUOUS
 62
     7
  0
POLYLINE
  5
181
  8
1
  6
CONTINUOUS
 62
     7
 66
     1
 10
0.0
 20
0.0
 30
0.0
  0
VERTEX
  5
453
  8
1
  6
CONTINUOUS
 62
     7
 10
399.6252340897856
 20
-82.43772193016761
 30
0.0
  0
VERTEX
  5
454
  8
1
  6
CONTINUOUS
 62
     7
 10
399.9921595570163
 20
-82.78733070110056
 30
0.0
  0
VERTEX
  5
455
  8
1
  6
CONTINUOUS
 62
     7
 10
400.4892946319663
 20
-83.09408638018813
 30
0.0
  0
VERTEX
  5
456
  8
1
  6
CONTINUOUS
 62
     7
 10
401.0972653558337
 20
-83.34603432534531
 30
0.0
  0
VERTEX
  5
457
  8
1
  6
CONTINUOUS
 62
     7
 10
401.7923783697092
 20
-83.53335581857033
 30
0.0
  0
VERTEX
  5
458
  8
1
  6
CONTINUOUS
 62
     7
 10
402.5475442736048
 20
-83.6487507133329
 30
0.0
  0
VERTEX
  5
459
  8
1
  6
CONTINUOUS
 62
     7
 10
403.3333333333334
 20
-83.68772193016761
 30
0.0
  0
VERTEX
  5
45A
  8
1
  6
CONTINUOUS
 62
     7
 10
404.119122393062
 20
-83.6487507133329
 30
0.0
  0
VERTEX
  5
45B
  8
1
  6
CONTINUOUS
 62
     7
 10
404.8742882969576
 20
-83.53335581857033
 30
0.0
  0
VERTEX
  5
45C
  8
1
  6
CONTINUOUS
 62
     7
 10
405.5694013108332
 20
-83.34603432534531
 30
0.0
  0
VERTEX
  5
45D
  8
1
  6
CONTINUOUS
 62
     7
 10
406.1773720347005
 20
-83.09408638018813
 30
0.0
  0
VERTEX
  5
45E
  8
1
  6
CONTINUOUS
 62
     7
 10
406.6745071096506
 20
-82.78733070110057
 30
0.0
  0
VERTEX
  5
45F
  8
1
  6
CONTINUOUS
 62
     7
 10
407.0414325768813
 20
-82.43772193016761
 30
0.0
  0
SEQEND
  5
5AF
  8
1
  6
CONTINUOUS
 62
     7
  0
LINE
  5
182
  8
1
  6
CONTINUOUS
 62
     7
 10
327.3508934574324
 20
-86.89904650693153
 30
0.0
 11
479.3157732092345
 21
-86.89904650693153
 31
0.0
  0
LINE
  5
183
  8
1
  6
CONTINUOUS
 62
     7
 10
327.3728894483893
 20
-109.3216956604594
 30
0.0
 11
327.3508934574324
 21
-109.8990465069315
 31
0.0
  0
POLYLINE
  5
184
  8
1
  6
CONTINUOUS
 62
     7
 66
     1
 10
0.0
 20
0.0
 30
0.0
  0
VERTEX
  5
460
  8
1
  6
CONTINUOUS
 62
     7
 10
399.6252340897856
 20
-81.57169652638316
 30
0.0
  0
VERTEX
  5
461
  8
1
  6
CONTINUOUS
 62
     7
 10
399.9921595570163
 20
-81.92130529731611
 30
0.0
  0
VERTEX
  5
462
  8
1
  6
CONTINUOUS
 62
     7
 10
400.4892946319663
 20
-82.22806097640368
 30
0.0
  0
VERTEX
  5
463
  8
1
  6
CONTINUOUS
 62
     7
 10
401.0972653558337
 20
-82.48000892156087
 30
0.0
  0
VERTEX
  5
464
  8
1
  6
CONTINUOUS
 62
     7
 10
401.7923783697092
 20
-82.66733041478588
 30
0.0
  0
VERTEX
  5
465
  8
1
  6
CONTINUOUS
 62
     7
 10
402.5475442736048
 20
-82.78272530954845
 30
0.0
  0
VERTEX
  5
466
  8
1
  6
CONTINUOUS
 62
     7
 10
403.3333333333334
 20
-82.82169652638316
 30
0.0
  0
VERTEX
  5
467
  8
1
  6
CONTINUOUS
 62
     7
 10
404.119122393062
 20
-82.78272530954845
 30
0.0
  0
VERTEX
  5
468
  8
1
  6
CONTINUOUS
 62
     7
 10
404.8742882969576
 20
-82.66733041478588
 30
0.0
  0
VERTEX
  5
469
  8
1
  6
CONTINUOUS
 62
     7
 10
405.5694013108332
 20
-82.48000892156087
 30
0.0
  0
VERTEX
  5
46A
  8
1
  6
CONTINUOUS
 62
     7
 10
406.1773720347005
 20
-82.22806097640368
 30
0.0
  0
VERTEX
  5
46B
  8
1
  6
CONTINUOUS
 62
     7
 10
406.6745071096506
 20
-81.92130529731612
 30
0.0
  0
VERTEX
  5
46C
  8
1
  6
CONTINUOUS
 62
     7
 10
407.0414325768813
 20
-81.57169652638316
 30
0.0
  0
SEQEND
  5
5B0
  8
1
  6
CONTINUOUS
 62
     7
  0
LINE
  5
185
  8
1
  6
CONTINUOUS
 62
     7
 10
469.8333333333334
 20
-81.57169652638318
 30
0.0
 11
407.0414325768812
 21
-81.57169652638316
 31
0.0
  0
LINE
  5
186
  8
1
  6
CONTINUOUS
 62
     7
 10
399.6252340897856
 20
-81.57169652638316
 30
0.0
 11
336.8333333333334
 21
-81.57169652638316
 31
0.0
  0
POLYLINE
  5
187
  8
1
  6
CONTINUOUS
 62
     7
 66
     1
 10
0.0
 20
0.0
 30
0.0
  0
VERTEX
  5
46D
  8
1
  6
CONTINUOUS
 62
     7
 10
479.3157732092344
 20
-98.39904650693154
 30
0.0
  0
VERTEX
  5
46E
  8
1
  6
CONTINUOUS
 62
     7
 10
479.0390360482623
 20
-97.5145811112173
 30
0.0
  0
VERTEX
  5
46F
  8
1
  6
CONTINUOUS
 62
     7
 10
478.435310327497
 20
-96.67178593218311
 30
0.0
  0
VERTEX
  5
470
  8
1
  6
CONTINUOUS
 62
     7
 10
477.5260405156615
 20
-95.90059723763243
 30
0.0
  0
VERTEX
  5
471
  8
1
  6
CONTINUOUS
 62
     7
 10
476.3435240739536
 20
-95.22840781748783
 30
0.0
  0
VERTEX
  5
472
  8
1
  6
CONTINUOUS
 62
     7
 10
474.9297642432101
 20
-94.67909398594368
 30
0.0
  0
VERTEX
  5
473
  8
1
  6
CONTINUOUS
 62
     7
 10
473.3349780796693
 20
-94.27216748960024
 30
0.0
  0
VERTEX
  5
474
  8
1
  6
CONTINUOUS
 62
     7
 10
471.6158127342269
 20
-94.02208244598677
 30
0.0
  0
VERTEX
  5
475
  8
1
  6
CONTINUOUS
 62
     7
 10
469.8333333333334
 20
-93.93772193016765
 30
0.0
  0
SEQEND
  5
5B1
  8
1
  6
CONTINUOUS
 62
     7
  0
POLYLINE
  5
188
  8
1
  6
CONTINUOUS
 62
     7
 66
     1
 10
0.0
 20
0.0
 30
0.0
  0
VERTEX
  5
476
  8
1
  6
CONTINUOUS
 62
     7
 10
336.8333333333334
 20
-93.93772193016763
 30
0.0
  0
VERTEX
  5
477
  8
1
  6
CONTINUOUS
 62
     7
 10
335.0508539324399
 20
-94.02208244598674
 30
0.0
  0
VERTEX
  5
478
  8
1
  6
CONTINUOUS
 62
     7
 10
333.3316885869975
 20
-94.27216748960022
 30
0.0
  0
VERTEX
  5
479
  8
1
  6
CONTINUOUS
 62
     7
 10
331.7369024234567
 20
-94.67909398594367
 30
0.0
  0
VERTEX
  5
47A
  8
1
  6
CONTINUOUS
 62
     7
 10
330.3231425927132
 20
-95.22840781748782
 30
0.0
  0
VERTEX
  5
47B
  8
1
  6
CONTINUOUS
 62
     7
 10
329.1406261510053
 20
-95.90059723763241
 30
0.0
  0
VERTEX
  5
47C
  8
1
  6
CONTINUOUS
 62
     7
 10
328.2313563391698
 20
-96.6717859321831
 30
0.0
  0
VERTEX
  5
47D
  8
1
  6
CONTINUOUS
 62
     7
 10
327.6276306184045
 20
-97.5145811112173
 30
0.0
  0
VERTEX
  5
47E
  8
1
  6
CONTINUOUS
 62
     7
 10
327.3508934574324
 20
-98.39904650693154
 30
0.0
  0
SEQEND
  5
5B2
  8
1
  6
CONTINUOUS
 62
     7
  0
LINE
  5
189
  8
1
  6
CONTINUOUS
 62
     7
 10
327.3508934574324
 20
-98.39904650693154
 30
0.0
 11
479.3157732092345
 21
-98.39904650693154
 31
0.0
  0
LINE
  5
18A
  8
1
  6
CONTINUOUS
 62
     7
 10
466.8333333333334
 20
-70.07169652638319
 30
0.0
 11
339.8333333333334
 21
-70.07169652638318
 31
0.0
  0
POLYLINE
  5
18B
  8
1
  6
CONTINUOUS
 62
     7
 66
     1
 10
0.0
 20
0.0
 30
0.0
  0
VERTEX
  5
47F
  8
1
  6
CONTINUOUS
 62
     7
 10
399.3333333333334
 20
-93.07169652638318
 30
0.0
  0
VERTEX
  5
480
  8
1
  6
CONTINUOUS
 62
     7
 10
399.4101922117205
 20
-93.46187717041543
 30
0.0
  0
VERTEX
  5
481
  8
1
  6
CONTINUOUS
 62
     7
 10
399.6378152032883
 20
-93.83706339111336
 30
0.0
  0
VERTEX
  5
482
  8
1
  6
CONTINUOUS
 62
     7
 10
400.0074548841233
 20
-94.18283699242238
 30
0.0
  0
VERTEX
  5
483
  8
1
  6
CONTINUOUS
 62
     7
 10
400.5049062085872
 20
-94.48591008875627
 30
0.0
  0
VERTEX
  5
484
  8
1
  6
CONTINUOUS
 62
     7
 10
401.111052401255
 20
-94.73463575098828
 30
0.0
  0
VERTEX
  5
485
  8
1
  6
CONTINUOUS
 62
     7
 10
401.8025996038731
 20
-94.91945559140575
 30
0.0
  0
VERTEX
  5
486
  8
1
  6
CONTINUOUS
 62
     7
 10
402.5529720452689
 20
-95.03326708718964
 30
0.0
  0
VERTEX
  5
487
  8
1
  6
CONTINUOUS
 62
     7
 10
403.3333333333334
 20
-95.07169652638318
 30
0.0
  0
VERTEX
  5
488
  8
1
  6
CONTINUOUS
 62
     7
 10
404.1136946213979
 20
-95.03326708718964
 30
0.0
  0
VERTEX
  5
489
  8
1
  6
CONTINUOUS
 62
     7
 10
404.8640670627938
 20
-94.91945559140575
 30
0.0
  0
VERTEX
  5
48A
  8
1
  6
CONTINUOUS
 62
     7
 10
405.5556142654119
 20
-94.73463575098828
 30
0.0
  0
VERTEX
  5
48B
  8
1
  6
CONTINUOUS
 62
     7
 10
406.1617604580796
 20
-94.48591008875627
 30
0.0
  0
VERTEX
  5
48C
  8
1
  6
CONTINUOUS
 62
     7
 10
406.6592117825436
 20
-94.18283699242238
 30
0.0
  0
VERTEX
  5
48D
  8
1
  6
CONTINUOUS
 62
     7
 10
407.0288514633786
 20
-93.83706339111336
 30
0.0
  0
VERTEX
  5
48E
  8
1
  6
CONTINUOUS
 62
     7
 10
407.2564744549463
 20
-93.46187717041543
 30
0.0
  0
VERTEX
  5
48F
  8
1
  6
CONTINUOUS
 62
     7
 10
407.3333333333334
 20
-93.07169652638318
 30
0.0
  0
SEQEND
  5
5B3
  8
1
  6
CONTINUOUS
 62
     7
  0
LINE
  5
18C
  8
1
  6
CONTINUOUS
 62
     7
 10
327.3508934574324
 20
-97.53302110314709
 30
0.0
 11
327.3346626640341
 21
-97.82169566045941
 31
0.0
  0
POLYLINE
  5
18D
  8
1
  6
CONTINUOUS
 62
     7
 66
     1
 10
0.0
 20
0.0
 30
0.0
  0
VERTEX
  5
490
  8
1
  6
CONTINUOUS
 62
     7
 10
336.8333333333334
 20
-93.07169652638318
 30
0.0
  0
VERTEX
  5
491
  8
1
  6
CONTINUOUS
 62
     7
 10
335.0508539324399
 20
-93.15605704220229
 30
0.0
  0
VERTEX
  5
492
  8
1
  6
CONTINUOUS
 62
     7
 10
333.3316885869975
 20
-93.40614208581577
 30
0.0
  0
VERTEX
  5
493
  8
1
  6
CONTINUOUS
 62
     7
 10
331.7369024234567
 20
-93.81306858215922
 30
0.0
  0
VERTEX
  5
494
  8
1
  6
CONTINUOUS
 62
     7
 10
330.3231425927132
 20
-94.36238241370337
 30
0.0
  0
VERTEX
  5
495
  8
1
  6
CONTINUOUS
 62
     7
 10
329.1406261510053
 20
-95.03457183384796
 30
0.0
  0
VERTEX
  5
496
  8
1
  6
CONTINUOUS
 62
     7
 10
328.2313563391698
 20
-95.80576052839865
 30
0.0
  0
VERTEX
  5
497
  8
1
  6
CONTINUOUS
 62
     7
 10
327.6276306184045
 20
-96.64855570743285
 30
0.0
  0
VERTEX
  5
498
  8
1
  6
CONTINUOUS
 62
     7
 10
327.3508934574324
 20
-97.53302110314709
 30
0.0
  0
SEQEND
  5
5B4
  8
1
  6
CONTINUOUS
 62
     7
  0
LINE
  5
18E
  8
1
  6
CONTINUOUS
 62
     7
 10
399.3333333333334
 20
-104.5716965263832
 30
0.0
 11
399.3333333333334
 21
-105.4377219301676
 31
0.0
  0
LINE
  5
18F
  8
1
  6
CONTINUOUS
 62
     7
 10
330.3508934574324
 20
-75.39904650693155
 30
0.0
 11
476.3157732092345
 21
-75.39904650693155
 31
0.0
  0
POLYLINE
  5
190
  8
1
  6
CONTINUOUS
 62
     7
 66
     1
 10
0.0
 20
0.0
 30
0.0
  0
VERTEX
  5
499
  8
1
  6
CONTINUOUS
 62
     7
 10
479.3157732092344
 20
-86.89904650693153
 30
0.0
  0
VERTEX
  5
49A
  8
1
  6
CONTINUOUS
 62
     7
 10
479.0390360482623
 20
-86.01458111121728
 30
0.0
  0
VERTEX
  5
49B
  8
1
  6
CONTINUOUS
 62
     7
 10
478.4353103274971
 20
-85.1717859321831
 30
0.0
  0
VERTEX
  5
49C
  8
1
  6
CONTINUOUS
 62
     7
 10
477.5260405156615
 20
-84.40059723763241
 30
0.0
  0
VERTEX
  5
49D
  8
1
  6
CONTINUOUS
 62
     7
 10
476.3435240739536
 20
-83.7284078174878
 30
0.0
  0
VERTEX
  5
49E
  8
1
  6
CONTINUOUS
 62
     7
 10
474.9297642432102
 20
-83.17909398594367
 30
0.0
  0
VERTEX
  5
49F
  8
1
  6
CONTINUOUS
 62
     7
 10
473.3349780796693
 20
-82.77216748960022
 30
0.0
  0
VERTEX
  5
4A0
  8
1
  6
CONTINUOUS
 62
     7
 10
471.6158127342269
 20
-82.52208244598674
 30
0.0
  0
VERTEX
  5
4A1
  8
1
  6
CONTINUOUS
 62
     7
 10
469.8333333333334
 20
-82.43772193016763
 30
0.0
  0
SEQEND
  5
5B5
  8
1
  6
CONTINUOUS
 62
     7
  0
LINE
  5
191
  8
1
  6
CONTINUOUS
 62
     7
 10
327.3728894483894
 20
-97.82169566045943
 30
0.0
 11
327.3508934574324
 21
-98.39904650693154
 31
0.0
  0
LINE
  5
192
  8
1
  6
CONTINUOUS
 62
     7
 10
399.3333333333334
 20
-104.5716965263832
 30
0.0
 11
336.8333333333334
 21
-104.5716965263832
 31
0.0
  0
LINE
  5
193
  8
1
  6
CONTINUOUS
 62
     7
 10
399.3333333333334
 20
-93.07169652638318
 30
0.0
 11
336.8333333333334
 21
-93.07169652638318
 31
0.0
  0
LINE
  5
194
  8
1
  6
CONTINUOUS
 62
     7
 10
399.3333333333334
 20
-116.0716965263832
 30
0.0
 11
336.8333333333334
 21
-116.0716965263832
 31
0.0
  0
LINE
  5
195
  8
1
  6
CONTINUOUS
 62
     7
 10
399.3333333333334
 20
-116.0716965263832
 30
0.0
 11
399.3333333333334
 21
-116.9377219301676
 31
0.0
  0
LINE
  5
196
  8
1
  6
CONTINUOUS
 62
     7
 10
469.8333333333334
 20
-93.07169652638319
 30
0.0
 11
407.3333333333334
 21
-93.07169652638318
 31
0.0
  0
POLYLINE
  5
197
  8
1
  6
CONTINUOUS
 62
     7
 66
     1
 10
0.0
 20
0.0
 30
0.0
  0
VERTEX
  5
4A2
  8
1
  6
CONTINUOUS
 62
     7
 10
479.3157732092344
 20
-86.03302110314709
 30
0.0
  0
VERTEX
  5
4A3
  8
1
  6
CONTINUOUS
 62
     7
 10
479.0390360482623
 20
-85.14855570743285
 30
0.0
  0
VERTEX
  5
4A4
  8
1
  6
CONTINUOUS
 62
     7
 10
478.4353103274971
 20
-84.30576052839866
 30
0.0
  0
VERTEX
  5
4A5
  8
1
  6
CONTINUOUS
 62
     7
 10
477.5260405156615
 20
-83.53457183384796
 30
0.0
  0
VERTEX
  5
4A6
  8
1
  6
CONTINUOUS
 62
     7
 10
476.3435240739536
 20
-82.86238241370337
 30
0.0
  0
VERTEX
  5
4A7
  8
1
  6
CONTINUOUS
 62
     7
 10
474.9297642432102
 20
-82.31306858215922
 30
0.0
  0
VERTEX
  5
4A8
  8
1
  6
CONTINUOUS
 62
     7
 10
473.3349780796693
 20
-81.90614208581579
 30
0.0
  0
VERTEX
  5
4A9
  8
1
  6
CONTINUOUS
 62
     7
 10
471.6158127342269
 20
-81.65605704220232
 30
0.0
  0
VERTEX
  5
4AA
  8
1
  6
CONTINUOUS
 62
     7
 10
469.8333333333334
 20
-81.57169652638319
 30
0.0
  0
SEQEND
  5
5B6
  8
1
  6
CONTINUOUS
 62
     7
  0
LINE
  5
198
  8
1
  6
CONTINUOUS
 62
     7
 10
479.3320040026327
 20
-86.32169566045938
 30
0.0
 11
479.3157732092345
 21
-86.03302110314709
 31
0.0
  0
LINE
  5
199
  8
1
  6
CONTINUOUS
 62
     7
 10
407.0414325768812
 20
-81.57169652638316
 30
0.0
 11
407.0414325768812
 21
-82.43772193016761
 31
0.0
  0
LINE
  5
19A
  8
1
  6
CONTINUOUS
 62
     7
 10
407.3333333333334
 20
-116.0716965263832
 30
0.0
 11
407.3333333333334
 21
-116.9377219301676
 31
0.0
  0
LINE
  5
19B
  8
1
  6
CONTINUOUS
 62
     7
 10
399.6252340897856
 20
-82.43772193016761
 30
0.0
 11
336.8333333333334
 21
-82.43772193016761
 31
0.0
  0
LINE
  5
19C
  8
1
  6
CONTINUOUS
 62
     7
 10
476.3157732092344
 20
-75.39904650693154
 30
0.0
 11
476.2937772182775
 21
-74.82169566045938
 31
0.0
  0
POLYLINE
  5
19D
  8
1
  6
CONTINUOUS
 62
     7
 66
     1
 10
0.0
 20
0.0
 30
0.0
  0
VERTEX
  5
4AB
  8
1
  6
CONTINUOUS
 62
     7
 10
479.3157732092344
 20
-97.53302110314709
 30
0.0
  0
VERTEX
  5
4AC
  8
1
  6
CONTINUOUS
 62
     7
 10
479.0390360482623
 20
-96.64855570743285
 30
0.0
  0
VERTEX
  5
4AD
  8
1
  6
CONTINUOUS
 62
     7
 10
478.435310327497
 20
-95.80576052839866
 30
0.0
  0
VERTEX
  5
4AE
  8
1
  6
CONTINUOUS
 62
     7
 10
477.5260405156615
 20
-95.03457183384798
 30
0.0
  0
VERTEX
  5
4AF
  8
1
  6
CONTINUOUS
 62
     7
 10
476.3435240739536
 20
-94.36238241370339
 30
0.0
  0
VERTEX
  5
4B0
  8
1
  6
CONTINUOUS
 62
     7
 10
474.9297642432101
 20
-93.81306858215923
 30
0.0
  0
VERTEX
  5
4B1
  8
1
  6
CONTINUOUS
 62
     7
 10
473.3349780796693
 20
-93.40614208581579
 30
0.0
  0
VERTEX
  5
4B2
  8
1
  6
CONTINUOUS
 62
     7
 10
471.6158127342269
 20
-93.15605704220232
 30
0.0
  0
VERTEX
  5
4B3
  8
1
  6
CONTINUOUS
 62
     7
 10
469.8333333333334
 20
-93.0716965263832
 30
0.0
  0
SEQEND
  5
5B7
  8
1
  6
CONTINUOUS
 62
     7
  0
LINE
  5
19E
  8
1
  6
CONTINUOUS
 62
     7
 10
479.3320040026327
 20
-97.82169566045941
 30
0.0
 11
479.3157732092345
 21
-97.53302110314709
 31
0.0
  0
LINE
  5
19F
  8
1
  6
CONTINUOUS
 62
     7
 10
399.3333333333334
 20
-93.93772193016763
 30
0.0
 11
399.3333333333334
 21
-93.07169652638318
 31
0.0
  0
POLYLINE
  5
1A0
  8
1
  6
CONTINUOUS
 62
     7
 66
     1
 10
0.0
 20
0.0
 30
0.0
  0
VERTEX
  5
4B4
  8
1
  6
CONTINUOUS
 62
     7
 10
479.3157732092344
 20
-109.0330211031471
 30
0.0
  0
VERTEX
  5
4B5
  8
1
  6
CONTINUOUS
 62
     7
 10
479.0390360482623
 20
-108.1485557074328
 30
0.0
  0
VERTEX
  5
4B6
  8
1
  6
CONTINUOUS
 62
     7
 10
478.4353103274971
 20
-107.3057605283987
 30
0.0
  0
VERTEX
  5
4B7
  8
1
  6
CONTINUOUS
 62
     7
 10
477.5260405156615
 20
-106.534571833848
 30
0.0
  0
VERTEX
  5
4B8
  8
1
  6
CONTINUOUS
 62
     7
 10
476.3435240739536
 20
-105.8623824137034
 30
0.0
  0
VERTEX
  5
4B9
  8
1
  6
CONTINUOUS
 62
     7
 10
474.9297642432102
 20
-105.3130685821592
 30
0.0
  0
VERTEX
  5
4BA
  8
1
  6
CONTINUOUS
 62
     7
 10
473.3349780796693
 20
-104.9061420858158
 30
0.0
  0
VERTEX
  5
4BB
  8
1
  6
CONTINUOUS
 62
     7
 10
471.6158127342269
 20
-104.6560570422023
 30
0.0
  0
VERTEX
  5
4BC
  8
1
  6
CONTINUOUS
 62
     7
 10
469.8333333333334
 20
-104.5716965263832
 30
0.0
  0
SEQEND
  5
5B8
  8
1
  6
CONTINUOUS
 62
     7
  0
LINE
  5
1A1
  8
1
  6
CONTINUOUS
 62
     7
 10
469.8333333333334
 20
-105.4377219301676
 30
0.0
 11
407.3333333333334
 21
-105.4377219301676
 31
0.0
  0
LINE
  5
1A2
  8
1
  6
CONTINUOUS
 62
     7
 10
479.3320040026327
 20
-109.3216956604594
 30
0.0
 11
479.3157732092345
 21
-109.0330211031471
 31
0.0
  0
LINE
  5
1A3
  8
1
  6
CONTINUOUS
 62
     7
 10
479.3028503171336
 20
-121.0328956843178
 30
0.0
 11
479.2937772182775
 21
-120.8216956604594
 31
0.0
  0
POLYLINE
  5
1A4
  8
1
  6
CONTINUOUS
 62
     7
 66
     1
 10
0.0
 20
0.0
 30
0.0
  0
VERTEX
  5
4BD
  8
1
  6
CONTINUOUS
 62
     7
 10
479.3157732092344
 20
-120.5330211031471
 30
0.0
  0
VERTEX
  5
4BE
  8
1
  6
CONTINUOUS
 62
     7
 10
479.0390360482623
 20
-119.6485557074328
 30
0.0
  0
VERTEX
  5
4BF
  8
1
  6
CONTINUOUS
 62
     7
 10
478.435310327497
 20
-118.8057605283987
 30
0.0
  0
VERTEX
  5
4C0
  8
1
  6
CONTINUOUS
 62
     7
 10
477.5260405156615
 20
-118.034571833848
 30
0.0
  0
VERTEX
  5
4C1
  8
1
  6
CONTINUOUS
 62
     7
 10
476.3435240739536
 20
-117.3623824137034
 30
0.0
  0
VERTEX
  5
4C2
  8
1
  6
CONTINUOUS
 62
     7
 10
474.9297642432101
 20
-116.8130685821592
 30
0.0
  0
VERTEX
  5
4C3
  8
1
  6
CONTINUOUS
 62
     7
 10
473.3349780796693
 20
-116.4061420858158
 30
0.0
  0
VERTEX
  5
4C4
  8
1
  6
CONTINUOUS
 62
     7
 10
471.6158127342269
 20
-116.1560570422023
 30
0.0
  0
VERTEX
  5
4C5
  8
1
  6
CONTINUOUS
 62
     7
 10
469.8333333333334
 20
-116.0716965263832
 30
0.0
  0
SEQEND
  5
5B9
  8
1
  6
CONTINUOUS
 62
     7
  0
LINE
  5
1A5
  8
1
  6
CONTINUOUS
 62
     7
 10
466.8333333333334
 20
-70.93772193016763
 30
0.0
 11
339.8333333333334
 21
-70.93772193016761
 31
0.0
  0
LINE
  5
1A6
  8
1
  6
CONTINUOUS
 62
     7
 10
327.3508934574324
 20
-120.5330211031471
 30
0.0
 11
327.3346626640341
 21
-120.8216956604594
 31
0.0
  0
LINE
  5
1A7
  8
1
  6
CONTINUOUS
 62
     7
 10
327.3508934574324
 20
-109.8990465069315
 30
0.0
 11
479.3157732092345
 21
-109.8990465069315
 31
0.0
  0
POLYLINE
  5
1A8
  8
1
  6
CONTINUOUS
 62
     7
 66
     1
 10
0.0
 20
0.0
 30
0.0
  0
VERTEX
  5
4C6
  8
1
  6
CONTINUOUS
 62
     7
 10
336.8333333333334
 20
-82.43772193016758
 30
0.0
  0
VERTEX
  5
4C7
  8
1
  6
CONTINUOUS
 62
     7
 10
335.0508539324399
 20
-82.52208244598671
 30
0.0
  0
VERTEX
  5
4C8
  8
1
  6
CONTINUOUS
 62
     7
 10
333.3316885869975
 20
-82.77216748960018
 30
0.0
  0
VERTEX
  5
4C9
  8
1
  6
CONTINUOUS
 62
     7
 10
331.7369024234567
 20
-83.17909398594362
 30
0.0
  0
VERTEX
  5
4CA
  8
1
  6
CONTINUOUS
 62
     7
 10
330.3231425927132
 20
-83.72840781748779
 30
0.0
  0
VERTEX
  5
4CB
  8
1
  6
CONTINUOUS
 62
     7
 10
329.1406261510053
 20
-84.40059723763238
 30
0.0
  0
VERTEX
  5
4CC
  8
1
  6
CONTINUOUS
 62
     7
 10
328.2313563391698
 20
-85.17178593218308
 30
0.0
  0
VERTEX
  5
4CD
  8
1
  6
CONTINUOUS
 62
     7
 10
327.6276306184045
 20
-86.01458111121728
 30
0.0
  0
VERTEX
  5
4CE
  8
1
  6
CONTINUOUS
 62
     7
 10
327.3508934574324
 20
-86.89904650693153
 30
0.0
  0
SEQEND
  5
5BA
  8
1
  6
CONTINUOUS
 62
     7
  0
LINE
  5
1A9
  8
1
  6
CONTINUOUS
 62
     7
 10
476.3320040026327
 20
-74.8216956604594
 30
0.0
 11
476.3157732092345
 21
-74.5330211031471
 31
0.0
  0
LINE
  5
1AA
  8
1
  6
CONTINUOUS
 62
     7
 10
399.6252340897856
 20
-82.43772193016761
 30
0.0
 11
399.6252340897856
 21
-81.57169652638316
 31
0.0
  0
LINE
  5
1AB
  8
1
  6
CONTINUOUS
 62
     7
 10
327.3333333333334
 20
-97.82169566045941
 30
0.0
 11
327.3728894483894
 21
-97.82169566045941
 31
0.0
  0
LINE
  5
1AC
  8
1
  6
CONTINUOUS
 62
     7
 10
330.1852756267938
 20
-59.51784808316604
 30
0.0
 11
329.5096084948303
 21
-59.12775148264432
 31
0.0
  0
LINE
  5
1AD
  8
1
  6
CONTINUOUS
 62
     7
 10
330.6852756267938
 20
-58.65182267938157
 30
0.0
 11
330.1852756267938
 21
-59.51784808316604
 31
0.0
  0
LINE
  5
1AE
  8
1
  6
CONTINUOUS
 62
     7
 10
335.5096084948303
 20
-48.73544663723104
 30
0.0
 11
336.1852756267938
 21
-49.12554323775277
 31
0.0
  0
ARC
  5
1AF
  8
1
  6
CONTINUOUS
 62
     7
 10
473.0483783379807
 20
-54.57169566045938
 30
0.0
 40
3.500000000000004
 50
325.3769335251528
 51
94.62306647484718
  0
LINE
  5
1B0
  8
1
  6
CONTINUOUS
 62
     7
 10
454.8333333333334
 20
-42.32169566045939
 30
0.0
 11
351.8333333333334
 21
-42.3216956604594
 31
0.0
  0
LINE
  5
1B1
  8
1
  6
CONTINUOUS
 62
     7
 10
466.8333333333334
 20
-65.32169566045943
 30
0.0
 11
339.8333333333334
 21
-65.3216956604594
 31
0.0
  0
POLYLINE
  5
1B2
  8
1
  6
CONTINUOUS
 62
     7
 66
     1
 10
0.0
 20
0.0
 30
0.0
  0
VERTEX
  5
4CF
  8
1
  6
CONTINUOUS
 62
     7
 10
403.3333333333334
 20
-107.3216965263832
 30
0.0
  0
VERTEX
  5
4D0
  8
1
  6
CONTINUOUS
 62
     7
 10
404.1136946213979
 20
-107.2832670871896
 30
0.0
  0
VERTEX
  5
4D1
  8
1
  6
CONTINUOUS
 62
     7
 10
404.8640670627938
 20
-107.1694555914058
 30
0.0
  0
VERTEX
  5
4D2
  8
1
  6
CONTINUOUS
 62
     7
 10
405.5556142654119
 20
-106.9846357509883
 30
0.0
  0
VERTEX
  5
4D3
  8
1
  6
CONTINUOUS
 62
     7
 10
406.1617604580796
 20
-106.7359100887563
 30
0.0
  0
VERTEX
  5
4D4
  8
1
  6
CONTINUOUS
 62
     7
 10
406.6592117825436
 20
-106.4328369924224
 30
0.0
  0
VERTEX
  5
4D5
  8
1
  6
CONTINUOUS
 62
     7
 10
407.0288514633786
 20
-106.0870633911133
 30
0.0
  0
VERTEX
  5
4D6
  8
1
  6
CONTINUOUS
 62
     7
 10
407.2564744549463
 20
-105.7118771704154
 30
0.0
  0
VERTEX
  5
4D7
  8
1
  6
CONTINUOUS
 62
     7
 10
407.3333333333334
 20
-105.3216965263832
 30
0.0
  0
SEQEND
  5
5BB
  8
1
  6
CONTINUOUS
 62
     7
  0
POLYLINE
  5
1B3
  8
1
  6
CONTINUOUS
 62
     7
 66
     1
 10
0.0
 20
0.0
 30
0.0
  0
VERTEX
  5
4D8
  8
1
  6
CONTINUOUS
 62
     7
 10
399.3333333333334
 20
-117.5716965263832
 30
0.0
  0
VERTEX
  5
4D9
  8
1
  6
CONTINUOUS
 62
     7
 10
399.4101922117205
 20
-117.9618771704154
 30
0.0
  0
VERTEX
  5
4DA
  8
1
  6
CONTINUOUS
 62
     7
 10
399.6378152032883
 20
-118.3370633911133
 30
0.0
  0
VERTEX
  5
4DB
  8
1
  6
CONTINUOUS
 62
     7
 10
400.0074548841233
 20
-118.6828369924224
 30
0.0
  0
VERTEX
  5
4DC
  8
1
  6
CONTINUOUS
 62
     7
 10
400.5049062085872
 20
-118.9859100887563
 30
0.0
  0
VERTEX
  5
4DD
  8
1
  6
CONTINUOUS
 62
     7
 10
401.111052401255
 20
-119.2346357509883
 30
0.0
  0
VERTEX
  5
4DE
  8
1
  6
CONTINUOUS
 62
     7
 10
401.802599603873
 20
-119.4194555914058
 30
0.0
  0
VERTEX
  5
4DF
  8
1
  6
CONTINUOUS
 62
     7
 10
402.5529720452689
 20
-119.5332670871896
 30
0.0
  0
VERTEX
  5
4E0
  8
1
  6
CONTINUOUS
 62
     7
 10
403.3333333333334
 20
-119.5716965263832
 30
0.0
  0
SEQEND
  5
5BC
  8
1
  6
CONTINUOUS
 62
     7
  0
ARC
  5
1B4
  8
1
  6
CONTINUOUS
 62
     7
 10
333.6182883286861
 20
-54.57169566045938
 30
0.0
 40
2.499999999999996
 50
96.86989764584479
 51
203.1301023541551
  0
ARC
  5
1B5
  8
1
  6
CONTINUOUS
 62
     7
 10
333.6182883286861
 20
-54.57169566045938
 30
0.0
 40
3.500000000000008
 50
85.37693352515284
 51
214.6230664748471
  0
LINE
  5
1B6
  8
1
  6
CONTINUOUS
 62
     7
 10
469.8333333333334
 20
-76.82169566045941
 30
0.0
 11
336.8333333333334
 21
-76.8216956604594
 31
0.0
  0
POLYLINE
  5
1B7
  8
1
  6
CONTINUOUS
 62
     7
 66
     1
 10
0.0
 20
0.0
 30
0.0
  0
VERTEX
  5
4E1
  8
1
  6
CONTINUOUS
 62
     7
 10
399.3333333333334
 20
-105.3216965263831
 30
0.0
  0
VERTEX
  5
4E2
  8
1
  6
CONTINUOUS
 62
     7
 10
399.4101922117205
 20
-105.7118771704154
 30
0.0
  0
VERTEX
  5
4E3
  8
1
  6
CONTINUOUS
 62
     7
 10
399.6378152032883
 20
-106.0870633911133
 30
0.0
  0
VERTEX
  5
4E4
  8
1
  6
CONTINUOUS
 62
     7
 10
400.0074548841232
 20
-106.4328369924224
 30
0.0
  0
VERTEX
  5
4E5
  8
1
  6
CONTINUOUS
 62
     7
 10
400.5049062085872
 20
-106.7359100887563
 30
0.0
  0
VERTEX
  5
4E6
  8
1
  6
CONTINUOUS
 62
     7
 10
401.111052401255
 20
-106.9846357509882
 30
0.0
  0
VERTEX
  5
4E7
  8
1
  6
CONTINUOUS
 62
     7
 10
401.802599603873
 20
-107.1694555914057
 30
0.0
  0
VERTEX
  5
4E8
  8
1
  6
CONTINUOUS
 62
     7
 10
402.5529720452689
 20
-107.2832670871896
 30
0.0
  0
VERTEX
  5
4E9
  8
1
  6
CONTINUOUS
 62
     7
 10
403.3333333333334
 20
-107.3216965263832
 30
0.0
  0
SEQEND
  5
5BD
  8
1
  6
CONTINUOUS
 62
     7
  0
POLYLINE
  5
1B8
  8
1
  6
CONTINUOUS
 62
     7
 66
     1
 10
0.0
 20
0.0
 30
0.0
  0
VERTEX
  5
4EA
  8
1
  6
CONTINUOUS
 62
     7
 10
437.8310207668579
 20
-28.53302110314712
 30
0.0
  0
VERTEX
  5
4EB
  8
1
  6
CONTINUOUS
 62
     7
 10
437.7652389578619
 20
-28.3223780402342
 30
0.0
  0
VERTEX
  5
4EC
  8
1
  6
CONTINUOUS
 62
     7
 10
437.6116475725308
 20
-28.12349432259987
 30
0.0
  0
VERTEX
  5
4ED
  8
1
  6
CONTINUOUS
 62
     7
 10
437.3772276943623
 20
-27.9454096749407
 30
0.0
  0
VERTEX
  5
4EE
  8
1
  6
CONTINUOUS
 62
     7
 10
437.0726342486929
 20
-27.79621845614469
 30
0.0
  0
VERTEX
  5
4EF
  8
1
  6
CONTINUOUS
 62
     7
 10
436.7117117117118
 20
-27.68270175196942
 30
0.0
  0
SEQEND
  5
5BE
  8
1
  6
CONTINUOUS
 62
     7
  0
ARC
  5
1B9
  8
1
  6
CONTINUOUS
 62
     7
 10
344.3333333333334
 20
-63.3216956604594
 30
0.0
 40
9.500000000000009
 50
89.99999999999996
 51
180.0
  0
LINE
  5
1BA
  8
1
  6
CONTINUOUS
 62
     7
 10
327.3333333333334
 20
-86.32169566045938
 30
0.0
 11
327.3728894483894
 21
-86.32169566045938
 31
0.0
  0
LINE
  5
1BB
  8
1
  6
CONTINUOUS
 62
     7
 10
327.3333333333334
 20
-109.3216956604594
 30
0.0
 11
327.3728894483894
 21
-109.3216956604594
 31
0.0
  0
ARC
  5
1BC
  8
1
  6
CONTINUOUS
 62
     7
 10
336.8333333333334
 20
-120.8216956604594
 30
0.0
 40
9.500000000000009
 50
89.99999999999977
 51
180.0
  0
ARC
  5
1BD
  8
1
  6
CONTINUOUS
 62
     7
 10
403.3333333333334
 20
-94.8216956604594
 30
0.0
 40
82.00000000000003
 50
34.19612411697903
 51
145.803875883021
  0
ARC
  5
1BE
  8
1
  6
CONTINUOUS
 62
     7
 10
462.3333333333334
 20
-63.3216956604594
 30
0.0
 40
9.500000000000009
 50
0.0
 51
89.99999999999982
  0
ARC
  5
1BF
  8
1
  6
CONTINUOUS
 62
     7
 10
336.8333333333334
 20
-86.3216956604594
 30
0.0
 40
9.500000000000002
 50
89.99999999999977
 51
180.0
  0
LINE
  5
1C0
  8
1
  6
CONTINUOUS
 62
     7
 10
470.481391039873
 20
-49.12554323775277
 30
0.0
 11
470.981391039873
 21
-49.99156864153719
 31
0.0
  0
LINE
  5
1C1
  8
1
  6
CONTINUOUS
 62
     7
 10
479.2937772182775
 20
-97.82169566045941
 30
0.0
 11
479.3333333333334
 21
-97.82169566045941
 31
0.0
  0
LINE
  5
1C2
  8
1
  6
CONTINUOUS
 62
     7
 10
437.8333333333334
 20
-28.82169566045942
 30
0.0
 11
437.7959614212947
 21
-28.82169566045942
 31
0.0
  0
ARC
  5
1C3
  8
1
  6
CONTINUOUS
 62
     7
 10
469.8333333333334
 20
-97.82169566045941
 30
0.0
 40
9.499999999999952
 50
0.0000000000000209
 51
90.0
  0
ARC
  5
1C4
  8
1
  6
CONTINUOUS
 62
     7
 10
466.8333333333334
 20
-74.8216956604594
 30
0.0
 40
9.499999999999952
 50
0.0000000000000418
 51
90.0
  0
ARC
  5
1C5
  8
1
  6
CONTINUOUS
 62
     7
 10
336.8333333333334
 20
-97.82169566045941
 30
0.0
 40
9.500000000000002
 50
89.99999999999977
 51
180.0
  0
LINE
  5
1C6
  8
1
  6
CONTINUOUS
 62
     7
 10
368.8333333333334
 20
-28.82169566045942
 30
0.0
 11
368.8333333333334
 21
-28.34049531028523
 31
0.0
  0
LINE
  5
1C7
  8
1
  6
CONTINUOUS
 62
     7
 10
368.8707052453721
 20
-28.82169566045941
 30
0.0
 11
368.8356458998089
 21
-29.39904650693154
 31
0.0
  0
LINE
  5
1C8
  8
1
  6
CONTINUOUS
 62
     7
 10
437.8310207668579
 20
-29.39904650693156
 30
0.0
 11
437.7959614212947
 21
-28.82169566045941
 31
0.0
  0
LINE
  5
1C9
  8
1
  6
CONTINUOUS
 62
     7
 10
368.8356458998089
 20
-28.53302110314711
 30
0.0
 11
368.8333333333334
 21
-28.58510881344553
 31
0.0
  0
POLYLINE
  5
1CA
  8
1
  6
CONTINUOUS
 62
     7
 66
     1
 10
0.0
 20
0.0
 30
0.0
  0
VERTEX
  5
4F0
  8
1
  6
CONTINUOUS
 62
     7
 10
369.954954954955
 20
-27.68270175196941
 30
0.0
  0
VERTEX
  5
4F1
  8
1
  6
CONTINUOUS
 62
     7
 10
369.5940324179739
 20
-27.79621845614469
 30
0.0
  0
VERTEX
  5
4F2
  8
1
  6
CONTINUOUS
 62
     7
 10
369.2894389723045
 20
-27.94540967494068
 30
0.0
  0
VERTEX
  5
4F3
  8
1
  6
CONTINUOUS
 62
     7
 10
369.0550190941359
 20
-28.12349432259986
 30
0.0
  0
VERTEX
  5
4F4
  8
1
  6
CONTINUOUS
 62
     7
 10
368.9014277088048
 20
-28.32237804023418
 30
0.0
  0
VERTEX
  5
4F5
  8
1
  6
CONTINUOUS
 62
     7
 10
368.8356458998089
 20
-28.5330211031471
 30
0.0
  0
SEQEND
  5
5BF
  8
1
  6
CONTINUOUS
 62
     7
  0
LINE
  5
1CB
  8
1
  6
CONTINUOUS
 62
     7
 10
334.8333333333334
 20
-63.3216956604594
 30
0.0
 11
334.8728894483894
 21
-63.3216956604594
 31
0.0
  0
ARC
  5
1CC
  8
1
  6
CONTINUOUS
 62
     7
 10
442.8333333333334
 20
-40.3216956604594
 30
0.0
 40
9.500000000000009
 50
359.9999999999999
 51
89.99999999999994
  0
ARC
  5
1CD
  8
1
  6
CONTINUOUS
 62
     7
 10
469.8333333333334
 20
-86.3216956604594
 30
0.0
 40
9.499999999999952
 50
0.0000000000000418
 51
90.0
  0
LINE
  5
1CE
  8
1
  6
CONTINUOUS
 62
     7
 10
479.2937772182775
 20
-120.8216956604594
 30
0.0
 11
479.3333333333334
 21
-120.8216956604594
 31
0.0
  0
LINE
  5
1CF
  8
1
  6
CONTINUOUS
 62
     7
 10
469.8333333333334
 20
-111.3216956604594
 30
0.0
 11
336.8333333333334
 21
-111.3216956604594
 31
0.0
  0
LINE
  5
1D0
  8
1
  6
CONTINUOUS
 62
     7
 10
476.2937772182775
 20
-74.8216956604594
 30
0.0
 11
476.3333333333334
 21
-74.8216956604594
 31
0.0
  0
POLYLINE
  5
1D1
  8
1
  6
CONTINUOUS
 62
     7
 66
     1
 10
0.0
 20
0.0
 30
0.0
  0
VERTEX
  5
4F6
  8
1
  6
CONTINUOUS
 62
     7
 10
403.3333333333334
 20
-119.5716965263832
 30
0.0
  0
VERTEX
  5
4F7
  8
1
  6
CONTINUOUS
 62
     7
 10
404.1136946213979
 20
-119.5332670871896
 30
0.0
  0
VERTEX
  5
4F8
  8
1
  6
CONTINUOUS
 62
     7
 10
404.8640670627938
 20
-119.4194555914058
 30
0.0
  0
VERTEX
  5
4F9
  8
1
  6
CONTINUOUS
 62
     7
 10
405.5556142654119
 20
-119.2346357509883
 30
0.0
  0
VERTEX
  5
4FA
  8
1
  6
CONTINUOUS
 62
     7
 10
406.1617604580796
 20
-118.9859100887563
 30
0.0
  0
VERTEX
  5
4FB
  8
1
  6
CONTINUOUS
 62
     7
 10
406.6592117825436
 20
-118.6828369924224
 30
0.0
  0
VERTEX
  5
4FC
  8
1
  6
CONTINUOUS
 62
     7
 10
407.0288514633786
 20
-118.3370633911134
 30
0.0
  0
VERTEX
  5
4FD
  8
1
  6
CONTINUOUS
 62
     7
 10
407.2564744549463
 20
-117.9618771704154
 30
0.0
  0
VERTEX
  5
4FE
  8
1
  6
CONTINUOUS
 62
     7
 10
407.3333333333334
 20
-117.5716965263832
 30
0.0
  0
SEQEND
  5
5C0
  8
1
  6
CONTINUOUS
 62
     7
  0
LINE
  5
1D2
  8
1
  6
CONTINUOUS
 62
     7
 10
479.2937772182775
 20
-86.32169566045938
 30
0.0
 11
479.3333333333334
 21
-86.32169566045938
 31
0.0
  0
LINE
  5
1D3
  8
1
  6
CONTINUOUS
 62
     7
 10
336.1852756267938
 20
-49.12554323775277
 30
0.0
 11
335.6852756267938
 21
-49.99156864153719
 31
0.0
  0
LINE
  5
1D4
  8
1
  6
CONTINUOUS
 62
     7
 10
475.981391039873
 20
-58.65182267938155
 30
0.0
 11
476.481391039873
 21
-59.51784808316604
 31
0.0
  0
LINE
  5
1D5
  8
1
  6
CONTINUOUS
 62
     7
 10
469.8333333333334
 20
-88.32169566045943
 30
0.0
 11
336.8333333333334
 21
-88.32169566045941
 31
0.0
  0
LINE
  5
1D6
  8
1
  6
CONTINUOUS
 62
     7
 10
471.1570581718365
 20
-48.73544663723104
 30
0.0
 11
470.481391039873
 21
-49.12554323775277
 31
0.0
  0
LINE
  5
1D7
  8
1
  6
CONTINUOUS
 62
     7
 10
321.3333333333334
 20
-94.8216956604594
 30
0.0
 11
321.3333333333334
 21
-121.0328956843178
 31
0.0
  0
LINE
  5
1D8
  8
1
  6
CONTINUOUS
 62
     7
 10
479.2937772182775
 20
-109.3216956604594
 30
0.0
 11
479.3333333333334
 21
-109.3216956604594
 31
0.0
  0
LINE
  5
1D9
  8
1
  6
CONTINUOUS
 62
     7
 10
469.8333333333334
 20
-99.82169566045943
 30
0.0
 11
336.8333333333334
 21
-99.8216956604594
 31
0.0
  0
LINE
  5
1DA
  8
1
  6
CONTINUOUS
 62
     7
 10
476.481391039873
 20
-59.51784808316604
 30
0.0
 11
477.1570581718366
 21
-59.12775148264431
 31
0.0
  0
LINE
  5
1DB
  8
1
  6
CONTINUOUS
 62
     7
 10
442.8333333333334
 20
-30.82169566045939
 30
0.0
 11
363.8333333333334
 21
-30.8216956604594
 31
0.0
  0
ARC
  5
1DC
  8
1
  6
CONTINUOUS
 62
     7
 10
370.8333333333334
 20
-28.34049531028523
 30
0.0
 40
2.000000000000002
 50
116.0521596593282
 51
180.0
  0
ARC
  5
1DD
  8
1
  6
CONTINUOUS
 62
     7
 10
336.8333333333334
 20
-109.3216956604594
 30
0.0
 40
9.500000000000009
 50
89.99999999999977
 51
180.0
  0
ARC
  5
1DE
  8
1
  6
CONTINUOUS
 62
     7
 10
473.0483783379807
 20
-54.57169566045938
 30
0.0
 40
2.500000000000002
 50
336.869897645845
 51
83.13010235415521
  0
ARC
  5
1DF
  8
1
  6
CONTINUOUS
 62
     7
 10
454.8333333333334
 20
-51.8216956604594
 30
0.0
 40
9.500000000000009
 50
359.9999999999999
 51
90.0
  0
LINE
  5
1E0
  8
1
  6
CONTINUOUS
 62
     7
 10
437.8333333333334
 20
-28.34049531028522
 30
0.0
 11
437.8333333333334
 21
-28.82169566045942
 31
0.0
  0
ARC
  5
1E1
  8
1
  6
CONTINUOUS
 62
     7
 10
469.8333333333334
 20
-109.3216956604594
 30
0.0
 40
9.499999999999952
 50
0.0
 51
90.0
  0
ARC
  5
1E2
  8
1
  6
CONTINUOUS
 62
     7
 10
435.8333333333334
 20
-28.34049531028522
 30
0.0
 40
2.000000000000004
 50
0.0
 51
63.9478403406718
  0
LINE
  5
1E3
  8
1
  6
CONTINUOUS
 62
     7
 10
330.3333333333334
 20
-74.8216956604594
 30
0.0
 11
330.3728894483894
 21
-74.8216956604594
 31
0.0
  0
LINE
  5
1E4
  8
1
  6
CONTINUOUS
 62
     7
 10
437.8333333333334
 20
-28.5851088134455
 30
0.0
 11
437.8310207668579
 21
-28.53302110314711
 31
0.0
  0
ARC
  5
1E5
  8
1
  6
CONTINUOUS
 62
     7
 10
469.8333333333334
 20
-120.8216956604594
 30
0.0
 40
9.499999999999952
 50
0.0
 51
90.0
  0
LINE
  5
1E6
  8
1
  6
CONTINUOUS
 62
     7
 10
342.3333333333334
 20
-51.82169566045941
 30
0.0
 11
342.3728894483894
 21
-51.82169566045941
 31
0.0
  0
ARC
  5
1E7
  8
1
  6
CONTINUOUS
 62
     7
 10
339.8333333333334
 20
-74.8216956604594
 30
0.0
 40
9.500000000000002
 50
89.99999999999991
 51
180.0
  0
LINE
  5
1E8
  8
1
  6
CONTINUOUS
 62
     7
 10
327.3333333333334
 20
-120.8216956604594
 30
0.0
 11
327.3728894483894
 21
-120.8216956604594
 31
0.0
  0
ARC
  5
1E9
  8
1
  6
CONTINUOUS
 62
     7
 10
403.3333333333334
 20
-94.8216956604594
 30
0.0
 40
81.99999999999997
 50
154.1961241169791
 51
180.0
  0
LINE
  5
1EA
  8
1
  6
CONTINUOUS
 62
     7
 10
479.3320040026327
 20
-120.8216956604594
 30
0.0
 11
479.3157732092345
 21
-120.5330211031471
 31
0.0
  0
LINE
  5
1EB
  8
1
  6
CONTINUOUS
 62
     7
 10
485.3333333333334
 20
-121.0328956843178
 30
0.0
 11
485.3333333333334
 21
-94.8216956604594
 31
0.0
  0
LINE
  5
1EC
  8
1
  6
CONTINUOUS
 62
     7
 10
470.6512640209507
 20
-113.8216956604594
 30
0.0
 11
471.084276722843
 21
-113.8216956604594
 31
0.0
  0
LINE
  5
1ED
  8
1
  6
CONTINUOUS
 62
     7
 10
339.5154026457161
 20
-114.8216956604594
 30
0.0
 11
339.5154026457161
 21
-116.0716965263832
 31
0.0
  0
POLYLINE
  5
1EE
  8
1
  6
CONTINUOUS
 62
     7
 66
     1
 10
0.0
 20
0.0
 30
0.0
  0
VERTEX
  5
4FF
  8
1
  6
CONTINUOUS
 62
     7
 10
486.3333333333333
 20
-89.82169566045943
 30
0.0
  0
VERTEX
  5
500
  8
1
  6
CONTINUOUS
 62
     7
 10
484.7385116068015
 20
-73.34110424479361
 30
0.0
  0
VERTEX
  5
501
  8
1
  6
CONTINUOUS
 62
     7
 10
480.0153345317702
 20
-57.49385271480968
 30
0.0
  0
VERTEX
  5
502
  8
1
  6
CONTINUOUS
 62
     7
 10
472.3453111544447
 20
-42.88894205956385
 30
0.0
  0
VERTEX
  5
503
  8
1
  6
CONTINUOUS
 62
     7
 10
462.0231961718169
 20
-30.087630805009
 30
0.0
  0
VERTEX
  5
504
  8
1
  6
CONTINUOUS
 62
     7
 10
449.4456626739604
 20
-19.5818661635996
 30
0.0
  0
VERTEX
  5
505
  8
1
  6
CONTINUOUS
 62
     7
 10
435.0960582196359
 20
-11.77537877880431
 30
0.0
  0
VERTEX
  5
506
  8
1
  6
CONTINUOUS
 62
     7
 10
419.5258300606721
 20
-6.968167582892292
 30
0.0
  0
VERTEX
  5
507
  8
1
  6
CONTINUOUS
 62
     7
 10
403.3333333333334
 20
-5.344971006207317
 30
0.0
  0
VERTEX
  5
508
  8
1
  6
CONTINUOUS
 62
     7
 10
387.1408366059948
 20
-6.968167582892278
 30
0.0
  0
VERTEX
  5
509
  8
1
  6
CONTINUOUS
 62
     7
 10
371.5706084470309
 20
-11.77537877880428
 30
0.0
  0
VERTEX
  5
50A
  8
1
  6
CONTINUOUS
 62
     7
 10
357.2210039927064
 20
-19.58186616359954
 30
0.0
  0
VERTEX
  5
50B
  8
1
  6
CONTINUOUS
 62
     7
 10
344.6434704948499
 20
-30.08763080500893
 30
0.0
  0
VERTEX
  5
50C
  8
1
  6
CONTINUOUS
 62
     7
 10
334.3213555122221
 20
-42.88894205956377
 30
0.0
  0
VERTEX
  5
50D
  8
1
  6
CONTINUOUS
 62
     7
 10
326.6513321348966
 20
-57.49385271480961
 30
0.0
  0
VERTEX
  5
50E
  8
1
  6
CONTINUOUS
 62
     7
 10
321.9281550598653
 20
-73.34110424479357
 30
0.0
  0
VERTEX
  5
50F
  8
1
  6
CONTINUOUS
 62
     7
 10
320.3333333333335
 20
-89.82169566045935
 30
0.0
  0
SEQEND
  5
5C1
  8
1
  6
CONTINUOUS
 62
     7
  0
LINE
  5
1EF
  8
1
  6
CONTINUOUS
 62
     7
 10
296.9631563589757
 20
-121.0328956843178
 30
0.0
 11
313.5333333333334
 21
-121.0328956843178
 31
0.0
  0
ARC
  5
1F0
  8
1
  6
CONTINUOUS
 62
     7
 10
308.7664871624108
 20
-134.3216956604594
 30
0.0
 40
0.9999999999999911
 50
220.0000000000011
 51
270.0000000000015
  0
POLYLINE
  5
1F1
  8
1
  6
CONTINUOUS
 62
     7
 66
     1
 10
0.0
 20
0.0
 30
0.0
  0
VERTEX
  5
510
  8
1
  6
CONTINUOUS
 62
     7
 10
335.5823899438239
 20
-113.8216956604594
 30
0.0
  0
VERTEX
  5
511
  8
1
  6
CONTINUOUS
 62
     7
 10
335.4848447828159
 20
-113.8409103800562
 30
0.0
  0
VERTEX
  5
512
  8
1
  6
CONTINUOUS
 62
     7
 10
335.3910482276414
 20
-113.8978161279481
 30
0.0
  0
VERTEX
  5
513
  8
1
  6
CONTINUOUS
 62
     7
 10
335.3046048273141
 20
-113.9902260481569
 30
0.0
  0
VERTEX
  5
514
  8
1
  6
CONTINUOUS
 62
     7
 10
335.2288365532306
 20
-114.1145888792728
 30
0.0
  0
VERTEX
  5
515
  8
1
  6
CONTINUOUS
 62
     7
 10
335.1666551376726
 20
-114.2661254274398
 30
0.0
  0
VERTEX
  5
516
  8
1
  6
CONTINUOUS
 62
     7
 10
335.1204501775683
 20
-114.4390122280943
 30
0.0
  0
VERTEX
  5
517
  8
1
  6
CONTINUOUS
 62
     7
 10
335.0919973036223
 20
-114.6266053384433
 30
0.0
  0
VERTEX
  5
518
  8
1
  6
CONTINUOUS
 62
     7
 10
335.0823899438239
 20
-114.8216956604594
 30
0.0
  0
SEQEND
  5
5C2
  8
1
  6
CONTINUOUS
 62
     7
  0
POLYLINE
  5
1F2
  8
1
  6
CONTINUOUS
 62
     7
 66
     1
 10
0.0
 20
0.0
 30
0.0
  0
VERTEX
  5
519
  8
1
  6
CONTINUOUS
 62
     7
 10
485.8333333333332
 20
-89.82169566045943
 30
0.0
  0
VERTEX
  5
51A
  8
1
  6
CONTINUOUS
 62
     7
 10
484.2481189665998
 20
-73.44038491597232
 30
0.0
  0
VERTEX
  5
51B
  8
1
  6
CONTINUOUS
 62
     7
 10
479.5533947655145
 20
-57.68859875665093
 30
0.0
  0
VERTEX
  5
51C
  8
1
  6
CONTINUOUS
 62
     7
 10
471.9295763482934
 20
-43.17166949089452
 30
0.0
  0
VERTEX
  5
51D
  8
1
  6
CONTINUOUS
 62
     7
 10
461.6696427812236
 20
-30.44747456919843
 30
0.0
  0
VERTEX
  5
51E
  8
1
  6
CONTINUOUS
 62
     7
 10
449.1678775574506
 20
-20.0049976665927
 30
0.0
  0
VERTEX
  5
51F
  8
1
  6
CONTINUOUS
 62
     7
 10
434.9047165034533
 20
-12.24553731423595
 30
0.0
  0
VERTEX
  5
520
  8
1
  6
CONTINUOUS
 62
     7
 10
419.4282848996639
 20
-7.467285221913755
 30
0.0
  0
VERTEX
  5
521
  8
1
  6
CONTINUOUS
 62
     7
 10
403.3333333333333
 20
-5.853866937859408
 30
0.0
  0
VERTEX
  5
522
  8
1
  6
CONTINUOUS
 62
     7
 10
387.2383817670027
 20
-7.467285221913727
 30
0.0
  0
VERTEX
  5
523
  8
1
  6
CONTINUOUS
 62
     7
 10
371.7619501632133
 20
-12.2455373142359
 30
0.0
  0
VERTEX
  5
524
  8
1
  6
CONTINUOUS
 62
     7
 10
357.498789109216
 20
-20.00499766659264
 30
0.0
  0
VERTEX
  5
525
  8
1
  6
CONTINUOUS
 62
     7
 10
344.997023885443
 20
-30.44747456919837
 30
0.0
  0
VERTEX
  5
526
  8
1
  6
CONTINUOUS
 62
     7
 10
334.7370903183732
 20
-43.17166949089445
 30
0.0
  0
VERTEX
  5
527
  8
1
  6
CONTINUOUS
 62
     7
 10
327.113271901152
 20
-57.68859875665086
 30
0.0
  0
VERTEX
  5
528
  8
1
  6
CONTINUOUS
 62
     7
 10
322.4185477000667
 20
-73.44038491597229
 30
0.0
  0
VERTEX
  5
529
  8
1
  6
CONTINUOUS
 62
     7
 10
320.8333333333333
 20
-89.82169566045934
 30
0.0
  0
SEQEND
  5
5C3
  8
1
  6
CONTINUOUS
 62
     7
  0
LINE
  5
1F3
  8
1
  6
CONTINUOUS
 62
     7
 10
307.8790911207263
 20
-136.3216956604594
 30
0.0
 11
307.3333333333334
 21
-136.3216956604594
 31
0.0
  0
LINE
  5
1F4
  8
1
  6
CONTINUOUS
 62
     7
 10
471.1512640209507
 20
-114.8216956604594
 30
0.0
 11
471.1512640209507
 21
-116.11762757752
 31
0.0
  0
LINE
  5
1F5
  8
1
  6
CONTINUOUS
 62
     7
 10
486.3333333333334
 20
-121.0328956843178
 30
0.0
 11
486.3333333333334
 21
-89.82169566045941
 31
0.0
  0
LINE
  5
1F6
  8
1
  6
CONTINUOUS
 62
     7
 10
499.3333333333334
 20
-136.3216956604594
 30
0.0
 11
498.7144225416312
 21
-134.907042422283
 31
0.0
  0
LINE
  5
1F7
  8
1
  6
CONTINUOUS
 62
     7
 10
498.7875755459405
 20
-136.3216956604594
 30
0.0
 11
499.3333333333334
 21
-136.3216956604594
 31
0.0
  0
LINE
  5
1F8
  8
1
  6
CONTINUOUS
 62
     7
 10
493.1333333333334
 20
-121.3542894891612
 30
0.0
 11
510.0865325292505
 21
-121.3542894891612
 31
0.0
  0
LINE
  5
1F9
  8
1
  6
CONTINUOUS
 62
     7
 10
493.1333333333334
 20
-121.0328956843178
 30
0.0
 11
509.7035103076911
 21
-121.0328956843178
 31
0.0
  0
LINE
  5
1FA
  8
1
  6
CONTINUOUS
 62
     7
 10
296.5801341374163
 20
-121.3542894891612
 30
0.0
 11
308.0004427192919
 21
-134.9644832701459
 31
0.0
  0
LINE
  5
1FB
  8
1
  6
CONTINUOUS
 62
     7
 10
399.3333333333334
 20
-116.0716965263832
 30
0.0
 11
399.3333333333334
 21
-114.8216956604594
 31
0.0
  0
LINE
  5
1FC
  8
1
  6
CONTINUOUS
 62
     7
 10
354.3333333333334
 20
-40.32169566045941
 30
0.0
 11
354.3728894483893
 21
-40.32169566045941
 31
0.0
  0
POLYLINE
  5
1FD
  8
1
  6
CONTINUOUS
 62
     7
 66
     1
 10
0.0
 20
0.0
 30
0.0
  0
VERTEX
  5
52A
  8
1
  6
CONTINUOUS
 62
     7
 10
339.5154026457161
 20
-114.8216956604594
 30
0.0
  0
VERTEX
  5
52B
  8
1
  6
CONTINUOUS
 62
     7
 10
339.5057952859177
 20
-114.6266053384433
 30
0.0
  0
VERTEX
  5
52C
  8
1
  6
CONTINUOUS
 62
     7
 10
339.4773424119717
 20
-114.4390122280943
 30
0.0
  0
VERTEX
  5
52D
  8
1
  6
CONTINUOUS
 62
     7
 10
339.4311374518674
 20
-114.2661254274398
 30
0.0
  0
VERTEX
  5
52E
  8
1
  6
CONTINUOUS
 62
     7
 10
339.3689560363094
 20
-114.1145888792728
 30
0.0
  0
VERTEX
  5
52F
  8
1
  6
CONTINUOUS
 62
     7
 10
339.2931877622259
 20
-113.9902260481569
 30
0.0
  0
VERTEX
  5
530
  8
1
  6
CONTINUOUS
 62
     7
 10
339.2067443618986
 20
-113.8978161279481
 30
0.0
  0
VERTEX
  5
531
  8
1
  6
CONTINUOUS
 62
     7
 10
339.1129478067242
 20
-113.8409103800562
 30
0.0
  0
VERTEX
  5
532
  8
1
  6
CONTINUOUS
 62
     7
 10
339.0154026457161
 20
-113.8216956604594
 30
0.0
  0
SEQEND
  5
5C4
  8
1
  6
CONTINUOUS
 62
     7
  0
LINE
  5
1FE
  8
1
  6
CONTINUOUS
 62
     7
 10
471.7937772182775
 20
-63.3216956604594
 30
0.0
 11
471.8333333333334
 21
-63.3216956604594
 31
0.0
  0
LINE
  5
1FF
  8
1
  6
CONTINUOUS
 62
     7
 10
368.8707052453721
 20
-28.82169566045942
 30
0.0
 11
368.8333333333334
 21
-28.82169566045942
 31
0.0
  0
LINE
  5
200
  8
1
  6
CONTINUOUS
 62
     7
 10
313.5333333333334
 20
-121.3542894891612
 30
0.0
 11
493.1333333333334
 21
-121.3542894891612
 31
0.0
  0
ARC
  5
201
  8
1
  6
CONTINUOUS
 62
     7
 10
403.3333333333334
 20
-94.8216956604594
 30
0.0
 40
82.00000000000001
 50
0.0000000000000097
 51
25.80387588302096
  0
LINE
  5
202
  8
1
  6
CONTINUOUS
 62
     7
 10
497.9001795042559
 20
-135.3216956604594
 30
0.0
 11
493.1333333333334
 21
-135.3216956604594
 31
0.0
  0
LINE
  5
203
  8
1
  6
CONTINUOUS
 62
     7
 10
467.6512640209507
 20
-113.8216956604594
 30
0.0
 11
470.6512640209507
 21
-113.8216956604594
 31
0.0
  0
POLYLINE
  5
204
  8
1
  6
CONTINUOUS
 62
     7
 66
     1
 10
0.0
 20
0.0
 30
0.0
  0
VERTEX
  5
533
  8
1
  6
CONTINUOUS
 62
     7
 10
336.0154026457161
 20
-113.8216956604594
 30
0.0
  0
VERTEX
  5
534
  8
1
  6
CONTINUOUS
 62
     7
 10
335.9178574847081
 20
-113.8409103800562
 30
0.0
  0
VERTEX
  5
535
  8
1
  6
CONTINUOUS
 62
     7
 10
335.8240609295336
 20
-113.8978161279481
 30
0.0
  0
VERTEX
  5
536
  8
1
  6
CONTINUOUS
 62
     7
 10
335.7376175292063
 20
-113.9902260481569
 30
0.0
  0
VERTEX
  5
537
  8
1
  6
CONTINUOUS
 62
     7
 10
335.6618492551228
 20
-114.1145888792729
 30
0.0
  0
VERTEX
  5
538
  8
1
  6
CONTINUOUS
 62
     7
 10
335.5996678395648
 20
-114.2661254274398
 30
0.0
  0
VERTEX
  5
539
  8
1
  6
CONTINUOUS
 62
     7
 10
335.5534628794605
 20
-114.4390122280943
 30
0.0
  0
VERTEX
  5
53A
  8
1
  6
CONTINUOUS
 62
     7
 10
335.5250100055145
 20
-114.6266053384433
 30
0.0
  0
VERTEX
  5
53B
  8
1
  6
CONTINUOUS
 62
     7
 10
335.5154026457161
 20
-114.8216956604595
 30
0.0
  0
SEQEND
  5
5C5
  8
1
  6
CONTINUOUS
 62
     7
  0
LINE
  5
205
  8
1
  6
CONTINUOUS
 62
     7
 10
510.0865325292505
 20
-121.3542894891612
 30
0.0
 11
498.6662239473749
 21
-134.9644832701459
 31
0.0
  0
LINE
  5
206
  8
1
  6
CONTINUOUS
 62
     7
 10
493.1333333333334
 20
-135.3216956604594
 30
0.0
 11
313.5333333333334
 21
-135.3216956604594
 31
0.0
  0
POLYLINE
  5
207
  8
1
  6
CONTINUOUS
 62
     7
 66
     1
 10
0.0
 20
0.0
 30
0.0
  0
VERTEX
  5
53C
  8
1
  6
CONTINUOUS
 62
     7
 10
467.6512640209508
 20
-113.8216956604594
 30
0.0
  0
VERTEX
  5
53D
  8
1
  6
CONTINUOUS
 62
     7
 10
467.5537188599428
 20
-113.8409103800561
 30
0.0
  0
VERTEX
  5
53E
  8
1
  6
CONTINUOUS
 62
     7
 10
467.4599223047683
 20
-113.897816127948
 30
0.0
  0
VERTEX
  5
53F
  8
1
  6
CONTINUOUS
 62
     7
 10
467.373478904441
 20
-113.9902260481568
 30
0.0
  0
VERTEX
  5
540
  8
1
  6
CONTINUOUS
 62
     7
 10
467.2977106303575
 20
-114.1145888792728
 30
0.0
  0
VERTEX
  5
541
  8
1
  6
CONTINUOUS
 62
     7
 10
467.2355292147995
 20
-114.2661254274397
 30
0.0
  0
VERTEX
  5
542
  8
1
  6
CONTINUOUS
 62
     7
 10
467.1893242546951
 20
-114.4390122280942
 30
0.0
  0
VERTEX
  5
543
  8
1
  6
CONTINUOUS
 62
     7
 10
467.1608713807491
 20
-114.6266053384432
 30
0.0
  0
VERTEX
  5
544
  8
1
  6
CONTINUOUS
 62
     7
 10
467.1512640209507
 20
-114.8216956604593
 30
0.0
  0
SEQEND
  5
5C6
  8
1
  6
CONTINUOUS
 62
     7
  0
LINE
  5
208
  8
1
  6
CONTINUOUS
 62
     7
 10
320.8333333333334
 20
-89.82169566045938
 30
0.0
 11
320.8333333333334
 21
-121.0328956843178
 31
0.0
  0
LINE
  5
209
  8
1
  6
CONTINUOUS
 62
     7
 10
308.3552896306045
 20
-135.233241923595
 30
0.0
 11
307.8790911207263
 21
-136.3216956604594
 31
0.0
  0
LINE
  5
20A
  8
1
  6
CONTINUOUS
 62
     7
 10
335.0823899438239
 20
-116.1530726058169
 30
0.0
 11
335.0823899438239
 21
-114.8216956604594
 31
0.0
  0
LINE
  5
20B
  8
1
  6
CONTINUOUS
 62
     7
 10
471.584276722843
 20
-116.1530726058169
 30
0.0
 11
471.584276722843
 21
-114.8216956604594
 31
0.0
  0
LINE
  5
20C
  8
1
  6
CONTINUOUS
 62
     7
 10
464.2937772182775
 20
-51.82169566045941
 30
0.0
 11
464.3333333333334
 21
-51.82169566045941
 31
0.0
  0
LINE
  5
20D
  8
1
  6
CONTINUOUS
 62
     7
 10
296.9631563589757
 20
-121.0328956843178
 30
0.0
 11
296.5801341374163
 21
-121.3542894891612
 31
0.0
  0
LINE
  5
20E
  8
1
  6
CONTINUOUS
 62
     7
 10
509.7035103076911
 20
-121.0328956843178
 30
0.0
 11
510.0865325292505
 21
-121.3542894891612
 31
0.0
  0
ARC
  5
20F
  8
1
  6
CONTINUOUS
 62
     7
 10
403.3333333333334
 20
-94.8216956604594
 30
0.0
 40
76.00000000000004
 50
63.9478403406718
 51
116.0521596593282
  0
ARC
  5
210
  8
1
  6
CONTINUOUS
 62
     7
 10
497.9001795042559
 20
-134.3216956604594
 30
0.0
 40
1.000000000000001
 50
270.0
 51
319.9999999999998
  0
LINE
  5
211
  8
1
  6
CONTINUOUS
 62
     7
 10
313.5333333333334
 20
-135.3216956604594
 30
0.0
 11
308.7664871624109
 21
-135.3216956604594
 31
0.0
  0
ARC
  5
212
  8
1
  6
CONTINUOUS
 62
     7
 10
400.3333333333334
 20
-114.8216956604594
 30
0.0
 40
1.000000000000001
 50
90.00000000000001
 51
180.0
  0
ARC
  5
213
  8
1
  6
CONTINUOUS
 62
     7
 10
363.8333333333334
 20
-40.3216956604594
 30
0.0
 40
9.499999999999995
 50
89.99999999999996
 51
180.0000000000001
  0
LINE
  5
214
  8
1
  6
CONTINUOUS
 62
     7
 10
462.3333333333335
 20
-53.8216956604594
 30
0.0
 11
344.3333333333334
 21
-53.8216956604594
 31
0.0
  0
LINE
  5
215
  8
1
  6
CONTINUOUS
 62
     7
 10
406.3333333333334
 20
-113.8216956604594
 30
0.0
 11
400.3333333333334
 21
-113.8216956604594
 31
0.0
  0
ARC
  5
216
  8
1
  6
CONTINUOUS
 62
     7
 10
406.3333333333334
 20
-114.8216956604594
 30
0.0
 40
1.000000000000001
 50
0.0
 51
90.00000000000001
  0
ARC
  5
217
  8
1
  6
CONTINUOUS
 62
     7
 10
351.8333333333334
 20
-51.8216956604594
 30
0.0
 40
9.499999999999995
 50
89.99999999999996
 51
180.0000000000001
  0
LINE
  5
218
  8
1
  6
CONTINUOUS
 62
     7
 10
313.5333333333334
 20
-121.0328956843178
 30
0.0
 11
493.1333333333334
 21
-121.0328956843178
 31
0.0
  0
LINE
  5
219
  8
1
  6
CONTINUOUS
 62
     7
 10
452.2937772182775
 20
-40.32169566045941
 30
0.0
 11
452.3333333333334
 21
-40.32169566045941
 31
0.0
  0
LINE
  5
21A
  8
1
  6
CONTINUOUS
 62
     7
 10
296.5801341374163
 20
-121.3542894891612
 30
0.0
 11
313.5333333333334
 21
-121.3542894891612
 31
0.0
  0
POLYLINE
  5
21B
  8
1
  6
CONTINUOUS
 62
     7
 66
     1
 10
0.0
 20
0.0
 30
0.0
  0
VERTEX
  5
545
  8
1
  6
CONTINUOUS
 62
     7
 10
471.584276722843
 20
-114.8216956604594
 30
0.0
  0
VERTEX
  5
546
  8
1
  6
CONTINUOUS
 62
     7
 10
471.5746693630446
 20
-114.6266053384432
 30
0.0
  0
VERTEX
  5
547
  8
1
  6
CONTINUOUS
 62
     7
 10
471.5462164890986
 20
-114.4390122280943
 30
0.0
  0
VERTEX
  5
548
  8
1
  6
CONTINUOUS
 62
     7
 10
471.5000115289942
 20
-114.2661254274398
 30
0.0
  0
VERTEX
  5
549
  8
1
  6
CONTINUOUS
 62
     7
 10
471.4378301134362
 20
-114.1145888792728
 30
0.0
  0
VERTEX
  5
54A
  8
1
  6
CONTINUOUS
 62
     7
 10
471.3620618393527
 20
-113.9902260481568
 30
0.0
  0
VERTEX
  5
54B
  8
1
  6
CONTINUOUS
 62
     7
 10
471.2756184390255
 20
-113.8978161279481
 30
0.0
  0
VERTEX
  5
54C
  8
1
  6
CONTINUOUS
 62
     7
 10
471.181821883851
 20
-113.8409103800561
 30
0.0
  0
VERTEX
  5
54D
  8
1
  6
CONTINUOUS
 62
     7
 10
471.084276722843
 20
-113.8216956604594
 30
0.0
  0
SEQEND
  5
5C7
  8
1
  6
CONTINUOUS
 62
     7
  0
LINE
  5
21C
  8
1
  6
CONTINUOUS
 62
     7
 10
335.5154026457161
 20
-114.8216956604594
 30
0.0
 11
335.5154026457161
 21
-116.11762757752
 31
0.0
  0
LINE
  5
21D
  8
1
  6
CONTINUOUS
 62
     7
 10
336.0154026457162
 20
-113.8216956604594
 30
0.0
 11
339.0154026457162
 21
-113.8216956604594
 31
0.0
  0
LINE
  5
21E
  8
1
  6
CONTINUOUS
 62
     7
 10
335.5823899438239
 20
-113.8216956604594
 30
0.0
 11
336.0154026457162
 21
-113.8216956604594
 31
0.0
  0
LINE
  5
21F
  8
1
  6
CONTINUOUS
 62
     7
 10
498.3113770360623
 20
-135.2332419235949
 30
0.0
 11
498.7875755459405
 21
-136.3216956604594
 31
0.0
  0
LINE
  5
220
  8
1
  6
CONTINUOUS
 62
     7
 10
407.3333333333334
 20
-116.0716965263832
 30
0.0
 11
407.3333333333334
 21
-114.8216956604594
 31
0.0
  0
LINE
  5
221
  8
1
  6
CONTINUOUS
 62
     7
 10
467.1512640209507
 20
-114.8216956604594
 30
0.0
 11
467.1512640209507
 21
-116.0716965263832
 31
0.0
  0
LINE
  5
222
  8
1
  6
CONTINUOUS
 62
     7
 10
485.8333333333334
 20
-89.82169566045938
 30
0.0
 11
485.8333333333334
 21
-121.0328956843178
 31
0.0
  0
LINE
  5
223
  8
1
  6
CONTINUOUS
 62
     7
 10
307.3333333333334
 20
-136.3216956604594
 30
0.0
 11
307.9522441250356
 21
-134.907042422283
 31
0.0
  0
LINE
  5
224
  8
1
  6
CONTINUOUS
 62
     7
 10
320.3333333333335
 20
-121.0328956843178
 30
0.0
 11
320.3333333333335
 21
-89.82169566045941
 31
0.0
  0
POLYLINE
  5
225
  8
1
  6
CONTINUOUS
 62
     7
 66
     1
 10
0.0
 20
0.0
 30
0.0
  0
VERTEX
  5
54E
  8
1
  6
CONTINUOUS
 62
     7
 10
471.1512640209507
 20
-114.8216956604594
 30
0.0
  0
VERTEX
  5
54F
  8
1
  6
CONTINUOUS
 62
     7
 10
471.1416566611524
 20
-114.6266053384432
 30
0.0
  0
VERTEX
  5
550
  8
1
  6
CONTINUOUS
 62
     7
 10
471.1132037872064
 20
-114.4390122280943
 30
0.0
  0
VERTEX
  5
551
  8
1
  6
CONTINUOUS
 62
     7
 10
471.066998827102
 20
-114.2661254274398
 30
0.0
  0
VERTEX
  5
552
  8
1
  6
CONTINUOUS
 62
     7
 10
471.004817411544
 20
-114.1145888792728
 30
0.0
  0
VERTEX
  5
553
  8
1
  6
CONTINUOUS
 62
     7
 10
470.9290491374605
 20
-113.9902260481568
 30
0.0
  0
VERTEX
  5
554
  8
1
  6
CONTINUOUS
 62
     7
 10
470.8426057371333
 20
-113.8978161279481
 30
0.0
  0
VERTEX
  5
555
  8
1
  6
CONTINUOUS
 62
     7
 10
470.7488091819588
 20
-113.8409103800561
 30
0.0
  0
VERTEX
  5
556
  8
1
  6
CONTINUOUS
 62
     7
 10
470.6512640209507
 20
-113.8216956604594
 30
0.0
  0
SEQEND
  5
5C8
  8
1
  6
CONTINUOUS
 62
     7
  0
LINE
  5
226
  8
1
  6
CONTINUOUS
 62
     7
 10
498.7875755459405
 20
-136.3216956604593
 30
0.0
 11
307.8790911207263
 21
-136.3216956604593
 31
0.0
  0
LINE
  5
227
  8
1
  6
CONTINUOUS
 62
     7
 10
475.0829574539805
 20
-49.70198913733572
 30
0.0
 11
475.068540159802
 21
-49.82781117779258
 31
0.0
  0
ARC
  5
228
  8
1
  6
CONTINUOUS
 62
     7
 10
505.0677207715938
 20
-38.00154838285845
 30
0.0
 40
32.24610564198021
 50
201.5153272249229
 51
212.5290587046873
  0
POLYLINE
  5
229
  8
1
  6
CONTINUOUS
 62
     7
 66
     1
 10
0.0
 20
0.0
 30
0.0
  0
VERTEX
  5
557
  8
1
  6
CONTINUOUS
 62
     7
 10
477.880421747064
 20
-55.34115912890898
 30
0.0
  0
VERTEX
  5
558
  8
1
  6
CONTINUOUS
 62
     7
 10
477.9602115140084
 20
-55.41174252691892
 30
0.0
  0
VERTEX
  5
559
  8
1
  6
CONTINUOUS
 62
     7
 10
477.989705431924
 20
-55.41386085543088
 30
0.0
  0
SEQEND
  5
5C9
  8
1
  6
CONTINUOUS
 62
     7
  0
LINE
  5
22A
  8
1
  6
CONTINUOUS
 62
     7
 10
331.5837092126861
 20
-49.70198913733551
 30
0.0
 11
328.6769612347426
 21
-55.41386085543055
 31
0.0
  0
LINE
  5
22B
  8
1
  6
CONTINUOUS
 62
     7
 10
328.6769612347425
 20
-55.41386085543063
 30
0.0
 11
328.7822487675895
 21
-55.34566136025291
 31
0.0
  0
ARC
  5
22C
  8
1
  6
CONTINUOUS
 62
     7
 10
302.2147128592095
 20
-38.34417722899635
 30
0.0
 40
31.54178858131595
 50
327.383417350724
 51
338.700146819807
  0
LINE
  5
22D
  8
1
  6
CONTINUOUS
 62
     7
 10
331.6019499426409
 20
-49.80169543804255
 30
0.0
 11
331.5837092126861
 21
-49.70198913733552
 31
0.0
  0
LINE
  5
22E
  8
1
  6
CONTINUOUS
 62
     7
 10
477.9897054319236
 20
-55.41386085542998
 30
0.0
 11
475.08295745398
 21
-49.70198913733481
 31
0.0
  0
LINE
  5
22F
  8
1
  6
CONTINUOUS
 62
     7
 10
328.8281985909186
 20
79.37982470606202
 30
0.0
 11
329.7681610541746
 21
78.30993293129193
 31
0.0
  0
LINE
  5
230
  8
1
  6
CONTINUOUS
 62
     7
 10
328.9224467754859
 20
79.75461726200297
 30
0.0
 11
329.8192502230094
 21
78.76110665513892
 31
0.0
  0
LINE
  5
231
  8
1
  6
CONTINUOUS
 62
     7
 10
476.8985056124922
 20
78.30993293129194
 30
0.0
 11
477.8391127532997
 21
79.38069851884345
 31
0.0
  0
LINE
  5
232
  8
1
  6
CONTINUOUS
 62
     7
 10
476.8474164436573
 20
78.3099329312919
 30
0.0
 11
476.8474164436573
 21
81.32609106716022
 31
0.0
  0
LINE
  5
233
  8
1
  6
CONTINUOUS
 62
     7
 10
476.8474164436574
 20
78.76110665513895
 30
0.0
 11
477.7433747628809
 21
79.75351669907057
 31
0.0
  0
LINE
  5
234
  8
1
  6
CONTINUOUS
 62
     7
 10
510.0865325292505
 20
51.30993293129188
 30
0.0
 11
510.0865325292505
 21
69.80993293129187
 31
0.0
  0
LINE
  5
235
  8
1
  6
CONTINUOUS
 62
     7
 10
509.7035103076911
 20
51.30993293129189
 30
0.0
 11
509.7035103076911
 21
69.80993293129188
 31
0.0
  0
LINE
  5
236
  8
1
  6
CONTINUOUS
 62
     7
 10
509.7035103076911
 20
69.80993293129188
 30
0.0
 11
510.0865325292505
 21
69.80993293129187
 31
0.0
  0
LINE
  5
237
  8
1
  6
CONTINUOUS
 62
     7
 10
329.8192502230094
 20
78.30993293129187
 30
0.0
 11
329.8192502230094
 21
81.32646479038493
 31
0.0
  0
LINE
  5
238
  8
1
  6
CONTINUOUS
 62
     7
 10
709.6876228224946
 20
51.30993293129189
 30
0.0
 11
709.6876228224946
 21
69.80993293129188
 31
0.0
  0
LINE
  5
239
  8
1
  6
CONTINUOUS
 62
     7
 10
313.5333333333334
 20
34.7397559569342
 30
0.0
 11
493.1333333333334
 21
34.7397559569342
 31
0.0
  0
ARC
  5
23A
  8
1
  6
CONTINUOUS
 62
     7
 10
333.2863598895103
 20
78.28813085728069
 30
0.0
 40
4.609450215481953
 50
138.7320877801254
 51
179.7289977275425
  0
POLYLINE
  5
23B
  8
1
  6
CONTINUOUS
 62
     7
 66
     1
 10
0.0
 20
0.0
 30
0.0
  0
VERTEX
  5
55A
  8
1
  6
CONTINUOUS
 62
     7
 10
329.8217420396712
 20
81.32843584914949
 30
0.0
  0
VERTEX
  5
55B
  8
1
  6
CONTINUOUS
 62
     7
 10
329.9449564717809
 20
81.4079355611049
 30
0.0
  0
VERTEX
  5
55C
  8
1
  6
CONTINUOUS
 62
     7
 10
330.0690398797249
 20
81.46460451863442
 30
0.0
  0
VERTEX
  5
55D
  8
1
  6
CONTINUOUS
 62
     7
 10
330.0984312178508
 20
81.4747008580529
 30
0.0
  0
SEQEND
  5
5CA
  8
1
  6
CONTINUOUS
 62
     7
  0
POLYLINE
  5
23C
  8
1
  6
CONTINUOUS
 62
     7
 66
     1
 10
0.0
 20
0.0
 30
0.0
  0
VERTEX
  5
55E
  8
1
  6
CONTINUOUS
 62
     7
 10
329.8824305146616
 20
81.50993293129187
 30
0.0
  0
VERTEX
  5
55F
  8
1
  6
CONTINUOUS
 62
     7
 10
329.759992880506
 20
81.49889839575617
 30
0.0
  0
VERTEX
  5
560
  8
1
  6
CONTINUOUS
 62
     7
 10
329.6374544761621
 20
81.46593848588606
 30
0.0
  0
VERTEX
  5
561
  8
1
  6
CONTINUOUS
 62
     7
 10
329.5121562105437
 20
81.40928146183103
 30
0.0
  0
VERTEX
  5
562
  8
1
  6
CONTINUOUS
 62
     7
 10
329.3885579595932
 20
81.33004070930444
 30
0.0
  0
VERTEX
  5
563
  8
1
  6
CONTINUOUS
 62
     7
 10
329.2709170542288
 20
81.23185768730025
 30
0.0
  0
SEQEND
  5
5CB
  8
1
  6
CONTINUOUS
 62
     7
  0
ARC
  5
23D
  8
1
  6
CONTINUOUS
 62
     7
 10
333.0810677396959
 20
78.2460466809034
 30
0.0
 40
4.840693711844033
 50
141.9161022187568
 51
179.2438028504792
  0
CIRCLE
  5
23E
  8
1
  6
CONTINUOUS
 62
     7
 10
403.3333333333334
 20
253.8099329312918
 30
0.0
 40
2.100000000000007
  0
LINE
  5
23F
  8
1
  6
CONTINUOUS
 62
     7
 10
308.3834649408514
 20
69.80993293129191
 30
0.0
 11
296.9631563589757
 21
69.80993293129191
 31
0.0
  0
LINE
  5
240
  8
1
  6
CONTINUOUS
 62
     7
 10
296.5801341374163
 20
69.80993293129193
 30
0.0
 11
296.5801341374163
 21
51.30993293129183
 31
0.0
  0
LINE
  5
241
  8
1
  6
CONTINUOUS
 62
     7
 10
477.1445833333333
 20
78.5577321237428
 30
0.0
 11
477.1445833333333
 21
78.30993293129193
 31
0.0
  0
LINE
  5
242
  8
1
  6
CONTINUOUS
 62
     7
 10
498.2832017258153
 20
69.80993293129188
 30
0.0
 11
497.9001795042558
 21
69.80993293129188
 31
0.0
  0
LINE
  5
243
  8
1
  6
CONTINUOUS
 62
     7
 10
313.3333333333334
 20
71.30993293129197
 30
0.0
 11
313.3333333333334
 21
70.309932931292
 31
0.0
  0
LINE
  5
244
  8
1
  6
CONTINUOUS
 62
     7
 10
313.3333333333334
 20
69.80993293129188
 30
0.0
 11
313.3333333333334
 21
70.309932931292
 31
0.0
  0
LINE
  5
245
  8
1
  6
CONTINUOUS
 62
     7
 10
320.3333333333334
 20
71.30993293129188
 30
0.0
 11
320.3333333333335
 21
166.3099329312919
 31
0.0
  0
LINE
  5
246
  8
1
  6
CONTINUOUS
 62
     7
 10
486.3333333333332
 20
71.30993293129188
 30
0.0
 11
320.3333333333335
 21
71.30993293129188
 31
0.0
  0
ARC
  5
247
  8
1
  6
CONTINUOUS
 62
     7
 10
493.1333333333334
 20
51.30993293129189
 30
0.0
 40
16.5701769743577
 50
270.0
 51
0.0
  0
POLYLINE
  5
248
  8
1
  6
CONTINUOUS
 62
     7
 66
     1
 10
0.0
 20
0.0
 30
0.0
  0
VERTEX
  5
564
  8
1
  6
CONTINUOUS
 62
     7
 10
476.7842368489971
 20
81.50993293129153
 30
0.0
  0
VERTEX
  5
565
  8
1
  6
CONTINUOUS
 62
     7
 10
476.6221879009695
 20
81.49025696983551
 30
0.0
  0
VERTEX
  5
566
  8
1
  6
CONTINUOUS
 62
     7
 10
476.503229240504
 20
81.44987762136144
 30
0.0
  0
VERTEX
  5
567
  8
1
  6
CONTINUOUS
 62
     7
 10
476.3872782774998
 20
81.38789974896252
 30
0.0
  0
VERTEX
  5
568
  8
1
  6
CONTINUOUS
 62
     7
 10
476.2720305855485
 20
81.30196989091286
 30
0.0
  0
VERTEX
  5
569
  8
1
  6
CONTINUOUS
 62
     7
 10
476.161798311872
 20
81.1942828867727
 30
0.0
  0
SEQEND
  5
5CC
  8
1
  6
CONTINUOUS
 62
     7
  0
ARC
  5
249
  8
1
  6
CONTINUOUS
 62
     7
 10
479.7035904185183
 20
78.88951106026113
 30
0.0
 40
4.22566734362557
 50
146.9464953849259
 51
187.8833436658803
  0
CIRCLE
  5
24A
  8
1
  6
CONTINUOUS
 62
     7
 10
492.0833333333336
 20
119.3099329312919
 30
0.0
 40
2.100000000000018
  0
LINE
  5
24B
  8
1
  6
CONTINUOUS
 62
     7
 10
495.1793177585476
 20
71.30993293129188
 30
0.0
 11
486.8333333333334
 21
71.30993293129188
 31
0.0
  0
LINE
  5
24C
  8
1
  6
CONTINUOUS
 62
     7
 10
496.0954750934497
 20
71.30993293129188
 30
0.0
 11
495.1793177585475
 21
71.30993293129188
 31
0.0
  0
LINE
  5
24D
  8
1
  6
CONTINUOUS
 62
     7
 10
499.3333333333334
 20
71.30993293129188
 30
0.0
 11
496.0954750934497
 21
71.30993293129188
 31
0.0
  0
ARC
  5
24E
  8
1
  6
CONTINUOUS
 62
     7
 10
493.1333333333334
 20
51.30993293129189
 30
0.0
 40
16.95319919591706
 50
269.9999999999999
 51
359.9999999999999
  0
LINE
  5
24F
  8
1
  6
CONTINUOUS
 62
     7
 10
320.3333333333334
 20
71.30993293129188
 30
0.0
 11
319.8333333333334
 21
71.30993293129188
 31
0.0
  0
LINE
  5
250
  8
1
  6
CONTINUOUS
 62
     7
 10
499.3333333333334
 20
166.3099329312919
 30
0.0
 11
499.3333333333334
 21
71.3099329312919
 31
0.0
  0
ARC
  5
251
  8
1
  6
CONTINUOUS
 62
     7
 10
473.0483783379807
 20
78.30993293129187
 30
0.0
 40
3.500000000000003
 50
0.0
 51
38.99137674948088
  0
LINE
  5
252
  8
1
  6
CONTINUOUS
 62
     7
 10
709.6876228224946
 20
34.35673373537485
 30
0.0
 11
723.2978166034793
 21
45.77704231725043
 31
0.0
  0
LINE
  5
253
  8
1
  6
CONTINUOUS
 62
     7
 10
709.3662290176512
 20
51.3099329312919
 30
0.0
 11
709.3662290176512
 21
69.8099329312919
 31
0.0
  0
LINE
  5
254
  8
1
  6
CONTINUOUS
 62
     7
 10
709.3662290176512
 20
34.73975595693421
 30
0.0
 11
709.6876228224946
 21
34.35673373537485
 31
0.0
  0
LINE
  5
255
  8
1
  6
CONTINUOUS
 62
     7
 10
328.2407956234924
 20
78.30993293129193
 30
0.0
 11
331.1488084052989
 21
78.30993293129194
 31
0.0
  0
ARC
  5
256
  8
1
  6
CONTINUOUS
 62
     7
 10
313.5333333333333
 20
51.30993293129189
 30
0.0
 40
16.57017697435768
 50
180.0000000000003
 51
270.0000000000002
  0
LINE
  5
257
  8
1
  6
CONTINUOUS
 62
     7
 10
311.4873489081193
 20
71.30993293129187
 30
0.0
 11
319.8333333333335
 21
71.30993293129188
 31
0.0
  0
LINE
  5
258
  8
1
  6
CONTINUOUS
 62
     7
 10
307.3333333333334
 20
71.30993293129187
 30
0.0
 11
307.3333333333334
 21
166.3099329312919
 31
0.0
  0
ARC
  5
259
  8
1
  6
CONTINUOUS
 62
     7
 10
333.6182883286861
 20
78.30993293129188
 30
0.0
 40
3.500000000000002
 50
141.0040076733417
 51
180.0
  0
LINE
  5
25A
  8
1
  6
CONTINUOUS
 62
     7
 10
313.5333333333334
 20
34.35673373537483
 30
0.0
 11
493.1333333333334
 21
34.35673373537483
 31
0.0
  0
POLYLINE
  5
25B
  8
1
  6
CONTINUOUS
 62
     7
 66
     1
 10
0.0
 20
0.0
 30
0.0
  0
VERTEX
  5
56A
  8
1
  6
CONTINUOUS
 62
     7
 10
641.5257392609689
 20
81.38759317508368
 30
0.0
  0
VERTEX
  5
56B
  8
1
  6
CONTINUOUS
 62
     7
 10
641.051003714116
 20
81.20386409422221
 30
0.0
  0
VERTEX
  5
56C
  8
1
  6
CONTINUOUS
 62
     7
 10
640.6131707452317
 20
80.92340396712261
 30
0.0
  0
VERTEX
  5
56D
  8
1
  6
CONTINUOUS
 62
     7
 10
640.2268751326762
 20
80.55558730893226
 30
0.0
  0
VERTEX
  5
56E
  8
1
  6
CONTINUOUS
 62
     7
 10
639.9050289937927
 20
80.11270856902381
 30
0.0
  0
SEQEND
  5
5CD
  8
1
  6
CONTINUOUS
 62
     7
  0
LINE
  5
25C
  8
1
  6
CONTINUOUS
 62
     7
 10
307.3333333333334
 20
71.30993293129187
 30
0.0
 11
310.571191573217
 21
71.30993293129187
 31
0.0
  0
LINE
  5
25D
  8
1
  6
CONTINUOUS
 62
     7
 10
709.6876228224946
 20
34.35673373537485
 30
0.0
 11
709.6876228224946
 21
51.30993293129189
 31
0.0
  0
ARC
  5
25E
  8
1
  6
CONTINUOUS
 62
     7
 10
403.3333333333334
 20
166.3099329312919
 30
0.0
 40
95.99999999999997
 50
0.0
 51
180.0
  0
ARC
  5
25F
  8
1
  6
CONTINUOUS
 62
     7
 10
473.741453480285
 20
78.26746220158182
 30
0.0
 40
4.684610086910967
 50
0.5194513216240689
 51
40.53686024996257
  0
POLYLINE
  5
260
  8
1
  6
CONTINUOUS
 62
     7
 66
     1
 10
0.0
 20
0.0
 30
0.0
  0
VERTEX
  5
56F
  8
1
  6
CONTINUOUS
 62
     7
 10
477.3017009173791
 20
81.31216413330729
 30
0.0
  0
VERTEX
  5
570
  8
1
  6
CONTINUOUS
 62
     7
 10
477.1788236741412
 20
81.39556625855572
 30
0.0
  0
VERTEX
  5
571
  8
1
  6
CONTINUOUS
 62
     7
 10
477.0558412714171
 20
81.45584601653661
 30
0.0
  0
VERTEX
  5
572
  8
1
  6
CONTINUOUS
 62
     7
 10
476.9334506748942
 20
81.49357508205891
 30
0.0
  0
VERTEX
  5
573
  8
1
  6
CONTINUOUS
 62
     7
 10
476.8093120069412
 20
81.50945693297602
 30
0.0
  0
VERTEX
  5
574
  8
1
  6
CONTINUOUS
 62
     7
 10
476.7842368489971
 20
81.50993293129153
 30
0.0
  0
SEQEND
  5
5CE
  8
1
  6
CONTINUOUS
 62
     7
  0
LINE
  5
261
  8
1
  6
CONTINUOUS
 62
     7
 10
498.2832017258153
 20
69.80993293129188
 30
0.0
 11
509.7035103076911
 21
69.80993293129188
 31
0.0
  0
ARC
  5
262
  8
1
  6
CONTINUOUS
 62
     7
 10
313.5333333333333
 20
51.30993293129189
 30
0.0
 40
16.95319919591705
 50
180.0000000000002
 51
270.0000000000002
  0
LINE
  5
263
  8
1
  6
CONTINUOUS
 62
     7
 10
497.9001795042558
 20
69.80993293129188
 30
0.0
 11
493.3333333333334
 21
69.80993293129188
 31
0.0
  0
LINE
  5
264
  8
1
  6
CONTINUOUS
 62
     7
 10
486.3333333333334
 20
71.30993293129188
 30
0.0
 11
486.3333333333334
 21
166.3099329312919
 31
0.0
  0
LINE
  5
265
  8
1
  6
CONTINUOUS
 62
     7
 10
310.571191573217
 20
71.30993293129187
 30
0.0
 11
311.4873489081192
 21
71.30993293129187
 31
0.0
  0
LINE
  5
266
  8
1
  6
CONTINUOUS
 62
     7
 10
709.3662290176512
 20
69.8099329312919
 30
0.0
 11
709.6876228224946
 21
69.80993293129188
 31
0.0
  0
LINE
  5
267
  8
1
  6
CONTINUOUS
 62
     7
 10
296.9631563589757
 20
69.80993293129191
 30
0.0
 11
296.9631563589757
 21
51.30993293129181
 31
0.0
  0
LINE
  5
268
  8
1
  6
CONTINUOUS
 62
     7
 10
308.7664871624108
 20
69.80993293129188
 30
0.0
 11
308.3834649408514
 21
69.8099329312919
 31
0.0
  0
LINE
  5
269
  8
1
  6
CONTINUOUS
 62
     7
 10
486.3333333333334
 20
71.30993293129187
 30
0.0
 11
486.8333333333334
 21
71.30993293129187
 31
0.0
  0
LINE
  5
26A
  8
1
  6
CONTINUOUS
 62
     7
 10
709.6876228224946
 20
69.80993293129188
 30
0.0
 11
723.2978166034793
 21
69.8099329312919
 31
0.0
  0
ARC
  5
26B
  8
1
  6
CONTINUOUS
 62
     7
 10
326.9656394011056
 20
78.8806787539244
 30
0.0
 40
4.22192535600705
 50
352.2306159869691
 51
33.68633175610591
  0
POLYLINE
  5
26C
  8
1
  6
CONTINUOUS
 62
     7
 66
     1
 10
0.0
 20
0.0
 30
0.0
  0
VERTEX
  5
575
  8
1
  6
CONTINUOUS
 62
     7
 10
330.4786463243171
 20
81.22235252906135
 30
0.0
  0
VERTEX
  5
576
  8
1
  6
CONTINUOUS
 62
     7
 10
330.3682243484067
 20
81.32394943701289
 30
0.0
  0
VERTEX
  5
577
  8
1
  6
CONTINUOUS
 62
     7
 10
330.2512886482192
 20
81.40506615038277
 30
0.0
  0
VERTEX
  5
578
  8
1
  6
CONTINUOUS
 62
     7
 10
330.1308475471334
 20
81.46319954069169
 30
0.0
  0
VERTEX
  5
579
  8
1
  6
CONTINUOUS
 62
     7
 10
330.0075712701685
 20
81.49819395487931
 30
0.0
  0
VERTEX
  5
57A
  8
1
  6
CONTINUOUS
 62
     7
 10
329.8824305146616
 20
81.50993293129187
 30
0.0
  0
SEQEND
  5
5CF
  8
1
  6
CONTINUOUS
 62
     7
  0
POLYLINE
  5
26D
  8
1
  6
CONTINUOUS
 62
     7
 66
     1
 10
0.0
 20
0.0
 30
0.0
  0
VERTEX
  5
57B
  8
1
  6
CONTINUOUS
 62
     7
 10
476.567505205178
 20
81.4749350251703
 30
0.0
  0
VERTEX
  5
57C
  8
1
  6
CONTINUOUS
 62
     7
 10
476.7128941153691
 20
81.41272663451974
 30
0.0
  0
VERTEX
  5
57D
  8
1
  6
CONTINUOUS
 62
     7
 10
476.8349946804757
 20
81.33572559432268
 30
0.0
  0
VERTEX
  5
57E
  8
1
  6
CONTINUOUS
 62
     7
 10
476.9564342420987
 20
81.2355085093015
 30
0.0
  0
SEQEND
  5
5D0
  8
1
  6
CONTINUOUS
 62
     7
  0
ARC
  5
26E
  8
1
  6
CONTINUOUS
 62
     7
 10
473.1645659301168
 20
78.25101914755106
 30
0.0
 40
4.825499149913339
 50
0.6995328194926174
 51
38.20544211238331
  0
CIRCLE
  5
26F
  8
1
  6
CONTINUOUS
 62
     7
 10
315.0833333333331
 20
119.3099329312919
 30
0.0
 40
2.100000000000005
  0
LINE
  5
270
  8
1
  6
CONTINUOUS
 62
     7
 10
709.3662290176512
 20
34.73975595693421
 30
0.0
 11
709.3662290176512
 21
51.3099329312919
 31
0.0
  0
LINE
  5
271
  8
1
  6
CONTINUOUS
 62
     7
 10
308.7664871624108
 20
69.809932931292
 30
0.0
 11
313.3333333333334
 21
69.80993293129188
 31
0.0
  0
LINE
  5
272
  8
1
  6
CONTINUOUS
 62
     7
 10
296.9631563589757
 20
69.80993293129191
 30
0.0
 11
296.5801341374163
 21
69.80993293129193
 31
0.0
  0
LINE
  5
273
  8
1
  6
CONTINUOUS
 62
     7
 10
313.3333333333334
 20
70.309932931292
 30
0.0
 11
493.3333333333333
 21
70.309932931292
 31
0.0
  0
LINE
  5
274
  8
1
  6
CONTINUOUS
 62
     7
 10
493.3333333333334
 20
70.309932931292
 30
0.0
 11
493.3333333333334
 21
71.30993293129197
 31
0.0
  0
LINE
  5
275
  8
1
  6
CONTINUOUS
 62
     7
 10
493.3333333333334
 20
70.309932931292
 30
0.0
 11
493.3333333333334
 21
69.80993293129188
 31
0.0
  0
LINE
  5
276
  8
1
  6
CONTINUOUS
 62
     7
 10
475.5178582613677
 20
78.30993293129197
 30
0.0
 11
478.4258710431743
 21
78.30993293129197
 31
0.0
  0
ARC
  5
277
  8
1
  6
CONTINUOUS
 62
     7
 10
403.3333333333334
 20
166.3099329312919
 30
0.0
 40
82.99999999999996
 50
359.9999999999999
 51
180.0
  0
LINE
  5
278
  8
1
  6
CONTINUOUS
 62
     7
 10
637.7842323724532
 20
78.30993293129208
 30
0.0
 11
643.4953738556975
 21
78.3099329312921
 31
0.0
  0
LINE
  5
279
  8
1
  6
CONTINUOUS
 62
     7
 10
716.1550289937928
 20
71.30993293129188
 30
0.0
 11
716.6550289937927
 21
71.3099329312919
 31
0.0
  0
LINE
  5
27A
  8
1
  6
CONTINUOUS
 62
     7
 10
724.6550289937927
 20
262.3099329312919
 30
0.0
 11
724.6550289937927
 21
166.3099329312919
 31
0.0
  0
LINE
  5
27B
  8
1
  6
CONTINUOUS
 62
     7
 10
722.6550289937928
 20
70.30993293129201
 30
0.0
 11
718.1550289937928
 21
70.30993293129201
 31
0.0
  0
LINE
  5
27C
  8
1
  6
CONTINUOUS
 62
     7
 10
724.6550289937927
 20
262.3099329312919
 30
0.0
 11
717.254210159773
 21
259.0720746914083
 31
0.0
  0
LINE
  5
27D
  8
1
  6
CONTINUOUS
 62
     7
 10
614.60593925108
 20
181.7613394088585
 30
0.0
 11
593.6783043395405
 21
71.30993293129187
 31
0.0
  0
LINE
  5
27E
  8
1
  6
CONTINUOUS
 62
     7
 10
723.6550289937928
 20
69.80993293129201
 30
0.0
 11
723.6550289937928
 21
51.3099329312919
 31
0.0
  0
ARC
  5
27F
  8
1
  6
CONTINUOUS
 62
     7
 10
718.1550289937928
 20
71.30993293129201
 30
0.0
 40
0.4999999999999449
 50
180.0
 51
270.0
  0
LINE
  5
280
  8
1
  6
CONTINUOUS
 62
     7
 10
724.6550289937927
 20
71.3099329312919
 30
0.0
 11
717.254210159773
 21
71.3099329312919
 31
0.0
  0
LINE
  5
281
  8
1
  6
CONTINUOUS
 62
     7
 10
992.9334063594614
 20
185.4057982791753
 30
0.0
 11
995.1666666666667
 21
172.7403497004473
 31
0.0
  0
LINE
  5
282
  8
1
  6
CONTINUOUS
 62
     7
 10
992.8118279490437
 20
133.134399384647
 30
0.0
 11
988.5347422294008
 21
135.128837210302
 31
0.0
  0
LINE
  5
283
  8
1
  6
CONTINUOUS
 62
     7
 10
716.1550289937928
 20
249.3099329312919
 30
0.0
 11
714.1550289937929
 21
249.3099329312919
 31
0.0
  0
LINE
  5
284
  8
1
  6
CONTINUOUS
 62
     7
 10
995.1666666666667
 20
159.8795161621365
 30
0.0
 11
992.9334063594614
 21
147.2140675834085
 31
0.0
  0
LINE
  5
285
  8
1
  6
CONTINUOUS
 62
     7
 10
724.6550289937927
 20
166.3099329312919
 30
0.0
 11
724.6550289937927
 21
71.3099329312919
 31
0.0
  0
LINE
  5
286
  8
1
  6
CONTINUOUS
 62
     7
 10
723.2978166034793
 20
69.8099329312919
 30
0.0
 11
723.6550289937928
 21
69.8099329312919
 31
0.0
  0
ARC
  5
287
  8
1
  6
CONTINUOUS
 62
     7
 10
718.1550289937928
 20
71.30993293129201
 30
0.0
 40
1.000000000000001
 50
180.0000000000016
 51
270.0
  0
ARC
  5
288
  8
1
  6
CONTINUOUS
 62
     7
 10
716.1550289937928
 20
249.8099329312919
 30
0.0
 40
0.4999999999999449
 50
270.0
 51
0.0
  0
LINE
  5
289
  8
1
  6
CONTINUOUS
 62
     7
 10
716.1550289937928
 20
249.3099329312919
 30
0.0
 11
714.1550289937929
 21
249.3099329312919
 31
0.0
  0
ARC
  5
28A
  8
1
  6
CONTINUOUS
 62
     7
 10
722.6550289937928
 20
69.80993293129201
 30
0.0
 40
1.000000000000001
 50
359.9999999999936
 51
90.0
  0
LINE
  5
28B
  8
1
  6
CONTINUOUS
 62
     7
 10
716.6550289937927
 20
258.1559173565061
 30
0.0
 11
716.6550289937927
 21
166.3099329312919
 31
0.0
  0
LINE
  5
28C
  8
1
  6
CONTINUOUS
 62
     7
 10
714.1550289937929
 20
249.3099329312919
 30
0.0
 11
696.1550289937927
 21
249.3099329312919
 31
0.0
  0
LINE
  5
28D
  8
1
  6
CONTINUOUS
 62
     7
 10
997.4918440303586
 20
186.6272279718398
 30
0.0
 11
992.9334063594614
 21
185.4057982791753
 31
0.0
  0
LINE
  5
28E
  8
1
  6
CONTINUOUS
 62
     7
 10
985.9701021433525
 20
121.2841826777347
 30
0.0
 11
982.1043254602453
 21
123.9910286522818
 31
0.0
  0
ARC
  5
28F
  8
1
  6
CONTINUOUS
 62
     7
 10
642.9050289937927
 20
78.30993293129188
 30
0.0
 40
3.499999999999961
 50
148.9972808661275
 51
180.0
  0
LINE
  5
290
  8
1
  6
CONTINUOUS
 62
     7
 10
999.8679504668688
 20
159.4682071256007
 30
0.0
 11
995.1666666666667
 21
159.8795161621365
 31
0.0
  0
LINE
  5
291
  8
1
  6
CONTINUOUS
 62
     7
 10
982.1043254602453
 20
208.6288372103019
 30
0.0
 11
988.5347422294006
 21
197.4910286522818
 31
0.0
  0
ARC
  5
292
  8
1
  6
CONTINUOUS
 62
     7
 10
722.6550289937928
 20
46.54308676036941
 30
0.0
 40
0.9999999999999768
 50
310.0
 51
0.0
  0
LINE
  5
293
  8
1
  6
CONTINUOUS
 62
     7
 10
678.1550289937928
 20
71.3099329312919
 30
0.0
 11
593.6783043395407
 21
71.30993293129188
 31
0.0
  0
LINE
  5
294
  8
1
  6
CONTINUOUS
 62
     7
 10
999.8679504668688
 20
173.1516587369831
 30
0.0
 11
995.1666666666667
 21
172.7403497004473
 31
0.0
  0
LINE
  5
295
  8
1
  6
CONTINUOUS
 62
     7
 10
985.9701021433525
 20
211.335683184849
 30
0.0
 11
982.1043254602453
 21
208.628837210302
 31
0.0
  0
LINE
  5
296
  8
1
  6
CONTINUOUS
 62
     7
 10
992.8118279490437
 20
199.4854664779368
 30
0.0
 11
988.5347422294008
 21
197.4910286522818
 31
0.0
  0
LINE
  5
297
  8
1
  6
CONTINUOUS
 62
     7
 10
988.5347422294006
 20
135.128837210302
 30
0.0
 11
982.1043254602453
 21
123.9910286522819
 31
0.0
  0
LINE
  5
298
  8
1
  6
CONTINUOUS
 62
     7
 10
901.3493716261189
 20
242.1351102949838
 30
0.0
 11
902.5708013187834
 21
237.5766726240865
 31
0.0
  0
LINE
  5
299
  8
1
  6
CONTINUOUS
 62
     7
 10
954.8422002133117
 20
95.16477164891488
 30
0.0
 11
952.8477623876566
 21
99.44185736855795
 31
0.0
  0
LINE
  5
29A
  8
1
  6
CONTINUOUS
 62
     7
 10
973.837541011578
 20
218.4808072762031
 30
0.0
 11
982.1043254602453
 21
208.6288372103019
 31
0.0
  0
LINE
  5
29B
  8
1
  6
CONTINUOUS
 62
     7
 10
716.6550289937927
 20
166.3099329312919
 30
0.0
 11
716.6550289937927
 21
71.3099329312919
 31
0.0
  0
ARC
  5
29C
  8
1
  6
CONTINUOUS
 62
     7
 10
640.5917829387977
 20
78.59643367538968
 30
0.0
 40
2.917691362888217
 50
354.3647986553297
 51
86.92824801889816
  0
ARC
  5
29D
  8
1
  6
CONTINUOUS
 62
     7
 10
641.2519533719593
 20
78.31284958132048
 30
0.0
 40
3.216632223612522
 50
96.84416005323067
 51
180.0519523987309
  0
LINE
  5
29E
  8
1
  6
CONTINUOUS
 62
     7
 10
963.9855709456768
 20
105.8722741377134
 30
0.0
 11
952.8477623876566
 21
99.44185736855795
 31
0.0
  0
LINE
  5
29F
  8
1
  6
CONTINUOUS
 62
     7
 10
902.5708013187834
 20
237.5766726240865
 30
0.0
 11
915.2362498975114
 21
239.8099329312919
 31
0.0
  0
LINE
  5
2A0
  8
1
  6
CONTINUOUS
 62
     7
 10
977.1745489898107
 20
221.8178152544359
 30
0.0
 11
973.837541011578
 21
218.4808072762031
 31
0.0
  0
LINE
  5
2A1
  8
1
  6
CONTINUOUS
 62
     7
 10
940.7625320145501
 20
237.5766726240865
 30
0.0
 11
952.8477623876566
 21
233.1780084940259
 31
0.0
  0
LINE
  5
2A2
  8
1
  6
CONTINUOUS
 62
     7
 10
941.9839617072147
 20
242.1351102949837
 30
0.0
 11
940.7625320145501
 21
237.5766726240865
 31
0.0
  0
LINE
  5
2A3
  8
1
  6
CONTINUOUS
 62
     7
 10
954.8422002133117
 20
237.4550942136689
 30
0.0
 11
952.8477623876568
 21
233.1780084940258
 31
0.0
  0
LINE
  5
2A4
  8
1
  6
CONTINUOUS
 62
     7
 10
988.5347422294006
 20
197.4910286522818
 30
0.0
 11
992.9334063594614
 21
185.4057982791753
 31
0.0
  0
LINE
  5
2A5
  8
1
  6
CONTINUOUS
 62
     7
 10
963.9855709456768
 20
226.7475917248704
 30
0.0
 11
973.837541011578
 21
218.4808072762031
 31
0.0
  0
LINE
  5
2A6
  8
1
  6
CONTINUOUS
 62
     7
 10
723.6550289937928
 20
51.3099329312919
 30
0.0
 11
723.6550289937928
 21
46.54308676036941
 31
0.0
  0
LINE
  5
2A7
  8
1
  6
CONTINUOUS
 62
     7
 10
997.4918440303586
 20
145.992637890744
 30
0.0
 11
992.9334063594614
 21
147.2140675834085
 31
0.0
  0
LINE
  5
2A8
  8
1
  6
CONTINUOUS
 62
     7
 10
928.0970834358221
 20
239.8099329312919
 30
0.0
 11
940.7625320145501
 21
237.5766726240865
 31
0.0
  0
LINE
  5
2A9
  8
1
  6
CONTINUOUS
 62
     7
 10
966.6924169202238
 20
102.006497454606
 30
0.0
 11
963.9855709456767
 21
105.8722741377134
 31
0.0
  0
LINE
  5
2AA
  8
1
  6
CONTINUOUS
 62
     7
 10
966.6924169202239
 20
230.6133684079777
 30
0.0
 11
963.9855709456768
 21
226.7475917248704
 31
0.0
  0
ARC
  5
2AB
  8
1
  6
CONTINUOUS
 62
     7
 10
696.1550289937927
 20
166.3099329312919
 30
0.0
 40
82.99999999999996
 50
90.00000000000001
 51
169.27114070199
  0
LINE
  5
2AC
  8
1
  6
CONTINUOUS
 62
     7
 10
928.508392472358
 20
244.5112167314939
 30
0.0
 11
928.0970834358221
 21
239.8099329312919
 31
0.0
  0
LINE
  5
2AD
  8
1
  6
CONTINUOUS
 62
     7
 10
879.3477623876566
 20
226.7475917248704
 30
0.0
 11
890.4855709456768
 21
233.1780084940258
 31
0.0
  0
LINE
  5
2AE
  8
1
  6
CONTINUOUS
 62
     7
 10
876.6409164131096
 20
230.6133684079777
 30
0.0
 11
879.3477623876566
 21
226.7475917248704
 31
0.0
  0
LINE
  5
2AF
  8
1
  6
CONTINUOUS
 62
     7
 10
718.1550289937928
 20
70.80993293129201
 30
0.0
 11
722.6550289937928
 21
70.80993293129201
 31
0.0
  0
LINE
  5
2B0
  8
1
  6
CONTINUOUS
 62
     7
 10
716.1550289937928
 20
71.30993293129188
 30
0.0
 11
678.1550289937928
 21
71.3099329312919
 31
0.0
  0
LINE
  5
2B1
  8
1
  6
CONTINUOUS
 62
     7
 10
717.254210159773
 20
71.3099329312919
 30
0.0
 11
716.6550289937927
 21
71.3099329312919
 31
0.0
  0
ARC
  5
2B2
  8
1
  6
CONTINUOUS
 62
     7
 10
640.9753891836936
 20
78.32683357380971
 30
0.0
 40
3.191201564558843
 50
94.08370264028157
 51
180.3034405675733
  0
ARC
  5
2B3
  8
1
  6
CONTINUOUS
 62
     7
 10
717.6550289937927
 20
258.1559173565061
 30
0.0
 40
0.99999999999998
 50
113.6293777306567
 51
180.0
  0
LINE
  5
2B4
  8
1
  6
CONTINUOUS
 62
     7
 10
914.8249408609756
 20
244.5112167314939
 30
0.0
 11
915.2362498975114
 21
239.8099329312919
 31
0.0
  0
ARC
  5
2B5
  8
1
  6
CONTINUOUS
 62
     7
 10
722.6550289937927
 20
69.80993293129201
 30
0.0
 40
0.500000000000056
 50
359.9999999999873
 51
89.99999999999739
  0
LINE
  5
2B6
  8
1
  6
CONTINUOUS
 62
     7
 10
982.1043254602453
 20
123.9910286522819
 30
0.0
 11
973.837541011578
 21
114.1390585863807
 31
0.0
  0
LINE
  5
2B7
  8
1
  6
CONTINUOUS
 62
     7
 10
992.9334063594614
 20
147.2140675834085
 30
0.0
 11
988.5347422294006
 21
135.128837210302
 31
0.0
  0
LINE
  5
2B8
  8
1
  6
CONTINUOUS
 62
     7
 10
973.837541011578
 20
114.1390585863807
 30
0.0
 11
963.9855709456768
 21
105.8722741377134
 31
0.0
  0
LINE
  5
2B9
  8
1
  6
CONTINUOUS
 62
     7
 10
901.3493716261188
 20
90.48475556760005
 30
0.0
 11
902.5708013187834
 21
95.04319323849731
 31
0.0
  0
LINE
  5
2BA
  8
1
  6
CONTINUOUS
 62
     7
 10
977.1745489898107
 20
110.8020506081479
 30
0.0
 11
973.837541011578
 21
114.1390585863807
 31
0.0
  0
LINE
  5
2BB
  8
1
  6
CONTINUOUS
 62
     7
 10
941.9839617072147
 20
90.48475556760003
 30
0.0
 11
940.7625320145501
 21
95.0431932384973
 31
0.0
  0
LINE
  5
2BC
  8
1
  6
CONTINUOUS
 62
     7
 10
861.2290078730882
 20
208.628837210302
 30
0.0
 11
869.4957923217555
 21
218.4808072762031
 31
0.0
  0
LINE
  5
2BD
  8
1
  6
CONTINUOUS
 62
     7
 10
857.3632311899809
 20
211.335683184849
 30
0.0
 11
861.2290078730882
 21
208.628837210302
 31
0.0
  0
LINE
  5
2BE
  8
1
  6
CONTINUOUS
 62
     7
 10
857.3632311899809
 20
121.2841826777348
 30
0.0
 11
861.2290078730882
 21
123.9910286522819
 31
0.0
  0
LINE
  5
2BF
  8
1
  6
CONTINUOUS
 62
     7
 10
850.3999269738721
 20
185.4057982791753
 30
0.0
 11
854.7985911039327
 21
197.4910286522818
 31
0.0
  0
LINE
  5
2C0
  8
1
  6
CONTINUOUS
 62
     7
 10
845.8414893029749
 20
186.6272279718398
 30
0.0
 11
850.3999269738721
 21
185.4057982791753
 31
0.0
  0
LINE
  5
2C1
  8
1
  6
CONTINUOUS
 62
     7
 10
914.8249408609755
 20
88.10864913108988
 30
0.0
 11
915.2362498975112
 21
92.8099329312919
 31
0.0
  0
LINE
  5
2C2
  8
1
  6
CONTINUOUS
 62
     7
 10
850.3999269738721
 20
147.2140675834085
 30
0.0
 11
848.1666666666667
 21
159.8795161621365
 31
0.0
  0
LINE
  5
2C3
  8
1
  6
CONTINUOUS
 62
     7
 10
928.508392472358
 20
88.10864913108986
 30
0.0
 11
928.097083435822
 21
92.8099329312919
 31
0.0
  0
LINE
  5
2C4
  8
1
  6
CONTINUOUS
 62
     7
 10
843.4653828664647
 20
159.4682071256007
 30
0.0
 11
848.1666666666667
 21
159.8795161621365
 31
0.0
  0
LINE
  5
2C5
  8
1
  6
CONTINUOUS
 62
     7
 10
915.2362498975112
 20
92.8099329312919
 30
0.0
 11
902.5708013187834
 21
95.04319323849731
 31
0.0
  0
LINE
  5
2C6
  8
1
  6
CONTINUOUS
 62
     7
 10
890.4855709456768
 20
99.44185736855795
 30
0.0
 11
879.3477623876566
 21
105.8722741377134
 31
0.0
  0
LINE
  5
2C7
  8
1
  6
CONTINUOUS
 62
     7
 10
940.7625320145501
 20
95.04319323849731
 30
0.0
 11
928.0970834358221
 21
92.8099329312919
 31
0.0
  0
LINE
  5
2C8
  8
1
  6
CONTINUOUS
 62
     7
 10
850.5215053842898
 20
199.4854664779369
 30
0.0
 11
854.7985911039328
 21
197.4910286522819
 31
0.0
  0
LINE
  5
2C9
  8
1
  6
CONTINUOUS
 62
     7
 10
869.4957923217555
 20
114.1390585863807
 30
0.0
 11
861.2290078730882
 21
123.9910286522819
 31
0.0
  0
LINE
  5
2CA
  8
1
  6
CONTINUOUS
 62
     7
 10
888.4911331200218
 20
237.4550942136689
 30
0.0
 11
890.4855709456768
 21
233.1780084940258
 31
0.0
  0
LINE
  5
2CB
  8
1
  6
CONTINUOUS
 62
     7
 10
866.1587843435227
 20
221.8178152544359
 30
0.0
 11
869.4957923217555
 21
218.4808072762031
 31
0.0
  0
LINE
  5
2CC
  8
1
  6
CONTINUOUS
 62
     7
 10
866.1587843435227
 20
110.8020506081479
 30
0.0
 11
869.4957923217554
 21
114.1390585863807
 31
0.0
  0
LINE
  5
2CD
  8
1
  6
CONTINUOUS
 62
     7
 10
845.8414893029749
 20
145.992637890744
 30
0.0
 11
850.3999269738721
 21
147.2140675834085
 31
0.0
  0
LINE
  5
2CE
  8
1
  6
CONTINUOUS
 62
     7
 10
888.4911331200218
 20
95.16477164891488
 30
0.0
 11
890.4855709456768
 21
99.44185736855795
 31
0.0
  0
LINE
  5
2CF
  8
1
  6
CONTINUOUS
 62
     7
 10
876.6409164131096
 20
102.0064974546061
 30
0.0
 11
879.3477623876566
 21
105.8722741377134
 31
0.0
  0
LINE
  5
2D0
  8
1
  6
CONTINUOUS
 62
     7
 10
952.8477623876566
 20
99.44185736855795
 30
0.0
 11
940.7625320145501
 21
95.04319323849731
 31
0.0
  0
TEXT
  5
2D1
  8
1
  6
CONTINUOUS
 62
     7
 10
571.2393293318328
 20
-91.95263327914634
 30
0.0
 40
5.0
  1
PYK-S150KL
  0
ENDSEC
  0
EOF
