  0
SECTION
  2
HEADER
  9
$ACADVER
  1
AC1006
  9
$DWGCODEPAGE
  3
ansi_932
  9
$INSBASE
 10
0.0
 20
0.0
 30
0.0
  9
$EXTMIN
 10
139.7499999999998
 20
388.2500000000001
  9
$EXTMAX
 10
359.3374999999997
 20
638.25
  9
$LIMMIN
 10
0.0
 20
0.0
  9
$LIMMAX
 10
12.0
 20
9.0
  9
$ORTHOMODE
 70
     0
  9
$REGENMODE
 70
     1
  9
$FILLMODE
 70
     1
  9
$QTEXTMODE
 70
     0
  9
$MIRRTEXT
 70
     1
  9
$DRAGMODE
 70
     2
  9
$LTSCALE
 40
1.0
  9
$OSMODE
 70
    37
  9
$ATTMODE
 70
     1
  9
$TEXTSIZE
 40
0.2
  9
$TRACEWID
 40
0.05
  9
$TEXTSTYLE
  7
STANDARD
  9
$CLAYER
  8
0
  9
$CELTYPE
  6
BYLAYER
  9
$CECOLOR
 62
   256
  9
$DIMSCALE
 40
1.0
  9
$DIMASZ
 40
3.0
  9
$DIMEXO
 40
0.0625
  9
$DIMDLI
 40
0.38
  9
$DIMRND
 40
0.0
  9
$DIMDLE
 40
0.0
  9
$DIMEXE
 40
1.5
  9
$DIMTP
 40
0.0
  9
$DIMTM
 40
0.0
  9
$DIMTXT
 40
3.0
  9
$DIMCEN
 40
0.09
  9
$DIMTSZ
 40
0.0
  9
$DIMTOL
 70
     0
  9
$DIMLIM
 70
     0
  9
$DIMTIH
 70
     1
  9
$DIMTOH
 70
     1
  9
$DIMSE1
 70
     0
  9
$DIMSE2
 70
     0
  9
$DIMTAD
 70
     1
  9
$DIMZIN
 70
     0
  9
$DIMBLK
  1

  9
$DIMASO
 70
     1
  9
$DIMSHO
 70
     1
  9
$DIMPOST
  1

  9
$DIMAPOST
  1

  9
$DIMALT
 70
     0
  9
$DIMALTD
 70
     2
  9
$DIMALTF
 40
25.4
  9
$DIMLFAC
 40
1.0
  9
$DIMTOFL
 70
     0
  9
$DIMTVP
 40
0.0
  9
$DIMTIX
 70
     0
  9
$DIMSOXD
 70
     0
  9
$DIMSAH
 70
     0
  9
$DIMBLK1
  1

  9
$DIMBLK2
  1

  9
$LUNITS
 70
     2
  9
$LUPREC
 70
     4
  9
$SKETCHINC
 40
0.1
  9
$FILLETRAD
 40
0.5
  9
$AUNITS
 70
     0
  9
$AUPREC
 70
     0
  9
$MENU
  1
.
  9
$ELEVATION
 40
0.0
  9
$THICKNESS
 40
0.0
  9
$LIMCHECK
 70
     0
  9
$CHAMFERA
 40
0.0
  9
$CHAMFERB
 40
0.0
  9
$SKPOLY
 70
     0
  9
$TDCREATE
 40
2460787.470292546
  9
$TDUPDATE
 40
2460787.470292917
  9
$TDINDWG
 40
0.0000000116
  9
$TDUSRTIMER
 40
0.0000000116
  9
$USRTIMER
 70
     1
  9
$ANGBASE
 50
0.0
  9
$ANGDIR
 70
     0
  9
$PDMODE
 70
     0
  9
$PDSIZE
 40
0.0
  9
$PLINEWID
 40
0.0
  9
$COORDS
 70
     1
  9
$SPLFRAME
 70
     0
  9
$SPLINETYPE
 70
     6
  9
$SPLINESEGS
 70
     8
  9
$ATTDIA
 70
     0
  9
$ATTREQ
 70
     1
  9
$HANDLING
 70
     1
  9
$HANDSEED
  5
4DE
  9
$SURFTAB1
 70
     6
  9
$SURFTAB2
 70
     6
  9
$SURFTYPE
 70
     6
  9
$SURFU
 70
     6
  9
$SURFV
 70
     6
  9
$UCSNAME
  2

  9
$UCSORG
 10
0.0
 20
0.0
 30
0.0
  9
$UCSXDIR
 10
1.0
 20
0.0
 30
0.0
  9
$UCSYDIR
 10
0.0
 20
1.0
 30
0.0
  9
$USERI1
 70
     0
  9
$USERI2
 70
     0
  9
$USERI3
 70
     0
  9
$USERI4
 70
     0
  9
$USERI5
 70
     0
  9
$USERR1
 40
0.0
  9
$USERR2
 40
0.0
  9
$USERR3
 40
0.0
  9
$USERR4
 40
0.0
  9
$USERR5
 40
0.0
  9
$WORLDVIEW
 70
     1
  0
ENDSEC
  0
SECTION
  2
TABLES
  0
TABLE
  2
VPORT
 70
     1
  0
VPORT
  2
*ACTIVE
 70
     0
 10
0.0
 20
0.0
 11
1.0
 21
1.0
 12
249.5437499999998
 22
513.25
 13
0.0
 23
0.0
 14
0.5
 24
0.5
 15
0.5
 25
0.5
 16
0.0
 26
0.0
 36
1.0
 17
0.0
 27
0.0
 37
0.0
 40
249.9999999999999
 41
1.6
 42
50.0
 43
0.0
 44
0.0
 50
0.0
 51
0.0
 71
     0
 72
   100
 73
     1
 74
     3
 75
     0
 76
     0
 77
     0
 78
     0
  0
ENDTAB
  0
TABLE
  2
LTYPE
 70
     2
  0
LTYPE
  2
CONTINUOUS
 70
     0
  3
Solid line
 72
    65
 73
     0
 40
0.0
  0
LTYPE
  2
CENTER
 70
     0
  3

 72
    65
 73
     0
 40
0.0
  0
ENDTAB
  0
TABLE
  2
LAYER
 70
     1
  0
LAYER
  2
0
 70
     0
 62
     7
  6
CONTINUOUS
  0
ENDTAB
  0
TABLE
  2
STYLE
 70
     2
  0
STYLE
  2
STANDARD
 70
     0
 40
0.0
 41
1.0
 50
0.0
 71
     0
 42
0.2
  3
txt
  4

  0
STYLE
  2
ＭＳ_ゴシック
 70
     0
 40
0.0
 41
1.0
 50
0.0
 71
     0
 42
0.2
  3
ＭＳ ゴシック.shx
  4

  0
ENDTAB
  0
TABLE
  2
VIEW
 70
     0
  0
ENDTAB
  0
TABLE
  2
UCS
 70
     0
  0
ENDTAB
  0
ENDSEC
  0
SECTION
  2
BLOCKS
  0
BLOCK
  8
0
  2
D_FRAME_VIEW_10933
 70
     0
 10
0.0
 20
0.0
 30
0.0
  0
POLYLINE
  5
75
  8
0
  6
CONTINUOUS
 62
     7
 66
     1
 10
0.0
 20
0.0
 30
0.0
  0
VERTEX
  5
22C
  8
0
  6
CONTINUOUS
 62
     7
 10
190.2499999999998
 20
510.0590654582801
 30
0.0
  0
VERTEX
  5
22D
  8
0
  6
CONTINUOUS
 62
     7
 10
190.2493189256111
 20
510.0920057983579
 30
0.0
  0
VERTEX
  5
22E
  8
0
  6
CONTINUOUS
 62
     7
 10
190.2472790361312
 20
510.1249342029212
 30
0.0
  0
VERTEX
  5
22F
  8
0
  6
CONTINUOUS
 62
     7
 10
190.2438853320894
 20
510.1577664932333
 30
0.0
  0
VERTEX
  5
230
  8
0
  6
CONTINUOUS
 62
     7
 10
190.2391428140148
 20
510.1904184905576
 30
0.0
  0
VERTEX
  5
231
  8
0
  6
CONTINUOUS
 62
     7
 10
190.2328540235148
 20
510.2237918391075
 30
0.0
  0
VERTEX
  5
232
  8
0
  6
CONTINUOUS
 62
     7
 10
190.2251435967716
 20
510.2569135706645
 30
0.0
  0
VERTEX
  5
233
  8
0
  6
CONTINUOUS
 62
     7
 10
190.2160326952499
 20
510.289693116093
 30
0.0
  0
VERTEX
  5
234
  8
0
  6
CONTINUOUS
 62
     7
 10
190.2055424804143
 20
510.3220399062577
 30
0.0
  0
VERTEX
  5
235
  8
0
  6
CONTINUOUS
 62
     7
 10
190.194017343839
 20
510.3530617453497
 30
0.0
  0
VERTEX
  5
236
  8
0
  6
CONTINUOUS
 62
     7
 10
190.1812031038891
 20
510.3836178295731
 30
0.0
  0
VERTEX
  5
237
  8
0
  6
CONTINUOUS
 62
     7
 10
190.1671336425355
 20
510.4136285220635
 30
0.0
  0
VERTEX
  5
238
  8
0
  6
CONTINUOUS
 62
     7
 10
190.1518428417492
 20
510.4430141859577
 30
0.0
  0
VERTEX
  5
239
  8
0
  6
CONTINUOUS
 62
     7
 10
190.1348355998747
 20
510.4725811490388
 30
0.0
  0
VERTEX
  5
23A
  8
0
  6
CONTINUOUS
 62
     7
 10
190.1165620473849
 20
510.5014297773384
 30
0.0
  0
VERTEX
  5
23B
  8
0
  6
CONTINUOUS
 62
     7
 10
190.0970740604598
 20
510.5294803681798
 30
0.0
  0
VERTEX
  5
23C
  8
0
  6
CONTINUOUS
 62
     7
 10
190.0764235152796
 20
510.5566532188859
 30
0.0
  0
VERTEX
  5
23D
  8
0
  6
CONTINUOUS
 62
     7
 10
190.0554015632954
 20
510.5820230149491
 30
0.0
  0
VERTEX
  5
23E
  8
0
  6
CONTINUOUS
 62
     7
 10
190.0333320453281
 20
510.6065287030401
 30
0.0
  0
VERTEX
  5
23F
  8
0
  6
CONTINUOUS
 62
     7
 10
190.0102735846518
 20
510.6301076366766
 30
0.0
  0
VERTEX
  5
240
  8
0
  6
CONTINUOUS
 62
     7
 10
189.9862848045408
 20
510.6526971693759
 30
0.0
  0
VERTEX
  5
241
  8
0
  6
CONTINUOUS
 62
     7
 10
189.9606429929759
 20
510.6748891953582
 30
0.0
  0
VERTEX
  5
242
  8
0
  6
CONTINUOUS
 62
     7
 10
189.9340617818178
 20
510.6959921015919
 30
0.0
  0
VERTEX
  5
243
  8
0
  6
CONTINUOUS
 62
     7
 10
189.9066158829455
 20
510.7159498283591
 30
0.0
  0
VERTEX
  5
244
  8
0
  6
CONTINUOUS
 62
     7
 10
189.8783800082378
 20
510.734706315942
 30
0.0
  0
VERTEX
  5
245
  8
0
  6
CONTINUOUS
 62
     7
 10
189.8502873069047
 20
510.751716763274
 30
0.0
  0
VERTEX
  5
246
  8
0
  6
CONTINUOUS
 62
     7
 10
189.8215024163032
 20
510.7675698046976
 30
0.0
  0
VERTEX
  5
247
  8
0
  6
CONTINUOUS
 62
     7
 10
189.7921006904555
 20
510.7822271786235
 30
0.0
  0
VERTEX
  5
248
  8
0
  6
CONTINUOUS
 62
     7
 10
189.7621574833833
 20
510.7956506234632
 30
0.0
  0
VERTEX
  5
249
  8
0
  6
CONTINUOUS
 62
     7
 10
189.730813455227
 20
510.8081576611772
 30
0.0
  0
VERTEX
  5
24A
  8
0
  6
CONTINUOUS
 62
     7
 10
189.6989531152338
 20
510.8193377966962
 30
0.0
  0
VERTEX
  5
24B
  8
0
  6
CONTINUOUS
 62
     7
 10
189.6666636106146
 20
510.8291642839682
 30
0.0
  0
VERTEX
  5
24C
  8
0
  6
CONTINUOUS
 62
     7
 10
189.6340320885805
 20
510.837610376941
 30
0.0
  0
VERTEX
  5
24D
  8
0
  6
CONTINUOUS
 62
     7
 10
189.5977042369761
 20
510.845304286299
 30
0.0
  0
VERTEX
  5
24E
  8
0
  6
CONTINUOUS
 62
     7
 10
189.5610173085262
 20
510.8513079690834
 30
0.0
  0
VERTEX
  5
24F
  8
0
  6
CONTINUOUS
 62
     7
 10
189.5240910970205
 20
510.8556102053228
 30
0.0
  0
VERTEX
  5
250
  8
0
  6
CONTINUOUS
 62
     7
 10
189.4870453962485
 20
510.8581997750456
 30
0.0
  0
VERTEX
  5
251
  8
0
  6
CONTINUOUS
 62
     7
 10
189.4499999999998
 20
510.8590654582802
 30
0.0
  0
SEQEND
  5
4BD
  8
0
  6
CONTINUOUS
 62
     7
  0
LINE
  5
76
  8
0
  6
CONTINUOUS
 62
     7
 10
190.2499999999998
 20
508.9847251099375
 30
0.0
 11
190.2499999999998
 21
510.0590654582801
 31
0.0
  0
ARC
  5
77
  8
0
  6
CONTINUOUS
 62
     7
 10
190.7499999999998
 20
511.3590654582802
 30
0.0
 40
2.426415481686506
 50
258.1081330215422
 51
281.8918669784578
  0
LINE
  5
78
  8
0
  6
CONTINUOUS
 62
     7
 10
191.2499999999998
 20
510.0590654582801
 30
0.0
 11
191.2499999999998
 21
508.9847251099375
 31
0.0
  0
POLYLINE
  5
79
  8
0
  6
CONTINUOUS
 62
     7
 66
     1
 10
0.0
 20
0.0
 30
0.0
  0
VERTEX
  5
252
  8
0
  6
CONTINUOUS
 62
     7
 10
192.0499999999998
 20
510.8590654582802
 30
0.0
  0
VERTEX
  5
253
  8
0
  6
CONTINUOUS
 62
     7
 10
192.017059659922
 20
510.8583843838915
 30
0.0
  0
VERTEX
  5
254
  8
0
  6
CONTINUOUS
 62
     7
 10
191.9841312553588
 20
510.8563444944116
 30
0.0
  0
VERTEX
  5
255
  8
0
  6
CONTINUOUS
 62
     7
 10
191.9512989650466
 20
510.8529507903698
 30
0.0
  0
VERTEX
  5
256
  8
0
  6
CONTINUOUS
 62
     7
 10
191.9186469677222
 20
510.8482082722952
 30
0.0
  0
VERTEX
  5
257
  8
0
  6
CONTINUOUS
 62
     7
 10
191.8852736191724
 20
510.8419194817952
 30
0.0
  0
VERTEX
  5
258
  8
0
  6
CONTINUOUS
 62
     7
 10
191.8521518876155
 20
510.8342090550519
 30
0.0
  0
VERTEX
  5
259
  8
0
  6
CONTINUOUS
 62
     7
 10
191.819372342187
 20
510.8250981535303
 30
0.0
  0
VERTEX
  5
25A
  8
0
  6
CONTINUOUS
 62
     7
 10
191.7870255520223
 20
510.8146079386947
 30
0.0
  0
VERTEX
  5
25B
  8
0
  6
CONTINUOUS
 62
     7
 10
191.7560037129301
 20
510.8030828021194
 30
0.0
  0
VERTEX
  5
25C
  8
0
  6
CONTINUOUS
 62
     7
 10
191.7254476287069
 20
510.7902685621694
 30
0.0
  0
VERTEX
  5
25D
  8
0
  6
CONTINUOUS
 62
     7
 10
191.6954369362164
 20
510.7761991008159
 30
0.0
  0
VERTEX
  5
25E
  8
0
  6
CONTINUOUS
 62
     7
 10
191.6660512723223
 20
510.7609083000295
 30
0.0
  0
VERTEX
  5
25F
  8
0
  6
CONTINUOUS
 62
     7
 10
191.6364843092412
 20
510.7439010581551
 30
0.0
  0
VERTEX
  5
260
  8
0
  6
CONTINUOUS
 62
     7
 10
191.6076356809414
 20
510.7256275056653
 30
0.0
  0
VERTEX
  5
261
  8
0
  6
CONTINUOUS
 62
     7
 10
191.5795850901002
 20
510.7061395187402
 30
0.0
  0
VERTEX
  5
262
  8
0
  6
CONTINUOUS
 62
     7
 10
191.5524122393942
 20
510.6854889735599
 30
0.0
  0
VERTEX
  5
263
  8
0
  6
CONTINUOUS
 62
     7
 10
191.5270424433308
 20
510.6644670215757
 30
0.0
  0
VERTEX
  5
264
  8
0
  6
CONTINUOUS
 62
     7
 10
191.5025367552398
 20
510.6423975036085
 30
0.0
  0
VERTEX
  5
265
  8
0
  6
CONTINUOUS
 62
     7
 10
191.4789578216034
 20
510.6193390429321
 30
0.0
  0
VERTEX
  5
266
  8
0
  6
CONTINUOUS
 62
     7
 10
191.4563682889041
 20
510.5953502628212
 30
0.0
  0
VERTEX
  5
267
  8
0
  6
CONTINUOUS
 62
     7
 10
191.4341762629218
 20
510.5697084512562
 30
0.0
  0
VERTEX
  5
268
  8
0
  6
CONTINUOUS
 62
     7
 10
191.4130733566881
 20
510.5431272400982
 30
0.0
  0
VERTEX
  5
269
  8
0
  6
CONTINUOUS
 62
     7
 10
191.3931156299209
 20
510.5156813412259
 30
0.0
  0
VERTEX
  5
26A
  8
0
  6
CONTINUOUS
 62
     7
 10
191.374359142338
 20
510.4874454665182
 30
0.0
  0
VERTEX
  5
26B
  8
0
  6
CONTINUOUS
 62
     7
 10
191.3573486950059
 20
510.459352765185
 30
0.0
  0
VERTEX
  5
26C
  8
0
  6
CONTINUOUS
 62
     7
 10
191.3414956535824
 20
510.4305678745836
 30
0.0
  0
VERTEX
  5
26D
  8
0
  6
CONTINUOUS
 62
     7
 10
191.3268382796564
 20
510.4011661487359
 30
0.0
  0
VERTEX
  5
26E
  8
0
  6
CONTINUOUS
 62
     7
 10
191.3134148348168
 20
510.3712229416637
 30
0.0
  0
VERTEX
  5
26F
  8
0
  6
CONTINUOUS
 62
     7
 10
191.3009077971027
 20
510.3398789135074
 30
0.0
  0
VERTEX
  5
270
  8
0
  6
CONTINUOUS
 62
     7
 10
191.2897276615837
 20
510.3080185735142
 30
0.0
  0
VERTEX
  5
271
  8
0
  6
CONTINUOUS
 62
     7
 10
191.2799011743118
 20
510.275729068895
 30
0.0
  0
VERTEX
  5
272
  8
0
  6
CONTINUOUS
 62
     7
 10
191.2714550813389
 20
510.2430975468608
 30
0.0
  0
VERTEX
  5
273
  8
0
  6
CONTINUOUS
 62
     7
 10
191.263761171981
 20
510.2067696952565
 30
0.0
  0
VERTEX
  5
274
  8
0
  6
CONTINUOUS
 62
     7
 10
191.2577574891966
 20
510.1700827668065
 30
0.0
  0
VERTEX
  5
275
  8
0
  6
CONTINUOUS
 62
     7
 10
191.2534552529572
 20
510.1331565553009
 30
0.0
  0
VERTEX
  5
276
  8
0
  6
CONTINUOUS
 62
     7
 10
191.2508656832344
 20
510.0961108545289
 30
0.0
  0
VERTEX
  5
277
  8
0
  6
CONTINUOUS
 62
     7
 10
191.2499999999998
 20
510.0590654582801
 30
0.0
  0
SEQEND
  5
4BE
  8
0
  6
CONTINUOUS
 62
     7
  0
LINE
  5
7A
  8
0
  6
CONTINUOUS
 62
     7
 10
193.916409174165
 20
510.8590654582802
 30
0.0
 11
192.0499999999998
 21
510.8590654582802
 31
0.0
  0
LINE
  5
7B
  8
0
  6
CONTINUOUS
 62
     7
 10
189.4499999999998
 20
510.8590654582802
 30
0.0
 11
187.5835908258345
 21
510.8590654582802
 31
0.0
  0
LINE
  5
7C
  8
0
  6
CONTINUOUS
 62
     7
 10
192.0499999999998
 20
511.8590654582802
 30
0.0
 11
193.916409174165
 21
511.8590654582802
 31
0.0
  0
LINE
  5
7D
  8
0
  6
CONTINUOUS
 62
     7
 10
191.2499999999998
 20
513.7334058066228
 30
0.0
 11
191.2499999999998
 21
512.6590654582801
 31
0.0
  0
ARC
  5
7E
  8
0
  6
CONTINUOUS
 62
     7
 10
190.7499999999998
 20
511.3590654582802
 30
0.0
 40
2.426415481686506
 50
78.10813302154226
 51
101.8918669784577
  0
LINE
  5
7F
  8
0
  6
CONTINUOUS
 62
     7
 10
190.2499999999998
 20
512.6590654582801
 30
0.0
 11
190.2499999999998
 21
513.7334058066227
 31
0.0
  0
LINE
  5
80
  8
0
  6
CONTINUOUS
 62
     7
 10
187.5835908258345
 20
511.8590654582802
 30
0.0
 11
189.4499999999998
 21
511.8590654582802
 31
0.0
  0
POLYLINE
  5
81
  8
0
  6
CONTINUOUS
 62
     7
 66
     1
 10
0.0
 20
0.0
 30
0.0
  0
VERTEX
  5
278
  8
0
  6
CONTINUOUS
 62
     7
 10
189.4499999999998
 20
511.8590654582802
 30
0.0
  0
VERTEX
  5
279
  8
0
  6
CONTINUOUS
 62
     7
 10
189.4829403400775
 20
511.8597465326689
 30
0.0
  0
VERTEX
  5
27A
  8
0
  6
CONTINUOUS
 62
     7
 10
189.5158687446407
 20
511.8617864221487
 30
0.0
  0
VERTEX
  5
27B
  8
0
  6
CONTINUOUS
 62
     7
 10
189.5487010349529
 20
511.8651801261906
 30
0.0
  0
VERTEX
  5
27C
  8
0
  6
CONTINUOUS
 62
     7
 10
189.5813530322773
 20
511.8699226442651
 30
0.0
  0
VERTEX
  5
27D
  8
0
  6
CONTINUOUS
 62
     7
 10
189.6147263808271
 20
511.8762114347653
 30
0.0
  0
VERTEX
  5
27E
  8
0
  6
CONTINUOUS
 62
     7
 10
189.647848112384
 20
511.8839218615083
 30
0.0
  0
VERTEX
  5
27F
  8
0
  6
CONTINUOUS
 62
     7
 10
189.6806276578126
 20
511.8930327630301
 30
0.0
  0
VERTEX
  5
280
  8
0
  6
CONTINUOUS
 62
     7
 10
189.7129744479773
 20
511.9035229778657
 30
0.0
  0
VERTEX
  5
281
  8
0
  6
CONTINUOUS
 62
     7
 10
189.7439962870694
 20
511.915048114441
 30
0.0
  0
VERTEX
  5
282
  8
0
  6
CONTINUOUS
 62
     7
 10
189.7745523712927
 20
511.9278623543908
 30
0.0
  0
VERTEX
  5
283
  8
0
  6
CONTINUOUS
 62
     7
 10
189.8045630637832
 20
511.9419318157444
 30
0.0
  0
VERTEX
  5
284
  8
0
  6
CONTINUOUS
 62
     7
 10
189.8339487276772
 20
511.9572226165308
 30
0.0
  0
VERTEX
  5
285
  8
0
  6
CONTINUOUS
 62
     7
 10
189.8635156907584
 20
511.9742298584052
 30
0.0
  0
VERTEX
  5
286
  8
0
  6
CONTINUOUS
 62
     7
 10
189.8923643190581
 20
511.992503410895
 30
0.0
  0
VERTEX
  5
287
  8
0
  6
CONTINUOUS
 62
     7
 10
189.9204149098994
 20
512.01199139782
 30
0.0
  0
VERTEX
  5
288
  8
0
  6
CONTINUOUS
 62
     7
 10
189.9475877606054
 20
512.0326419430004
 30
0.0
  0
VERTEX
  5
289
  8
0
  6
CONTINUOUS
 62
     7
 10
189.9729575566687
 20
512.0536638949847
 30
0.0
  0
VERTEX
  5
28A
  8
0
  6
CONTINUOUS
 62
     7
 10
189.9974632447598
 20
512.075733412952
 30
0.0
  0
VERTEX
  5
28B
  8
0
  6
CONTINUOUS
 62
     7
 10
190.0210421783961
 20
512.0987918736281
 30
0.0
  0
VERTEX
  5
28C
  8
0
  6
CONTINUOUS
 62
     7
 10
190.0436317110955
 20
512.1227806537391
 30
0.0
  0
VERTEX
  5
28D
  8
0
  6
CONTINUOUS
 62
     7
 10
190.0658237370778
 20
512.1484224653041
 30
0.0
  0
VERTEX
  5
28E
  8
0
  6
CONTINUOUS
 62
     7
 10
190.0869266433115
 20
512.1750036764621
 30
0.0
  0
VERTEX
  5
28F
  8
0
  6
CONTINUOUS
 62
     7
 10
190.1068843700787
 20
512.2024495753344
 30
0.0
  0
VERTEX
  5
290
  8
0
  6
CONTINUOUS
 62
     7
 10
190.1256408576616
 20
512.2306854500421
 30
0.0
  0
VERTEX
  5
291
  8
0
  6
CONTINUOUS
 62
     7
 10
190.1426513049936
 20
512.2587781513752
 30
0.0
  0
VERTEX
  5
292
  8
0
  6
CONTINUOUS
 62
     7
 10
190.1585043464171
 20
512.2875630419768
 30
0.0
  0
VERTEX
  5
293
  8
0
  6
CONTINUOUS
 62
     7
 10
190.1731617203432
 20
512.3169647678245
 30
0.0
  0
VERTEX
  5
294
  8
0
  6
CONTINUOUS
 62
     7
 10
190.1865851651827
 20
512.3469079748966
 30
0.0
  0
VERTEX
  5
295
  8
0
  6
CONTINUOUS
 62
     7
 10
190.1990922028968
 20
512.3782520030528
 30
0.0
  0
VERTEX
  5
296
  8
0
  6
CONTINUOUS
 62
     7
 10
190.2102723384158
 20
512.4101123430461
 30
0.0
  0
VERTEX
  5
297
  8
0
  6
CONTINUOUS
 62
     7
 10
190.2200988256877
 20
512.4424018476653
 30
0.0
  0
VERTEX
  5
298
  8
0
  6
CONTINUOUS
 62
     7
 10
190.2285449186606
 20
512.4750333696994
 30
0.0
  0
VERTEX
  5
299
  8
0
  6
CONTINUOUS
 62
     7
 10
190.2362388280186
 20
512.5113612213039
 30
0.0
  0
VERTEX
  5
29A
  8
0
  6
CONTINUOUS
 62
     7
 10
190.242242510803
 20
512.5480481497538
 30
0.0
  0
VERTEX
  5
29B
  8
0
  6
CONTINUOUS
 62
     7
 10
190.2465447470424
 20
512.5849743612595
 30
0.0
  0
VERTEX
  5
29C
  8
0
  6
CONTINUOUS
 62
     7
 10
190.2491343167652
 20
512.6220200620315
 30
0.0
  0
VERTEX
  5
29D
  8
0
  6
CONTINUOUS
 62
     7
 10
190.2499999999998
 20
512.6590654582801
 30
0.0
  0
SEQEND
  5
4BF
  8
0
  6
CONTINUOUS
 62
     7
  0
POLYLINE
  5
82
  8
0
  6
CONTINUOUS
 62
     7
 66
     1
 10
0.0
 20
0.0
 30
0.0
  0
VERTEX
  5
29E
  8
0
  6
CONTINUOUS
 62
     7
 10
191.2499999999998
 20
512.6590654582801
 30
0.0
  0
VERTEX
  5
29F
  8
0
  6
CONTINUOUS
 62
     7
 10
191.2506810743884
 20
512.6261251182025
 30
0.0
  0
VERTEX
  5
2A0
  8
0
  6
CONTINUOUS
 62
     7
 10
191.2527209638683
 20
512.5931967136393
 30
0.0
  0
VERTEX
  5
2A1
  8
0
  6
CONTINUOUS
 62
     7
 10
191.2561146679102
 20
512.560364423327
 30
0.0
  0
VERTEX
  5
2A2
  8
0
  6
CONTINUOUS
 62
     7
 10
191.2608571859848
 20
512.5277124260026
 30
0.0
  0
VERTEX
  5
2A3
  8
0
  6
CONTINUOUS
 62
     7
 10
191.2671459764848
 20
512.4943390774528
 30
0.0
  0
VERTEX
  5
2A4
  8
0
  6
CONTINUOUS
 62
     7
 10
191.274856403228
 20
512.461217345896
 30
0.0
  0
VERTEX
  5
2A5
  8
0
  6
CONTINUOUS
 62
     7
 10
191.2839673047497
 20
512.4284378004673
 30
0.0
  0
VERTEX
  5
2A6
  8
0
  6
CONTINUOUS
 62
     7
 10
191.2944575195853
 20
512.3960910103027
 30
0.0
  0
VERTEX
  5
2A7
  8
0
  6
CONTINUOUS
 62
     7
 10
191.3059826561605
 20
512.3650691712105
 30
0.0
  0
VERTEX
  5
2A8
  8
0
  6
CONTINUOUS
 62
     7
 10
191.3187968961105
 20
512.3345130869873
 30
0.0
  0
VERTEX
  5
2A9
  8
0
  6
CONTINUOUS
 62
     7
 10
191.332866357464
 20
512.3045023944968
 30
0.0
  0
VERTEX
  5
2AA
  8
0
  6
CONTINUOUS
 62
     7
 10
191.3481571582504
 20
512.2751167306028
 30
0.0
  0
VERTEX
  5
2AB
  8
0
  6
CONTINUOUS
 62
     7
 10
191.3651644001248
 20
512.2455497675215
 30
0.0
  0
VERTEX
  5
2AC
  8
0
  6
CONTINUOUS
 62
     7
 10
191.3834379526146
 20
512.2167011392218
 30
0.0
  0
VERTEX
  5
2AD
  8
0
  6
CONTINUOUS
 62
     7
 10
191.4029259395397
 20
512.1886505483806
 30
0.0
  0
VERTEX
  5
2AE
  8
0
  6
CONTINUOUS
 62
     7
 10
191.42357648472
 20
512.1614776976745
 30
0.0
  0
VERTEX
  5
2AF
  8
0
  6
CONTINUOUS
 62
     7
 10
191.4445984367042
 20
512.1361079016112
 30
0.0
  0
VERTEX
  5
2B0
  8
0
  6
CONTINUOUS
 62
     7
 10
191.4666679546715
 20
512.1116022135201
 30
0.0
  0
VERTEX
  5
2B1
  8
0
  6
CONTINUOUS
 62
     7
 10
191.4897264153478
 20
512.0880232798839
 30
0.0
  0
VERTEX
  5
2B2
  8
0
  6
CONTINUOUS
 62
     7
 10
191.5137151954588
 20
512.0654337471844
 30
0.0
  0
VERTEX
  5
2B3
  8
0
  6
CONTINUOUS
 62
     7
 10
191.5393570070237
 20
512.0432417212022
 30
0.0
  0
VERTEX
  5
2B4
  8
0
  6
CONTINUOUS
 62
     7
 10
191.5659382181817
 20
512.0221388149685
 30
0.0
  0
VERTEX
  5
2B5
  8
0
  6
CONTINUOUS
 62
     7
 10
191.593384117054
 20
512.0021810882013
 30
0.0
  0
VERTEX
  5
2B6
  8
0
  6
CONTINUOUS
 62
     7
 10
191.6216199917617
 20
511.9834246006184
 30
0.0
  0
VERTEX
  5
2B7
  8
0
  6
CONTINUOUS
 62
     7
 10
191.6497126930948
 20
511.9664141532862
 30
0.0
  0
VERTEX
  5
2B8
  8
0
  6
CONTINUOUS
 62
     7
 10
191.6784975836963
 20
511.9505611118629
 30
0.0
  0
VERTEX
  5
2B9
  8
0
  6
CONTINUOUS
 62
     7
 10
191.7078993095441
 20
511.9359037379367
 30
0.0
  0
VERTEX
  5
2BA
  8
0
  6
CONTINUOUS
 62
     7
 10
191.7378425166162
 20
511.9224802930972
 30
0.0
  0
VERTEX
  5
2BB
  8
0
  6
CONTINUOUS
 62
     7
 10
191.7691865447725
 20
511.9099732553831
 30
0.0
  0
VERTEX
  5
2BC
  8
0
  6
CONTINUOUS
 62
     7
 10
191.8010468847657
 20
511.8987931198642
 30
0.0
  0
VERTEX
  5
2BD
  8
0
  6
CONTINUOUS
 62
     7
 10
191.833336389385
 20
511.8889666325922
 30
0.0
  0
VERTEX
  5
2BE
  8
0
  6
CONTINUOUS
 62
     7
 10
191.8659679114191
 20
511.8805205396193
 30
0.0
  0
VERTEX
  5
2BF
  8
0
  6
CONTINUOUS
 62
     7
 10
191.9022957630235
 20
511.8728266302614
 30
0.0
  0
VERTEX
  5
2C0
  8
0
  6
CONTINUOUS
 62
     7
 10
191.9389826914734
 20
511.866822947477
 30
0.0
  0
VERTEX
  5
2C1
  8
0
  6
CONTINUOUS
 62
     7
 10
191.9759089029791
 20
511.8625207112375
 30
0.0
  0
VERTEX
  5
2C2
  8
0
  6
CONTINUOUS
 62
     7
 10
192.0129546037511
 20
511.8599311415148
 30
0.0
  0
VERTEX
  5
2C3
  8
0
  6
CONTINUOUS
 62
     7
 10
192.0499999999998
 20
511.8590654582802
 30
0.0
  0
SEQEND
  5
4C0
  8
0
  6
CONTINUOUS
 62
     7
  0
LINE
  5
83
  8
0
  6
CONTINUOUS
 62
     7
 10
186.4065487900658
 20
510.8590654582802
 30
0.0
 11
187.5835908258345
 21
510.8590654582802
 31
0.0
  0
LINE
  5
84
  8
0
  6
CONTINUOUS
 62
     7
 10
193.916409174165
 20
510.8590654582802
 30
0.0
 11
195.0934512099338
 21
510.8590654582802
 31
0.0
  0
LINE
  5
85
  8
0
  6
CONTINUOUS
 62
     7
 10
195.0934512099338
 20
511.8590654582802
 30
0.0
 11
193.916409174165
 21
511.8590654582802
 31
0.0
  0
LINE
  5
86
  8
0
  6
CONTINUOUS
 62
     7
 10
187.5835908258345
 20
511.8590654582802
 30
0.0
 11
186.4065487900623
 21
511.8590654582802
 31
0.0
  0
ARC
  5
87
  8
0
  6
CONTINUOUS
 62
     7
 10
190.7499999999998
 20
511.3590654582802
 30
0.0
 40
4.500000000000004
 50
172.7990989662162
 51
180.0
  0
ARC
  5
88
  8
0
  6
CONTINUOUS
 62
     7
 10
190.7499999999998
 20
511.3590654582802
 30
0.0
 40
4.500000000000006
 50
7.20090103380528
 51
172.7990989662162
  0
ARC
  5
89
  8
0
  6
CONTINUOUS
 62
     7
 10
190.7499999999998
 20
511.3590654582802
 30
0.0
 40
4.499999999999996
 50
352.799098966195
 51
7.200901033805337
  0
ARC
  5
8A
  8
0
  6
CONTINUOUS
 62
     7
 10
190.7499999999998
 20
511.3590654582802
 30
0.0
 40
4.500000000000008
 50
187.2009010338047
 51
352.7990989661949
  0
ARC
  5
8B
  8
0
  6
CONTINUOUS
 62
     7
 10
190.7499999999998
 20
511.3590654582802
 30
0.0
 40
4.500000000000008
 50
180.0
 51
187.2009010338048
  0
ARC
  5
8C
  8
0
  6
CONTINUOUS
 62
     7
 10
190.7499999999998
 20
511.3590654582802
 30
0.0
 40
4.41251133647408
 50
353.4936022856121
 51
6.506397714387958
  0
ARC
  5
8D
  8
0
  6
CONTINUOUS
 62
     7
 10
190.7499999999998
 20
511.3590654582802
 30
0.0
 40
4.41251133647408
 50
173.4936022856121
 51
186.506397714388
  0
ARC
  5
8E
  8
0
  6
CONTINUOUS
 62
     7
 10
190.7499999999998
 20
511.3590654582802
 30
0.0
 40
1.403262301477114
 50
339.1260896468197
 51
20.87391035318029
  0
ARC
  5
8F
  8
0
  6
CONTINUOUS
 62
     7
 10
190.7499999999998
 20
511.3590654582802
 30
0.0
 40
1.403262301477114
 50
159.1260896468197
 51
200.8739103531803
  0
ARC
  5
90
  8
0
  6
CONTINUOUS
 62
     7
 10
190.7425623206612
 20
516.7435878391235
 30
0.0
 40
77.61321628178464
 50
65.4851208500964
 51
89.99450998575342
  0
LINE
  5
91
  8
0
  6
CONTINUOUS
 62
     7
 10
222.7306735499005
 20
586.3590654582802
 30
0.0
 11
222.9492368055951
 21
587.3593910071952
 31
0.0
  0
ARC
  5
92
  8
0
  6
CONTINUOUS
 62
     7
 10
190.7499999999998
 20
516.8590654582799
 30
0.0
 40
76.50000000000017
 50
65.29843035569758
 51
90.00000044722742
  0
LINE
  5
93
  8
0
  6
CONTINUOUS
 62
     7
 10
190.7499999999998
 20
594.3568037725469
 30
0.0
 11
190.7499999999998
 21
593.3602492504526
 31
0.0
  0
LINE
  5
94
  8
0
  6
CONTINUOUS
 62
     7
 10
223.293631016093
 20
587.3590654582802
 30
0.0
 11
222.9465781907249
 21
587.3590654582802
 31
0.0
  0
LINE
  5
95
  8
0
  6
CONTINUOUS
 62
     7
 10
197.5541511775707
 20
595.3562500019124
 30
0.0
 11
199.6704329688502
 21
595.3590654582802
 31
0.0
  0
LINE
  5
96
  8
0
  6
CONTINUOUS
 62
     7
 10
223.2761786096557
 20
595.35906545828
 30
0.0
 11
199.6704329688502
 21
595.35906545828
 31
0.0
  0
LINE
  5
97
  8
0
  6
CONTINUOUS
 62
     7
 10
190.7499999999998
 20
595.3450716872873
 30
0.0
 11
190.7499999999998
 21
594.3590654582802
 31
0.0
  0
POLYLINE
  5
98
  8
0
  6
CONTINUOUS
 62
     7
 66
     1
 10
0.0
 20
0.0
 30
0.0
  0
VERTEX
  5
2C4
  8
0
  6
CONTINUOUS
 62
     7
 10
225.2758739999684
 20
586.3590654582802
 30
0.0
  0
VERTEX
  5
2C5
  8
0
  6
CONTINUOUS
 62
     7
 10
224.97101562822
 20
586.7021384691211
 30
0.0
  0
VERTEX
  5
2C6
  8
0
  6
CONTINUOUS
 62
     7
 10
224.6071322980069
 20
586.982000370122
 30
0.0
  0
VERTEX
  5
2C7
  8
0
  6
CONTINUOUS
 62
     7
 10
224.1967039648273
 20
587.189052853858
 30
0.0
  0
VERTEX
  5
2C8
  8
0
  6
CONTINUOUS
 62
     7
 10
223.7538069188215
 20
587.3161947272589
 30
0.0
  0
VERTEX
  5
2C9
  8
0
  6
CONTINUOUS
 62
     7
 10
223.293631016093
 20
587.3590654582802
 30
0.0
  0
SEQEND
  5
4C1
  8
0
  6
CONTINUOUS
 62
     7
  0
LINE
  5
99
  8
0
  6
CONTINUOUS
 62
     7
 10
222.7188019256991
 20
586.3590654582802
 30
0.0
 11
225.2758739999684
 21
586.3590654582802
 31
0.0
  0
LINE
  5
9A
  8
0
  6
CONTINUOUS
 62
     7
 10
190.7499999999998
 20
600.2751452413798
 30
0.0
 11
190.7499999999998
 21
595.7529214661516
 31
0.0
  0
LINE
  5
9B
  8
0
  6
CONTINUOUS
 62
     7
 10
190.7499999999998
 20
595.7529214661516
 30
0.0
 11
190.7499999999998
 21
595.6762834594994
 31
0.0
  0
LINE
  5
9C
  8
0
  6
CONTINUOUS
 62
     7
 10
190.7499999999998
 20
595.6762834594995
 30
0.0
 11
190.7499999999998
 21
595.6081510266098
 31
0.0
  0
LINE
  5
9D
  8
0
  6
CONTINUOUS
 62
     7
 10
190.7499999999998
 20
595.6081510266098
 30
0.0
 11
190.7499999999998
 21
595.5525108275733
 31
0.0
  0
LINE
  5
9E
  8
0
  6
CONTINUOUS
 62
     7
 10
190.7499999999998
 20
595.5525108275732
 30
0.0
 11
190.7499999999998
 21
595.4963823600741
 31
0.0
  0
LINE
  5
9F
  8
0
  6
CONTINUOUS
 62
     7
 10
190.7499999999998
 20
595.4963823600741
 30
0.0
 11
190.7499999999998
 21
595.4760104573608
 31
0.0
  0
LINE
  5
A0
  8
0
  6
CONTINUOUS
 62
     7
 10
190.7499999999998
 20
595.4760104573606
 30
0.0
 11
190.7499999999998
 21
595.4217594223195
 31
0.0
  0
LINE
  5
A1
  8
0
  6
CONTINUOUS
 62
     7
 10
190.7499999999998
 20
595.4217594223195
 30
0.0
 11
190.7499999999998
 21
595.4083594531639
 31
0.0
  0
LINE
  5
A2
  8
0
  6
CONTINUOUS
 62
     7
 10
190.7499999999998
 20
595.4083594531639
 30
0.0
 11
190.7499999999998
 21
595.3827481505643
 31
0.0
  0
LINE
  5
A3
  8
0
  6
CONTINUOUS
 62
     7
 10
190.7499999999998
 20
595.3827481505643
 30
0.0
 11
190.7499999999998
 21
595.3450716872873
 31
0.0
  0
LINE
  5
A4
  8
0
  6
CONTINUOUS
 62
     7
 10
224.7499999999997
 20
595.35906545828
 30
0.0
 11
223.2761786096557
 21
595.35906545828
 31
0.0
  0
ARC
  5
A5
  8
0
  6
CONTINUOUS
 62
     7
 10
224.7499999999997
 20
594.3590654582802
 30
0.0
 40
1.000000000000001
 50
0.0
 51
90.0
  0
LINE
  5
A6
  8
0
  6
CONTINUOUS
 62
     7
 10
225.7499999999997
 20
586.3590654582802
 30
0.0
 11
225.7499999999997
 21
594.3590654582802
 31
0.0
  0
LINE
  5
A7
  8
0
  6
CONTINUOUS
 62
     7
 10
225.2758739999685
 20
586.3590654582802
 30
0.0
 11
225.7499999999998
 21
586.3590654582802
 31
0.0
  0
LINE
  5
A8
  8
0
  6
CONTINUOUS
 62
     7
 10
213.3534563630664
 20
599.342682984212
 30
0.0
 11
219.1184043865151
 21
599.4433105262691
 31
0.0
  0
ARC
  5
A9
  8
0
  6
CONTINUOUS
 62
     7
 10
219.0570327386476
 20
601.4115545517247
 30
0.0
 40
6.067208009863373
 50
199.9373454270005
 51
273.9918015793248
  0
LINE
  5
AA
  8
0
  6
CONTINUOUS
 62
     7
 10
215.8172540257798
 20
632.9215149116881
 30
0.0
 11
190.7499999999998
 21
633.3590654582802
 31
0.0
  0
LINE
  5
AB
  8
0
  6
CONTINUOUS
 62
     7
 10
215.8198096257489
 20
632.9214696511702
 30
0.0
 11
215.8172540257798
 21
632.9215149116881
 31
0.0
  0
ARC
  5
AC
  8
0
  6
CONTINUOUS
 62
     7
 10
215.7321768690773
 20
627.9205497929001
 30
0.0
 40
5.001687608086073
 50
0.2142434861120154
 51
88.99609003646553
  0
LINE
  5
AD
  8
0
  6
CONTINUOUS
 62
     7
 10
220.7338578054322
 20
627.9221619974005
 30
0.0
 11
220.7338295103504
 21
627.9392523308807
 31
0.0
  0
LINE
  5
AE
  8
0
  6
CONTINUOUS
 62
     7
 10
190.7499999999998
 20
633.3590654582802
 30
0.0
 11
190.7499999999998
 21
628.3583038180606
 31
0.0
  0
LINE
  5
AF
  8
0
  6
CONTINUOUS
 62
     7
 10
220.7338578054322
 20
618.2609948075508
 30
0.0
 11
220.7338578054322
 21
627.9221619974005
 31
0.0
  0
ARC
  5
B0
  8
0
  6
CONTINUOUS
 62
     7
 10
250.4033546298095
 20
613.3590654582802
 30
0.0
 40
30.07171350550173
 50
170.6184663741338
 51
189.3815336258662
  0
LINE
  5
B1
  8
0
  6
CONTINUOUS
 62
     7
 10
220.7338578054322
 20
600.3590654582802
 30
0.0
 11
220.7338578054322
 21
608.4571361090096
 31
0.0
  0
LINE
  5
B2
  8
0
  6
CONTINUOUS
 62
     7
 10
190.7499999999998
 20
600.2751452413798
 30
0.0
 11
190.7499999999998
 21
628.3583038180607
 31
0.0
  0
ARC
  5
B3
  8
0
  6
CONTINUOUS
 62
     7
 10
224.2216016443922
 20
600.5883400209963
 30
0.0
 40
5.230077895844265
 50
192.6462904217988
 51
271.0042386897325
  0
ARC
  5
B4
  8
0
  6
CONTINUOUS
 62
     7
 10
225.7307765589226
 20
600.3000655226296
 30
0.0
 40
4.99726229380329
 50
179.3235244329563
 51
258.7933389800605
  0
LINE
  5
B5
  8
0
  6
CONTINUOUS
 62
     7
 10
224.7595666649949
 20
595.39808818945
 30
0.0
 11
224.8524489270838
 21
595.3859646813469
 31
0.0
  0
POLYLINE
  5
B6
  8
0
  6
CONTINUOUS
 62
     7
 66
     1
 10
0.0
 20
0.0
 30
0.0
  0
VERTEX
  5
2CA
  8
0
  6
CONTINUOUS
 62
     7
 10
225.7499999999997
 20
594.377869070559
 30
0.0
  0
VERTEX
  5
2CB
  8
0
  6
CONTINUOUS
 62
     7
 10
225.7412814168304
 20
594.5097637226041
 30
0.0
  0
VERTEX
  5
2CC
  8
0
  6
CONTINUOUS
 62
     7
 10
225.722964778085
 20
594.609217139004
 30
0.0
  0
VERTEX
  5
2CD
  8
0
  6
CONTINUOUS
 62
     7
 10
225.685590786764
 20
594.7318832925225
 30
0.0
  0
VERTEX
  5
2CE
  8
0
  6
CONTINUOUS
 62
     7
 10
225.6346455637418
 20
594.8457885628994
 30
0.0
  0
VERTEX
  5
2CF
  8
0
  6
CONTINUOUS
 62
     7
 10
225.5763222032905
 20
594.9435600633535
 30
0.0
  0
VERTEX
  5
2D0
  8
0
  6
CONTINUOUS
 62
     7
 10
225.5020400424768
 20
595.0405560849159
 30
0.0
  0
SEQEND
  5
4C2
  8
0
  6
CONTINUOUS
 62
     7
  0
ARC
  5
B7
  8
0
  6
CONTINUOUS
 62
     7
 10
224.7290852465165
 20
594.3717434901035
 30
0.0
 40
1.022139620393229
 50
40.86856830363271
 51
64.68281287116757
  0
POLYLINE
  5
B8
  8
0
  6
CONTINUOUS
 62
     7
 66
     1
 10
0.0
 20
0.0
 30
0.0
  0
VERTEX
  5
2D1
  8
0
  6
CONTINUOUS
 62
     7
 10
225.1661818348053
 20
595.2957110090587
 30
0.0
  0
VERTEX
  5
2D2
  8
0
  6
CONTINUOUS
 62
     7
 10
225.0198507097692
 20
595.3515571341787
 30
0.0
  0
VERTEX
  5
2D3
  8
0
  6
CONTINUOUS
 62
     7
 10
224.9087218945623
 20
595.3776828696289
 30
0.0
  0
VERTEX
  5
2D4
  8
0
  6
CONTINUOUS
 62
     7
 10
224.8524489270838
 20
595.3859646813469
 30
0.0
  0
SEQEND
  5
4C3
  8
0
  6
CONTINUOUS
 62
     7
  0
ARC
  5
B9
  8
0
  6
CONTINUOUS
 62
     7
 10
190.7499999999998
 20
516.8590654582802
 30
0.0
 40
76.50000000000001
 50
65.29843069867479
 51
67.72298505695801
  0
LINE
  5
BA
  8
0
  6
CONTINUOUS
 62
     7
 10
158.2063689839066
 20
587.3590654582802
 30
0.0
 11
158.5534218092747
 21
587.3590654582802
 31
0.0
  0
ARC
  5
BB
  8
0
  6
CONTINUOUS
 62
     7
 10
190.7574376793384
 20
516.7435878391234
 30
0.0
 40
77.61321628178476
 50
90.00549001424658
 51
114.5148791499035
  0
ARC
  5
BC
  8
0
  6
CONTINUOUS
 62
     7
 10
190.7499999999994
 20
516.8590654582814
 30
0.0
 40
76.49999999999868
 50
89.99999955277234
 51
114.7015696443027
  0
LINE
  5
BD
  8
0
  6
CONTINUOUS
 62
     7
 10
158.7693264500991
 20
586.3590654582802
 30
0.0
 11
158.7582142151975
 21
586.4099242014037
 31
0.0
  0
LINE
  5
BE
  8
0
  6
CONTINUOUS
 62
     7
 10
158.7582142151975
 20
586.4099242014037
 30
0.0
 11
158.5507631944044
 21
587.3593910071952
 31
0.0
  0
LINE
  5
BF
  8
0
  6
CONTINUOUS
 62
     7
 10
190.7499999999998
 20
594.3568037725469
 30
0.0
 11
190.7499999999998
 21
593.3602492504526
 31
0.0
  0
LINE
  5
C0
  8
0
  6
CONTINUOUS
 62
     7
 10
183.9458488224255
 20
595.3562500019124
 30
0.0
 11
181.8295670311494
 21
595.3590654582802
 31
0.0
  0
LINE
  5
C1
  8
0
  6
CONTINUOUS
 62
     7
 10
158.2238213903439
 20
595.35906545828
 30
0.0
 11
181.8295670311494
 21
595.35906545828
 31
0.0
  0
LINE
  5
C2
  8
0
  6
CONTINUOUS
 62
     7
 10
190.7499999999998
 20
595.3450716872873
 30
0.0
 11
190.7499999999998
 21
594.3590654582802
 31
0.0
  0
LINE
  5
C3
  8
0
  6
CONTINUOUS
 62
     7
 10
158.7811980743004
 20
586.3590654582802
 30
0.0
 11
156.2241260000311
 21
586.3590654582802
 31
0.0
  0
POLYLINE
  5
C4
  8
0
  6
CONTINUOUS
 62
     7
 66
     1
 10
0.0
 20
0.0
 30
0.0
  0
VERTEX
  5
2D5
  8
0
  6
CONTINUOUS
 62
     7
 10
158.2063689839066
 20
587.3590654582802
 30
0.0
  0
VERTEX
  5
2D6
  8
0
  6
CONTINUOUS
 62
     7
 10
157.746193081178
 20
587.3161947272589
 30
0.0
  0
VERTEX
  5
2D7
  8
0
  6
CONTINUOUS
 62
     7
 10
157.3032960351722
 20
587.1890528538579
 30
0.0
  0
VERTEX
  5
2D8
  8
0
  6
CONTINUOUS
 62
     7
 10
156.8928677019927
 20
586.982000370122
 30
0.0
  0
VERTEX
  5
2D9
  8
0
  6
CONTINUOUS
 62
     7
 10
156.5289843717796
 20
586.7021384691212
 30
0.0
  0
VERTEX
  5
2DA
  8
0
  6
CONTINUOUS
 62
     7
 10
156.2241260000311
 20
586.3590654582802
 30
0.0
  0
SEQEND
  5
4C4
  8
0
  6
CONTINUOUS
 62
     7
  0
LINE
  5
C5
  8
0
  6
CONTINUOUS
 62
     7
 10
190.7499999999998
 20
600.2751452413798
 30
0.0
 11
190.7499999999998
 21
595.6534542757926
 31
0.0
  0
LINE
  5
C6
  8
0
  6
CONTINUOUS
 62
     7
 10
190.7499999999998
 20
595.6534542757926
 30
0.0
 11
190.7499999999998
 21
595.5771065394315
 31
0.0
  0
LINE
  5
C7
  8
0
  6
CONTINUOUS
 62
     7
 10
190.7499999999998
 20
595.5771232181447
 30
0.0
 11
190.7499999999998
 21
595.5091743853991
 31
0.0
  0
LINE
  5
C8
  8
0
  6
CONTINUOUS
 62
     7
 10
190.7499999999998
 20
595.5091743853991
 30
0.0
 11
190.7499999999998
 21
595.4486803597417
 31
0.0
  0
LINE
  5
C9
  8
0
  6
CONTINUOUS
 62
     7
 10
190.7499999999998
 20
595.448678310734
 30
0.0
 11
190.7499999999998
 21
595.4217594223195
 31
0.0
  0
LINE
  5
CA
  8
0
  6
CONTINUOUS
 62
     7
 10
190.7499999999998
 20
595.4217594223195
 30
0.0
 11
190.7499999999998
 21
595.3970768610787
 31
0.0
  0
LINE
  5
CB
  8
0
  6
CONTINUOUS
 62
     7
 10
190.7499999999998
 20
595.3970768610792
 30
0.0
 11
190.7499999999998
 21
595.3827481505645
 31
0.0
  0
LINE
  5
CC
  8
0
  6
CONTINUOUS
 62
     7
 10
190.7499999999998
 20
595.3827481505643
 30
0.0
 11
190.7499999999998
 21
595.3693055005849
 31
0.0
  0
LINE
  5
CD
  8
0
  6
CONTINUOUS
 62
     7
 10
190.7499999999998
 20
595.3693055005848
 30
0.0
 11
190.7499999999998
 21
595.3450716872871
 31
0.0
  0
ARC
  5
CE
  8
0
  6
CONTINUOUS
 62
     7
 10
156.7499999999998
 20
594.3590654582802
 30
0.0
 40
1.000000000000001
 50
90.0
 51
180.0
  0
LINE
  5
CF
  8
0
  6
CONTINUOUS
 62
     7
 10
156.7499999999998
 20
595.35906545828
 30
0.0
 11
158.2238213903439
 21
595.35906545828
 31
0.0
  0
LINE
  5
D0
  8
0
  6
CONTINUOUS
 62
     7
 10
156.2241260000311
 20
586.3590654582802
 30
0.0
 11
155.7499999999998
 21
586.3590654582802
 31
0.0
  0
LINE
  5
D1
  8
0
  6
CONTINUOUS
 62
     7
 10
155.7499999999998
 20
586.3590654582802
 30
0.0
 11
155.7499999999998
 21
594.3590654582802
 31
0.0
  0
LINE
  5
D2
  8
0
  6
CONTINUOUS
 62
     7
 10
168.1465436369331
 20
599.342682984212
 30
0.0
 11
162.3815956134844
 21
599.4433105262691
 31
0.0
  0
ARC
  5
D3
  8
0
  6
CONTINUOUS
 62
     7
 10
162.442967261352
 20
601.4115545517247
 30
0.0
 40
6.067208009863375
 50
266.0081984206749
 51
340.0626545729995
  0
ARC
  5
D4
  8
0
  6
CONTINUOUS
 62
     7
 10
165.7678982288218
 20
627.9204757229533
 30
0.0
 40
5.001762982970629
 50
91.00475522079418
 51
179.7849112566283
  0
LINE
  5
D5
  8
0
  6
CONTINUOUS
 62
     7
 10
165.6801903742506
 20
632.9214696511702
 30
0.0
 11
165.6827459742198
 21
632.9215149116881
 31
0.0
  0
LINE
  5
D6
  8
0
  6
CONTINUOUS
 62
     7
 10
165.6827459742198
 20
632.9215149116881
 30
0.0
 11
190.7499999999998
 21
633.3590654582802
 31
0.0
  0
LINE
  5
D7
  8
0
  6
CONTINUOUS
 62
     7
 10
160.7661421945673
 20
627.9221619974005
 30
0.0
 11
160.7661704896491
 21
627.9392523308807
 31
0.0
  0
LINE
  5
D8
  8
0
  6
CONTINUOUS
 62
     7
 10
190.7499999999998
 20
633.3590654582802
 30
0.0
 11
190.7499999999998
 21
633.3419166923316
 31
0.0
  0
LINE
  5
D9
  8
0
  6
CONTINUOUS
 62
     7
 10
190.7499999999998
 20
633.3419166923339
 30
0.0
 11
190.7499999999998
 21
628.3583038180607
 31
0.0
  0
LINE
  5
DA
  8
0
  6
CONTINUOUS
 62
     7
 10
160.7661421945673
 20
600.3590654582802
 30
0.0
 11
160.7661421945673
 21
608.4571361090096
 31
0.0
  0
ARC
  5
DB
  8
0
  6
CONTINUOUS
 62
     7
 10
131.096645370189
 20
613.3590654582802
 30
0.0
 40
30.07171350550275
 50
350.6184663741342
 51
9.381533625865815
  0
LINE
  5
DC
  8
0
  6
CONTINUOUS
 62
     7
 10
160.7661421945673
 20
618.2609948075508
 30
0.0
 11
160.7661421945673
 21
627.9221619974005
 31
0.0
  0
LINE
  5
DD
  8
0
  6
CONTINUOUS
 62
     7
 10
190.7499999999998
 20
600.2751452413798
 30
0.0
 11
190.7499999999998
 21
628.3583038180607
 31
0.0
  0
ARC
  5
DE
  8
0
  6
CONTINUOUS
 62
     7
 10
157.2715739078416
 20
600.5970202203423
 30
0.0
 40
5.238641798246878
 50
269.0720537300874
 51
347.2774171583812
  0
ARC
  5
DF
  8
0
  6
CONTINUOUS
 62
     7
 10
155.7656152479
 20
600.3011844729125
 30
0.0
 40
5.000857159540615
 50
281.6275767395288
 51
0.6631683565919957
  0
LINE
  5
E0
  8
0
  6
CONTINUOUS
 62
     7
 10
156.7735348689009
 20
595.4029531219318
 30
0.0
 11
156.6475510729158
 21
595.3859646813469
 31
0.0
  0
POLYLINE
  5
E1
  8
0
  6
CONTINUOUS
 62
     7
 66
     1
 10
0.0
 20
0.0
 30
0.0
  0
VERTEX
  5
2DB
  8
0
  6
CONTINUOUS
 62
     7
 10
155.7499999999998
 20
594.377869070559
 30
0.0
  0
VERTEX
  5
2DC
  8
0
  6
CONTINUOUS
 62
     7
 10
155.7587185831691
 20
594.5097637226041
 30
0.0
  0
VERTEX
  5
2DD
  8
0
  6
CONTINUOUS
 62
     7
 10
155.7770739782593
 20
594.6093672383361
 30
0.0
  0
VERTEX
  5
2DE
  8
0
  6
CONTINUOUS
 62
     7
 10
155.8111694950232
 20
594.7230270429882
 30
0.0
  0
VERTEX
  5
2DF
  8
0
  6
CONTINUOUS
 62
     7
 10
155.8609420843124
 20
594.8372252779681
 30
0.0
  0
VERTEX
  5
2E0
  8
0
  6
CONTINUOUS
 62
     7
 10
155.9238547032264
 20
594.9438157058404
 30
0.0
  0
SEQEND
  5
4C5
  8
0
  6
CONTINUOUS
 62
     7
  0
ARC
  5
E2
  8
0
  6
CONTINUOUS
 62
     7
 10
156.7712021214824
 20
594.3714487231566
 30
0.0
 40
1.022546629788419
 50
120.9709021602289
 51
145.9617258716276
  0
POLYLINE
  5
E3
  8
0
  6
CONTINUOUS
 62
     7
 66
     1
 10
0.0
 20
0.0
 30
0.0
  0
VERTEX
  5
2E1
  8
0
  6
CONTINUOUS
 62
     7
 10
156.2449968716334
 20
595.2482096056799
 30
0.0
  0
VERTEX
  5
2E2
  8
0
  6
CONTINUOUS
 62
     7
 10
156.3643407721053
 20
595.3095330823206
 30
0.0
  0
VERTEX
  5
2E3
  8
0
  6
CONTINUOUS
 62
     7
 10
156.4803605684231
 20
595.3516197851391
 30
0.0
  0
VERTEX
  5
2E4
  8
0
  6
CONTINUOUS
 62
     7
 10
156.5915373003609
 20
595.3777285150335
 30
0.0
  0
VERTEX
  5
2E5
  8
0
  6
CONTINUOUS
 62
     7
 10
156.6475510729157
 20
595.3859646813469
 30
0.0
  0
SEQEND
  5
4C6
  8
0
  6
CONTINUOUS
 62
     7
  0
ARC
  5
E4
  8
0
  6
CONTINUOUS
 62
     7
 10
190.7499999999998
 20
516.8590654582802
 30
0.0
 40
76.50000000000001
 50
112.277014943042
 51
114.7015693013253
  0
CIRCLE
  5
E5
  8
0
  6
CONTINUOUS
 62
     7
 10
190.7499999999998
 20
541.8590654582802
 30
0.0
 40
49.0
  0
ARC
  5
E6
  8
0
  6
CONTINUOUS
 62
     7
 10
226.8257465601106
 20
570.0674040466915
 30
0.0
 40
1.119266821729969
 50
24.98938733990233
 51
46.26329861422589
  0
POLYLINE
  5
E7
  8
0
  6
CONTINUOUS
 62
     7
 66
     1
 10
0.0
 20
0.0
 30
0.0
  0
VERTEX
  5
2E6
  8
0
  6
CONTINUOUS
 62
     7
 10
227.5995464986401
 20
570.8761016869486
 30
0.0
  0
VERTEX
  5
2E7
  8
0
  6
CONTINUOUS
 62
     7
 10
227.4941977143645
 20
570.9665292461359
 30
0.0
  0
VERTEX
  5
2E8
  8
0
  6
CONTINUOUS
 62
     7
 10
227.3775299213822
 20
571.0452681630854
 30
0.0
  0
VERTEX
  5
2E9
  8
0
  6
CONTINUOUS
 62
     7
 10
227.2566087903816
 20
571.10828784501
 30
0.0
  0
VERTEX
  5
2EA
  8
0
  6
CONTINUOUS
 62
     7
 10
227.1599365691219
 20
571.1469598250119
 30
0.0
  0
VERTEX
  5
2EB
  8
0
  6
CONTINUOUS
 62
     7
 10
227.062955639475
 20
571.1763513303989
 30
0.0
  0
VERTEX
  5
2EC
  8
0
  6
CONTINUOUS
 62
     7
 10
226.9157941253107
 20
571.2039854834655
 30
0.0
  0
VERTEX
  5
2ED
  8
0
  6
CONTINUOUS
 62
     7
 10
226.8151621717888
 20
571.2113068977567
 30
0.0
  0
SEQEND
  5
4C7
  8
0
  6
CONTINUOUS
 62
     7
  0
ARC
  5
E8
  8
0
  6
CONTINUOUS
 62
     7
 10
190.7499999999998
 20
541.8590654582802
 30
0.0
 40
46.50000000000001
 50
39.14100189294548
 51
140.858998107067
  0
ARC
  5
E9
  8
0
  6
CONTINUOUS
 62
     7
 10
154.7205477473351
 20
570.0574639268839
 30
0.0
 40
1.154395426083602
 50
91.77266303799205
 51
118.4103398026701
  0
ARC
  5
EA
  8
0
  6
CONTINUOUS
 62
     7
 10
154.7304845325383
 20
570.0191627488956
 30
0.0
 40
1.192849162619729
 50
117.9548397741925
 51
146.5087819580802
  0
POLYLINE
  5
EB
  8
0
  6
CONTINUOUS
 62
     7
 66
     1
 10
0.0
 20
0.0
 30
0.0
  0
VERTEX
  5
2EE
  8
0
  6
CONTINUOUS
 62
     7
 10
153.735683627431
 20
570.6773878501796
 30
0.0
  0
VERTEX
  5
2EF
  8
0
  6
CONTINUOUS
 62
     7
 10
153.6766560706996
 20
570.5751980212231
 30
0.0
  0
VERTEX
  5
2F0
  8
0
  6
CONTINUOUS
 62
     7
 10
153.659765604967
 20
570.5402387440448
 30
0.0
  0
SEQEND
  5
4C8
  8
0
  6
CONTINUOUS
 62
     7
  0
LINE
  5
EC
  8
0
  6
CONTINUOUS
 62
     7
 10
153.659765604967
 20
570.5402387440448
 30
0.0
 11
152.9847633398119
 21
568.98906545828
 31
0.0
  0
ARC
  5
ED
  8
0
  6
CONTINUOUS
 62
     7
 10
190.7499999999998
 20
541.8590654582802
 30
0.0
 40
46.49999999999999
 50
144.3070798648473
 51
35.69292013515275
  0
LINE
  5
EE
  8
0
  6
CONTINUOUS
 62
     7
 10
228.5152366601877
 20
568.98906545828
 30
0.0
 11
227.8402343950326
 21
570.5402387440444
 31
0.0
  0
POLYLINE
  5
EF
  8
0
  6
CONTINUOUS
 62
     7
 66
     1
 10
0.0
 20
0.0
 30
0.0
  0
VERTEX
  5
2F1
  8
0
  6
CONTINUOUS
 62
     7
 10
155.4314127426366
 20
570.7147452509387
 30
0.0
  0
VERTEX
  5
2F2
  8
0
  6
CONTINUOUS
 62
     7
 10
155.409635983985
 20
570.7507313474508
 30
0.0
  0
VERTEX
  5
2F3
  8
0
  6
CONTINUOUS
 62
     7
 10
155.386379734724
 20
570.7858223061069
 30
0.0
  0
VERTEX
  5
2F4
  8
0
  6
CONTINUOUS
 62
     7
 10
155.3617019755775
 20
570.8199282328967
 30
0.0
  0
VERTEX
  5
2F5
  8
0
  6
CONTINUOUS
 62
     7
 10
155.3356606872692
 20
570.85295923381
 30
0.0
  0
VERTEX
  5
2F6
  8
0
  6
CONTINUOUS
 62
     7
 10
155.3074659427814
 20
570.8857801060452
 30
0.0
  0
VERTEX
  5
2F7
  8
0
  6
CONTINUOUS
 62
     7
 10
155.2778711226717
 20
570.9173984782476
 30
0.0
  0
VERTEX
  5
2F8
  8
0
  6
CONTINUOUS
 62
     7
 10
155.2469559114837
 20
570.9477266042015
 30
0.0
  0
VERTEX
  5
2F9
  8
0
  6
CONTINUOUS
 62
     7
 10
155.2147999937609
 20
570.9766767376916
 30
0.0
  0
VERTEX
  5
2FA
  8
0
  6
CONTINUOUS
 62
     7
 10
155.1823676926585
 20
571.0034704071433
 30
0.0
  0
VERTEX
  5
2FB
  8
0
  6
CONTINUOUS
 62
     7
 10
155.1488136735355
 20
571.02890654811
 30
0.0
  0
VERTEX
  5
2FC
  8
0
  6
CONTINUOUS
 62
     7
 10
155.1142253719746
 20
571.0529168199081
 30
0.0
  0
VERTEX
  5
2FD
  8
0
  6
CONTINUOUS
 62
     7
 10
155.0786902235582
 20
571.0754328818546
 30
0.0
  0
VERTEX
  5
2FE
  8
0
  6
CONTINUOUS
 62
     7
 10
155.0411344718023
 20
571.0970285165147
 30
0.0
  0
VERTEX
  5
2FF
  8
0
  6
CONTINUOUS
 62
     7
 10
155.0026392827675
 20
571.1169907689523
 30
0.0
  0
VERTEX
  5
300
  8
0
  6
CONTINUOUS
 62
     7
 10
154.9633135765023
 20
571.1352618786584
 30
0.0
  0
VERTEX
  5
301
  8
0
  6
CONTINUOUS
 62
     7
 10
154.9232662730552
 20
571.1517840851238
 30
0.0
  0
VERTEX
  5
302
  8
0
  6
CONTINUOUS
 62
     7
 10
154.8849837982636
 20
571.1657038468687
 30
0.0
  0
VERTEX
  5
303
  8
0
  6
CONTINUOUS
 62
     7
 10
154.8461446076844
 20
571.178042053344
 30
0.0
  0
VERTEX
  5
304
  8
0
  6
CONTINUOUS
 62
     7
 10
154.806846798399
 20
571.1887649287237
 30
0.0
  0
VERTEX
  5
305
  8
0
  6
CONTINUOUS
 62
     7
 10
154.7665105512937
 20
571.1979833435734
 30
0.0
  0
VERTEX
  5
306
  8
0
  6
CONTINUOUS
 62
     7
 10
154.7258051020282
 20
571.2055045600849
 30
0.0
  0
VERTEX
  5
307
  8
0
  6
CONTINUOUS
 62
     7
 10
154.684837828192
 20
571.2113068977588
 30
0.0
  0
SEQEND
  5
4C9
  8
0
  6
CONTINUOUS
 62
     7
  0
POLYLINE
  5
F0
  8
0
  6
CONTINUOUS
 62
     7
 66
     1
 10
0.0
 20
0.0
 30
0.0
  0
VERTEX
  5
308
  8
0
  6
CONTINUOUS
 62
     7
 10
226.0685872573629
 20
570.7147452509387
 30
0.0
  0
VERTEX
  5
309
  8
0
  6
CONTINUOUS
 62
     7
 10
226.0903640160146
 20
570.7507313474508
 30
0.0
  0
VERTEX
  5
30A
  8
0
  6
CONTINUOUS
 62
     7
 10
226.1136202652755
 20
570.7858223061069
 30
0.0
  0
VERTEX
  5
30B
  8
0
  6
CONTINUOUS
 62
     7
 10
226.138298024422
 20
570.8199282328967
 30
0.0
  0
VERTEX
  5
30C
  8
0
  6
CONTINUOUS
 62
     7
 10
226.1643393127304
 20
570.85295923381
 30
0.0
  0
VERTEX
  5
30D
  8
0
  6
CONTINUOUS
 62
     7
 10
226.1925340572182
 20
570.8857801060452
 30
0.0
  0
VERTEX
  5
30E
  8
0
  6
CONTINUOUS
 62
     7
 10
226.2221288773278
 20
570.9173984782476
 30
0.0
  0
VERTEX
  5
30F
  8
0
  6
CONTINUOUS
 62
     7
 10
226.2530440885158
 20
570.9477266042015
 30
0.0
  0
VERTEX
  5
310
  8
0
  6
CONTINUOUS
 62
     7
 10
226.2852000062386
 20
570.9766767376916
 30
0.0
  0
VERTEX
  5
311
  8
0
  6
CONTINUOUS
 62
     7
 10
226.3176323073411
 20
571.0034704071433
 30
0.0
  0
VERTEX
  5
312
  8
0
  6
CONTINUOUS
 62
     7
 10
226.351186326464
 20
571.02890654811
 30
0.0
  0
VERTEX
  5
313
  8
0
  6
CONTINUOUS
 62
     7
 10
226.385774628025
 20
571.0529168199081
 30
0.0
  0
VERTEX
  5
314
  8
0
  6
CONTINUOUS
 62
     7
 10
226.4213097764414
 20
571.0754328818546
 30
0.0
  0
VERTEX
  5
315
  8
0
  6
CONTINUOUS
 62
     7
 10
226.4588655281972
 20
571.0970285165147
 30
0.0
  0
VERTEX
  5
316
  8
0
  6
CONTINUOUS
 62
     7
 10
226.497360717232
 20
571.1169907689523
 30
0.0
  0
VERTEX
  5
317
  8
0
  6
CONTINUOUS
 62
     7
 10
226.5366864234973
 20
571.1352618786584
 30
0.0
  0
VERTEX
  5
318
  8
0
  6
CONTINUOUS
 62
     7
 10
226.5767337269444
 20
571.1517840851238
 30
0.0
  0
VERTEX
  5
319
  8
0
  6
CONTINUOUS
 62
     7
 10
226.615016201733
 20
571.1657038468678
 30
0.0
  0
VERTEX
  5
31A
  8
0
  6
CONTINUOUS
 62
     7
 10
226.6538553923092
 20
571.1780420533422
 30
0.0
  0
VERTEX
  5
31B
  8
0
  6
CONTINUOUS
 62
     7
 10
226.6931532015916
 20
571.1887649287215
 30
0.0
  0
VERTEX
  5
31C
  8
0
  6
CONTINUOUS
 62
     7
 10
226.7334894486937
 20
571.197983343571
 30
0.0
  0
VERTEX
  5
31D
  8
0
  6
CONTINUOUS
 62
     7
 10
226.7741948979558
 20
571.2055045600823
 30
0.0
  0
VERTEX
  5
31E
  8
0
  6
CONTINUOUS
 62
     7
 10
226.8151621717888
 20
571.2113068977567
 30
0.0
  0
SEQEND
  5
4CA
  8
0
  6
CONTINUOUS
 62
     7
  0
CIRCLE
  5
F1
  8
0
  6
CONTINUOUS
 62
     7
 10
190.7499999999998
 20
511.3590654582802
 30
0.0
 40
4.99999999999999
  0
POLYLINE
  5
F2
  8
0
  6
CONTINUOUS
 62
     7
 66
     1
 10
0.0
 20
0.0
 30
0.0
  0
VERTEX
  5
31F
  8
0
  6
CONTINUOUS
 62
     7
 10
150.405153003953
 20
557.9007205608526
 30
0.0
  0
VERTEX
  5
320
  8
0
  6
CONTINUOUS
 62
     7
 10
150.4037670499447
 20
557.8800108547
 30
0.0
  0
VERTEX
  5
321
  8
0
  6
CONTINUOUS
 62
     7
 10
150.4032377739338
 20
557.8592437699285
 30
0.0
  0
VERTEX
  5
322
  8
0
  6
CONTINUOUS
 62
     7
 10
150.4035663112508
 20
557.8384726064471
 30
0.0
  0
VERTEX
  5
323
  8
0
  6
CONTINUOUS
 62
     7
 10
150.4047537972264
 20
557.8177506641646
 30
0.0
  0
VERTEX
  5
324
  8
0
  6
CONTINUOUS
 62
     7
 10
150.4068747553299
 20
557.7965006384132
 30
0.0
  0
VERTEX
  5
325
  8
0
  6
CONTINUOUS
 62
     7
 10
150.4099038827839
 20
557.7753412045207
 30
0.0
  0
VERTEX
  5
326
  8
0
  6
CONTINUOUS
 62
     7
 10
150.4138325220464
 20
557.754330252945
 30
0.0
  0
VERTEX
  5
327
  8
0
  6
CONTINUOUS
 62
     7
 10
150.4186520155757
 20
557.7335256741441
 30
0.0
  0
VERTEX
  5
328
  8
0
  6
CONTINUOUS
 62
     7
 10
150.4241895214224
 20
557.713520602273
 30
0.0
  0
VERTEX
  5
329
  8
0
  6
CONTINUOUS
 62
     7
 10
150.4305610882337
 20
557.6937463595347
 30
0.0
  0
VERTEX
  5
32A
  8
0
  6
CONTINUOUS
 62
     7
 10
150.4377496635477
 20
557.6742543135329
 30
0.0
  0
VERTEX
  5
32B
  8
0
  6
CONTINUOUS
 62
     7
 10
150.4457381949025
 20
557.6550958318722
 30
0.0
  0
VERTEX
  5
32C
  8
0
  6
CONTINUOUS
 62
     7
 10
150.4547922500624
 20
557.6357431626169
 30
0.0
  0
VERTEX
  5
32D
  8
0
  6
CONTINUOUS
 62
     7
 10
150.4646791719988
 20
557.6167801016035
 30
0.0
  0
VERTEX
  5
32E
  8
0
  6
CONTINUOUS
 62
     7
 10
150.4753708076696
 20
557.5982588619572
 30
0.0
  0
VERTEX
  5
32F
  8
0
  6
CONTINUOUS
 62
     7
 10
150.4868390040325
 20
557.5802316568034
 30
0.0
  0
VERTEX
  5
330
  8
0
  6
CONTINUOUS
 62
     7
 10
150.4986577557279
 20
557.5632895351699
 30
0.0
  0
VERTEX
  5
331
  8
0
  6
CONTINUOUS
 62
     7
 10
150.5111825573854
 20
557.546839918376
 30
0.0
  0
VERTEX
  5
332
  8
0
  6
CONTINUOUS
 62
     7
 10
150.5243800651553
 20
557.5309249584895
 30
0.0
  0
VERTEX
  5
333
  8
0
  6
CONTINUOUS
 62
     7
 10
150.5382169351878
 20
557.5155868075784
 30
0.0
  0
VERTEX
  5
334
  8
0
  6
CONTINUOUS
 62
     7
 10
150.5531147632016
 20
557.5004193020019
 30
0.0
  0
VERTEX
  5
335
  8
0
  6
CONTINUOUS
 62
     7
 10
150.568663315267
 20
557.4858909205218
 30
0.0
  0
VERTEX
  5
336
  8
0
  6
CONTINUOUS
 62
     7
 10
150.584818819712
 20
557.4720405902243
 30
0.0
  0
VERTEX
  5
337
  8
0
  6
CONTINUOUS
 62
     7
 10
150.6015375048652
 20
557.4589072381955
 30
0.0
  0
VERTEX
  5
338
  8
0
  6
CONTINUOUS
 62
     7
 10
150.6182657546568
 20
557.4468758635534
 30
0.0
  0
VERTEX
  5
339
  8
0
  6
CONTINUOUS
 62
     7
 10
150.6354936766099
 20
557.4355392078764
 30
0.0
  0
VERTEX
  5
33A
  8
0
  6
CONTINUOUS
 62
     7
 10
150.6531760194692
 20
557.424925197868
 30
0.0
  0
VERTEX
  5
33B
  8
0
  6
CONTINUOUS
 62
     7
 10
150.6712675319789
 20
557.4150617602318
 30
0.0
  0
VERTEX
  5
33C
  8
0
  6
CONTINUOUS
 62
     7
 10
150.6902932248845
 20
557.4057078108349
 30
0.0
  0
VERTEX
  5
33D
  8
0
  6
CONTINUOUS
 62
     7
 10
150.7097176735905
 20
557.3971649081531
 30
0.0
  0
VERTEX
  5
33E
  8
0
  6
CONTINUOUS
 62
     7
 10
150.7294873883349
 20
557.389454449023
 30
0.0
  0
VERTEX
  5
33F
  8
0
  6
CONTINUOUS
 62
     7
 10
150.749548879356
 20
557.3825978302815
 30
0.0
  0
VERTEX
  5
340
  8
0
  6
CONTINUOUS
 62
     7
 10
150.7741790810649
 20
557.375465226528
 30
0.0
  0
VERTEX
  5
341
  8
0
  6
CONTINUOUS
 62
     7
 10
150.7992101429539
 20
557.3695983296367
 30
0.0
  0
VERTEX
  5
342
  8
0
  6
CONTINUOUS
 62
     7
 10
150.8245420240451
 20
557.3650110219871
 30
0.0
  0
VERTEX
  5
343
  8
0
  6
CONTINUOUS
 62
     7
 10
150.8500746833606
 20
557.3617171859582
 30
0.0
  0
VERTEX
  5
344
  8
0
  6
CONTINUOUS
 62
     7
 10
150.8757080799224
 20
557.3597307039295
 30
0.0
  0
VERTEX
  5
345
  8
0
  6
CONTINUOUS
 62
     7
 10
150.9013421727529
 20
557.3590654582802
 30
0.0
  0
SEQEND
  5
4CB
  8
0
  6
CONTINUOUS
 62
     7
  0
LINE
  5
F3
  8
0
  6
CONTINUOUS
 62
     7
 10
154.9222687337309
 20
557.3590654582802
 30
0.0
 11
150.9013421727529
 21
557.3590654582802
 31
0.0
  0
POLYLINE
  5
F4
  8
0
  6
CONTINUOUS
 62
     7
 66
     1
 10
0.0
 20
0.0
 30
0.0
  0
VERTEX
  5
346
  8
0
  6
CONTINUOUS
 62
     7
 10
154.9222687337309
 20
557.3590654582802
 30
0.0
  0
VERTEX
  5
347
  8
0
  6
CONTINUOUS
 62
     7
 10
154.9429901816848
 20
557.3594957694487
 30
0.0
  0
VERTEX
  5
348
  8
0
  6
CONTINUOUS
 62
     7
 10
154.9636938513607
 20
557.3607842319748
 30
0.0
  0
VERTEX
  5
349
  8
0
  6
CONTINUOUS
 62
     7
 10
154.9843265386903
 20
557.3629271393874
 30
0.0
  0
VERTEX
  5
34A
  8
0
  6
CONTINUOUS
 62
     7
 10
155.0048350396054
 20
557.3659207852168
 30
0.0
  0
VERTEX
  5
34B
  8
0
  6
CONTINUOUS
 62
     7
 10
155.0257878565671
 20
557.369889797975
 30
0.0
  0
VERTEX
  5
34C
  8
0
  6
CONTINUOUS
 62
     7
 10
155.0465710366511
 20
557.3747545860173
 30
0.0
  0
VERTEX
  5
34D
  8
0
  6
CONTINUOUS
 62
     7
 10
155.0671277946808
 20
557.3805012561166
 30
0.0
  0
VERTEX
  5
34E
  8
0
  6
CONTINUOUS
 62
     7
 10
155.0874013454799
 20
557.3871159150465
 30
0.0
  0
VERTEX
  5
34F
  8
0
  6
CONTINUOUS
 62
     7
 10
155.1068158445808
 20
557.3943741194898
 30
0.0
  0
VERTEX
  5
350
  8
0
  6
CONTINUOUS
 62
     7
 10
155.1259279779989
 20
557.4024412038186
 30
0.0
  0
VERTEX
  5
351
  8
0
  6
CONTINUOUS
 62
     7
 10
155.1446883198923
 20
557.4112955630528
 30
0.0
  0
VERTEX
  5
352
  8
0
  6
CONTINUOUS
 62
     7
 10
155.1630474444188
 20
557.4209155922125
 30
0.0
  0
VERTEX
  5
353
  8
0
  6
CONTINUOUS
 62
     7
 10
155.1815058697249
 20
557.4316104715995
 30
0.0
  0
VERTEX
  5
354
  8
0
  6
CONTINUOUS
 62
     7
 10
155.1995048697343
 20
557.4430983464689
 30
0.0
  0
VERTEX
  5
355
  8
0
  6
CONTINUOUS
 62
     7
 10
155.2169952784563
 20
557.4553466150774
 30
0.0
  0
VERTEX
  5
356
  8
0
  6
CONTINUOUS
 62
     7
 10
155.2339279299
 20
557.4683226756815
 30
0.0
  0
VERTEX
  5
357
  8
0
  6
CONTINUOUS
 62
     7
 10
155.2497752337937
 20
557.4815714454227
 30
0.0
  0
VERTEX
  5
358
  8
0
  6
CONTINUOUS
 62
     7
 10
155.2650710685537
 20
557.4954798808891
 30
0.0
  0
VERTEX
  5
359
  8
0
  6
CONTINUOUS
 62
     7
 10
155.2797765565755
 20
557.5100110839281
 30
0.0
  0
VERTEX
  5
35A
  8
0
  6
CONTINUOUS
 62
     7
 10
155.293852820255
 20
557.5251281563865
 30
0.0
  0
VERTEX
  5
35B
  8
0
  6
CONTINUOUS
 62
     7
 10
155.307666764638
 20
557.5412847375686
 30
0.0
  0
VERTEX
  5
35C
  8
0
  6
CONTINUOUS
 62
     7
 10
155.320788903688
 20
557.5580328391138
 30
0.0
  0
VERTEX
  5
35D
  8
0
  6
CONTINUOUS
 62
     7
 10
155.3331844880559
 20
557.5753256098792
 30
0.0
  0
VERTEX
  5
35E
  8
0
  6
CONTINUOUS
 62
     7
 10
155.3448187683924
 20
557.5931161987207
 30
0.0
  0
VERTEX
  5
35F
  8
0
  6
CONTINUOUS
 62
     7
 10
155.3553737454162
 20
557.610850718927
 30
0.0
  0
VERTEX
  5
360
  8
0
  6
CONTINUOUS
 62
     7
 10
155.3651926472794
 20
557.629023336885
 30
0.0
  0
VERTEX
  5
361
  8
0
  6
CONTINUOUS
 62
     7
 10
155.3742515896901
 20
557.647586524908
 30
0.0
  0
VERTEX
  5
362
  8
0
  6
CONTINUOUS
 62
     7
 10
155.3825266883563
 20
557.666492755309
 30
0.0
  0
VERTEX
  5
363
  8
0
  6
CONTINUOUS
 62
     7
 10
155.3902128176375
 20
557.686286018034
 30
0.0
  0
VERTEX
  5
364
  8
0
  6
CONTINUOUS
 62
     7
 10
155.3970557763773
 20
557.7064067081166
 30
0.0
  0
VERTEX
  5
365
  8
0
  6
CONTINUOUS
 62
     7
 10
155.403038829808
 20
557.7267996875539
 30
0.0
  0
VERTEX
  5
366
  8
0
  6
CONTINUOUS
 62
     7
 10
155.4081452431619
 20
557.7474098183436
 30
0.0
  0
VERTEX
  5
367
  8
0
  6
CONTINUOUS
 62
     7
 10
155.4122779767982
 20
557.7677151798847
 30
0.0
  0
VERTEX
  5
368
  8
0
  6
CONTINUOUS
 62
     7
 10
155.4155683994396
 20
557.7881829496968
 30
0.0
  0
VERTEX
  5
369
  8
0
  6
CONTINUOUS
 62
     7
 10
155.4180087666837
 20
557.8087604431853
 30
0.0
  0
SEQEND
  5
4CC
  8
0
  6
CONTINUOUS
 62
     7
  0
ARC
  5
F5
  8
0
  6
CONTINUOUS
 62
     7
 10
190.7499999999998
 20
554.3590654582802
 30
0.0
 40
35.49999999999999
 50
159.5194861072842
 51
174.4235109416838
  0
LINE
  5
F6
  8
0
  6
CONTINUOUS
 62
     7
 10
157.4939109991341
 20
566.780117924416
 30
0.0
 11
157.4586627239806
 21
567.2034452836077
 31
0.0
  0
LINE
  5
F7
  8
0
  6
CONTINUOUS
 62
     7
 10
155.4314127426366
 20
570.7147452509387
 30
0.0
 11
157.4586627239806
 21
567.2034452836078
 31
0.0
  0
LINE
  5
F8
  8
0
  6
CONTINUOUS
 62
     7
 10
226.0685872573629
 20
570.7147452509387
 30
0.0
 11
224.041337276019
 21
567.2034452836078
 31
0.0
  0
LINE
  5
F9
  8
0
  6
CONTINUOUS
 62
     7
 10
224.0060890008655
 20
566.780117924416
 30
0.0
 11
224.041337276019
 21
567.2034452836078
 31
0.0
  0
ARC
  5
FA
  8
0
  6
CONTINUOUS
 62
     7
 10
190.7499999999998
 20
554.3590654582802
 30
0.0
 40
35.5
 50
5.576489058316326
 51
20.48051389271581
  0
POLYLINE
  5
FB
  8
0
  6
CONTINUOUS
 62
     7
 66
     1
 10
0.0
 20
0.0
 30
0.0
  0
VERTEX
  5
36A
  8
0
  6
CONTINUOUS
 62
     7
 10
226.5777312662686
 20
557.3590654582802
 30
0.0
  0
VERTEX
  5
36B
  8
0
  6
CONTINUOUS
 62
     7
 10
226.5570098183148
 20
557.3594957694488
 30
0.0
  0
VERTEX
  5
36C
  8
0
  6
CONTINUOUS
 62
     7
 10
226.5363061486388
 20
557.3607842319748
 30
0.0
  0
VERTEX
  5
36D
  8
0
  6
CONTINUOUS
 62
     7
 10
226.5156734613092
 20
557.3629271393874
 30
0.0
  0
VERTEX
  5
36E
  8
0
  6
CONTINUOUS
 62
     7
 10
226.4951649603941
 20
557.3659207852168
 30
0.0
  0
VERTEX
  5
36F
  8
0
  6
CONTINUOUS
 62
     7
 10
226.4742121434325
 20
557.369889797975
 30
0.0
  0
VERTEX
  5
370
  8
0
  6
CONTINUOUS
 62
     7
 10
226.4534289633485
 20
557.3747545860173
 30
0.0
  0
VERTEX
  5
371
  8
0
  6
CONTINUOUS
 62
     7
 10
226.4328722053187
 20
557.3805012561166
 30
0.0
  0
VERTEX
  5
372
  8
0
  6
CONTINUOUS
 62
     7
 10
226.4125986545197
 20
557.3871159150465
 30
0.0
  0
VERTEX
  5
373
  8
0
  6
CONTINUOUS
 62
     7
 10
226.3931841554188
 20
557.39437411949
 30
0.0
  0
VERTEX
  5
374
  8
0
  6
CONTINUOUS
 62
     7
 10
226.3740720220006
 20
557.4024412038187
 30
0.0
  0
VERTEX
  5
375
  8
0
  6
CONTINUOUS
 62
     7
 10
226.3553116801072
 20
557.4112955630528
 30
0.0
  0
VERTEX
  5
376
  8
0
  6
CONTINUOUS
 62
     7
 10
226.3369525555808
 20
557.4209155922125
 30
0.0
  0
VERTEX
  5
377
  8
0
  6
CONTINUOUS
 62
     7
 10
226.3184941302746
 20
557.4316104715995
 30
0.0
  0
VERTEX
  5
378
  8
0
  6
CONTINUOUS
 62
     7
 10
226.3004951302652
 20
557.4430983464689
 30
0.0
  0
VERTEX
  5
379
  8
0
  6
CONTINUOUS
 62
     7
 10
226.2830047215432
 20
557.4553466150774
 30
0.0
  0
VERTEX
  5
37A
  8
0
  6
CONTINUOUS
 62
     7
 10
226.2660720700995
 20
557.4683226756815
 30
0.0
  0
VERTEX
  5
37B
  8
0
  6
CONTINUOUS
 62
     7
 10
226.2502247662058
 20
557.4815714454227
 30
0.0
  0
VERTEX
  5
37C
  8
0
  6
CONTINUOUS
 62
     7
 10
226.2349289314459
 20
557.4954798808891
 30
0.0
  0
VERTEX
  5
37D
  8
0
  6
CONTINUOUS
 62
     7
 10
226.220223443424
 20
557.5100110839281
 30
0.0
  0
VERTEX
  5
37E
  8
0
  6
CONTINUOUS
 62
     7
 10
226.2061471797445
 20
557.5251281563865
 30
0.0
  0
VERTEX
  5
37F
  8
0
  6
CONTINUOUS
 62
     7
 10
226.1923332353616
 20
557.5412847375686
 30
0.0
  0
VERTEX
  5
380
  8
0
  6
CONTINUOUS
 62
     7
 10
226.1792110963115
 20
557.5580328391139
 30
0.0
  0
VERTEX
  5
381
  8
0
  6
CONTINUOUS
 62
     7
 10
226.1668155119436
 20
557.5753256098792
 30
0.0
  0
VERTEX
  5
382
  8
0
  6
CONTINUOUS
 62
     7
 10
226.1551812316072
 20
557.5931161987207
 30
0.0
  0
VERTEX
  5
383
  8
0
  6
CONTINUOUS
 62
     7
 10
226.1446262545834
 20
557.610850718927
 30
0.0
  0
VERTEX
  5
384
  8
0
  6
CONTINUOUS
 62
     7
 10
226.1348073527201
 20
557.629023336885
 30
0.0
  0
VERTEX
  5
385
  8
0
  6
CONTINUOUS
 62
     7
 10
226.1257484103094
 20
557.647586524908
 30
0.0
  0
VERTEX
  5
386
  8
0
  6
CONTINUOUS
 62
     7
 10
226.1174733116432
 20
557.666492755309
 30
0.0
  0
VERTEX
  5
387
  8
0
  6
CONTINUOUS
 62
     7
 10
226.1097871823621
 20
557.686286018034
 30
0.0
  0
VERTEX
  5
388
  8
0
  6
CONTINUOUS
 62
     7
 10
226.1029442236222
 20
557.7064067081166
 30
0.0
  0
VERTEX
  5
389
  8
0
  6
CONTINUOUS
 62
     7
 10
226.0969611701915
 20
557.726799687554
 30
0.0
  0
VERTEX
  5
38A
  8
0
  6
CONTINUOUS
 62
     7
 10
226.0918547568376
 20
557.7474098183436
 30
0.0
  0
VERTEX
  5
38B
  8
0
  6
CONTINUOUS
 62
     7
 10
226.0877220232013
 20
557.7677151798847
 30
0.0
  0
VERTEX
  5
38C
  8
0
  6
CONTINUOUS
 62
     7
 10
226.0844316005599
 20
557.7881829496968
 30
0.0
  0
VERTEX
  5
38D
  8
0
  6
CONTINUOUS
 62
     7
 10
226.0819912333158
 20
557.8087604431853
 30
0.0
  0
SEQEND
  5
4CD
  8
0
  6
CONTINUOUS
 62
     7
  0
LINE
  5
FC
  8
0
  6
CONTINUOUS
 62
     7
 10
226.5777312662686
 20
557.3590654582802
 30
0.0
 11
230.5986578272467
 21
557.3590654582802
 31
0.0
  0
POLYLINE
  5
FD
  8
0
  6
CONTINUOUS
 62
     7
 66
     1
 10
0.0
 20
0.0
 30
0.0
  0
VERTEX
  5
38E
  8
0
  6
CONTINUOUS
 62
     7
 10
231.0948469960465
 20
557.9007205608526
 30
0.0
  0
VERTEX
  5
38F
  8
0
  6
CONTINUOUS
 62
     7
 10
231.0962329500549
 20
557.8800108547
 30
0.0
  0
VERTEX
  5
390
  8
0
  6
CONTINUOUS
 62
     7
 10
231.0967622260657
 20
557.8592437699285
 30
0.0
  0
VERTEX
  5
391
  8
0
  6
CONTINUOUS
 62
     7
 10
231.0964336887487
 20
557.8384726064471
 30
0.0
  0
VERTEX
  5
392
  8
0
  6
CONTINUOUS
 62
     7
 10
231.0952462027731
 20
557.8177506641646
 30
0.0
  0
VERTEX
  5
393
  8
0
  6
CONTINUOUS
 62
     7
 10
231.0931252446696
 20
557.7965006384134
 30
0.0
  0
VERTEX
  5
394
  8
0
  6
CONTINUOUS
 62
     7
 10
231.0900961172157
 20
557.7753412045207
 30
0.0
  0
VERTEX
  5
395
  8
0
  6
CONTINUOUS
 62
     7
 10
231.0861674779532
 20
557.754330252945
 30
0.0
  0
VERTEX
  5
396
  8
0
  6
CONTINUOUS
 62
     7
 10
231.0813479844239
 20
557.7335256741441
 30
0.0
  0
VERTEX
  5
397
  8
0
  6
CONTINUOUS
 62
     7
 10
231.0758104785771
 20
557.713520602273
 30
0.0
  0
VERTEX
  5
398
  8
0
  6
CONTINUOUS
 62
     7
 10
231.0694389117658
 20
557.6937463595347
 30
0.0
  0
VERTEX
  5
399
  8
0
  6
CONTINUOUS
 62
     7
 10
231.0622503364519
 20
557.6742543135329
 30
0.0
  0
VERTEX
  5
39A
  8
0
  6
CONTINUOUS
 62
     7
 10
231.054261805097
 20
557.6550958318722
 30
0.0
  0
VERTEX
  5
39B
  8
0
  6
CONTINUOUS
 62
     7
 10
231.0452077499372
 20
557.6357431626169
 30
0.0
  0
VERTEX
  5
39C
  8
0
  6
CONTINUOUS
 62
     7
 10
231.0353208280007
 20
557.6167801016035
 30
0.0
  0
VERTEX
  5
39D
  8
0
  6
CONTINUOUS
 62
     7
 10
231.0246291923299
 20
557.5982588619572
 30
0.0
  0
VERTEX
  5
39E
  8
0
  6
CONTINUOUS
 62
     7
 10
231.013160995967
 20
557.5802316568034
 30
0.0
  0
VERTEX
  5
39F
  8
0
  6
CONTINUOUS
 62
     7
 10
231.0013422442717
 20
557.5632895351699
 30
0.0
  0
VERTEX
  5
3A0
  8
0
  6
CONTINUOUS
 62
     7
 10
230.9888174426141
 20
557.546839918376
 30
0.0
  0
VERTEX
  5
3A1
  8
0
  6
CONTINUOUS
 62
     7
 10
230.9756199348442
 20
557.5309249584895
 30
0.0
  0
VERTEX
  5
3A2
  8
0
  6
CONTINUOUS
 62
     7
 10
230.9617830648117
 20
557.5155868075784
 30
0.0
  0
VERTEX
  5
3A3
  8
0
  6
CONTINUOUS
 62
     7
 10
230.9468852367979
 20
557.5004193020019
 30
0.0
  0
VERTEX
  5
3A4
  8
0
  6
CONTINUOUS
 62
     7
 10
230.9313366847326
 20
557.4858909205218
 30
0.0
  0
VERTEX
  5
3A5
  8
0
  6
CONTINUOUS
 62
     7
 10
230.9151811802876
 20
557.4720405902243
 30
0.0
  0
VERTEX
  5
3A6
  8
0
  6
CONTINUOUS
 62
     7
 10
230.8984624951344
 20
557.4589072381955
 30
0.0
  0
VERTEX
  5
3A7
  8
0
  6
CONTINUOUS
 62
     7
 10
230.8817342453428
 20
557.4468758635534
 30
0.0
  0
VERTEX
  5
3A8
  8
0
  6
CONTINUOUS
 62
     7
 10
230.8645063233896
 20
557.4355392078764
 30
0.0
  0
VERTEX
  5
3A9
  8
0
  6
CONTINUOUS
 62
     7
 10
230.8468239805304
 20
557.424925197868
 30
0.0
  0
VERTEX
  5
3AA
  8
0
  6
CONTINUOUS
 62
     7
 10
230.8287324680206
 20
557.4150617602318
 30
0.0
  0
VERTEX
  5
3AB
  8
0
  6
CONTINUOUS
 62
     7
 10
230.809706775115
 20
557.4057078108349
 30
0.0
  0
VERTEX
  5
3AC
  8
0
  6
CONTINUOUS
 62
     7
 10
230.7902823264091
 20
557.3971649081531
 30
0.0
  0
VERTEX
  5
3AD
  8
0
  6
CONTINUOUS
 62
     7
 10
230.7705126116646
 20
557.389454449023
 30
0.0
  0
VERTEX
  5
3AE
  8
0
  6
CONTINUOUS
 62
     7
 10
230.7504511206435
 20
557.3825978302816
 30
0.0
  0
VERTEX
  5
3AF
  8
0
  6
CONTINUOUS
 62
     7
 10
230.7258209189346
 20
557.375465226528
 30
0.0
  0
VERTEX
  5
3B0
  8
0
  6
CONTINUOUS
 62
     7
 10
230.7007898570456
 20
557.3695983296367
 30
0.0
  0
VERTEX
  5
3B1
  8
0
  6
CONTINUOUS
 62
     7
 10
230.6754579759545
 20
557.3650110219871
 30
0.0
  0
VERTEX
  5
3B2
  8
0
  6
CONTINUOUS
 62
     7
 10
230.649925316639
 20
557.3617171859582
 30
0.0
  0
VERTEX
  5
3B3
  8
0
  6
CONTINUOUS
 62
     7
 10
230.6242919200771
 20
557.3597307039295
 30
0.0
  0
VERTEX
  5
3B4
  8
0
  6
CONTINUOUS
 62
     7
 10
230.5986578272467
 20
557.3590654582802
 30
0.0
  0
SEQEND
  5
4CE
  8
0
  6
CONTINUOUS
 62
     7
  0
ARC
  5
FE
  8
0
  6
CONTINUOUS
 62
     7
 10
190.7499999999998
 20
554.3590654582802
 30
0.0
 40
40.50000000000001
 50
5.016825053975148
 51
21.17603443452208
  0
ARC
  5
FF
  8
0
  6
CONTINUOUS
 62
     7
 10
190.7499999999998
 20
554.3590654582802
 30
0.0
 40
40.49999999999999
 50
158.8239655654778
 51
174.9831749460247
  0
LINE
  5
100
  8
0
  6
CONTINUOUS
 62
     7
 10
227.6058857668663
 20
557.6215314488579
 30
0.0
 11
227.6735565809902
 21
558.2776964253025
 31
0.0
  0
LINE
  5
101
  8
0
  6
CONTINUOUS
 62
     7
 10
227.6735565809903
 20
558.2776964253023
 30
0.0
 11
228.9184577833371
 21
558.2776964253023
 31
0.0
  0
LINE
  5
102
  8
0
  6
CONTINUOUS
 62
     7
 10
229.1115212897025
 20
557.6215314488578
 30
0.0
 11
228.918457783337
 21
558.2776964253022
 31
0.0
  0
LINE
  5
103
  8
0
  6
CONTINUOUS
 62
     7
 10
152.5815422166626
 20
558.2776964253023
 30
0.0
 11
152.3884787102971
 21
557.6215314488579
 31
0.0
  0
LINE
  5
104
  8
0
  6
CONTINUOUS
 62
     7
 10
153.8264434190092
 20
558.2776964253023
 30
0.0
 11
152.5815422166624
 21
558.2776964253023
 31
0.0
  0
LINE
  5
105
  8
0
  6
CONTINUOUS
 62
     7
 10
153.8264434190093
 20
558.2776964253023
 30
0.0
 11
153.8941142331332
 21
557.6215314488579
 31
0.0
  0
POLYLINE
  5
106
  8
0
  6
CONTINUOUS
 62
     7
 66
     1
 10
0.0
 20
0.0
 30
0.0
  0
VERTEX
  5
3B5
  8
0
  6
CONTINUOUS
 62
     7
 10
227.6190870130382
 20
567.52642595226
 30
0.0
  0
VERTEX
  5
3B6
  8
0
  6
CONTINUOUS
 62
     7
 10
227.6049505450766
 20
567.6666645160734
 30
0.0
  0
VERTEX
  5
3B7
  8
0
  6
CONTINUOUS
 62
     7
 10
227.5631120248771
 20
567.8012075810618
 30
0.0
  0
VERTEX
  5
3B8
  8
0
  6
CONTINUOUS
 62
     7
 10
227.4952610490678
 20
567.9246217927986
 30
0.0
  0
VERTEX
  5
3B9
  8
0
  6
CONTINUOUS
 62
     7
 10
227.4041376949601
 20
568.0319232217608
 30
0.0
  0
VERTEX
  5
3BA
  8
0
  6
CONTINUOUS
 62
     7
 10
227.2934218659325
 20
568.1187786331283
 30
0.0
  0
VERTEX
  5
3BB
  8
0
  6
CONTINUOUS
 62
     7
 10
227.1675846831078
 20
568.1816804790842
 30
0.0
  0
VERTEX
  5
3BC
  8
0
  6
CONTINUOUS
 62
     7
 10
227.0317079246839
 20
568.218088546774
 30
0.0
  0
VERTEX
  5
3BD
  8
0
  6
CONTINUOUS
 62
     7
 10
226.8912788046391
 20
568.2265325416437
 30
0.0
  0
VERTEX
  5
3BE
  8
0
  6
CONTINUOUS
 62
     7
 10
226.7519683784165
 20
568.2066714634572
 30
0.0
  0
VERTEX
  5
3BF
  8
0
  6
CONTINUOUS
 62
     7
 10
226.6194025244
 20
568.1593073771672
 30
0.0
  0
VERTEX
  5
3C0
  8
0
  6
CONTINUOUS
 62
     7
 10
226.4989347498092
 20
568.0863530225198
 30
0.0
  0
VERTEX
  5
3C1
  8
0
  6
CONTINUOUS
 62
     7
 10
226.3954299959655
 20
567.9907545704365
 30
0.0
  0
VERTEX
  5
3C2
  8
0
  6
CONTINUOUS
 62
     7
 10
226.3130681736842
 20
567.8763726455646
 30
0.0
  0
SEQEND
  5
4CF
  8
0
  6
CONTINUOUS
 62
     7
  0
LINE
  5
107
  8
0
  6
CONTINUOUS
 62
     7
 10
227.6190870130382
 20
567.5264259522598
 30
0.0
 11
227.6190870130382
 21
564.98249527351
 31
0.0
  0
LINE
  5
108
  8
0
  6
CONTINUOUS
 62
     7
 10
225.8334138119277
 20
567.0455869209305
 30
0.0
 11
225.7945274313127
 21
566.6304059050804
 31
0.0
  0
LINE
  5
109
  8
0
  6
CONTINUOUS
 62
     7
 10
225.8334138119277
 20
567.0455869209305
 30
0.0
 11
226.3130681736841
 21
567.8763726455646
 31
0.0
  0
ARC
  5
10A
  8
0
  6
CONTINUOUS
 62
     7
 10
190.7499999999998
 20
554.3590654582802
 30
0.0
 40
37.13091298696162
 50
6.058022200881314
 51
19.29842928710896
  0
ARC
  5
10B
  8
0
  6
CONTINUOUS
 62
     7
 10
190.7499999999998
 20
554.3590654582802
 30
0.0
 40
38.36908701303838
 50
5.861832755088641
 51
16.0737658064071
  0
LINE
  5
10C
  8
0
  6
CONTINUOUS
 62
     7
 10
153.8809129869614
 20
567.5264259522598
 30
0.0
 11
153.8809129869614
 21
564.98249527351
 31
0.0
  0
POLYLINE
  5
10D
  8
0
  6
CONTINUOUS
 62
     7
 66
     1
 10
0.0
 20
0.0
 30
0.0
  0
VERTEX
  5
3C3
  8
0
  6
CONTINUOUS
 62
     7
 10
155.1869318263154
 20
567.8763726455646
 30
0.0
  0
VERTEX
  5
3C4
  8
0
  6
CONTINUOUS
 62
     7
 10
155.1045700040341
 20
567.9907545704365
 30
0.0
  0
VERTEX
  5
3C5
  8
0
  6
CONTINUOUS
 62
     7
 10
155.0010652501904
 20
568.0863530225198
 30
0.0
  0
VERTEX
  5
3C6
  8
0
  6
CONTINUOUS
 62
     7
 10
154.8805974755996
 20
568.1593073771672
 30
0.0
  0
VERTEX
  5
3C7
  8
0
  6
CONTINUOUS
 62
     7
 10
154.7480316215831
 20
568.2066714634572
 30
0.0
  0
VERTEX
  5
3C8
  8
0
  6
CONTINUOUS
 62
     7
 10
154.6087211953605
 20
568.2265325416437
 30
0.0
  0
VERTEX
  5
3C9
  8
0
  6
CONTINUOUS
 62
     7
 10
154.4682920753157
 20
568.218088546774
 30
0.0
  0
VERTEX
  5
3CA
  8
0
  6
CONTINUOUS
 62
     7
 10
154.3324153168917
 20
568.1816804790842
 30
0.0
  0
VERTEX
  5
3CB
  8
0
  6
CONTINUOUS
 62
     7
 10
154.206578134067
 20
568.1187786331283
 30
0.0
  0
VERTEX
  5
3CC
  8
0
  6
CONTINUOUS
 62
     7
 10
154.0958623050395
 20
568.0319232217608
 30
0.0
  0
VERTEX
  5
3CD
  8
0
  6
CONTINUOUS
 62
     7
 10
154.0047389509318
 20
567.9246217927986
 30
0.0
  0
VERTEX
  5
3CE
  8
0
  6
CONTINUOUS
 62
     7
 10
153.9368879751225
 20
567.8012075810618
 30
0.0
  0
VERTEX
  5
3CF
  8
0
  6
CONTINUOUS
 62
     7
 10
153.895049454923
 20
567.6666645160734
 30
0.0
  0
VERTEX
  5
3D0
  8
0
  6
CONTINUOUS
 62
     7
 10
153.8809129869614
 20
567.52642595226
 30
0.0
  0
SEQEND
  5
4D0
  8
0
  6
CONTINUOUS
 62
     7
  0
LINE
  5
10E
  8
0
  6
CONTINUOUS
 62
     7
 10
155.6665861880718
 20
567.0455869209305
 30
0.0
 11
155.1869318263154
 21
567.8763726455646
 31
0.0
  0
LINE
  5
10F
  8
0
  6
CONTINUOUS
 62
     7
 10
155.7054725686868
 20
566.6304059050801
 30
0.0
 11
155.6665861880718
 21
567.0455869209304
 31
0.0
  0
ARC
  5
110
  8
0
  6
CONTINUOUS
 62
     7
 10
190.7499999999998
 20
554.3590654582802
 30
0.0
 40
37.13091298696162
 50
160.701570712891
 51
173.9419777991187
  0
ARC
  5
111
  8
0
  6
CONTINUOUS
 62
     7
 10
190.7499999999998
 20
554.3590654582802
 30
0.0
 40
38.36908701303837
 50
163.9262341935928
 51
174.1381672449112
  0
ENDBLK
  8
0
  0
BLOCK
  8
0
  2
D_FRAME_VIEW_12344
 70
     0
 10
0.0
 20
0.0
 30
0.0
  0
POLYLINE
  5
116
  8
0
  6
CONTINUOUS
 62
     7
 66
     1
 10
0.0
 20
0.0
 30
0.0
  0
VERTEX
  5
3D1
  8
0
  6
CONTINUOUS
 62
     7
 10
324.7999999999997
 20
612.8590654582802
 30
0.0
  0
VERTEX
  5
3D2
  8
0
  6
CONTINUOUS
 62
     7
 10
324.767059659922
 20
612.8583843838915
 30
0.0
  0
VERTEX
  5
3D3
  8
0
  6
CONTINUOUS
 62
     7
 10
324.7341312553588
 20
612.8563444944116
 30
0.0
  0
VERTEX
  5
3D4
  8
0
  6
CONTINUOUS
 62
     7
 10
324.7012989650466
 20
612.8529507903697
 30
0.0
  0
VERTEX
  5
3D5
  8
0
  6
CONTINUOUS
 62
     7
 10
324.6686469677222
 20
612.8482082722951
 30
0.0
  0
VERTEX
  5
3D6
  8
0
  6
CONTINUOUS
 62
     7
 10
324.6352736191724
 20
612.8419194817951
 30
0.0
  0
VERTEX
  5
3D7
  8
0
  6
CONTINUOUS
 62
     7
 10
324.6021518876155
 20
612.834209055052
 30
0.0
  0
VERTEX
  5
3D8
  8
0
  6
CONTINUOUS
 62
     7
 10
324.569372342187
 20
612.8250981535302
 30
0.0
  0
VERTEX
  5
3D9
  8
0
  6
CONTINUOUS
 62
     7
 10
324.5370255520222
 20
612.8146079386946
 30
0.0
  0
VERTEX
  5
3DA
  8
0
  6
CONTINUOUS
 62
     7
 10
324.5060037129301
 20
612.8030828021193
 30
0.0
  0
VERTEX
  5
3DB
  8
0
  6
CONTINUOUS
 62
     7
 10
324.4754476287069
 20
612.7902685621696
 30
0.0
  0
VERTEX
  5
3DC
  8
0
  6
CONTINUOUS
 62
     7
 10
324.4454369362164
 20
612.7761991008159
 30
0.0
  0
VERTEX
  5
3DD
  8
0
  6
CONTINUOUS
 62
     7
 10
324.4160512723223
 20
612.7609083000295
 30
0.0
  0
VERTEX
  5
3DE
  8
0
  6
CONTINUOUS
 62
     7
 10
324.3864843092411
 20
612.7439010581551
 30
0.0
  0
VERTEX
  5
3DF
  8
0
  6
CONTINUOUS
 62
     7
 10
324.3576356809414
 20
612.7256275056653
 30
0.0
  0
VERTEX
  5
3E0
  8
0
  6
CONTINUOUS
 62
     7
 10
324.3295850901001
 20
612.7061395187403
 30
0.0
  0
VERTEX
  5
3E1
  8
0
  6
CONTINUOUS
 62
     7
 10
324.3024122393941
 20
612.68548897356
 30
0.0
  0
VERTEX
  5
3E2
  8
0
  6
CONTINUOUS
 62
     7
 10
324.2770424433307
 20
612.6644670215758
 30
0.0
  0
VERTEX
  5
3E3
  8
0
  6
CONTINUOUS
 62
     7
 10
324.2525367552398
 20
612.6423975036083
 30
0.0
  0
VERTEX
  5
3E4
  8
0
  6
CONTINUOUS
 62
     7
 10
324.2289578216034
 20
612.6193390429322
 30
0.0
  0
VERTEX
  5
3E5
  8
0
  6
CONTINUOUS
 62
     7
 10
324.206368288904
 20
612.5953502628212
 30
0.0
  0
VERTEX
  5
3E6
  8
0
  6
CONTINUOUS
 62
     7
 10
324.1841762629217
 20
612.5697084512562
 30
0.0
  0
VERTEX
  5
3E7
  8
0
  6
CONTINUOUS
 62
     7
 10
324.163073356688
 20
612.5431272400983
 30
0.0
  0
VERTEX
  5
3E8
  8
0
  6
CONTINUOUS
 62
     7
 10
324.1431156299208
 20
612.5156813412259
 30
0.0
  0
VERTEX
  5
3E9
  8
0
  6
CONTINUOUS
 62
     7
 10
324.1243591423379
 20
612.4874454665182
 30
0.0
  0
VERTEX
  5
3EA
  8
0
  6
CONTINUOUS
 62
     7
 10
324.1073486950059
 20
612.4593527651851
 30
0.0
  0
VERTEX
  5
3EB
  8
0
  6
CONTINUOUS
 62
     7
 10
324.0914956535824
 20
612.4305678745836
 30
0.0
  0
VERTEX
  5
3EC
  8
0
  6
CONTINUOUS
 62
     7
 10
324.0768382796564
 20
612.4011661487358
 30
0.0
  0
VERTEX
  5
3ED
  8
0
  6
CONTINUOUS
 62
     7
 10
324.0634148348168
 20
612.3712229416637
 30
0.0
  0
VERTEX
  5
3EE
  8
0
  6
CONTINUOUS
 62
     7
 10
324.0509077971026
 20
612.3398789135075
 30
0.0
  0
VERTEX
  5
3EF
  8
0
  6
CONTINUOUS
 62
     7
 10
324.0397276615837
 20
612.3080185735141
 30
0.0
  0
VERTEX
  5
3F0
  8
0
  6
CONTINUOUS
 62
     7
 10
324.0299011743118
 20
612.275729068895
 30
0.0
  0
VERTEX
  5
3F1
  8
0
  6
CONTINUOUS
 62
     7
 10
324.021455081339
 20
612.2430975468609
 30
0.0
  0
VERTEX
  5
3F2
  8
0
  6
CONTINUOUS
 62
     7
 10
324.013761171981
 20
612.2067696952564
 30
0.0
  0
VERTEX
  5
3F3
  8
0
  6
CONTINUOUS
 62
     7
 10
324.0077574891965
 20
612.1700827668066
 30
0.0
  0
VERTEX
  5
3F4
  8
0
  6
CONTINUOUS
 62
     7
 10
324.0034552529572
 20
612.1331565553008
 30
0.0
  0
VERTEX
  5
3F5
  8
0
  6
CONTINUOUS
 62
     7
 10
324.0008656832344
 20
612.0961108545289
 30
0.0
  0
VERTEX
  5
3F6
  8
0
  6
CONTINUOUS
 62
     7
 10
323.9999999999997
 20
612.0590654582801
 30
0.0
  0
SEQEND
  5
4D1
  8
0
  6
CONTINUOUS
 62
     7
  0
LINE
  5
117
  8
0
  6
CONTINUOUS
 62
     7
 10
325.8743403483424
 20
612.8590654582802
 30
0.0
 11
324.7999999999997
 21
612.8590654582802
 31
0.0
  0
ARC
  5
118
  8
0
  6
CONTINUOUS
 62
     7
 10
323.4999999999998
 20
613.3590654582802
 30
0.0
 40
2.426415481686506
 50
348.1081330215422
 51
11.89186697845776
  0
LINE
  5
119
  8
0
  6
CONTINUOUS
 62
     7
 10
324.7999999999997
 20
613.8590654582802
 30
0.0
 11
325.8743403483424
 21
613.8590654582802
 31
0.0
  0
POLYLINE
  5
11A
  8
0
  6
CONTINUOUS
 62
     7
 66
     1
 10
0.0
 20
0.0
 30
0.0
  0
VERTEX
  5
3F7
  8
0
  6
CONTINUOUS
 62
     7
 10
323.9999999999997
 20
614.6590654582802
 30
0.0
  0
VERTEX
  5
3F8
  8
0
  6
CONTINUOUS
 62
     7
 10
324.0006810743884
 20
614.6261251182025
 30
0.0
  0
VERTEX
  5
3F9
  8
0
  6
CONTINUOUS
 62
     7
 10
324.0027209638683
 20
614.5931967136391
 30
0.0
  0
VERTEX
  5
3FA
  8
0
  6
CONTINUOUS
 62
     7
 10
324.0061146679102
 20
614.5603644233271
 30
0.0
  0
VERTEX
  5
3FB
  8
0
  6
CONTINUOUS
 62
     7
 10
324.0108571859848
 20
614.5277124260027
 30
0.0
  0
VERTEX
  5
3FC
  8
0
  6
CONTINUOUS
 62
     7
 10
324.0171459764848
 20
614.4943390774529
 30
0.0
  0
VERTEX
  5
3FD
  8
0
  6
CONTINUOUS
 62
     7
 10
324.024856403228
 20
614.4612173458959
 30
0.0
  0
VERTEX
  5
3FE
  8
0
  6
CONTINUOUS
 62
     7
 10
324.0339673047496
 20
614.4284378004673
 30
0.0
  0
VERTEX
  5
3FF
  8
0
  6
CONTINUOUS
 62
     7
 10
324.0444575195852
 20
614.3960910103027
 30
0.0
  0
VERTEX
  5
400
  8
0
  6
CONTINUOUS
 62
     7
 10
324.0559826561606
 20
614.3650691712106
 30
0.0
  0
VERTEX
  5
401
  8
0
  6
CONTINUOUS
 62
     7
 10
324.0687968961104
 20
614.3345130869873
 30
0.0
  0
VERTEX
  5
402
  8
0
  6
CONTINUOUS
 62
     7
 10
324.0828663574641
 20
614.3045023944967
 30
0.0
  0
VERTEX
  5
403
  8
0
  6
CONTINUOUS
 62
     7
 10
324.0981571582504
 20
614.2751167306026
 30
0.0
  0
VERTEX
  5
404
  8
0
  6
CONTINUOUS
 62
     7
 10
324.1151644001249
 20
614.2455497675215
 30
0.0
  0
VERTEX
  5
405
  8
0
  6
CONTINUOUS
 62
     7
 10
324.1334379526146
 20
614.2167011392219
 30
0.0
  0
VERTEX
  5
406
  8
0
  6
CONTINUOUS
 62
     7
 10
324.1529259395397
 20
614.1886505483806
 30
0.0
  0
VERTEX
  5
407
  8
0
  6
CONTINUOUS
 62
     7
 10
324.17357648472
 20
614.1614776976745
 30
0.0
  0
VERTEX
  5
408
  8
0
  6
CONTINUOUS
 62
     7
 10
324.1945984367042
 20
614.1361079016112
 30
0.0
  0
VERTEX
  5
409
  8
0
  6
CONTINUOUS
 62
     7
 10
324.2166679546715
 20
614.1116022135202
 30
0.0
  0
VERTEX
  5
40A
  8
0
  6
CONTINUOUS
 62
     7
 10
324.2397264153478
 20
614.0880232798837
 30
0.0
  0
VERTEX
  5
40B
  8
0
  6
CONTINUOUS
 62
     7
 10
324.2637151954587
 20
614.0654337471844
 30
0.0
  0
VERTEX
  5
40C
  8
0
  6
CONTINUOUS
 62
     7
 10
324.2893570070236
 20
614.0432417212022
 30
0.0
  0
VERTEX
  5
40D
  8
0
  6
CONTINUOUS
 62
     7
 10
324.3159382181817
 20
614.0221388149685
 30
0.0
  0
VERTEX
  5
40E
  8
0
  6
CONTINUOUS
 62
     7
 10
324.343384117054
 20
614.0021810882013
 30
0.0
  0
VERTEX
  5
40F
  8
0
  6
CONTINUOUS
 62
     7
 10
324.3716199917617
 20
613.9834246006184
 30
0.0
  0
VERTEX
  5
410
  8
0
  6
CONTINUOUS
 62
     7
 10
324.3997126930948
 20
613.9664141532863
 30
0.0
  0
VERTEX
  5
411
  8
0
  6
CONTINUOUS
 62
     7
 10
324.4284975836963
 20
613.9505611118627
 30
0.0
  0
VERTEX
  5
412
  8
0
  6
CONTINUOUS
 62
     7
 10
324.457899309544
 20
613.9359037379368
 30
0.0
  0
VERTEX
  5
413
  8
0
  6
CONTINUOUS
 62
     7
 10
324.4878425166162
 20
613.9224802930971
 30
0.0
  0
VERTEX
  5
414
  8
0
  6
CONTINUOUS
 62
     7
 10
324.5191865447725
 20
613.9099732553831
 30
0.0
  0
VERTEX
  5
415
  8
0
  6
CONTINUOUS
 62
     7
 10
324.5510468847658
 20
613.8987931198641
 30
0.0
  0
VERTEX
  5
416
  8
0
  6
CONTINUOUS
 62
     7
 10
324.583336389385
 20
613.8889666325922
 30
0.0
  0
VERTEX
  5
417
  8
0
  6
CONTINUOUS
 62
     7
 10
324.6159679114191
 20
613.8805205396194
 30
0.0
  0
VERTEX
  5
418
  8
0
  6
CONTINUOUS
 62
     7
 10
324.6522957630235
 20
613.8728266302613
 30
0.0
  0
VERTEX
  5
419
  8
0
  6
CONTINUOUS
 62
     7
 10
324.6889826914734
 20
613.866822947477
 30
0.0
  0
VERTEX
  5
41A
  8
0
  6
CONTINUOUS
 62
     7
 10
324.7259089029791
 20
613.8625207112376
 30
0.0
  0
VERTEX
  5
41B
  8
0
  6
CONTINUOUS
 62
     7
 10
324.762954603751
 20
613.8599311415147
 30
0.0
  0
VERTEX
  5
41C
  8
0
  6
CONTINUOUS
 62
     7
 10
324.7999999999997
 20
613.8590654582802
 30
0.0
  0
SEQEND
  5
4D2
  8
0
  6
CONTINUOUS
 62
     7
  0
LINE
  5
11B
  8
0
  6
CONTINUOUS
 62
     7
 10
323.9999999999997
 20
616.5254746324455
 30
0.0
 11
323.9999999999997
 21
614.6590654582802
 31
0.0
  0
LINE
  5
11C
  8
0
  6
CONTINUOUS
 62
     7
 10
323.9999999999997
 20
612.0590654582801
 30
0.0
 11
323.9999999999997
 21
610.1926562841148
 31
0.0
  0
LINE
  5
11D
  8
0
  6
CONTINUOUS
 62
     7
 10
322.9999999999997
 20
614.6590654582802
 30
0.0
 11
322.9999999999997
 21
616.5254746324455
 31
0.0
  0
LINE
  5
11E
  8
0
  6
CONTINUOUS
 62
     7
 10
321.1256596516571
 20
613.8590654582802
 30
0.0
 11
322.1999999999997
 21
613.8590654582802
 31
0.0
  0
ARC
  5
11F
  8
0
  6
CONTINUOUS
 62
     7
 10
323.4999999999998
 20
613.3590654582802
 30
0.0
 40
2.426415481686506
 50
168.1081330215422
 51
191.8918669784578
  0
LINE
  5
120
  8
0
  6
CONTINUOUS
 62
     7
 10
322.1999999999998
 20
612.8590654582802
 30
0.0
 11
321.1256596516572
 21
612.8590654582802
 31
0.0
  0
POLYLINE
  5
121
  8
0
  6
CONTINUOUS
 62
     7
 66
     1
 10
0.0
 20
0.0
 30
0.0
  0
VERTEX
  5
41D
  8
0
  6
CONTINUOUS
 62
     7
 10
322.9999999999997
 20
612.0590654582801
 30
0.0
  0
VERTEX
  5
41E
  8
0
  6
CONTINUOUS
 62
     7
 10
322.9993189256111
 20
612.0920057983578
 30
0.0
  0
VERTEX
  5
41F
  8
0
  6
CONTINUOUS
 62
     7
 10
322.9972790361311
 20
612.1249342029212
 30
0.0
  0
VERTEX
  5
420
  8
0
  6
CONTINUOUS
 62
     7
 10
322.9938853320894
 20
612.1577664932332
 30
0.0
  0
VERTEX
  5
421
  8
0
  6
CONTINUOUS
 62
     7
 10
322.9891428140148
 20
612.1904184905578
 30
0.0
  0
VERTEX
  5
422
  8
0
  6
CONTINUOUS
 62
     7
 10
322.9828540235148
 20
612.2237918391075
 30
0.0
  0
VERTEX
  5
423
  8
0
  6
CONTINUOUS
 62
     7
 10
322.9751435967716
 20
612.2569135706643
 30
0.0
  0
VERTEX
  5
424
  8
0
  6
CONTINUOUS
 62
     7
 10
322.9660326952498
 20
612.289693116093
 30
0.0
  0
VERTEX
  5
425
  8
0
  6
CONTINUOUS
 62
     7
 10
322.9555424804142
 20
612.3220399062576
 30
0.0
  0
VERTEX
  5
426
  8
0
  6
CONTINUOUS
 62
     7
 10
322.9440173438391
 20
612.3530617453498
 30
0.0
  0
VERTEX
  5
427
  8
0
  6
CONTINUOUS
 62
     7
 10
322.9312031038891
 20
612.383617829573
 30
0.0
  0
VERTEX
  5
428
  8
0
  6
CONTINUOUS
 62
     7
 10
322.9171336425355
 20
612.4136285220636
 30
0.0
  0
VERTEX
  5
429
  8
0
  6
CONTINUOUS
 62
     7
 10
322.9018428417492
 20
612.4430141859576
 30
0.0
  0
VERTEX
  5
42A
  8
0
  6
CONTINUOUS
 62
     7
 10
322.8848355998747
 20
612.4725811490388
 30
0.0
  0
VERTEX
  5
42B
  8
0
  6
CONTINUOUS
 62
     7
 10
322.8665620473849
 20
612.5014297773386
 30
0.0
  0
VERTEX
  5
42C
  8
0
  6
CONTINUOUS
 62
     7
 10
322.8470740604599
 20
612.5294803681797
 30
0.0
  0
VERTEX
  5
42D
  8
0
  6
CONTINUOUS
 62
     7
 10
322.8264235152795
 20
612.5566532188857
 30
0.0
  0
VERTEX
  5
42E
  8
0
  6
CONTINUOUS
 62
     7
 10
322.8054015632954
 20
612.5820230149491
 30
0.0
  0
VERTEX
  5
42F
  8
0
  6
CONTINUOUS
 62
     7
 10
322.7833320453281
 20
612.6065287030402
 30
0.0
  0
VERTEX
  5
430
  8
0
  6
CONTINUOUS
 62
     7
 10
322.7602735846518
 20
612.6301076366765
 30
0.0
  0
VERTEX
  5
431
  8
0
  6
CONTINUOUS
 62
     7
 10
322.7362848045407
 20
612.6526971693759
 30
0.0
  0
VERTEX
  5
432
  8
0
  6
CONTINUOUS
 62
     7
 10
322.7106429929759
 20
612.6748891953581
 30
0.0
  0
VERTEX
  5
433
  8
0
  6
CONTINUOUS
 62
     7
 10
322.6840617818178
 20
612.6959921015919
 30
0.0
  0
VERTEX
  5
434
  8
0
  6
CONTINUOUS
 62
     7
 10
322.6566158829455
 20
612.715949828359
 30
0.0
  0
VERTEX
  5
435
  8
0
  6
CONTINUOUS
 62
     7
 10
322.6283800082378
 20
612.7347063159419
 30
0.0
  0
VERTEX
  5
436
  8
0
  6
CONTINUOUS
 62
     7
 10
322.6002873069047
 20
612.7517167632741
 30
0.0
  0
VERTEX
  5
437
  8
0
  6
CONTINUOUS
 62
     7
 10
322.5715024163032
 20
612.7675698046975
 30
0.0
  0
VERTEX
  5
438
  8
0
  6
CONTINUOUS
 62
     7
 10
322.5421006904554
 20
612.7822271786237
 30
0.0
  0
VERTEX
  5
439
  8
0
  6
CONTINUOUS
 62
     7
 10
322.5121574833834
 20
612.7956506234631
 30
0.0
  0
VERTEX
  5
43A
  8
0
  6
CONTINUOUS
 62
     7
 10
322.4808134552271
 20
612.8081576611772
 30
0.0
  0
VERTEX
  5
43B
  8
0
  6
CONTINUOUS
 62
     7
 10
322.4489531152338
 20
612.8193377966961
 30
0.0
  0
VERTEX
  5
43C
  8
0
  6
CONTINUOUS
 62
     7
 10
322.4166636106146
 20
612.829164283968
 30
0.0
  0
VERTEX
  5
43D
  8
0
  6
CONTINUOUS
 62
     7
 10
322.3840320885805
 20
612.837610376941
 30
0.0
  0
VERTEX
  5
43E
  8
0
  6
CONTINUOUS
 62
     7
 10
322.347704236976
 20
612.8453042862989
 30
0.0
  0
VERTEX
  5
43F
  8
0
  6
CONTINUOUS
 62
     7
 10
322.3110173085262
 20
612.8513079690833
 30
0.0
  0
VERTEX
  5
440
  8
0
  6
CONTINUOUS
 62
     7
 10
322.2740910970204
 20
612.8556102053228
 30
0.0
  0
VERTEX
  5
441
  8
0
  6
CONTINUOUS
 62
     7
 10
322.2370453962484
 20
612.8581997750455
 30
0.0
  0
VERTEX
  5
442
  8
0
  6
CONTINUOUS
 62
     7
 10
322.1999999999998
 20
612.8590654582802
 30
0.0
  0
SEQEND
  5
4D3
  8
0
  6
CONTINUOUS
 62
     7
  0
LINE
  5
122
  8
0
  6
CONTINUOUS
 62
     7
 10
322.9999999999997
 20
610.1926562841148
 30
0.0
 11
322.9999999999997
 21
612.0590654582802
 31
0.0
  0
POLYLINE
  5
123
  8
0
  6
CONTINUOUS
 62
     7
 66
     1
 10
0.0
 20
0.0
 30
0.0
  0
VERTEX
  5
443
  8
0
  6
CONTINUOUS
 62
     7
 10
322.1999999999998
 20
613.8590654582802
 30
0.0
  0
VERTEX
  5
444
  8
0
  6
CONTINUOUS
 62
     7
 10
322.2329403400776
 20
613.8597465326689
 30
0.0
  0
VERTEX
  5
445
  8
0
  6
CONTINUOUS
 62
     7
 10
322.2658687446408
 20
613.8617864221487
 30
0.0
  0
VERTEX
  5
446
  8
0
  6
CONTINUOUS
 62
     7
 10
322.298701034953
 20
613.8651801261905
 30
0.0
  0
VERTEX
  5
447
  8
0
  6
CONTINUOUS
 62
     7
 10
322.3313530322773
 20
613.8699226442652
 30
0.0
  0
VERTEX
  5
448
  8
0
  6
CONTINUOUS
 62
     7
 10
322.3647263808271
 20
613.8762114347651
 30
0.0
  0
VERTEX
  5
449
  8
0
  6
CONTINUOUS
 62
     7
 10
322.3978481123841
 20
613.8839218615084
 30
0.0
  0
VERTEX
  5
44A
  8
0
  6
CONTINUOUS
 62
     7
 10
322.4306276578126
 20
613.8930327630301
 30
0.0
  0
VERTEX
  5
44B
  8
0
  6
CONTINUOUS
 62
     7
 10
322.4629744479773
 20
613.9035229778657
 30
0.0
  0
VERTEX
  5
44C
  8
0
  6
CONTINUOUS
 62
     7
 10
322.4939962870694
 20
613.9150481144409
 30
0.0
  0
VERTEX
  5
44D
  8
0
  6
CONTINUOUS
 62
     7
 10
322.5245523712926
 20
613.9278623543909
 30
0.0
  0
VERTEX
  5
44E
  8
0
  6
CONTINUOUS
 62
     7
 10
322.5545630637832
 20
613.9419318157444
 30
0.0
  0
VERTEX
  5
44F
  8
0
  6
CONTINUOUS
 62
     7
 10
322.5839487276772
 20
613.9572226165309
 30
0.0
  0
VERTEX
  5
450
  8
0
  6
CONTINUOUS
 62
     7
 10
322.6135156907584
 20
613.9742298584052
 30
0.0
  0
VERTEX
  5
451
  8
0
  6
CONTINUOUS
 62
     7
 10
322.6423643190581
 20
613.9925034108951
 30
0.0
  0
VERTEX
  5
452
  8
0
  6
CONTINUOUS
 62
     7
 10
322.6704149098994
 20
614.0119913978201
 30
0.0
  0
VERTEX
  5
453
  8
0
  6
CONTINUOUS
 62
     7
 10
322.6975877606054
 20
614.0326419430004
 30
0.0
  0
VERTEX
  5
454
  8
0
  6
CONTINUOUS
 62
     7
 10
322.7229575566687
 20
614.0536638949845
 30
0.0
  0
VERTEX
  5
455
  8
0
  6
CONTINUOUS
 62
     7
 10
322.7474632447598
 20
614.0757334129519
 30
0.0
  0
VERTEX
  5
456
  8
0
  6
CONTINUOUS
 62
     7
 10
322.7710421783962
 20
614.0987918736281
 30
0.0
  0
VERTEX
  5
457
  8
0
  6
CONTINUOUS
 62
     7
 10
322.7936317110954
 20
614.1227806537391
 30
0.0
  0
VERTEX
  5
458
  8
0
  6
CONTINUOUS
 62
     7
 10
322.8158237370777
 20
614.1484224653041
 30
0.0
  0
VERTEX
  5
459
  8
0
  6
CONTINUOUS
 62
     7
 10
322.8369266433114
 20
614.1750036764621
 30
0.0
  0
VERTEX
  5
45A
  8
0
  6
CONTINUOUS
 62
     7
 10
322.8568843700787
 20
614.2024495753344
 30
0.0
  0
VERTEX
  5
45B
  8
0
  6
CONTINUOUS
 62
     7
 10
322.8756408576615
 20
614.2306854500421
 30
0.0
  0
VERTEX
  5
45C
  8
0
  6
CONTINUOUS
 62
     7
 10
322.8926513049936
 20
614.2587781513753
 30
0.0
  0
VERTEX
  5
45D
  8
0
  6
CONTINUOUS
 62
     7
 10
322.9085043464171
 20
614.2875630419766
 30
0.0
  0
VERTEX
  5
45E
  8
0
  6
CONTINUOUS
 62
     7
 10
322.9231617203432
 20
614.3169647678245
 30
0.0
  0
VERTEX
  5
45F
  8
0
  6
CONTINUOUS
 62
     7
 10
322.9365851651827
 20
614.3469079748967
 30
0.0
  0
VERTEX
  5
460
  8
0
  6
CONTINUOUS
 62
     7
 10
322.9490922028968
 20
614.3782520030529
 30
0.0
  0
VERTEX
  5
461
  8
0
  6
CONTINUOUS
 62
     7
 10
322.9602723384158
 20
614.4101123430461
 30
0.0
  0
VERTEX
  5
462
  8
0
  6
CONTINUOUS
 62
     7
 10
322.9700988256877
 20
614.4424018476653
 30
0.0
  0
VERTEX
  5
463
  8
0
  6
CONTINUOUS
 62
     7
 10
322.9785449186606
 20
614.4750333696995
 30
0.0
  0
VERTEX
  5
464
  8
0
  6
CONTINUOUS
 62
     7
 10
322.9862388280186
 20
614.5113612213039
 30
0.0
  0
VERTEX
  5
465
  8
0
  6
CONTINUOUS
 62
     7
 10
322.9922425108031
 20
614.5480481497539
 30
0.0
  0
VERTEX
  5
466
  8
0
  6
CONTINUOUS
 62
     7
 10
322.9965447470424
 20
614.5849743612595
 30
0.0
  0
VERTEX
  5
467
  8
0
  6
CONTINUOUS
 62
     7
 10
322.9991343167652
 20
614.6220200620314
 30
0.0
  0
VERTEX
  5
468
  8
0
  6
CONTINUOUS
 62
     7
 10
322.9999999999997
 20
614.6590654582802
 30
0.0
  0
SEQEND
  5
4D4
  8
0
  6
CONTINUOUS
 62
     7
  0
LINE
  5
124
  8
0
  6
CONTINUOUS
 62
     7
 10
323.9999999999997
 20
609.0156142483462
 30
0.0
 11
323.9999999999997
 21
610.1926562841148
 31
0.0
  0
LINE
  5
125
  8
0
  6
CONTINUOUS
 62
     7
 10
323.9999999999997
 20
616.5254746324455
 30
0.0
 11
323.9999999999997
 21
617.7025166682141
 31
0.0
  0
LINE
  5
126
  8
0
  6
CONTINUOUS
 62
     7
 10
322.9999999999997
 20
617.7025166682141
 30
0.0
 11
322.9999999999997
 21
616.5254746324455
 31
0.0
  0
LINE
  5
127
  8
0
  6
CONTINUOUS
 62
     7
 10
322.9999999999997
 20
610.1926562841148
 30
0.0
 11
322.9999999999997
 21
609.0156142483427
 31
0.0
  0
ARC
  5
128
  8
0
  6
CONTINUOUS
 62
     7
 10
323.4999999999998
 20
613.3590654582802
 30
0.0
 40
4.500000000000004
 50
262.7990989662162
 51
270.0
  0
ARC
  5
129
  8
0
  6
CONTINUOUS
 62
     7
 10
323.4999999999998
 20
613.3590654582802
 30
0.0
 40
4.499999999999979
 50
82.79909896619496
 51
262.7990989662162
  0
ARC
  5
12A
  8
0
  6
CONTINUOUS
 62
     7
 10
323.4999999999998
 20
613.3590654582802
 30
0.0
 40
4.500000000000023
 50
277.2009010338047
 51
82.79909896619496
  0
ARC
  5
12B
  8
0
  6
CONTINUOUS
 62
     7
 10
323.4999999999998
 20
613.3590654582802
 30
0.0
 40
4.50000000000002
 50
270.0
 51
277.2009010338047
  0
ARC
  5
12C
  8
0
  6
CONTINUOUS
 62
     7
 10
323.4999999999998
 20
613.3590654582802
 30
0.0
 40
4.412511336474052
 50
83.49360228561203
 51
96.50639771438794
  0
ARC
  5
12D
  8
0
  6
CONTINUOUS
 62
     7
 10
323.4999999999998
 20
613.3590654582802
 30
0.0
 40
4.412511336474052
 50
263.493602285612
 51
276.5063977143879
  0
ARC
  5
12E
  8
0
  6
CONTINUOUS
 62
     7
 10
323.4999999999998
 20
613.3590654582802
 30
0.0
 40
1.403262301477114
 50
249.1260896468197
 51
290.8739103531803
  0
ARC
  5
12F
  8
0
  6
CONTINUOUS
 62
     7
 10
323.4999999999998
 20
613.3590654582802
 30
0.0
 40
1.403262301477114
 50
69.1260896468197
 51
110.8739103531803
  0
LINE
  5
130
  8
0
  6
CONTINUOUS
 62
     7
 10
322.5161374327984
 20
600.3590654582802
 30
0.0
 11
323.4999999999997
 21
600.3590654582802
 31
0.0
  0
LINE
  5
131
  8
0
  6
CONTINUOUS
 62
     7
 10
323.4999999999998
 20
587.6492483934867
 30
0.0
 11
323.4999999999998
 21
600.3590654582802
 31
0.0
  0
ARC
  5
132
  8
0
  6
CONTINUOUS
 62
     7
 10
352.4999999999998
 20
516.8590654582802
 30
0.0
 40
76.50000000000001
 50
112.277014943042
 51
114.7015693013253
  0
LINE
  5
133
  8
0
  6
CONTINUOUS
 62
     7
 10
317.4999999999998
 20
586.3590654582802
 30
0.0
 11
320.5312652737082
 21
586.3590654582802
 31
0.0
  0
LINE
  5
134
  8
0
  6
CONTINUOUS
 62
     7
 10
317.4999999999998
 20
586.3590654582802
 30
0.0
 11
317.4999999999998
 21
594.377869070559
 31
0.0
  0
POLYLINE
  5
135
  8
0
  6
CONTINUOUS
 62
     7
 66
     1
 10
0.0
 20
0.0
 30
0.0
  0
VERTEX
  5
469
  8
0
  6
CONTINUOUS
 62
     7
 10
317.4999999999998
 20
594.377869070559
 30
0.0
  0
VERTEX
  5
46A
  8
0
  6
CONTINUOUS
 62
     7
 10
317.5088400167363
 20
594.5106248569392
 30
0.0
  0
VERTEX
  5
46B
  8
0
  6
CONTINUOUS
 62
     7
 10
317.5352793352295
 20
594.6416583746493
 30
0.0
  0
VERTEX
  5
46C
  8
0
  6
CONTINUOUS
 62
     7
 10
317.5682610926722
 20
594.741975242879
 30
0.0
  0
VERTEX
  5
46D
  8
0
  6
CONTINUOUS
 62
     7
 10
317.6153544362577
 20
594.8457885628994
 30
0.0
  0
VERTEX
  5
46E
  8
0
  6
CONTINUOUS
 62
     7
 10
317.6736777967091
 20
594.9435600633535
 30
0.0
  0
VERTEX
  5
46F
  8
0
  6
CONTINUOUS
 62
     7
 10
317.7479599575228
 20
595.0405560849159
 30
0.0
  0
SEQEND
  5
4D5
  8
0
  6
CONTINUOUS
 62
     7
  0
ARC
  5
136
  8
0
  6
CONTINUOUS
 62
     7
 10
318.5209147534831
 20
594.3717434901035
 30
0.0
 40
1.022139620393229
 50
115.3171871288324
 51
139.1314316963673
  0
POLYLINE
  5
137
  8
0
  6
CONTINUOUS
 62
     7
 66
     1
 10
0.0
 20
0.0
 30
0.0
  0
VERTEX
  5
470
  8
0
  6
CONTINUOUS
 62
     7
 10
318.0838181651943
 20
595.2957110090587
 30
0.0
  0
VERTEX
  5
471
  8
0
  6
CONTINUOUS
 62
     7
 10
318.2301492902303
 20
595.3515571341787
 30
0.0
  0
VERTEX
  5
472
  8
0
  6
CONTINUOUS
 62
     7
 10
318.3412781054373
 20
595.3776828696289
 30
0.0
  0
VERTEX
  5
473
  8
0
  6
CONTINUOUS
 62
     7
 10
318.3975510729158
 20
595.3859646813469
 30
0.0
  0
SEQEND
  5
4D6
  8
0
  6
CONTINUOUS
 62
     7
  0
ARC
  5
138
  8
0
  6
CONTINUOUS
 62
     7
 10
317.5294673387987
 20
600.2968887491884
 30
0.0
 40
4.987057706658753
 50
280.0243860589957
 51
0.7143601544714215
  0
POLYLINE
  5
139
  8
0
  6
CONTINUOUS
 62
     7
 66
     1
 10
0.0
 20
0.0
 30
0.0
  0
VERTEX
  5
474
  8
0
  6
CONTINUOUS
 62
     7
 10
329.4999999999998
 20
594.377869070559
 30
0.0
  0
VERTEX
  5
475
  8
0
  6
CONTINUOUS
 62
     7
 10
329.4912814168305
 20
594.5097637226041
 30
0.0
  0
VERTEX
  5
476
  8
0
  6
CONTINUOUS
 62
     7
 10
329.4729260217402
 20
594.6093672383361
 30
0.0
  0
VERTEX
  5
477
  8
0
  6
CONTINUOUS
 62
     7
 10
329.4388305049764
 20
594.7230270429882
 30
0.0
  0
VERTEX
  5
478
  8
0
  6
CONTINUOUS
 62
     7
 10
329.3890579156871
 20
594.8372252779681
 30
0.0
  0
VERTEX
  5
479
  8
0
  6
CONTINUOUS
 62
     7
 10
329.3261452967732
 20
594.9438157058404
 30
0.0
  0
SEQEND
  5
4D7
  8
0
  6
CONTINUOUS
 62
     7
  0
ARC
  5
13A
  8
0
  6
CONTINUOUS
 62
     7
 10
328.4787978785175
 20
594.3714487231568
 30
0.0
 40
1.022546629788034
 50
34.0382741283683
 51
59.02909783977638
  0
POLYLINE
  5
13B
  8
0
  6
CONTINUOUS
 62
     7
 66
     1
 10
0.0
 20
0.0
 30
0.0
  0
VERTEX
  5
47A
  8
0
  6
CONTINUOUS
 62
     7
 10
329.0050031283662
 20
595.2482096056799
 30
0.0
  0
VERTEX
  5
47B
  8
0
  6
CONTINUOUS
 62
     7
 10
328.8856592278942
 20
595.3095330823206
 30
0.0
  0
VERTEX
  5
47C
  8
0
  6
CONTINUOUS
 62
     7
 10
328.7696394315764
 20
595.3516197851391
 30
0.0
  0
VERTEX
  5
47D
  8
0
  6
CONTINUOUS
 62
     7
 10
328.6584626996386
 20
595.3777285150335
 30
0.0
  0
VERTEX
  5
47E
  8
0
  6
CONTINUOUS
 62
     7
 10
328.6024489270838
 20
595.3859646813469
 30
0.0
  0
SEQEND
  5
4D8
  8
0
  6
CONTINUOUS
 62
     7
  0
LINE
  5
13C
  8
0
  6
CONTINUOUS
 62
     7
 10
329.4999999999998
 20
586.3590654582802
 30
0.0
 11
329.4999999999998
 21
594.377869070559
 31
0.0
  0
LINE
  5
13D
  8
0
  6
CONTINUOUS
 62
     7
 10
329.4999999999998
 20
586.3590654582802
 30
0.0
 11
326.4687347262914
 21
586.3590654582802
 31
0.0
  0
ARC
  5
13E
  8
0
  6
CONTINUOUS
 62
     7
 10
294.4999999999998
 20
516.8590654582802
 30
0.0
 40
76.50000000000001
 50
65.29843069867479
 51
67.72298505695801
  0
LINE
  5
13F
  8
0
  6
CONTINUOUS
 62
     7
 10
324.4838625672011
 20
600.3590654582802
 30
0.0
 11
323.4999999999998
 21
600.3590654582802
 31
0.0
  0
ARC
  5
140
  8
0
  6
CONTINUOUS
 62
     7
 10
329.4705326612008
 20
600.2968887491884
 30
0.0
 40
4.987057706658753
 50
179.2856398455286
 51
259.9756139410043
  0
LINE
  5
141
  8
0
  6
CONTINUOUS
 62
     7
 10
313.5999999999997
 20
594.3590654582802
 30
0.0
 11
313.5999999999997
 21
589.4228511448351
 31
0.0
  0
LINE
  5
142
  8
0
  6
CONTINUOUS
 62
     7
 10
291.5676704302766
 20
586.3590654582802
 30
0.0
 11
317.4999999999998
 21
586.3590654582802
 31
0.0
  0
LINE
  5
143
  8
0
  6
CONTINUOUS
 62
     7
 10
303.3999999999997
 20
594.3590654582802
 30
0.0
 11
303.3999999999997
 21
589.4228511448351
 31
0.0
  0
LINE
  5
144
  8
0
  6
CONTINUOUS
 62
     7
 10
303.3999999999997
 20
589.4228511448351
 30
0.0
 11
313.5999999999997
 21
589.4228511448351
 31
0.0
  0
LINE
  5
145
  8
0
  6
CONTINUOUS
 62
     7
 10
300.4999999999998
 20
593.35906545828
 30
0.0
 11
293.4999999999998
 21
593.35906545828
 31
0.0
  0
LINE
  5
146
  8
0
  6
CONTINUOUS
 62
     7
 10
293.4999999999998
 20
593.35906545828
 30
0.0
 11
293.4999999999998
 21
589.35906545828
 31
0.0
  0
LINE
  5
147
  8
0
  6
CONTINUOUS
 62
     7
 10
293.4999999999998
 20
589.35906545828
 30
0.0
 11
300.4999999999997
 21
589.35906545828
 31
0.0
  0
LINE
  5
148
  8
0
  6
CONTINUOUS
 62
     7
 10
300.4999999999998
 20
589.35906545828
 30
0.0
 11
300.4999999999998
 21
593.35906545828
 31
0.0
  0
LINE
  5
149
  8
0
  6
CONTINUOUS
 62
     7
 10
343.5999999999998
 20
594.3590654582802
 30
0.0
 11
343.5999999999998
 21
589.4228511448351
 31
0.0
  0
LINE
  5
14A
  8
0
  6
CONTINUOUS
 62
     7
 10
333.3999999999998
 20
594.3590654582802
 30
0.0
 11
333.3999999999998
 21
589.4228511448351
 31
0.0
  0
LINE
  5
14B
  8
0
  6
CONTINUOUS
 62
     7
 10
343.5999999999998
 20
589.4228511448351
 30
0.0
 11
333.3999999999998
 21
589.4228511448351
 31
0.0
  0
LINE
  5
14C
  8
0
  6
CONTINUOUS
 62
     7
 10
353.4999999999998
 20
589.35906545828
 30
0.0
 11
346.4999999999998
 21
589.35906545828
 31
0.0
  0
LINE
  5
14D
  8
0
  6
CONTINUOUS
 62
     7
 10
353.4999999999998
 20
593.35906545828
 30
0.0
 11
353.4999999999998
 21
589.35906545828
 31
0.0
  0
LINE
  5
14E
  8
0
  6
CONTINUOUS
 62
     7
 10
346.4999999999998
 20
593.35906545828
 30
0.0
 11
353.4999999999998
 21
593.35906545828
 31
0.0
  0
LINE
  5
14F
  8
0
  6
CONTINUOUS
 62
     7
 10
346.4999999999998
 20
589.3590654582802
 30
0.0
 11
346.4999999999998
 21
593.35906545828
 31
0.0
  0
LINE
  5
150
  8
0
  6
CONTINUOUS
 62
     7
 10
355.4323295697229
 20
586.3590654582802
 30
0.0
 11
329.4999999999998
 21
586.3590654582802
 31
0.0
  0
LINE
  5
151
  8
0
  6
CONTINUOUS
 62
     7
 10
303.3999999999997
 20
594.3590654582802
 30
0.0
 11
303.417455064928
 21
595.3590654582802
 31
0.0
  0
LINE
  5
152
  8
0
  6
CONTINUOUS
 62
     7
 10
303.5094538395474
 20
595.35906545828
 30
0.0
 11
303.4174550649279
 21
595.35906545828
 31
0.0
  0
LINE
  5
153
  8
0
  6
CONTINUOUS
 62
     7
 10
303.5094538395474
 20
595.35906545828
 30
0.0
 11
303.6163824740678
 21
599.3426829842119
 31
0.0
  0
LINE
  5
154
  8
0
  6
CONTINUOUS
 62
     7
 10
289.0680511923857
 20
587.35906545828
 30
0.0
 11
290.1028037004166
 21
586.3590654582802
 31
0.0
  0
LINE
  5
155
  8
0
  6
CONTINUOUS
 62
     7
 10
290.1028037004165
 20
586.3590654582802
 30
0.0
 11
291.5676704302765
 21
586.3590654582802
 31
0.0
  0
LINE
  5
156
  8
0
  6
CONTINUOUS
 62
     7
 10
303.417455064928
 20
595.35906545828
 30
0.0
 11
291.5676704302766
 21
595.35906545828
 31
0.0
  0
LINE
  5
157
  8
0
  6
CONTINUOUS
 62
     7
 10
291.5676704302766
 20
595.35906545828
 30
0.0
 11
290.067898887542
 21
595.35906545828
 31
0.0
  0
LINE
  5
158
  8
0
  6
CONTINUOUS
 62
     7
 10
343.5825449350716
 20
595.35906545828
 30
0.0
 11
355.4323295697229
 21
595.35906545828
 31
0.0
  0
LINE
  5
159
  8
0
  6
CONTINUOUS
 62
     7
 10
343.5999999999998
 20
594.3590654582802
 30
0.0
 11
343.5825449350716
 21
595.3590654582802
 31
0.0
  0
LINE
  5
15A
  8
0
  6
CONTINUOUS
 62
     7
 10
313.4842450679886
 20
599.4433105262691
 30
0.0
 11
313.5749217138159
 21
595.35906545828
 31
0.0
  0
LINE
  5
15B
  8
0
  6
CONTINUOUS
 62
     7
 10
313.5825449350716
 20
595.35906545828
 30
0.0
 11
313.574921713816
 21
595.35906545828
 31
0.0
  0
LINE
  5
15C
  8
0
  6
CONTINUOUS
 62
     7
 10
313.5825449350716
 20
595.35906545828
 30
0.0
 11
313.5999999999997
 21
594.3590654582802
 31
0.0
  0
LINE
  5
15D
  8
0
  6
CONTINUOUS
 62
     7
 10
331.8066238629178
 20
595.35906545828
 30
0.0
 11
333.4174550649279
 21
595.35906545828
 31
0.0
  0
LINE
  5
15E
  8
0
  6
CONTINUOUS
 62
     7
 10
333.417455064928
 20
595.35906545828
 30
0.0
 11
333.3999999999998
 21
594.3590654582802
 31
0.0
  0
LINE
  5
15F
  8
0
  6
CONTINUOUS
 62
     7
 10
315.1933761370817
 20
595.35906545828
 30
0.0
 11
313.5825449350716
 21
595.35906545828
 31
0.0
  0
LINE
  5
160
  8
0
  6
CONTINUOUS
 62
     7
 10
355.4323295697229
 20
595.35906545828
 30
0.0
 11
356.9321011124575
 21
595.35906545828
 31
0.0
  0
LINE
  5
161
  8
0
  6
CONTINUOUS
 62
     7
 10
357.9319488076139
 20
587.35906545828
 30
0.0
 11
356.897196299583
 21
586.3590654582802
 31
0.0
  0
LINE
  5
162
  8
0
  6
CONTINUOUS
 62
     7
 10
356.897196299583
 20
586.3590654582802
 30
0.0
 11
355.4323295697229
 21
586.3590654582802
 31
0.0
  0
LINE
  5
163
  8
0
  6
CONTINUOUS
 62
     7
 10
333.417455064928
 20
595.35906545828
 30
0.0
 11
333.4250782861836
 21
595.35906545828
 31
0.0
  0
LINE
  5
164
  8
0
  6
CONTINUOUS
 62
     7
 10
333.5157549320108
 20
599.4433105262691
 30
0.0
 11
333.4250782861836
 21
595.35906545828
 31
0.0
  0
LINE
  5
165
  8
0
  6
CONTINUOUS
 62
     7
 10
343.4905461604521
 20
595.35906545828
 30
0.0
 11
343.3836175259316
 21
599.3426829842119
 31
0.0
  0
LINE
  5
166
  8
0
  6
CONTINUOUS
 62
     7
 10
343.4905461604521
 20
595.35906545828
 30
0.0
 11
343.5825449350716
 21
595.35906545828
 31
0.0
  0
LINE
  5
167
  8
0
  6
CONTINUOUS
 62
     7
 10
290.0583770613054
 20
586.3590654582802
 30
0.0
 11
289.0617141705752
 21
587.3593910071952
 31
0.0
  0
LINE
  5
168
  8
0
  6
CONTINUOUS
 62
     7
 10
289.0680511923857
 20
587.3590654582802
 30
0.0
 11
289.0619933627853
 21
587.3590654582802
 31
0.0
  0
LINE
  5
169
  8
0
  6
CONTINUOUS
 62
     7
 10
290.058169841334
 20
586.3590654582802
 30
0.0
 11
290.1028037004165
 21
586.3590654582802
 31
0.0
  0
LINE
  5
16A
  8
0
  6
CONTINUOUS
 62
     7
 10
356.9416229386943
 20
586.3590654582802
 30
0.0
 11
357.9382858294243
 21
587.3593910071952
 31
0.0
  0
LINE
  5
16B
  8
0
  6
CONTINUOUS
 62
     7
 10
357.9319488076139
 20
587.3590654582802
 30
0.0
 11
357.9380066372142
 21
587.3590654582802
 31
0.0
  0
LINE
  5
16C
  8
0
  6
CONTINUOUS
 62
     7
 10
356.9418301586654
 20
586.3590654582802
 30
0.0
 11
356.897196299583
 21
586.3590654582802
 31
0.0
  0
LINE
  5
16D
  8
0
  6
CONTINUOUS
 62
     7
 10
357.4560787656659
 20
595.3562500019124
 30
0.0
 11
357.3441409352968
 21
595.3590654582802
 31
0.0
  0
POLYLINE
  5
16E
  8
0
  6
CONTINUOUS
 62
     7
 66
     1
 10
0.0
 20
0.0
 30
0.0
  0
VERTEX
  5
47F
  8
0
  6
CONTINUOUS
 62
     7
 10
358.4999999999998
 20
594.3590654582802
 30
0.0
  0
VERTEX
  5
480
  8
0
  6
CONTINUOUS
 62
     7
 10
358.4799695935685
 20
594.5581976164825
 30
0.0
  0
VERTEX
  5
481
  8
0
  6
CONTINUOUS
 62
     7
 10
358.4206806864235
 20
594.7493535935563
 30
0.0
  0
VERTEX
  5
482
  8
0
  6
CONTINUOUS
 62
     7
 10
358.3245080786301
 20
594.924876692006
 30
0.0
  0
VERTEX
  5
483
  8
0
  6
CONTINUOUS
 62
     7
 10
358.1953039362389
 20
595.0777363847782
 30
0.0
  0
VERTEX
  5
484
  8
0
  6
CONTINUOUS
 62
     7
 10
358.0382434938857
 20
595.201809920993
 30
0.0
  0
VERTEX
  5
485
  8
0
  6
CONTINUOUS
 62
     7
 10
357.8596177622625
 20
595.2921275709641
 30
0.0
  0
VERTEX
  5
486
  8
0
  6
CONTINUOUS
 62
     7
 10
357.6665815434992
 20
595.3450716872871
 30
0.0
  0
SEQEND
  5
4D9
  8
0
  6
CONTINUOUS
 62
     7
  0
LINE
  5
16F
  8
0
  6
CONTINUOUS
 62
     7
 10
356.9321011124575
 20
595.35906545828
 30
0.0
 11
357.3441409352968
 21
595.35906545828
 31
0.0
  0
ARC
  5
170
  8
0
  6
CONTINUOUS
 62
     7
 10
236.4677507849923
 20
587.0151920569216
 30
0.0
 40
52.59537447333325
 50
0.3758960894901232
 51
7.948182519851359
  0
LINE
  5
171
  8
0
  6
CONTINUOUS
 62
     7
 10
288.5578693661272
 20
594.2879468440327
 30
0.0
 11
288.5242402168594
 21
594.3453361957655
 31
0.0
  0
LINE
  5
172
  8
0
  6
CONTINUOUS
 62
     7
 10
289.5439212343335
 20
595.3562500019124
 30
0.0
 11
289.6558590647027
 21
595.3590654582802
 31
0.0
  0
POLYLINE
  5
173
  8
0
  6
CONTINUOUS
 62
     7
 66
     1
 10
0.0
 20
0.0
 30
0.0
  0
VERTEX
  5
487
  8
0
  6
CONTINUOUS
 62
     7
 10
289.3334184565004
 20
595.3450716872871
 30
0.0
  0
VERTEX
  5
488
  8
0
  6
CONTINUOUS
 62
     7
 10
289.1403822377371
 20
595.2921275709641
 30
0.0
  0
VERTEX
  5
489
  8
0
  6
CONTINUOUS
 62
     7
 10
288.9617565061139
 20
595.201809920993
 30
0.0
  0
VERTEX
  5
48A
  8
0
  6
CONTINUOUS
 62
     7
 10
288.8046960637607
 20
595.0777363847782
 30
0.0
  0
VERTEX
  5
48B
  8
0
  6
CONTINUOUS
 62
     7
 10
288.6754919213695
 20
594.924876692006
 30
0.0
  0
VERTEX
  5
48C
  8
0
  6
CONTINUOUS
 62
     7
 10
288.5793193135761
 20
594.7493535935563
 30
0.0
  0
VERTEX
  5
48D
  8
0
  6
CONTINUOUS
 62
     7
 10
288.5200304064311
 20
594.5581976164825
 30
0.0
  0
VERTEX
  5
48E
  8
0
  6
CONTINUOUS
 62
     7
 10
288.4999999999998
 20
594.3590654582802
 30
0.0
  0
SEQEND
  5
4DA
  8
0
  6
CONTINUOUS
 62
     7
  0
LINE
  5
174
  8
0
  6
CONTINUOUS
 62
     7
 10
290.067898887542
 20
595.35906545828
 30
0.0
 11
289.6558590647028
 21
595.35906545828
 31
0.0
  0
ARC
  5
175
  8
0
  6
CONTINUOUS
 62
     7
 10
410.5322492150073
 20
587.0151920569216
 30
0.0
 40
52.59537447333328
 50
172.0518174801487
 51
179.6241039105098
  0
LINE
  5
176
  8
0
  6
CONTINUOUS
 62
     7
 10
358.4421306338722
 20
594.2879468440327
 30
0.0
 11
358.4757597831401
 21
594.3453361957655
 31
0.0
  0
LINE
  5
177
  8
0
  6
CONTINUOUS
 62
     7
 10
358.4757597831402
 20
594.3453361957655
 30
0.0
 11
358.500000015224
 21
594.356803764615
 31
0.0
  0
LINE
  5
178
  8
0
  6
CONTINUOUS
 62
     7
 10
293.4999999999998
 20
628.3583038180607
 30
0.0
 11
293.5006043310999
 21
628.3555340007011
 31
0.0
  0
ARC
  5
179
  8
0
  6
CONTINUOUS
 62
     7
 10
298.5004073286378
 20
628.3587343024502
 30
0.0
 40
5.000331162333724
 50
90.00292229146251
 51
166.7134791960106
  0
LINE
  5
17A
  8
0
  6
CONTINUOUS
 62
     7
 10
322.5160206248243
 20
627.9392523308805
 30
0.0
 11
322.5000006523543
 21
632.9214696511702
 31
0.0
  0
LINE
  5
17B
  8
0
  6
CONTINUOUS
 62
     7
 10
322.5159923254324
 20
627.9221619974005
 30
0.0
 11
322.5160206248243
 21
627.9392523308807
 31
0.0
  0
LINE
  5
17C
  8
0
  6
CONTINUOUS
 62
     7
 10
324.4839793751752
 20
627.9392523308805
 30
0.0
 11
323.4999999999998
 21
627.922079522899
 31
0.0
  0
LINE
  5
17D
  8
0
  6
CONTINUOUS
 62
     7
 10
323.4999999999998
 20
627.922079522899
 30
0.0
 11
323.4999999999998
 21
631.9214703035248
 31
0.0
  0
LINE
  5
17E
  8
0
  6
CONTINUOUS
 62
     7
 10
324.4999993476453
 20
632.9214696511702
 30
0.0
 11
323.4999999999998
 21
631.9214703035248
 31
0.0
  0
LINE
  5
17F
  8
0
  6
CONTINUOUS
 62
     7
 10
324.4839793751752
 20
627.9392523308805
 30
0.0
 11
324.4999993476453
 21
632.9214696511702
 31
0.0
  0
ARC
  5
180
  8
0
  6
CONTINUOUS
 62
     7
 10
348.4995926713618
 20
628.3587343024503
 30
0.0
 40
5.000331162333669
 50
13.28652080398945
 51
89.9970777085378
  0
LINE
  5
181
  8
0
  6
CONTINUOUS
 62
     7
 10
353.4993956688997
 20
628.3555340007011
 30
0.0
 11
353.4999999999998
 21
628.3583038180607
 31
0.0
  0
LINE
  5
182
  8
0
  6
CONTINUOUS
 62
     7
 10
324.4840076745672
 20
627.9221619974005
 30
0.0
 11
324.4839793751752
 21
627.9392523308807
 31
0.0
  0
LINE
  5
183
  8
0
  6
CONTINUOUS
 62
     7
 10
322.5000006523543
 20
632.9214696511702
 30
0.0
 11
323.4999999999998
 21
631.9214703035248
 31
0.0
  0
LINE
  5
184
  8
0
  6
CONTINUOUS
 62
     7
 10
322.5160206248243
 20
627.9392523308805
 30
0.0
 11
323.4999999999998
 21
627.922079522899
 31
0.0
  0
LINE
  5
185
  8
0
  6
CONTINUOUS
 62
     7
 10
293.4999999999998
 20
600.2751452413798
 30
0.0
 11
293.4999999999998
 21
628.3583038180607
 31
0.0
  0
LINE
  5
186
  8
0
  6
CONTINUOUS
 62
     7
 10
322.5159923254324
 20
618.2609948075508
 30
0.0
 11
322.5159923254324
 21
627.9221619974005
 31
0.0
  0
ARC
  5
187
  8
0
  6
CONTINUOUS
 62
     7
 10
323.508773384029
 20
613.3590654582802
 30
0.0
 40
5.001452346623801
 50
101.4491722767082
 51
258.5508277232918
  0
LINE
  5
188
  8
0
  6
CONTINUOUS
 62
     7
 10
322.5159923254324
 20
600.3590654582802
 30
0.0
 11
322.5159923254324
 21
608.4571361090096
 31
0.0
  0
LINE
  5
189
  8
0
  6
CONTINUOUS
 62
     7
 10
324.4840076745672
 20
600.3590654582802
 30
0.0
 11
324.4840076745672
 21
608.4571361090096
 31
0.0
  0
ARC
  5
18A
  8
0
  6
CONTINUOUS
 62
     7
 10
323.4912266159705
 20
613.3590654582802
 30
0.0
 40
5.001452346623801
 50
281.4491722767082
 51
78.55082772329183
  0
LINE
  5
18B
  8
0
  6
CONTINUOUS
 62
     7
 10
324.4840076745672
 20
618.2609948075508
 30
0.0
 11
324.4840076745672
 21
627.9221619974005
 31
0.0
  0
LINE
  5
18C
  8
0
  6
CONTINUOUS
 62
     7
 10
353.4999999999998
 20
600.2751452413798
 30
0.0
 11
353.4999999999998
 21
628.3583038180607
 31
0.0
  0
LINE
  5
18D
  8
0
  6
CONTINUOUS
 62
     7
 10
323.4999999999998
 20
608.3765205232083
 30
0.0
 11
324.4840076745671
 21
608.4571361090096
 31
0.0
  0
LINE
  5
18E
  8
0
  6
CONTINUOUS
 62
     7
 10
322.5159923254323
 20
608.4571361090096
 30
0.0
 11
323.4999999999997
 21
608.3765205232083
 31
0.0
  0
LINE
  5
18F
  8
0
  6
CONTINUOUS
 62
     7
 10
323.4999999999998
 20
618.341610393352
 30
0.0
 11
322.5159923254323
 21
618.2609948075508
 31
0.0
  0
LINE
  5
190
  8
0
  6
CONTINUOUS
 62
     7
 10
324.4840076745672
 20
618.2609948075508
 30
0.0
 11
323.4999999999997
 21
618.341610393352
 31
0.0
  0
CIRCLE
  5
191
  8
0
  6
CONTINUOUS
 62
     7
 10
323.4999999999998
 20
613.3590654582802
 30
0.0
 40
4.581078441722785
  0
LINE
  5
192
  8
0
  6
CONTINUOUS
 62
     7
 10
323.4999999999998
 20
600.3590654582802
 30
0.0
 11
323.4999999999997
 21
608.3765205232068
 31
0.0
  0
LINE
  5
193
  8
0
  6
CONTINUOUS
 62
     7
 10
323.4999999999998
 20
618.341610393352
 30
0.0
 11
323.4999999999998
 21
627.922079522899
 31
0.0
  0
LINE
  5
194
  8
0
  6
CONTINUOUS
 62
     7
 10
300.4999999999998
 20
591.35906545828
 30
0.0
 11
293.4999999999998
 21
591.35906545828
 31
0.0
  0
LINE
  5
195
  8
0
  6
CONTINUOUS
 62
     7
 10
346.4999999999998
 20
591.3590654582802
 30
0.0
 11
353.4999999999998
 21
591.3590654582802
 31
0.0
  0
LINE
  5
196
  8
0
  6
CONTINUOUS
 62
     7
 10
303.616382474068
 20
599.342682984212
 30
0.0
 11
313.4842450679888
 21
599.4433105262691
 31
0.0
  0
LINE
  5
197
  8
0
  6
CONTINUOUS
 62
     7
 10
343.3836175259316
 20
599.342682984212
 30
0.0
 11
333.5157549320108
 21
599.4433105262691
 31
0.0
  0
LINE
  5
198
  8
0
  6
CONTINUOUS
 62
     7
 10
324.4999999999998
 20
633.3590654582802
 30
0.0
 11
324.4999999999998
 21
632.9215149116881
 31
0.0
  0
LINE
  5
199
  8
0
  6
CONTINUOUS
 62
     7
 10
323.4999999999998
 20
631.9214703035248
 30
0.0
 11
323.4999999999998
 21
632.3590654582803
 31
0.0
  0
LINE
  5
19A
  8
0
  6
CONTINUOUS
 62
     7
 10
323.4999999999998
 20
632.3590654582803
 30
0.0
 11
324.4999999999998
 21
633.3590654582803
 31
0.0
  0
LINE
  5
19B
  8
0
  6
CONTINUOUS
 62
     7
 10
322.4999999999998
 20
633.3590654582802
 30
0.0
 11
322.4999999999998
 21
632.9215149116881
 31
0.0
  0
LINE
  5
19C
  8
0
  6
CONTINUOUS
 62
     7
 10
323.4999999999998
 20
632.3590654582803
 30
0.0
 11
322.4999999999998
 21
633.3590654582803
 31
0.0
  0
LINE
  5
19D
  8
0
  6
CONTINUOUS
 62
     7
 10
298.5001522937088
 20
633.3590654582802
 30
0.0
 11
322.4999999999998
 21
633.3590654582802
 31
0.0
  0
LINE
  5
19E
  8
0
  6
CONTINUOUS
 62
     7
 10
348.4998477062907
 20
633.3590654582802
 30
0.0
 11
324.4999999999998
 21
633.3590654582802
 31
0.0
  0
LINE
  5
19F
  8
0
  6
CONTINUOUS
 62
     7
 10
293.5004474065076
 20
600.2746688807155
 30
0.0
 11
293.4999999999998
 21
600.2751452413798
 31
0.0
  0
ARC
  5
1A0
  8
0
  6
CONTINUOUS
 62
     7
 10
288.4999931014069
 20
600.275124759768
 30
0.0
 40
5.000002434048964
 50
282.9875060698378
 51
340.426616842389
  0
LINE
  5
1A1
  8
0
  6
CONTINUOUS
 62
     7
 10
289.6236865366752
 20
595.4030269155093
 30
0.0
 11
289.3334184565003
 21
595.3450716872873
 31
0.0
  0
LINE
  5
1A2
  8
0
  6
CONTINUOUS
 62
     7
 10
353.499552593492
 20
600.2746688807155
 30
0.0
 11
353.4999999999998
 21
600.2751452413798
 31
0.0
  0
ARC
  5
1A3
  8
0
  6
CONTINUOUS
 62
     7
 10
358.5000068985926
 20
600.275124759768
 30
0.0
 40
5.000002434048935
 50
199.5733831576139
 51
257.0124939301621
  0
LINE
  5
1A4
  8
0
  6
CONTINUOUS
 62
     7
 10
357.3763134633243
 20
595.4030269155093
 30
0.0
 11
357.6665815434992
 21
595.3450716872873
 31
0.0
  0
ARC
  5
1A5
  8
0
  6
CONTINUOUS
 62
     7
 10
298.5004073286378
 20
628.3587343024503
 30
0.0
 40
5.000331162333669
 50
90.00292229146217
 51
166.713479196004
  0
LINE
  5
1A6
  8
0
  6
CONTINUOUS
 62
     7
 10
298.5001522937088
 20
633.3590654582802
 30
0.0
 11
322.4999999999998
 21
633.3590654582802
 31
0.0
  0
LINE
  5
1A7
  8
0
  6
CONTINUOUS
 62
     7
 10
323.4999999999998
 20
632.3590654582803
 30
0.0
 11
322.4999999999998
 21
633.3590654582803
 31
0.0
  0
LINE
  5
1A8
  8
0
  6
CONTINUOUS
 62
     7
 10
323.4999999999998
 20
632.3590654582803
 30
0.0
 11
324.4999999999998
 21
633.3590654582803
 31
0.0
  0
LINE
  5
1A9
  8
0
  6
CONTINUOUS
 62
     7
 10
348.4998477062907
 20
633.3590654582802
 30
0.0
 11
324.4999999999998
 21
633.3590654582802
 31
0.0
  0
ARC
  5
1AA
  8
0
  6
CONTINUOUS
 62
     7
 10
348.4995926713617
 20
628.3587343024502
 30
0.0
 40
5.000331162333724
 50
13.28652080399593
 51
89.99707770853752
  0
LINE
  5
1AB
  8
0
  6
CONTINUOUS
 62
     7
 10
353.4999999999998
 20
600.2751452413798
 30
0.0
 11
353.4999999999998
 21
628.3583038180607
 31
0.0
  0
LINE
  5
1AC
  8
0
  6
CONTINUOUS
 62
     7
 10
353.4999999999998
 20
600.2751452413798
 30
0.0
 11
353.5122323211137
 21
599.9256100944222
 31
0.0
  0
LINE
  5
1AD
  8
0
  6
CONTINUOUS
 62
     7
 10
353.5122323211137
 20
599.9256100944222
 30
0.0
 11
353.7624862317031
 21
598.6763992342505
 31
0.0
  0
LINE
  5
1AE
  8
0
  6
CONTINUOUS
 62
     7
 10
353.762486231703
 20
598.6763992342505
 30
0.0
 11
353.7889386768401
 21
598.6000544476648
 31
0.0
  0
POLYLINE
  5
1AF
  8
0
  6
CONTINUOUS
 62
     7
 66
     1
 10
0.0
 20
0.0
 30
0.0
  0
VERTEX
  5
48F
  8
0
  6
CONTINUOUS
 62
     7
 10
358.4999999999998
 20
594.3590654582802
 30
0.0
  0
VERTEX
  5
490
  8
0
  6
CONTINUOUS
 62
     7
 10
358.4799695935685
 20
594.5581976164825
 30
0.0
  0
VERTEX
  5
491
  8
0
  6
CONTINUOUS
 62
     7
 10
358.4206806864235
 20
594.7493535935563
 30
0.0
  0
VERTEX
  5
492
  8
0
  6
CONTINUOUS
 62
     7
 10
358.3245080786301
 20
594.924876692006
 30
0.0
  0
VERTEX
  5
493
  8
0
  6
CONTINUOUS
 62
     7
 10
358.1953039362389
 20
595.0777363847782
 30
0.0
  0
VERTEX
  5
494
  8
0
  6
CONTINUOUS
 62
     7
 10
358.0382434938857
 20
595.201809920993
 30
0.0
  0
VERTEX
  5
495
  8
0
  6
CONTINUOUS
 62
     7
 10
357.8596177622625
 20
595.2921275709641
 30
0.0
  0
VERTEX
  5
496
  8
0
  6
CONTINUOUS
 62
     7
 10
357.6665815434992
 20
595.3450716872871
 30
0.0
  0
SEQEND
  5
4DB
  8
0
  6
CONTINUOUS
 62
     7
  0
POLYLINE
  5
1B0
  8
0
  6
CONTINUOUS
 62
     7
 66
     1
 10
0.0
 20
0.0
 30
0.0
  0
VERTEX
  5
497
  8
0
  6
CONTINUOUS
 62
     7
 10
289.3334184565004
 20
595.3450716872871
 30
0.0
  0
VERTEX
  5
498
  8
0
  6
CONTINUOUS
 62
     7
 10
289.1403822377371
 20
595.2921275709641
 30
0.0
  0
VERTEX
  5
499
  8
0
  6
CONTINUOUS
 62
     7
 10
288.9617565061139
 20
595.201809920993
 30
0.0
  0
VERTEX
  5
49A
  8
0
  6
CONTINUOUS
 62
     7
 10
288.8046960637607
 20
595.0777363847782
 30
0.0
  0
VERTEX
  5
49B
  8
0
  6
CONTINUOUS
 62
     7
 10
288.6754919213695
 20
594.924876692006
 30
0.0
  0
VERTEX
  5
49C
  8
0
  6
CONTINUOUS
 62
     7
 10
288.5793193135761
 20
594.7493535935563
 30
0.0
  0
VERTEX
  5
49D
  8
0
  6
CONTINUOUS
 62
     7
 10
288.5200304064311
 20
594.5581976164825
 30
0.0
  0
VERTEX
  5
49E
  8
0
  6
CONTINUOUS
 62
     7
 10
288.4999999999998
 20
594.3590654582802
 30
0.0
  0
SEQEND
  5
4DC
  8
0
  6
CONTINUOUS
 62
     7
  0
LINE
  5
1B1
  8
0
  6
CONTINUOUS
 62
     7
 10
293.4999999999998
 20
600.2751452413798
 30
0.0
 11
293.4877676788859
 21
599.925610094423
 31
0.0
  0
LINE
  5
1B2
  8
0
  6
CONTINUOUS
 62
     7
 10
293.487767678886
 20
599.925610094423
 30
0.0
 11
293.2375137682964
 21
598.6763992342503
 31
0.0
  0
LINE
  5
1B3
  8
0
  6
CONTINUOUS
 62
     7
 10
293.2375137682964
 20
598.6763992342503
 30
0.0
 11
293.2110613231595
 21
598.6000544476649
 31
0.0
  0
LINE
  5
1B4
  8
0
  6
CONTINUOUS
 62
     7
 10
293.4999999999998
 20
600.2751452413798
 30
0.0
 11
293.4999999999998
 21
628.3583038180607
 31
0.0
  0
LINE
  5
1B5
  8
0
  6
CONTINUOUS
 62
     7
 10
293.6339201979989
 20
629.5079143320066
 30
0.0
 11
293.6129313922868
 21
629.4151126885395
 31
0.0
  0
LINE
  5
1B6
  8
0
  6
CONTINUOUS
 62
     7
 10
293.5273597689203
 20
628.8807198129521
 30
0.0
 11
293.4999999999998
 21
628.3583038180607
 31
0.0
  0
LINE
  5
1B7
  8
0
  6
CONTINUOUS
 62
     7
 10
353.3660798020006
 20
629.5079143320065
 30
0.0
 11
353.3933953572044
 21
629.3854117072952
 31
0.0
  0
LINE
  5
1B8
  8
0
  6
CONTINUOUS
 62
     7
 10
353.4726402310793
 20
628.8807198129521
 30
0.0
 11
353.4999999999998
 21
628.3583038180607
 31
0.0
  0
ARC
  5
1B9
  8
0
  6
CONTINUOUS
 62
     7
 10
288.4999931014069
 20
600.275124759768
 30
0.0
 40
5.000002434048938
 50
282.9875060698379
 51
340.4266168423887
  0
ARC
  5
1BA
  8
0
  6
CONTINUOUS
 62
     7
 10
358.5000068985926
 20
600.275124759768
 30
0.0
 40
5.000002434048906
 50
199.5733831576121
 51
257.0124939301624
  0
LINE
  5
1BB
  8
0
  6
CONTINUOUS
 62
     7
 10
330.9999999999997
 20
492.8590654582802
 30
0.0
 11
330.9999999999997
 21
566.5921964449469
 31
0.0
  0
LINE
  5
1BC
  8
0
  6
CONTINUOUS
 62
     7
 10
356.4999999999998
 20
492.8590654582802
 30
0.0
 11
356.4999999999998
 21
541.8590654582802
 31
0.0
  0
LINE
  5
1BD
  8
0
  6
CONTINUOUS
 62
     7
 10
355.9999999999998
 20
567.3387773059358
 30
0.0
 11
355.9999999999998
 21
586.3590654582802
 31
0.0
  0
LINE
  5
1BE
  8
0
  6
CONTINUOUS
 62
     7
 10
356.4999999999998
 20
541.8590654582802
 30
0.0
 11
356.4999999999998
 21
586.3590654582802
 31
0.0
  0
LINE
  5
1BF
  8
0
  6
CONTINUOUS
 62
     7
 10
358.9999999999998
 20
588.35906545828
 30
0.0
 11
358.9999999999998
 21
571.2113068977571
 31
0.0
  0
LINE
  5
1C0
  8
0
  6
CONTINUOUS
 62
     7
 10
358.9999999999982
 20
571.2113068977584
 30
0.0
 11
358.9152658527938
 21
571.2019364459599
 31
0.0
  0
LINE
  5
1C1
  8
0
  6
CONTINUOUS
 62
     7
 10
358.9999999999998
 20
568.98906545828
 30
0.0
 11
358.9999999999998
 21
495.3590654582801
 31
0.0
  0
LINE
  5
1C2
  8
0
  6
CONTINUOUS
 62
     7
 10
330.9999999999997
 20
566.5921964449469
 30
0.0
 11
330.9999999999997
 21
567.0878840054346
 31
0.0
  0
POLYLINE
  5
1C3
  8
0
  6
CONTINUOUS
 62
     7
 66
     1
 10
0.0
 20
0.0
 30
0.0
  0
VERTEX
  5
49F
  8
0
  6
CONTINUOUS
 62
     7
 10
358.9152658527939
 20
571.2019364459599
 30
0.0
  0
VERTEX
  5
4A0
  8
0
  6
CONTINUOUS
 62
     7
 10
358.8907596372555
 20
571.1965073976323
 30
0.0
  0
VERTEX
  5
4A1
  8
0
  6
CONTINUOUS
 62
     7
 10
358.8567279982041
 20
571.1865815506886
 30
0.0
  0
VERTEX
  5
4A2
  8
0
  6
CONTINUOUS
 62
     7
 10
358.8228787234285
 20
571.1735457189482
 30
0.0
  0
VERTEX
  5
4A3
  8
0
  6
CONTINUOUS
 62
     7
 10
358.7905712591344
 20
571.1576394930138
 30
0.0
  0
VERTEX
  5
4A4
  8
0
  6
CONTINUOUS
 62
     7
 10
358.7599932849816
 20
571.1388265993282
 30
0.0
  0
VERTEX
  5
4A5
  8
0
  6
CONTINUOUS
 62
     7
 10
358.7313324806304
 20
571.1170707643338
 30
0.0
  0
VERTEX
  5
4A6
  8
0
  6
CONTINUOUS
 62
     7
 10
358.7084420098713
 20
571.0960725182083
 30
0.0
  0
VERTEX
  5
4A7
  8
0
  6
CONTINUOUS
 62
     7
 10
358.6871307888141
 20
571.0728271143695
 30
0.0
  0
VERTEX
  5
4A8
  8
0
  6
CONTINUOUS
 62
     7
 10
358.6675367964832
 20
571.0473439684247
 30
0.0
  0
VERTEX
  5
4A9
  8
0
  6
CONTINUOUS
 62
     7
 10
358.6536948316641
 20
571.0261874713266
 30
0.0
  0
VERTEX
  5
4AA
  8
0
  6
CONTINUOUS
 62
     7
 10
358.6409716392297
 20
571.0036672912373
 30
0.0
  0
VERTEX
  5
4AB
  8
0
  6
CONTINUOUS
 62
     7
 10
358.6294327724373
 20
570.9798123455763
 30
0.0
  0
VERTEX
  5
4AC
  8
0
  6
CONTINUOUS
 62
     7
 10
358.6191437845437
 20
570.9546515517632
 30
0.0
  0
VERTEX
  5
4AD
  8
0
  6
CONTINUOUS
 62
     7
 10
358.6103497227555
 20
570.928810311242
 30
0.0
  0
VERTEX
  5
4AE
  8
0
  6
CONTINUOUS
 62
     7
 10
358.6028287327932
 20
570.9017105242584
 30
0.0
  0
VERTEX
  5
4AF
  8
0
  6
CONTINUOUS
 62
     7
 10
358.5966334611726
 20
570.8734155716799
 30
0.0
  0
VERTEX
  5
4B0
  8
0
  6
CONTINUOUS
 62
     7
 10
358.591816554409
 20
570.8439888343746
 30
0.0
  0
VERTEX
  5
4B1
  8
0
  6
CONTINUOUS
 62
     7
 10
358.5888913143597
 20
570.8186510228896
 30
0.0
  0
VERTEX
  5
4B2
  8
0
  6
CONTINUOUS
 62
     7
 10
358.5869627182949
 20
570.7925338896761
 30
0.0
  0
VERTEX
  5
4B3
  8
0
  6
CONTINUOUS
 62
     7
 10
358.5860461702205
 20
570.765700112408
 30
0.0
  0
VERTEX
  5
4B4
  8
0
  6
CONTINUOUS
 62
     7
 10
358.5861570741417
 20
570.7382123687592
 30
0.0
  0
VERTEX
  5
4B5
  8
0
  6
CONTINUOUS
 62
     7
 10
358.5873108340645
 20
570.7101333364035
 30
0.0
  0
VERTEX
  5
4B6
  8
0
  6
CONTINUOUS
 62
     7
 10
358.589922705281
 20
570.6773878501796
 30
0.0
  0
VERTEX
  5
4B7
  8
0
  6
CONTINUOUS
 62
     7
 10
358.5939155090374
 20
570.6438991110606
 30
0.0
  0
VERTEX
  5
4B8
  8
0
  6
CONTINUOUS
 62
     7
 10
358.5992732212987
 20
570.609793655818
 30
0.0
  0
VERTEX
  5
4B9
  8
0
  6
CONTINUOUS
 62
     7
 10
358.6059798180295
 20
570.5751980212231
 30
0.0
  0
VERTEX
  5
4BA
  8
0
  6
CONTINUOUS
 62
     7
 10
358.614019275194
 20
570.540238744051
 30
0.0
  0
SEQEND
  5
4DD
  8
0
  6
CONTINUOUS
 62
     7
  0
LINE
  5
1C4
  8
0
  6
CONTINUOUS
 62
     7
 10
358.9999999999998
 20
570.7147452509387
 30
0.0
 11
358.9999999999998
 21
571.1887649287238
 31
0.0
  0
LINE
  5
1C5
  8
0
  6
CONTINUOUS
 62
     7
 10
358.9999999999998
 20
571.1887649287237
 30
0.0
 11
358.9999999999998
 21
571.2019594259575
 31
0.0
  0
LINE
  5
1C6
  8
0
  6
CONTINUOUS
 62
     7
 10
358.9999999999998
 20
571.2019594259576
 30
0.0
 11
358.9999999999998
 21
571.2113068977588
 31
0.0
  0
LINE
  5
1C7
  8
0
  6
CONTINUOUS
 62
     7
 10
323.4999999999998
 20
541.6049372817675
 30
0.0
 11
323.4999999999998
 21
505.4899784452418
 31
0.0
  0
LINE
  5
1C8
  8
0
  6
CONTINUOUS
 62
     7
 10
348.4999999999998
 20
568.2271138183495
 30
0.0
 11
348.4999999999998
 21
567.6019762400316
 31
0.0
  0
LINE
  5
1C9
  8
0
  6
CONTINUOUS
 62
     7
 10
338.4999999999998
 20
567.5756819267341
 30
0.0
 11
338.4999999999998
 21
567.3096003357747
 31
0.0
  0
LINE
  5
1CA
  8
0
  6
CONTINUOUS
 62
     7
 10
323.4999999999998
 20
541.6049372817675
 30
0.0
 11
323.4999999999998
 21
542.1101316857699
 31
0.0
  0
LINE
  5
1CB
  8
0
  6
CONTINUOUS
 62
     7
 10
323.4999999999998
 20
542.1101318875504
 30
0.0
 11
323.4999999999998
 21
542.1100006442789
 31
0.0
  0
LINE
  5
1CC
  8
0
  6
CONTINUOUS
 62
     7
 10
358.9999999999998
 20
570.7147452509387
 30
0.0
 11
358.9999999999998
 21
568.9890654582802
 31
0.0
  0
LINE
  5
1CD
  8
0
  6
CONTINUOUS
 62
     7
 10
290.4999999999998
 20
586.3590654582802
 30
0.0
 11
290.4999999999998
 21
492.8590654582802
 31
0.0
  0
LINE
  5
1CE
  8
0
  6
CONTINUOUS
 62
     7
 10
287.9999999999998
 20
495.3590654582802
 30
0.0
 11
287.9999999999998
 21
568.98906545828
 31
0.0
  0
LINE
  5
1CF
  8
0
  6
CONTINUOUS
 62
     7
 10
287.9999999999998
 20
571.2113068977651
 30
0.0
 11
287.9999999999998
 21
588.3590654582802
 31
0.0
  0
LINE
  5
1D0
  8
0
  6
CONTINUOUS
 62
     7
 10
290.9999999999998
 20
586.3590654582802
 30
0.0
 11
290.9999999999998
 21
567.3387773059358
 31
0.0
  0
LINE
  5
1D1
  8
0
  6
CONTINUOUS
 62
     7
 10
315.9999999999997
 20
566.5921964449469
 30
0.0
 11
315.9999999999997
 21
492.8590654582802
 31
0.0
  0
LINE
  5
1D2
  8
0
  6
CONTINUOUS
 62
     7
 10
315.9999999999997
 20
567.0878840055547
 30
0.0
 11
315.9999999999997
 21
566.5921964449469
 31
0.0
  0
LINE
  5
1D3
  8
0
  6
CONTINUOUS
 62
     7
 10
287.9999999999998
 20
570.7147452509387
 30
0.0
 11
287.9999999999998
 21
571.1935865498838
 31
0.0
  0
LINE
  5
1D4
  8
0
  6
CONTINUOUS
 62
     7
 10
287.9999999999998
 20
571.1935865498838
 30
0.0
 11
287.9999999999998
 21
571.2113068977567
 31
0.0
  0
LINE
  5
1D5
  8
0
  6
CONTINUOUS
 62
     7
 10
323.4999999999998
 20
505.4899784452418
 30
0.0
 11
323.4999999999998
 21
541.6049372817675
 31
0.0
  0
LINE
  5
1D6
  8
0
  6
CONTINUOUS
 62
     7
 10
308.4999999999998
 20
567.5756819267341
 30
0.0
 11
308.4999999999998
 21
567.3096003207094
 31
0.0
  0
LINE
  5
1D7
  8
0
  6
CONTINUOUS
 62
     7
 10
298.4999999999998
 20
568.2271138183495
 30
0.0
 11
298.4999999999998
 21
567.6019762348026
 31
0.0
  0
LINE
  5
1D8
  8
0
  6
CONTINUOUS
 62
     7
 10
323.4999999999998
 20
542.1101871738596
 30
0.0
 11
323.4999999999998
 21
541.6049372817675
 31
0.0
  0
LINE
  5
1D9
  8
0
  6
CONTINUOUS
 62
     7
 10
287.9999999999998
 20
570.7147452509387
 30
0.0
 11
287.9999999999998
 21
568.9890654582802
 31
0.0
  0
LINE
  5
1DA
  8
0
  6
CONTINUOUS
 62
     7
 10
330.9999999999997
 20
586.3590654582802
 30
0.0
 11
330.9999999999997
 21
567.1897602406983
 31
0.0
  0
LINE
  5
1DB
  8
0
  6
CONTINUOUS
 62
     7
 10
352.9999999999998
 20
567.734888047744
 30
0.0
 11
352.9999999999998
 21
586.35906545828
 31
0.0
  0
LINE
  5
1DC
  8
0
  6
CONTINUOUS
 62
     7
 10
323.4999999999998
 20
575.7281524713185
 30
0.0
 11
323.4999999999998
 21
542.1846389666109
 31
0.0
  0
LINE
  5
1DD
  8
0
  6
CONTINUOUS
 62
     7
 10
293.9999999999998
 20
586.3590654582802
 30
0.0
 11
293.9999999999998
 21
567.7348880163344
 31
0.0
  0
LINE
  5
1DE
  8
0
  6
CONTINUOUS
 62
     7
 10
315.9999999999997
 20
567.189933245385
 30
0.0
 11
315.9999999999997
 21
586.3590654582802
 31
0.0
  0
LINE
  5
1DF
  8
0
  6
CONTINUOUS
 62
     7
 10
323.4999999999998
 20
542.1846389666109
 30
0.0
 11
323.4999999999998
 21
554.3590654582802
 31
0.0
  0
LINE
  5
1E0
  8
0
  6
CONTINUOUS
 62
     7
 10
323.4999999999998
 20
554.3590654582802
 30
0.0
 11
323.4999999999998
 21
575.7281524713185
 31
0.0
  0
LINE
  5
1E1
  8
0
  6
CONTINUOUS
 62
     7
 10
293.6339184335762
 20
629.5079076457912
 30
0.0
 11
293.6129829819607
 21
629.4151065730274
 31
0.0
  0
LINE
  5
1E2
  8
0
  6
CONTINUOUS
 62
     7
 10
293.6129829819608
 20
629.4151065730274
 30
0.0
 11
293.5276966973598
 21
628.8806841286982
 31
0.0
  0
LINE
  5
1E3
  8
0
  6
CONTINUOUS
 62
     7
 10
293.5276966973598
 20
628.8806841286982
 30
0.0
 11
293.5006046636348
 21
628.3555332387634
 31
0.0
  0
LINE
  5
1E4
  8
0
  6
CONTINUOUS
 62
     7
 10
353.4993953363647
 20
628.3555332387634
 30
0.0
 11
353.4723033026397
 21
628.8806841286985
 31
0.0
  0
LINE
  5
1E5
  8
0
  6
CONTINUOUS
 62
     7
 10
353.4723033026397
 20
628.8806841286985
 30
0.0
 11
353.3870170180388
 21
629.4151065730272
 31
0.0
  0
LINE
  5
1E6
  8
0
  6
CONTINUOUS
 62
     7
 10
353.3870170180388
 20
629.4151065730272
 30
0.0
 11
353.3660815664232
 21
629.5079076457912
 31
0.0
  0
LINE
  5
1E7
  8
0
  6
CONTINUOUS
 62
     7
 10
293.5004647543176
 20
600.2746614515154
 30
0.0
 11
293.4880893599882
 21
599.9255915449792
 31
0.0
  0
LINE
  5
1E8
  8
0
  6
CONTINUOUS
 62
     7
 10
293.4880893599882
 20
599.9255915449792
 30
0.0
 11
293.2375209903135
 21
598.6763911570337
 31
0.0
  0
LINE
  5
1E9
  8
0
  6
CONTINUOUS
 62
     7
 10
293.2375209903135
 20
598.6763911570337
 30
0.0
 11
293.211067661022
 21
598.6000727916814
 31
0.0
  0
LINE
  5
1EA
  8
0
  6
CONTINUOUS
 62
     7
 10
353.7889323389776
 20
598.6000727916812
 30
0.0
 11
353.7624790096862
 21
598.6763911570333
 31
0.0
  0
LINE
  5
1EB
  8
0
  6
CONTINUOUS
 62
     7
 10
353.7624790096862
 20
598.6763911570333
 30
0.0
 11
353.5119106400114
 21
599.9255915449792
 31
0.0
  0
LINE
  5
1EC
  8
0
  6
CONTINUOUS
 62
     7
 10
353.5119106400113
 20
599.9255915449792
 30
0.0
 11
353.4995352456818
 21
600.2746614515154
 31
0.0
  0
LINE
  5
1ED
  8
0
  6
CONTINUOUS
 62
     7
 10
293.6129829819608
 20
629.4151065730274
 30
0.0
 11
293.5276966973598
 21
628.8806841286984
 31
0.0
  0
LINE
  5
1EE
  8
0
  6
CONTINUOUS
 62
     7
 10
353.4723033026397
 20
628.8806841286982
 30
0.0
 11
353.3870170180387
 21
629.4151065730273
 31
0.0
  0
LINE
  5
1EF
  8
0
  6
CONTINUOUS
 62
     7
 10
293.5004647543176
 20
600.2746614515154
 30
0.0
 11
293.4880893599882
 21
599.9255915449795
 31
0.0
  0
LINE
  5
1F0
  8
0
  6
CONTINUOUS
 62
     7
 10
293.4880893599882
 20
599.9255915449795
 30
0.0
 11
293.2375209903135
 21
598.6763911570334
 31
0.0
  0
LINE
  5
1F1
  8
0
  6
CONTINUOUS
 62
     7
 10
293.2375209903135
 20
598.6763911570334
 30
0.0
 11
293.211067661022
 21
598.6000727916813
 31
0.0
  0
LINE
  5
1F2
  8
0
  6
CONTINUOUS
 62
     7
 10
353.7889323389776
 20
598.6000727916813
 30
0.0
 11
353.762479009686
 21
598.6763911570337
 31
0.0
  0
LINE
  5
1F3
  8
0
  6
CONTINUOUS
 62
     7
 10
353.7624790096859
 20
598.6763911570338
 30
0.0
 11
353.5119106400114
 21
599.9255915449787
 31
0.0
  0
LINE
  5
1F4
  8
0
  6
CONTINUOUS
 62
     7
 10
353.5119106400114
 20
599.9255915449787
 30
0.0
 11
353.4995352456819
 21
600.2746614515154
 31
0.0
  0
LINE
  5
1F5
  8
0
  6
CONTINUOUS
 62
     7
 10
330.9999999999997
 20
492.8590654582802
 30
0.0
 11
356.4999999999997
 21
492.8590654582802
 31
0.0
  0
LINE
  5
1F6
  8
0
  6
CONTINUOUS
 62
     7
 10
356.4999999999998
 20
492.8590654582802
 30
0.0
 11
358.9999999999998
 21
495.3590654582802
 31
0.0
  0
LINE
  5
1F7
  8
0
  6
CONTINUOUS
 62
     7
 10
358.9999999999998
 20
588.3590654582802
 30
0.0
 11
358.0215773365246
 21
589.3374881217552
 31
0.0
  0
LINE
  5
1F8
  8
0
  6
CONTINUOUS
 62
     7
 10
355.9984293115699
 20
567.81914895354
 30
0.0
 11
330.9982269785901
 21
567.0878310796361
 31
0.0
  0
LINE
  5
1F9
  8
0
  6
CONTINUOUS
 62
     7
 10
323.4999999999998
 20
505.4899784452418
 30
0.0
 11
330.9999999999998
 21
505.3590654582802
 31
0.0
  0
LINE
  5
1FA
  8
0
  6
CONTINUOUS
 62
     7
 10
348.4999999999998
 20
568.2271138183495
 30
0.0
 11
338.4999999999998
 21
567.5756819267342
 31
0.0
  0
LINE
  5
1FB
  8
0
  6
CONTINUOUS
 62
     7
 10
331.0460910027333
 20
542.8892844448683
 30
0.0
 11
323.4916089726961
 21
542.109320920522
 31
0.0
  0
LINE
  5
1FC
  8
0
  6
CONTINUOUS
 62
     7
 10
288.9784226634749
 20
589.3374881217552
 30
0.0
 11
287.9999999999998
 21
588.3590654582802
 31
0.0
  0
LINE
  5
1FD
  8
0
  6
CONTINUOUS
 62
     7
 10
287.9999999999998
 20
495.3590654582802
 30
0.0
 11
290.4999999999998
 21
492.8590654582802
 31
0.0
  0
LINE
  5
1FE
  8
0
  6
CONTINUOUS
 62
     7
 10
290.4999999999998
 20
492.8590654582802
 30
0.0
 11
315.9999999999997
 21
492.8590654582802
 31
0.0
  0
LINE
  5
1FF
  8
0
  6
CONTINUOUS
 62
     7
 10
316.0017682752999
 20
567.0878312213127
 30
0.0
 11
291.0015724438162
 21
567.8191489032112
 31
0.0
  0
LINE
  5
200
  8
0
  6
CONTINUOUS
 62
     7
 10
315.9999999999997
 20
505.3590654582802
 30
0.0
 11
323.4999999999997
 21
505.4899784452418
 31
0.0
  0
LINE
  5
201
  8
0
  6
CONTINUOUS
 62
     7
 10
308.4999999999998
 20
567.5756819267341
 30
0.0
 11
298.4999999999998
 21
568.2271138183494
 31
0.0
  0
LINE
  5
202
  8
0
  6
CONTINUOUS
 62
     7
 10
323.5000062873654
 20
542.1101866041289
 30
0.0
 11
315.95390821871
 21
542.8892845252504
 31
0.0
  0
LINE
  5
203
  8
0
  6
CONTINUOUS
 62
     7
 10
287.6999999999997
 20
523.7376204500138
 30
0.0
 11
287.6624999999997
 21
523.7376204500138
 31
0.0
  0
LINE
  5
204
  8
0
  6
CONTINUOUS
 62
     7
 10
330.9999999999997
 20
575.8590654582803
 30
0.0
 11
323.4999999999997
 21
575.7281524713186
 31
0.0
  0
LINE
  5
205
  8
0
  6
CONTINUOUS
 62
     7
 10
323.4999999999998
 20
575.7281524713185
 30
0.0
 11
315.9999999999998
 21
575.8590654582802
 31
0.0
  0
ENDBLK
  8
0
  0
BLOCK
  8
0
  2
D_FRAME_VIEW_13719
 70
     0
 10
0.0
 20
0.0
 30
0.0
  0
LINE
  5
20A
  8
0
  6
CONTINUOUS
 62
     7
 10
141.7499999999998
 20
420.75
 30
0.0
 11
239.7499999999998
 21
420.75
 31
0.0
  0
LINE
  5
20B
  8
0
  6
CONTINUOUS
 62
     7
 10
141.7499999999998
 20
395.25
 30
0.0
 11
239.7499999999998
 21
395.25
 31
0.0
  0
LINE
  5
20C
  8
0
  6
CONTINUOUS
 62
     7
 10
237.2499999999997
 20
392.7500000000001
 30
0.0
 11
144.2499999999998
 21
392.7500000000001
 31
0.0
  0
LINE
  5
20D
  8
0
  6
CONTINUOUS
 62
     7
 10
227.1614608227795
 20
425.8224060657622
 30
0.0
 11
227.1181991447451
 21
428.25
 31
0.0
  0
LINE
  5
20E
  8
0
  6
CONTINUOUS
 62
     7
 10
154.3818008552544
 20
428.25
 30
0.0
 11
154.3385391752941
 21
425.8224059554288
 31
0.0
  0
LINE
  5
20F
  8
0
  6
CONTINUOUS
 62
     7
 10
227.1181991447452
 20
428.25
 30
0.0
 11
154.3818008552543
 21
428.25
 31
0.0
  0
LINE
  5
210
  8
0
  6
CONTINUOUS
 62
     7
 10
144.2499999999998
 20
463.75
 30
0.0
 11
237.2499999999997
 21
463.7500000000001
 31
0.0
  0
LINE
  5
211
  8
0
  6
CONTINUOUS
 62
     7
 10
239.7499999999998
 20
435.75
 30
0.0
 11
141.7499999999998
 21
435.75
 31
0.0
  0
LINE
  5
212
  8
0
  6
CONTINUOUS
 62
     7
 10
239.7499999999998
 20
461.2500000000001
 30
0.0
 11
141.7499999999998
 21
461.25
 31
0.0
  0
LINE
  5
213
  8
0
  6
CONTINUOUS
 62
     7
 10
154.33853917722
 20
430.6775939342378
 30
0.0
 11
154.3818008552544
 21
428.25
 31
0.0
  0
LINE
  5
214
  8
0
  6
CONTINUOUS
 62
     7
 10
227.1181991447452
 20
428.25
 30
0.0
 11
227.1614608247054
 21
430.6775940445712
 31
0.0
  0
LINE
  5
215
  8
0
  6
CONTINUOUS
 62
     7
 10
154.3818008552543
 20
428.25
 30
0.0
 11
227.1181991447452
 21
428.25
 31
0.0
  0
LINE
  5
216
  8
0
  6
CONTINUOUS
 62
     7
 10
141.7499999999998
 20
420.75
 30
0.0
 11
141.7499999999998
 21
395.25
 31
0.0
  0
LINE
  5
217
  8
0
  6
CONTINUOUS
 62
     7
 10
239.7499999999998
 20
395.25
 30
0.0
 11
239.7499999999998
 21
420.75
 31
0.0
  0
LINE
  5
218
  8
0
  6
CONTINUOUS
 62
     7
 10
141.7499999999998
 20
395.25
 30
0.0
 11
144.2499999999998
 21
392.7500000000001
 31
0.0
  0
LINE
  5
219
  8
0
  6
CONTINUOUS
 62
     7
 10
237.2499999999998
 20
392.7500000000001
 30
0.0
 11
239.7499999999998
 21
395.25
 31
0.0
  0
LINE
  5
21A
  8
0
  6
CONTINUOUS
 62
     7
 10
227.2499999999998
 20
420.75
 30
0.0
 11
227.1614608257941
 21
425.822405893062
 31
0.0
  0
LINE
  5
21B
  8
0
  6
CONTINUOUS
 62
     7
 10
154.3385391722425
 20
425.8224057806082
 30
0.0
 11
154.2499999999998
 21
420.75
 31
0.0
  0
LINE
  5
21C
  8
0
  6
CONTINUOUS
 62
     7
 10
239.7499999999998
 20
461.2500000000001
 30
0.0
 11
237.2499999999998
 21
463.75
 31
0.0
  0
LINE
  5
21D
  8
0
  6
CONTINUOUS
 62
     7
 10
144.2499999999998
 20
463.75
 30
0.0
 11
141.7499999999998
 21
461.25
 31
0.0
  0
LINE
  5
21E
  8
0
  6
CONTINUOUS
 62
     7
 10
239.7499999999998
 20
435.75
 30
0.0
 11
239.7499999999998
 21
461.2500000000001
 31
0.0
  0
LINE
  5
21F
  8
0
  6
CONTINUOUS
 62
     7
 10
141.7499999999998
 20
461.25
 30
0.0
 11
141.7499999999998
 21
435.75
 31
0.0
  0
LINE
  5
220
  8
0
  6
CONTINUOUS
 62
     7
 10
154.2499999999998
 20
435.75
 30
0.0
 11
154.3385391742054
 21
430.677594106938
 31
0.0
  0
LINE
  5
221
  8
0
  6
CONTINUOUS
 62
     7
 10
227.161460827757
 20
430.6775942193919
 30
0.0
 11
227.2499999999998
 21
435.75
 31
0.0
  0
ENDBLK
  8
0
  0
ENDSEC
  0
SECTION
  2
ENTITIES
  0
LINE
  5
6F
  8
0
  6
CENTER
 62
     1
 10
190.7499999999998
 20
468.25
 30
0.0
 11
190.7499999999998
 21
388.2500000000001
 31
0.0
  0
LINE
  5
71
  8
0
  6
CENTER
 62
     1
 10
323.4999999999998
 20
488.25
 30
0.0
 11
323.4999999999998
 21
638.25
 31
0.0
  0
LINE
  5
72
  8
0
  6
CENTER
 62
     1
 10
190.7499999999998
 20
490.8590654582802
 30
0.0
 11
190.7499999999998
 21
592.8590654582803
 31
0.0
  0
LINE
  5
73
  8
0
  6
CENTER
 62
     1
 10
139.7499999999998
 20
541.8590654582802
 30
0.0
 11
241.7499999999998
 21
541.8590654582802
 31
0.0
  0
INSERT
  5
112
  8
0
  6
CONTINUOUS
 62
     7
  2
D_FRAME_VIEW_10933
 10
0.0
 20
0.0
 30
0.0
  0
INSERT
  5
206
  8
0
  6
CONTINUOUS
 62
     7
  2
D_FRAME_VIEW_12344
 10
0.0
 20
0.0
 30
0.0
  0
INSERT
  5
222
  8
0
  6
CONTINUOUS
 62
     7
  2
D_FRAME_VIEW_13719
 10
0.0
 20
0.0
 30
0.0
  0
LINE
  5
223
  8
0
  6
CENTER
 62
     1
 10
142.2499999999998
 20
428.25
 30
0.0
 11
239.2499999999998
 21
428.25
 31
0.0
  0
TEXT
  5
224
  8
0
  6
CONTINUOUS
 62
     7
 10
311.9867794172812
 20
466.5784200325122
 30
0.0
 40
3.0
  1
PYPG-75100
  0
ENDSEC
  0
EOF
