  0
SECTION
  2
HEADER
  9
$ACADVER
  1
AC1004
  9
$INSBASE
 10
0.0
 20
0.0
  9
$EXTMIN
 10
377.9999999999999
 20
371.7058238636363
  9
$EXTMAX
 10
837.2459799887492
 20
624.5
  9
$LIMMIN
 10
0.0
 20
0.0
  9
$LIMMAX
 10
12.0
 20
9.0
  9
$ORTHOMODE
 70
     0
  9
$REGENMODE
 70
     1
  9
$FILLMODE
 70
     1
  9
$QTEXTMODE
 70
     0
  9
$DRAGMODE
 70
     2
  9
$LTSCALE
 40
1.0
  9
$OSMODE
 70
    37
  9
$ATTMODE
 70
     1
  9
$TEXTSIZE
 40
0.2
  9
$TRACEWID
 40
0.05
  9
$TEXTSTYLE
  7
STANDARD
  9
$CLAYER
  8
0
  9
$CELTYPE
  6
BYLAYER
  9
$CECOLOR
 62
   256
  9
$DIMSCALE
 40
1.0
  9
$DIMASZ
 40
3.0
  9
$DIMEXO
 40
0.0625
  9
$DIMDLI
 40
0.38
  9
$DIMRND
 40
0.0
  9
$DIMDLE
 40
0.0
  9
$DIMEXE
 40
0.18
  9
$DIMTP
 40
0.0
  9
$DIMTM
 40
0.0
  9
$DIMTXT
 40
3.0
  9
$DIMCEN
 40
0.09
  9
$DIMTSZ
 40
0.0
  9
$DIMTOL
 70
     0
  9
$DIMLIM
 70
     0
  9
$DIMTIH
 70
     1
  9
$DIMTOH
 70
     1
  9
$DIMSE1
 70
     0
  9
$DIMSE2
 70
     0
  9
$DIMTAD
 70
     1
  9
$DIMZIN
 70
     0
  9
$DIMBLK
  1

  9
$DIMASO
 70
     1
  9
$DIMSHO
 70
     1
  9
$DIMPOST
  1

  9
$DIMAPOST
  1

  9
$DIMALT
 70
     0
  9
$DIMALTD
 70
     2
  9
$DIMALTF
 40
25.4
  9
$DIMLFAC
 40
1.0
  9
$DIMTOFL
 70
     0
  9
$DIMTVP
 40
0.0
  9
$DIMTIX
 70
     0
  9
$DIMSOXD
 70
     0
  9
$DIMSAH
 70
     0
  9
$DIMBLK1
  1

  9
$DIMBLK2
  1

  9
$LUNITS
 70
     2
  9
$LUPREC
 70
     4
  9
$SKETCHINC
 40
0.1
  9
$FILLETRAD
 40
0.5
  9
$AUNITS
 70
     0
  9
$AUPREC
 70
     0
  9
$MENU
  1
.
  9
$ELEVATION
 40
0.0
  9
$THICKNESS
 40
0.0
  9
$LIMCHECK
 70
     0
  9
$CHAMFERA
 40
0.5
  9
$CHAMFERB
 40
0.5
  9
$SKPOLY
 70
     0
  9
$TDCREATE
 40
2459018.595838148
  9
$TDUPDATE
 40
2459018.59583816
  9
$TDINDWG
 40
0.0000000116
  9
$TDUSRTIMER
 40
0.0000000116
  9
$USRTIMER
 70
     1
  9
$ANGBASE
 50
0.0
  9
$ANGDIR
 70
     0
  9
$PDMODE
 70
     0
  9
$PDSIZE
 40
0.0
  9
$PLINEWID
 40
0.0
  9
$COORDS
 70
     1
  9
$SPLFRAME
 70
     0
  9
$SPLINETYPE
 70
     6
  9
$SPLINESEGS
 70
     8
  9
$ATTDIA
 70
     0
  9
$ATTREQ
 70
     1
  9
$SURFTAB1
 70
     6
  9
$SURFTAB2
 70
     6
  9
$SURFTYPE
 70
     6
  9
$SURFU
 70
     6
  9
$SURFV
 70
     6
  9
$UCSNAME
  2

  9
$UCSORG
 10
0.0
 20
0.0
 30
0.0
  9
$UCSXDIR
 10
1.0
 20
0.0
 30
0.0
  9
$UCSYDIR
 10
0.0
 20
1.0
 30
0.0
  9
$USERI1
 70
     0
  9
$USERI2
 70
     0
  9
$USERI3
 70
     0
  9
$USERI4
 70
     0
  9
$USERI5
 70
     0
  9
$USERR1
 40
0.0
  9
$USERR2
 40
0.0
  9
$USERR3
 40
0.0
  9
$USERR4
 40
0.0
  9
$USERR5
 40
0.0
  9
$WORLDVIEW
 70
     1
  0
ENDSEC
  0
SECTION
  2
TABLES
  0
TABLE
  2
LTYPE
 70
     2
  0
LTYPE
  2
CONTINUOUS
 70
     0
  3
Solid line
 72
    65
 73
     0
 40
0.0
  0
LTYPE
  2
________________
 70
     0
  3

 72
    65
 73
     0
 40
0.0
  0
ENDTAB
  0
TABLE
  2
LAYER
 70
     1
  0
LAYER
  2
0
 70
     0
 62
     7
  6
CONTINUOUS
  0
ENDTAB
  0
TABLE
  2
STYLE
 70
     2
  0
STYLE
  2
STANDARD
 70
     0
 40
0.0
 41
1.0
 50
0.0
 71
     0
 42
0.2
  3
txt
  4

  0
STYLE
  2
EXPLODED0
 70
     0
 40
0.2
 41
1.0
 50
0.0
 71
     0
 42
0.2
  3
HG丸ｺﾞｼｯｸM-PRO
  4

  0
ENDTAB
  0
TABLE
  2
VIEW
 70
     0
  0
ENDTAB
  0
ENDSEC
  0
SECTION
  2
BLOCKS
  0
BLOCK
  8
0
  2
_50249
 70
     0
 10
0.0
 20
0.0
  0
ENDBLK
  8
0
  0
BLOCK
  8
0
  2
_50476
 70
     0
 10
0.0
 20
0.0
  0
ENDBLK
  8
0
  0
ENDSEC
  0
SECTION
  2
ENTITIES
  0
TEXT
  8
0
 62
     7
 10
726.461
 20
371.1191761363636
 40
7.0
  1
PYSB-S150
  7
EXPLODED0
  0
INSERT
  8
0
  6
________________
 62
     7
  2
_50249
 10
0.0
 20
0.0
 30
0.0
  0
LINE
  8
0
  6
________________
 62
     7
 10
495.6318181818182
 20
615.3863636363636
 11
495.6318181818182
 21
614.8681818181818
  0
LINE
  8
0
  6
________________
 62
     7
 10
493.2045454545454
 20
615.3863636363636
 11
495.6318181818182
 21
615.3863636363636
  0
LINE
  8
0
  6
________________
 62
     7
 10
493.2045454545454
 20
616.75
 11
493.2045454545454
 21
615.3863636363636
  0
LINE
  8
0
  6
________________
 62
     7
 10
495.9318181818182
 20
616.75
 11
493.2045454545454
 21
616.75
  0
LINE
  8
0
  6
________________
 62
     7
 10
495.9318181818182
 20
617.2681818181819
 11
495.9318181818182
 21
616.75
  0
LINE
  8
0
  6
________________
 62
     7
 10
490.0136363636364
 20
617.2681818181819
 11
495.9318181818182
 21
617.2681818181819
  0
LINE
  8
0
  6
________________
 62
     7
 10
490.0136363636364
 20
616.75
 11
490.0136363636364
 21
617.2681818181819
  0
LINE
  8
0
  6
________________
 62
     7
 10
492.5772727272727
 20
616.75
 11
490.0136363636364
 21
616.75
  0
LINE
  8
0
  6
________________
 62
     7
 10
492.5772727272727
 20
615.3863636363636
 11
492.5772727272727
 21
616.75
  0
LINE
  8
0
  6
________________
 62
     7
 10
490.2863636363636
 20
615.3863636363636
 11
492.5772727272727
 21
615.3863636363636
  0
LINE
  8
0
  6
________________
 62
     7
 10
490.2863636363636
 20
614.8681818181818
 11
490.2863636363636
 21
615.3863636363636
  0
LINE
  8
0
  6
________________
 62
     7
 10
492.5227272727273
 20
614.8681818181818
 11
490.2863636363636
 21
614.8681818181818
  0
POLYLINE
  8
0
  6
________________
 62
     7
 66
     1
  0
VERTEX
  8
0
  6
________________
 62
     7
 10
489.85
 20
612.4136363636364
  0
VERTEX
  8
0
  6
________________
 62
     7
 10
490.1480823863636
 20
612.4967329545456
  0
VERTEX
  8
0
  6
________________
 62
     7
 10
490.4286931818182
 20
612.5892045454545
  0
VERTEX
  8
0
  6
________________
 62
     7
 10
490.6918323863637
 20
612.6910511363637
  0
VERTEX
  8
0
  6
________________
 62
     7
 10
490.9375
 20
612.8022727272728
  0
VERTEX
  8
0
  6
________________
 62
     7
 10
491.1656960227273
 20
612.9228693181819
  0
VERTEX
  8
0
  6
________________
 62
     7
 10
491.3764204545455
 20
613.052840909091
  0
VERTEX
  8
0
  6
________________
 62
     7
 10
491.5696732954545
 20
613.1921875
  0
VERTEX
  8
0
  6
________________
 62
     7
 10
491.7454545454545
 20
613.3409090909091
  0
VERTEX
  8
0
  6
________________
 62
     7
 10
491.9037642045455
 20
613.4990056818182
  0
VERTEX
  8
0
  6
________________
 62
     7
 10
492.0446022727273
 20
613.6664772727273
  0
VERTEX
  8
0
  6
________________
 62
     7
 10
492.16796875
 20
613.8433238636363
  0
VERTEX
  8
0
  6
________________
 62
     7
 10
492.2738636363636
 20
614.0295454545454
  0
VERTEX
  8
0
  6
________________
 62
     7
 10
492.3622869318182
 20
614.2251420454546
  0
VERTEX
  8
0
  6
________________
 62
     7
 10
492.4332386363636
 20
614.4301136363637
  0
VERTEX
  8
0
  6
________________
 62
     7
 10
492.48671875
 20
614.6444602272727
  0
VERTEX
  8
0
  6
________________
 62
     7
 10
492.5227272727273
 20
614.8681818181818
  0
SEQEND
  8
0
  6
________________
 62
     7
  0
LINE
  8
0
  6
________________
 62
     7
 10
490.0409090909091
 20
611.7318181818182
 11
489.85
 21
612.4136363636364
  0
LINE
  8
0
  6
________________
 62
     7
 10
496.15
 20
612.5227272727273
 11
495.9045454545455
 21
611.8136363636364
  0
ARC
  8
0
  6
________________
 62
     7
 10
-489.3935302662548
 20
615.4620586937335
 40
3.785999685597513
 50
198.3813362669268
 51
260.1544503336547
  0
ARC
  8
0
  6
________________
 62
     7
 10
-497.0461222466732
 20
616.1328140245802
 40
4.467492947853412
 50
284.8049701042172
 51
335.3308550392529
  0
CIRCLE
  8
0
  6
________________
 62
     7
 10
493.0
 20
614.5
 40
4.900000000000004
  0
ARC
  8
0
  6
________________
 62
     7
 10
496.812760944515
 20
616.2527895252799
 40
3.78848472050404
 50
201.4370007829742
 51
259.9247808529577
  0
LINE
  8
0
  6
________________
 62
     7
 10
495.6318181818182
 20
614.8681818181818
 11
493.2863636363636
 21
614.8681818181818
  0
CIRCLE
  8
0
  6
________________
 62
     7
 10
598.0000000000001
 20
614.5
 40
2.000000000000002
  0
ARC
  8
0
  6
________________
 62
     7
 10
603.0
 20
399.5
 40
5.000000000000004
 50
270.0
 51
0.0
  0
LINE
  8
0
  6
________________
 62
     7
 10
382.9999999999999
 20
394.5000000000001
 11
603.0
 21
394.5
  0
ARC
  8
0
  6
________________
 62
     7
 10
382.9999999999999
 20
399.5000000000001
 40
5.000000000000004
 50
180.0
 51
270.0
  0
ARC
  8
0
  6
________________
 62
     7
 10
383.0
 20
619.5
 40
5.000000000000004
 50
90.0
 51
180.0
  0
LINE
  8
0
  6
________________
 62
     7
 10
603.0
 20
624.5
 11
383.0
 21
624.5
  0
ARC
  8
0
  6
________________
 62
     7
 10
603.0
 20
619.5
 40
5.000000000000004
 50
0.0
 51
90.0
  0
LINE
  8
0
  6
________________
 62
     7
 10
608.0
 20
399.5
 11
608.0000000000001
 21
619.5
  0
CIRCLE
  8
0
  6
________________
 62
     7
 10
388.0
 20
614.5
 40
2.000000000000002
  0
CIRCLE
  8
0
  6
________________
 62
     7
 10
387.9999999999999
 20
404.5000000000001
 40
2.000000000000002
  0
CIRCLE
  8
0
  6
________________
 62
     7
 10
598.0
 20
404.5
 40
2.000000000000002
  0
LINE
  8
0
  6
________________
 62
     7
 10
549.9928065636357
 20
566.0685424949239
 11
556.6396103067892
 21
572.7153462380774
  0
ARC
  8
0
  6
________________
 62
     7
 10
556.4274782724333
 20
572.9274782724333
 40
0.3000000000000028
 50
315.0
 51
45.00000000000376
  0
ARC
  8
0
  6
________________
 62
     7
 10
556.4274782724333
 20
572.9274782724333
 40
0.2999999999999931
 50
45.00000000000561
 51
135.0
  0
LINE
  8
0
  6
________________
 62
     7
 10
556.2153462380774
 20
573.1396103067892
 11
549.5685424949238
 21
566.4928065636358
  0
ARC
  8
0
  6
________________
 62
     7
 10
549.7806745292798
 20
566.2806745292797
 40
0.2999999999999979
 50
134.9999999999991
 51
224.9999999999981
  0
ARC
  8
0
  6
________________
 62
     7
 10
549.7806745292798
 20
566.2806745292797
 40
0.2999999999999931
 50
224.9999999999981
 51
315.0000000000019
  0
LINE
  8
0
  6
________________
 62
     7
 10
378.0
 20
619.5
 11
377.9999999999999
 21
399.5000000000001
  0
CIRCLE
  8
0
  6
________________
 62
     7
 10
-493.0
 20
614.5
 40
5.000000000000005
  0
ARC
  8
0
  6
________________
 62
     7
 10
493.0
 20
509.5000000000001
 40
75.2
 50
66.8776212344801
 51
113.1223787655199
  0
LINE
  8
0
  6
________________
 62
     7
 10
544.7103906100102
 20
562.1151493702855
 11
544.5985583247675
 21
562.1794875516262
  0
POLYLINE
  8
0
  6
________________
 62
     7
 66
     1
  0
VERTEX
  8
0
  6
________________
 62
     7
 10
545.766642471591
 20
561.6776606341768
  0
VERTEX
  8
0
  6
________________
 62
     7
 10
545.6801993220294
 20
561.7238622768173
  0
VERTEX
  8
0
  6
________________
 62
     7
 10
545.6044298292497
 20
561.7860390058447
  0
SEQEND
  8
0
  6
________________
 62
     7
  0
LINE
  8
0
  6
________________
 62
     7
 10
544.5483253612173
 20
562.2234666930506
 11
544.5985583247674
 21
562.179487551626
  0
POLYLINE
  8
0
  6
________________
 62
     7
 66
     1
  0
VERTEX
  8
0
  6
________________
 62
     7
 10
546.1815522347376
 20
561.6923652763726
  0
VERTEX
  8
0
  6
________________
 62
     7
 10
546.0814424322276
 20
561.6550820671191
  0
VERTEX
  8
0
  6
________________
 62
     7
 10
545.9756967780132
 20
561.639915550484
  0
VERTEX
  8
0
  6
________________
 62
     7
 10
545.8691421800326
 20
561.6475580232815
  0
VERTEX
  8
0
  6
________________
 62
     7
 10
545.766642471591
 20
561.6776606341768
  0
SEQEND
  8
0
  6
________________
 62
     7
  0
POLYLINE
  8
0
  6
________________
 62
     7
 66
     1
  0
VERTEX
  8
0
  6
________________
 62
     7
 10
546.423021626043
 20
561.8130672060055
  0
VERTEX
  8
0
  6
________________
 62
     7
 10
555.6564688320286
 20
550.3932469351014
  0
VERTEX
  8
0
  6
________________
 62
     7
 10
562.4877613282649
 20
537.3929886438866
  0
VERTEX
  8
0
  6
________________
 62
     7
 10
566.6549976423357
 20
523.3107026683459
  0
VERTEX
  8
0
  6
________________
 62
     7
 10
567.9984122061348
 20
508.686282657304
  0
VERTEX
  8
0
  6
________________
 62
     7
 10
566.4665005272811
 20
494.0804068625315
  0
VERTEX
  8
0
  6
________________
 62
     7
 10
562.1179937938368
 20
480.0530425784588
  0
VERTEX
  8
0
  6
________________
 62
     7
 10
555.1196072089538
 20
467.141977838923
  0
VERTEX
  8
0
  6
________________
 62
     7
 10
545.7396483809109
 20
455.8422034333843
  0
VERTEX
  8
0
  6
________________
 62
     7
 10
534.3377308132469
 20
446.5869357050767
  0
VERTEX
  8
0
  6
________________
 62
     7
 10
521.3509868642942
 20
439.7310076884496
  0
VERTEX
  8
0
  6
________________
 62
     7
 10
507.2773087504961
 20
435.5372653446915
  0
VERTEX
  8
0
  6
________________
 62
     7
 10
492.6562601082137
 20
434.1664904431923
  0
VERTEX
  8
0
  6
________________
 62
     7
 10
478.0483899360138
 20
435.6712364305
  0
VERTEX
  8
0
  6
________________
 62
     7
 10
464.0137419897557
 20
439.9938136102788
  0
VERTEX
  8
0
  6
________________
 62
     7
 10
451.0903835479216
 20
446.9685008794372
  0
VERTEX
  8
0
  6
________________
 62
     7
 10
439.7737767220148
 20
456.327899225791
  0
VERTEX
  8
0
  6
________________
 62
     7
 10
430.4977831849311
 20
467.7131834037236
  0
VERTEX
  8
0
  6
________________
 62
     7
 10
423.6180305674337
 20
480.6878587540298
  0
VERTEX
  8
0
  6
________________
 62
     7
 10
419.3982782300499
 20
494.7544957521735
  0
VERTEX
  8
0
  6
________________
 62
     7
 10
418.000305126177
 20
509.3738007075704
  0
VERTEX
  8
0
  6
________________
 62
     7
 10
419.4777074405054
 20
523.985291471984
  0
VERTEX
  8
0
  6
________________
 62
     7
 10
423.773843791966
 20
538.0287854814995
  0
VERTEX
  8
0
  6
________________
 62
     7
 10
430.7240067790286
 20
550.9658763128833
  0
VERTEX
  8
0
  6
________________
 62
     7
 10
440.0617376135726
 20
562.300575375486
  0
VERTEX
  8
0
  6
________________
 62
     7
 10
451.4290417497722
 20
571.5983273672873
  0
VERTEX
  8
0
  6
________________
 62
     7
 10
464.3901138561599
 20
578.5026704711196
  0
VERTEX
  8
0
  6
________________
 62
     7
 10
478.4480459360973
 20
582.7489025642208
  0
VERTEX
  8
0
  6
________________
 62
     7
 10
493.0638780324618
 20
584.1742294992147
  0
VERTEX
  8
0
  6
________________
 62
     7
 10
507.6772611412057
 20
582.7240063866961
  0
VERTEX
  8
0
  6
________________
 62
     7
 10
521.7279401487802
 20
578.4538325980449
  0
VERTEX
  8
0
  6
________________
 62
     7
 10
534.6772331699408
 20
571.5274201692096
  0
VERTEX
  8
0
  6
________________
 62
     7
 10
546.0286838004474
 20
562.210317327656
  0
SEQEND
  8
0
  6
________________
 62
     7
  0
LINE
  8
0
  6
________________
 62
     7
 10
544.0567503824421
 20
563.2893175272527
 11
545.6044298292497
 21
561.7860390058448
  0
LINE
  8
0
  6
________________
 62
     7
 10
544.0567503824421
 20
563.2893175272526
 11
544.3645542362426
 21
563.6863079374235
  0
LINE
  8
0
  6
________________
 62
     7
 10
544.3645542362426
 20
563.6863079374236
 11
545.9579748142064
 21
562.1396042829798
  0
LINE
  8
0
  6
________________
 62
     7
 10
545.9579748142064
 20
562.1396042829797
 11
546.5234743145401
 21
562.4222772942962
  0
POLYLINE
  8
0
  6
________________
 62
     7
 66
     1
  0
VERTEX
  8
0
  6
________________
 62
     7
 10
546.5234743069391
 20
562.4222772867338
  0
VERTEX
  8
0
  6
________________
 62
     7
 10
555.8799993383087
 20
550.9617427289862
  0
VERTEX
  8
0
  6
________________
 62
     7
 10
562.8221118446445
 20
537.8965215334985
  0
VERTEX
  8
0
  6
________________
 62
     7
 10
567.0832545173926
 20
523.7282809081055
  0
VERTEX
  8
0
  6
________________
 62
     7
 10
568.4998116385455
 20
509.0010408589083
  0
VERTEX
  8
0
  6
________________
 62
     7
 10
567.0173914572805
 20
494.2802853745857
  0
VERTEX
  8
0
  6
________________
 62
     7
 10
562.6929146779661
 20
480.1312494550316
  0
VERTEX
  8
0
  6
________________
 62
     7
 10
555.692428867556
 20
467.0972157004497
  0
VERTEX
  8
0
  6
________________
 62
     7
 10
546.2847327028926
 20
455.6786538099484
  0
VERTEX
  8
0
  6
________________
 62
     7
 10
534.8310548686243
 20
446.3140039733561
  0
VERTEX
  8
0
  6
________________
 62
     7
 10
521.7711839066048
 20
439.3628420191708
  0
VERTEX
  8
0
  6
________________
 62
     7
 10
507.606581590973
 20
435.0920727289181
  0
VERTEX
  8
0
  6
________________
 62
     7
 10
492.8811282271178
 20
433.6656814552447
  0
VERTEX
  8
0
  6
________________
 62
     7
 10
478.1602392001
 20
435.1384375523651
  0
VERTEX
  8
0
  6
________________
 62
     7
 10
464.0091546374719
 20
439.4537913891621
  0
VERTEX
  8
0
  6
________________
 62
     7
 10
450.9712358014847
 20
446.4460456936393
  0
VERTEX
  8
0
  6
________________
 62
     7
 10
439.5471015672853
 20
455.8467178552908
  0
VERTEX
  8
0
  6
________________
 62
     7
 10
430.1754060867976
 20
467.2948488911382
  0
VERTEX
  8
0
  6
________________
 62
     7
 10
423.215995721138
 20
480.3508632405576
  0
VERTEX
  8
0
  6
________________
 62
     7
 10
418.936091967293
 20
494.513447212328
  0
VERTEX
  8
0
  6
________________
 62
     7
 10
417.5000309152431
 20
509.2387979997045
  0
VERTEX
  8
0
  6
________________
 62
     7
 10
418.9629532110962
 20
523.9615041562703
  0
VERTEX
  8
0
  6
________________
 62
     7
 10
423.26868681364
 20
538.1162557818844
  0
VERTEX
  8
0
  6
________________
 62
     7
 10
430.2519038404184
 20
551.1595508095422
  0
VERTEX
  8
0
  6
________________
 62
     7
 10
439.6444686865983
 20
562.5905639336794
  0
VERTEX
  8
0
  6
________________
 62
     7
 10
451.0857336669787
 20
571.9703768726296
  0
VERTEX
  8
0
  6
________________
 62
     7
 10
464.1363868578707
 20
578.9388315780376
  0
VERTEX
  8
0
  6
________________
 62
     7
 10
478.2953204212408
 20
583.2283592760814
  0
VERTEX
  8
0
  6
________________
 62
     7
 10
493.0188717156092
 20
584.6742543447888
  0
VERTEX
  8
0
  6
________________
 62
     7
 10
507.741698389955
 20
583.2209985398767
  0
VERTEX
  8
0
  6
________________
 62
     7
 10
521.8984859165986
 20
578.9243927368923
  0
VERTEX
  8
0
  6
________________
 62
     7
 10
534.9456540557458
 20
571.9494143368373
  0
VERTEX
  8
0
  6
________________
 62
     7
 10
546.3822287854041
 20
562.5638826047909
  0
SEQEND
  8
0
  6
________________
 62
     7
  0
LINE
  8
0
  6
________________
 62
     7
 10
546.3822287854042
 20
562.5638826047908
 11
546.0286838004475
 21
562.210317327656
  0
LINE
  8
0
  6
________________
 62
     7
 10
546.423021626043
 20
561.8130672060055
 11
546.1815522347376
 21
561.6923652763727
  0
LINE
  8
0
  6
________________
 62
     7
 10
546.3234675916976
 20
562.5051180384086
 11
546.5234743145401
 21
562.4222772942964
  0
LINE
  8
0
  6
________________
 62
     7
 10
537.0736603849665
 20
568.7675629370171
 11
544.5483253612173
 21
562.2234666930506
  0
LINE
  8
0
  6
________________
 62
     7
 10
537.0736603849665
 20
568.767562937017
 11
538.0936615786578
 21
568.3450888574074
  0
LINE
  8
0
  6
________________
 62
     7
 10
544.0567503824421
 20
563.2893175272527
 11
538.0936615786577
 21
568.3450888574075
  0
LINE
  8
0
  6
________________
 62
     7
 10
538.0936615786578
 20
568.3450888574075
 11
538.3968262065159
 21
568.7426943248698
  0
LINE
  8
0
  6
________________
 62
     7
 10
538.396826206516
 20
568.7426943248697
 11
544.3645542362426
 21
563.6863079374236
  0
LINE
  8
0
  6
________________
 62
     7
 10
545.7862936042442
 20
562.3107128719755
 11
546.0286838004475
 21
562.2103173276558
  0
POLYLINE
  8
0
  6
________________
 62
     7
 66
     1
  0
VERTEX
  8
0
  6
________________
 62
     7
 10
545.9589499887721
 20
561.6396027492794
  0
VERTEX
  8
0
  6
________________
 62
     7
 10
554.9418307332154
 20
550.2381740054889
  0
VERTEX
  8
0
  6
________________
 62
     7
 10
561.5091840237353
 20
537.293719320666
  0
VERTEX
  8
0
  6
________________
 62
     7
 10
565.4049047051392
 20
523.3110298076522
  0
VERTEX
  8
0
  6
________________
 62
     7
 10
566.4770724975878
 20
508.83538431918
  0
VERTEX
  8
0
  6
________________
 62
     7
 10
564.6838763873085
 20
494.4312853679581
  0
VERTEX
  8
0
  6
________________
 62
     7
 10
560.0952451184695
 20
480.6604453873105
  0
VERTEX
  8
0
  6
________________
 62
     7
 10
552.8901202023987
 20
468.0598817957261
  0
VERTEX
  8
0
  6
________________
 62
     7
 10
543.3494777878102
 20
457.1209750856784
  0
VERTEX
  8
0
  6
________________
 62
     7
 10
531.8453715161236
 20
448.2703066022976
  0
VERTEX
  8
0
  6
________________
 62
     7
 10
518.8264236544429
 20
441.8530232754392
  0
VERTEX
  8
0
  6
________________
 62
     7
 10
504.800330304237
 20
438.1193780258214
  0
VERTEX
  8
0
  6
________________
 62
     7
 10
490.3140629249809
 20
437.2149707250803
  0
VERTEX
  8
0
  6
________________
 62
     7
 10
475.9325382481509
 20
439.1750702801664
  0
VERTEX
  8
0
  6
________________
 62
     7
 10
462.2165883846961
 20
443.9232392620969
  0
VERTEX
  8
0
  6
________________
 62
     7
 10
449.7010902192617
 20
451.2743147140145
  0
VERTEX
  8
0
  6
________________
 62
     7
 10
438.8741069727807
 20
460.941628896852
  0
VERTEX
  8
0
  6
________________
 62
     7
 10
430.1578553438147
 20
472.5481883872971
  0
VERTEX
  8
0
  6
________________
 62
     7
 10
423.8922404474667
 20
485.6413755800435
  0
VERTEX
  8
0
  6
________________
 62
     7
 10
420.3216006350365
 20
499.7105992841454
  0
VERTEX
  8
0
  6
________________
 62
     7
 10
419.5851791028084
 20
514.2072060983331
  0
VERTEX
  8
0
  6
________________
 62
     7
 10
421.7116938658572
 20
528.5658760872109
  0
VERTEX
  8
0
  6
________________
 62
     7
 10
426.6182178500148
 20
542.2266683974102
  0
VERTEX
  8
0
  6
________________
 62
     7
 10
434.1134127747241
 20
554.6568571072556
  0
VERTEX
  8
0
  6
________________
 62
     7
 10
443.904990715995
 20
565.3717057836991
  0
VERTEX
  8
0
  6
________________
 62
     7
 10
455.6111123730773
 20
573.9533706072052
  0
VERTEX
  8
0
  6
________________
 62
     7
 10
468.7752775439761
 20
580.0671949049541
  0
VERTEX
  8
0
  6
________________
 62
     7
 10
482.8841271302939
 20
583.4747596592181
  0
VERTEX
  8
0
  6
________________
 62
     7
 10
497.3874624518238
 20
584.0431810640534
  0
VERTEX
  8
0
  6
________________
 62
     7
 10
511.7197011835373
 20
581.7502925562101
  0
VERTEX
  8
0
  6
________________
 62
     7
 10
525.3219332040699
 20
576.6855092381143
  0
VERTEX
  8
0
  6
________________
 62
     7
 10
537.6637162502321
 20
569.046340983275
  0
SEQEND
  8
0
  6
________________
 62
     7
  0
LINE
  8
0
  6
________________
 62
     7
 10
537.3768250128247
 20
569.1651684044792
 11
537.0736603849664
 21
568.767562937017
  0
LINE
  8
0
  6
________________
 62
     7
 10
537.3768250128247
 20
569.1651684044792
 11
538.3968262065159
 21
568.7426943248697
  0
LINE
  8
0
  6
________________
 62
     7
 10
544.7103906100101
 20
562.1151493702855
 11
545.766642471591
 21
561.6776606341768
  0
LINE
  8
0
  6
________________
 62
     7
 10
752.2522932207147
 20
433.2500000000001
 11
752.2522932207147
 21
585.7500000000001
  0
LINE
  8
0
  6
________________
 62
     7
 10
726.7522932207147
 20
624.5
 11
727.2522932207147
 21
624.5
  0
LINE
  8
0
  6
________________
 62
     7
 10
727.2522932207147
 20
624.5
 11
727.2522932207147
 21
619.5
  0
LINE
  8
0
  6
________________
 62
     7
 10
726.7522932207147
 20
619.5
 11
726.7522932207147
 21
624.5
  0
LINE
  8
0
  6
________________
 62
     7
 10
727.2522932207147
 20
399.5
 11
727.2522932207147
 21
619.5
  0
LINE
  8
0
  6
________________
 62
     7
 10
726.7522932207147
 20
399.5
 11
726.7522932207147
 21
619.5
  0
LINE
  8
0
  6
________________
 62
     7
 10
727.2522932207147
 20
394.5
 11
726.7522932207147
 21
394.5
  0
LINE
  8
0
  6
________________
 62
     7
 10
727.2522932207147
 20
399.5
 11
727.2522932207147
 21
394.5
  0
LINE
  8
0
  6
________________
 62
     7
 10
726.7522932207147
 20
394.5
 11
726.7522932207147
 21
399.5
  0
LINE
  8
0
  6
________________
 62
     7
 10
837.2459799887492
 20
584.6742567034781
 11
837.2459799887492
 21
563.0031615603939
  0
LINE
  8
0
  6
________________
 62
     7
 10
836.6788594213218
 20
562.8597729006775
 11
837.2459799887492
 21
562.8615524451943
  0
LINE
  8
0
  6
________________
 62
     7
 10
837.2459799887492
 20
562.8615524451943
 11
837.2459799887492
 21
436.6657600988287
  0
LINE
  8
0
  6
________________
 62
     7
 10
837.2459799887486
 20
563.003161560394
 11
752.2522932207141
 21
562.7364609825264
  0
LINE
  8
0
  6
________________
 62
     7
 10
836.6788594213218
 20
562.8597729006775
 11
752.2522932207147
 21
562.5948556796137
  0
LINE
  8
0
  6
________________
 62
     7
 10
785.0610932802571
 20
567.4679406110238
 11
785.1330915970375
 21
567.2276656137259
  0
LINE
  8
0
  6
________________
 62
     7
 10
820.0601525065792
 20
567.5556617787264
 11
820.132151704922
 21
567.315388875447
  0
LINE
  8
0
  6
________________
 62
     7
 10
697.2540150112507
 20
584.6742567034781
 11
697.2540150112507
 21
562.5638826047909
  0
LINE
  8
0
  6
________________
 62
     7
 10
726.7522932207147
 20
562.6564448661036
 11
697.2540150112509
 21
562.5638826047908
  0
LINE
  8
0
  6
________________
 62
     7
 10
697.2540150112507
 20
562.4222772867339
 11
697.2540150112507
 21
433.6655878703561
  0
LINE
  8
0
  6
________________
 62
     7
 10
726.7522932207147
 20
562.5148395580021
 11
697.2540150112843
 21
562.4222772942964
  0
LINE
  8
0
  6
________________
 62
     7
 10
715.062974801427
 20
567.2924982124821
 11
715.1349713812683
 21
567.0522190902287
  0
LINE
  8
0
  6
________________
 62
     7
 10
837.2459799887486
 20
563.003161560394
 11
837.2459799887492
 21
562.8615524451943
  0
LINE
  8
0
  6
________________
 62
     7
 10
697.2540150112509
 20
562.5638826047908
 11
697.2540150112676
 21
562.4222772942962
  0
POLYLINE
  8
0
  6
________________
 62
     7
 10
0.0
 20
0.0
 30
0.0
 66
     1
 70
     8
  0
VERTEX
  8
0
  6
________________
 62
     7
 10
713.1349820849238
 20
567.0587623691736
 30
0.0
 70
    32
  0
VERTEX
  8
0
  6
________________
 62
     7
 10
713.1525143349213
 20
567.1770266852839
 30
0.0
 70
    32
  0
VERTEX
  8
0
  6
________________
 62
     7
 10
713.1969140909405
 20
567.2793483171523
 30
0.0
 70
    32
  0
VERTEX
  8
0
  6
________________
 62
     7
 10
713.2695923473412
 20
567.3779350998394
 30
0.0
 70
    32
  0
VERTEX
  8
0
  6
________________
 62
     7
 10
713.364453800051
 20
567.4645710757544
 30
0.0
 70
    32
  0
VERTEX
  8
0
  6
________________
 62
     7
 10
713.4523715893602
 20
567.5237665435341
 30
0.0
 70
    32
  0
SEQEND
  8
0
  6
________________
 62
     7
  0
ARC
  8
0
  6
________________
 62
     7
 10
-714.1319885403358
 20
566.2451443873532
 40
1.448017202359876
 50
62.00833275486458
 51
118.725439513987
  0
POLYLINE
  8
0
  6
________________
 62
     7
 10
0.0
 20
0.0
 30
0.0
 66
     1
 70
     8
  0
VERTEX
  8
0
  6
________________
 62
     7
 10
714.8279242957088
 20
567.5149582488003
 30
0.0
 70
    32
  0
VERTEX
  8
0
  6
________________
 62
     7
 10
714.9137207867084
 20
567.4552391829095
 30
0.0
 70
    32
  0
VERTEX
  8
0
  6
________________
 62
     7
 10
715.0085458962858
 20
567.3654391829629
 30
0.0
 70
    32
  0
VERTEX
  8
0
  6
________________
 62
     7
 10
715.062974801427
 20
567.2924982124821
 30
0.0
 70
    32
  0
SEQEND
  8
0
  6
________________
 62
     7
  0
POLYLINE
  8
0
  6
________________
 62
     7
 10
0.0
 20
0.0
 30
0.0
 66
     1
 70
     8
  0
VERTEX
  8
0
  6
________________
 62
     7
 10
715.1349713812683
 20
567.0522190902287
 30
0.0
 70
    32
  0
VERTEX
  8
0
  6
________________
 62
     7
 10
715.1214578204653
 20
566.9481454036496
 30
0.0
 70
    32
  0
VERTEX
  8
0
  6
________________
 62
     7
 10
715.0795582123181
 20
566.8421210759027
 30
0.0
 70
    32
  0
VERTEX
  8
0
  6
________________
 62
     7
 10
715.0116299531744
 20
566.7433698780276
 30
0.0
 70
    32
  0
VERTEX
  8
0
  6
________________
 62
     7
 10
714.9176707205922
 20
566.6519400448116
 30
0.0
 70
    32
  0
VERTEX
  8
0
  6
________________
 62
     7
 10
714.8341713203266
 20
566.591995728974
 30
0.0
 70
    32
  0
VERTEX
  8
0
  6
________________
 62
     7
 10
714.7369139328216
 20
566.5378007772639
 30
0.0
 70
    32
  0
SEQEND
  8
0
  6
________________
 62
     7
  0
ARC
  8
0
  6
________________
 62
     7
 10
-714.1407601781517
 20
567.8382701613857
 40
1.430601243619353
 50
245.3726019084358
 51
298.5933824216028
  0
POLYLINE
  8
0
  6
________________
 62
     7
 10
0.0
 20
0.0
 30
0.0
 66
     1
 70
     8
  0
VERTEX
  8
0
  6
________________
 62
     7
 10
713.4560880866228
 20
566.5821475378626
 30
0.0
 70
    32
  0
VERTEX
  8
0
  6
________________
 62
     7
 10
713.370028838579
 20
566.6408918111716
 30
0.0
 70
    32
  0
VERTEX
  8
0
  6
________________
 62
     7
 10
713.2945605072644
 20
566.7073135951608
 30
0.0
 70
    32
  0
VERTEX
  8
0
  6
________________
 62
     7
 10
713.2155073764777
 20
566.8037993960073
 30
0.0
 70
    32
  0
VERTEX
  8
0
  6
________________
 62
     7
 10
713.1625558478228
 20
566.9072095846527
 30
0.0
 70
    32
  0
VERTEX
  8
0
  6
________________
 62
     7
 10
713.1372080303111
 20
567.0145611564263
 30
0.0
 70
    32
  0
VERTEX
  8
0
  6
________________
 62
     7
 10
713.1349820849238
 20
567.0587623691736
 30
0.0
 70
    32
  0
SEQEND
  8
0
  6
________________
 62
     7
  0
POLYLINE
  8
0
  6
________________
 62
     7
 66
     1
  0
VERTEX
  8
0
  6
________________
 62
     7
 10
715.1347207559343
 20
566.9756157996953
  0
VERTEX
  8
0
  6
________________
 62
     7
 10
715.1159163938305
 20
567.1010724382097
  0
VERTEX
  8
0
  6
________________
 62
     7
 10
715.0594054393002
 20
567.2218335785649
  0
VERTEX
  8
0
  6
________________
 62
     7
 10
714.9673595766342
 20
567.3332584378605
  0
VERTEX
  8
0
  6
________________
 62
     7
 10
714.8433160767149
 20
567.4310650212417
  0
VERTEX
  8
0
  6
________________
 62
     7
 10
714.69204186168
 20
567.5114946765598
  0
VERTEX
  8
0
  6
________________
 62
     7
 10
714.5193503147774
 20
567.571456537266
  0
VERTEX
  8
0
  6
________________
 62
     7
 10
714.3318778753081
 20
567.6086463026809
  0
VERTEX
  8
0
  6
________________
 62
     7
 10
714.1368290039853
 20
567.6216347909755
  0
VERTEX
  8
0
  6
________________
 62
     7
 10
713.9416993195491
 20
567.6099228618286
  0
VERTEX
  8
0
  6
________________
 62
     7
 10
713.7539875463426
 20
567.5739605981097
  0
VERTEX
  8
0
  6
________________
 62
     7
 10
713.5809073425401
 20
567.515130009445
  0
VERTEX
  8
0
  6
________________
 62
     7
 10
713.429110083309
 20
567.4356919223648
  0
VERTEX
  8
0
  6
________________
 62
     7
 10
713.3044292521928
 20
567.3386990980059
  0
VERTEX
  8
0
  6
________________
 62
     7
 10
713.2116562636097
 20
567.2278789162143
  0
VERTEX
  8
0
  6
________________
 62
     7
 10
713.1543563314829
 20
567.1074901344276
  0
VERTEX
  8
0
  6
________________
 62
     7
 10
713.13473146007
 20
566.9821592260151
  0
SEQEND
  8
0
  6
________________
 62
     7
  0
POLYLINE
  8
0
  6
________________
 62
     7
 10
0.0
 20
0.0
 30
0.0
 66
     1
 70
     8
  0
VERTEX
  8
0
  6
________________
 62
     7
 10
783.1331023006935
 20
567.2342088928826
 30
0.0
 70
    32
  0
VERTEX
  8
0
  6
________________
 62
     7
 10
783.1506331505078
 20
567.3524665992135
 30
0.0
 70
    32
  0
VERTEX
  8
0
  6
________________
 62
     7
 10
783.1950315915086
 20
567.4547838172945
 30
0.0
 70
    32
  0
VERTEX
  8
0
  6
________________
 62
     7
 10
783.2677084508225
 20
567.5533640053408
 30
0.0
 70
    32
  0
VERTEX
  8
0
  6
________________
 62
     7
 10
783.3625686652795
 20
567.6399924251266
 30
0.0
 70
    32
  0
VERTEX
  8
0
  6
________________
 62
     7
 10
783.4504855542028
 20
567.6991817610806
 30
0.0
 70
    32
  0
SEQEND
  8
0
  6
________________
 62
     7
  0
ARC
  8
0
  6
________________
 62
     7
 10
-784.1301094399344
 20
566.4203620413073
 40
1.448194911514955
 50
62.01175902519532
 51
118.7212460258559
  0
POLYLINE
  8
0
  6
________________
 62
     7
 10
0.0
 20
0.0
 30
0.0
 66
     1
 70
     8
  0
VERTEX
  8
0
  6
________________
 62
     7
 10
784.826037653452
 20
567.6903826802609
 30
0.0
 70
    32
  0
VERTEX
  8
0
  6
________________
 62
     7
 10
784.9118350052877
 20
567.630670615301
 30
0.0
 70
    32
  0
VERTEX
  8
0
  6
________________
 62
     7
 10
785.0066624002973
 20
567.5408780987451
 30
0.0
 70
    32
  0
VERTEX
  8
0
  6
________________
 62
     7
 10
785.0610932802571
 20
567.4679406110238
 30
0.0
 70
    32
  0
SEQEND
  8
0
  6
________________
 62
     7
  0
POLYLINE
  8
0
  6
________________
 62
     7
 10
0.0
 20
0.0
 30
0.0
 66
     1
 70
     8
  0
VERTEX
  8
0
  6
________________
 62
     7
 10
785.1330915970375
 20
567.2276656137259
 30
0.0
 70
    32
  0
VERTEX
  8
0
  6
________________
 62
     7
 10
785.1195789182698
 20
567.1235938806248
 30
0.0
 70
    32
  0
VERTEX
  8
0
  6
________________
 62
     7
 10
785.0776802727138
 20
567.0175653300684
 30
0.0
 70
    32
  0
VERTEX
  8
0
  6
________________
 62
     7
 10
785.0097530053108
 20
566.918807652188
 30
0.0
 70
    32
  0
VERTEX
  8
0
  6
________________
 62
     7
 10
784.9157947618819
 20
566.8273695770275
 30
0.0
 70
    32
  0
VERTEX
  8
0
  6
________________
 62
     7
 10
784.8322959655169
 20
566.7674186151356
 30
0.0
 70
    32
  0
VERTEX
  8
0
  6
________________
 62
     7
 10
784.735039142833
 20
566.7132168345001
 30
0.0
 70
    32
  0
SEQEND
  8
0
  6
________________
 62
     7
  0
ARC
  8
0
  6
________________
 62
     7
 10
-784.1388787292636
 20
568.0134893244673
 40
1.430425037138425
 50
245.3690729748701
 51
298.5969101139869
  0
POLYLINE
  8
0
  6
________________
 62
     7
 10
0.0
 20
0.0
 30
0.0
 66
     1
 70
     8
  0
VERTEX
  8
0
  6
________________
 62
     7
 10
783.4542136400192
 20
566.7575635693199
 30
0.0
 70
    32
  0
VERTEX
  8
0
  6
________________
 62
     7
 10
783.3681537478577
 20
566.8163137860627
 30
0.0
 70
    32
  0
VERTEX
  8
0
  6
________________
 62
     7
 10
783.2926846807221
 20
566.8827413864922
 30
0.0
 70
    32
  0
VERTEX
  8
0
  6
________________
 62
     7
 10
783.2136304581804
 20
566.9792338924319
 30
0.0
 70
    32
  0
VERTEX
  8
0
  6
________________
 62
     7
 10
783.1606777487349
 20
567.0826489278732
 30
0.0
 70
    32
  0
VERTEX
  8
0
  6
________________
 62
     7
 10
783.1353287302419
 20
567.1900028288603
 30
0.0
 70
    32
  0
VERTEX
  8
0
  6
________________
 62
     7
 10
783.1331023006935
 20
567.2342088928826
 30
0.0
 70
    32
  0
SEQEND
  8
0
  6
________________
 62
     7
  0
POLYLINE
  8
0
  6
________________
 62
     7
 66
     1
  0
VERTEX
  8
0
  6
________________
 62
     7
 10
785.1328409717154
 20
567.1510623268108
  0
VERTEX
  8
0
  6
________________
 62
     7
 10
785.1140366096116
 20
567.2765189653253
  0
VERTEX
  8
0
  6
________________
 62
     7
 10
785.0575256550815
 20
567.3972801056805
  0
VERTEX
  8
0
  6
________________
 62
     7
 10
784.9654797924154
 20
567.5087049649761
  0
VERTEX
  8
0
  6
________________
 62
     7
 10
784.8414362924962
 20
567.6065115483574
  0
VERTEX
  8
0
  6
________________
 62
     7
 10
784.6901620774612
 20
567.6869412036755
  0
VERTEX
  8
0
  6
________________
 62
     7
 10
784.5174705305585
 20
567.7469030643817
  0
VERTEX
  8
0
  6
________________
 62
     7
 10
784.3299980910892
 20
567.7840928297967
  0
VERTEX
  8
0
  6
________________
 62
     7
 10
784.1349492197663
 20
567.7970813180913
  0
VERTEX
  8
0
  6
________________
 62
     7
 10
783.9398195353302
 20
567.7853693889444
  0
VERTEX
  8
0
  6
________________
 62
     7
 10
783.7521077621237
 20
567.7494071252255
  0
VERTEX
  8
0
  6
________________
 62
     7
 10
783.5790275583211
 20
567.6905765365608
  0
VERTEX
  8
0
  6
________________
 62
     7
 10
783.4272302990898
 20
567.6111384494806
  0
VERTEX
  8
0
  6
________________
 62
     7
 10
783.3025494679738
 20
567.5141456251217
  0
VERTEX
  8
0
  6
________________
 62
     7
 10
783.2097764793906
 20
567.4033254433301
  0
VERTEX
  8
0
  6
________________
 62
     7
 10
783.1524765472637
 20
567.2829366615434
  0
VERTEX
  8
0
  6
________________
 62
     7
 10
783.1328516758509
 20
567.1576057531308
  0
SEQEND
  8
0
  6
________________
 62
     7
  0
POLYLINE
  8
0
  6
________________
 62
     7
 10
0.0
 20
0.0
 30
0.0
 66
     1
 70
     8
  0
VERTEX
  8
0
  6
________________
 62
     7
 10
818.1321624085783
 20
567.3219321547122
 30
0.0
 70
    32
  0
VERTEX
  8
0
  6
________________
 62
     7
 10
818.1496925456971
 20
567.4401864993679
 30
0.0
 70
    32
  0
VERTEX
  8
0
  6
________________
 62
     7
 10
818.1940903170972
 20
567.542501476821
 30
0.0
 70
    32
  0
VERTEX
  8
0
  6
________________
 62
     7
 10
818.2667664647728
 20
567.6410783174754
 30
0.0
 70
    32
  0
VERTEX
  8
0
  6
________________
 62
     7
 10
818.3616260485037
 20
567.7277029024549
 30
0.0
 70
    32
  0
VERTEX
  8
0
  6
________________
 62
     7
 10
818.4495424787046
 20
567.786889126558
 30
0.0
 70
    32
  0
SEQEND
  8
0
  6
________________
 62
     7
  0
ARC
  8
0
  6
________________
 62
     7
 10
-819.1291698965006
 20
566.5079691115654
 40
1.448285134829666
 50
62.01349768133952
 51
118.7191168205013
  0
POLYLINE
  8
0
  6
________________
 62
     7
 10
0.0
 20
0.0
 30
0.0
 66
     1
 70
     8
  0
VERTEX
  8
0
  6
________________
 62
     7
 10
819.8250942672413
 20
567.7780947360521
 30
0.0
 70
    32
  0
VERTEX
  8
0
  6
________________
 62
     7
 10
819.9108920575596
 20
567.7183862257759
 30
0.0
 70
    32
  0
VERTEX
  8
0
  6
________________
 62
     7
 10
820.0057206187608
 20
567.6285975048226
 30
0.0
 70
    32
  0
VERTEX
  8
0
  6
________________
 62
     7
 10
820.0601525065792
 20
567.5556617787264
 30
0.0
 70
    32
  0
SEQEND
  8
0
  6
________________
 62
     7
  0
POLYLINE
  8
0
  6
________________
 62
     7
 10
0.0
 20
0.0
 30
0.0
 66
     1
 70
     8
  0
VERTEX
  8
0
  6
________________
 62
     7
 10
820.132151704922
 20
567.315388875447
 30
0.0
 70
    32
  0
VERTEX
  8
0
  6
________________
 62
     7
 10
820.1186394743202
 20
567.2113181357964
 30
0.0
 70
    32
  0
VERTEX
  8
0
  6
________________
 62
     7
 10
820.0767413181616
 20
567.1052874424244
 30
0.0
 70
    32
  0
VERTEX
  8
0
  6
________________
 62
     7
 10
820.0088145552975
 20
567.0065264759527
 30
0.0
 70
    32
  0
VERTEX
  8
0
  6
________________
 62
     7
 10
819.9148568153121
 20
566.9150842175941
 30
0.0
 70
    32
  0
VERTEX
  8
0
  6
________________
 62
     7
 10
819.8313583262191
 20
566.8551298820724
 30
0.0
 70
    32
  0
VERTEX
  8
0
  6
________________
 62
     7
 10
819.734101790983
 20
566.8009246348938
 30
0.0
 70
    32
  0
SEQEND
  8
0
  6
________________
 62
     7
  0
ARC
  8
0
  6
________________
 62
     7
 10
-819.1379379918297
 20
568.1010972024485
 40
1.430335618252775
 50
245.3672815059022
 51
298.5987002729733
  0
POLYLINE
  8
0
  6
________________
 62
     7
 10
0.0
 20
0.0
 30
0.0
 66
     1
 70
     8
  0
VERTEX
  8
0
  6
________________
 62
     7
 10
818.4532764648752
 20
566.8452713489359
 30
0.0
 70
    32
  0
VERTEX
  8
0
  6
________________
 62
     7
 10
818.3672162448376
 20
566.9040245818819
 30
0.0
 70
    32
  0
VERTEX
  8
0
  6
________________
 62
     7
 10
818.2917468031434
 20
566.970455134152
 30
0.0
 70
    32
  0
VERTEX
  8
0
  6
________________
 62
     7
 10
818.2126920248348
 20
567.0669510430946
 30
0.0
 70
    32
  0
VERTEX
  8
0
  6
________________
 62
     7
 10
818.1597387143112
 20
567.1703685386394
 30
0.0
 70
    32
  0
VERTEX
  8
0
  6
________________
 62
     7
 10
818.1343890845652
 20
567.2777236218095
 30
0.0
 70
    32
  0
VERTEX
  8
0
  6
________________
 62
     7
 10
818.1321624085783
 20
567.3219321547122
 30
0.0
 70
    32
  0
SEQEND
  8
0
  6
________________
 62
     7
  0
POLYLINE
  8
0
  6
________________
 62
     7
 66
     1
  0
VERTEX
  8
0
  6
________________
 62
     7
 10
820.1319010796059
 20
567.2387855903685
  0
VERTEX
  8
0
  6
________________
 62
     7
 10
820.1130967175021
 20
567.364242228883
  0
VERTEX
  8
0
  6
________________
 62
     7
 10
820.056585762972
 20
567.4850033692381
  0
VERTEX
  8
0
  6
________________
 62
     7
 10
819.9645399003059
 20
567.5964282285338
  0
VERTEX
  8
0
  6
________________
 62
     7
 10
819.8404964003867
 20
567.6942348119151
  0
VERTEX
  8
0
  6
________________
 62
     7
 10
819.6892221853517
 20
567.7746644672332
  0
VERTEX
  8
0
  6
________________
 62
     7
 10
819.516530638449
 20
567.8346263279394
  0
VERTEX
  8
0
  6
________________
 62
     7
 10
819.3290581989797
 20
567.8718160933544
  0
VERTEX
  8
0
  6
________________
 62
     7
 10
819.1340093276568
 20
567.884804581649
  0
VERTEX
  8
0
  6
________________
 62
     7
 10
818.9388796432207
 20
567.8730926525021
  0
VERTEX
  8
0
  6
________________
 62
     7
 10
818.7511678700142
 20
567.8371303887832
  0
VERTEX
  8
0
  6
________________
 62
     7
 10
818.5780876662116
 20
567.7782998001185
  0
VERTEX
  8
0
  6
________________
 62
     7
 10
818.4262904069803
 20
567.6988617130382
  0
VERTEX
  8
0
  6
________________
 62
     7
 10
818.3016095758643
 20
567.6018688886794
  0
VERTEX
  8
0
  6
________________
 62
     7
 10
818.2088365872811
 20
567.4910487068878
  0
VERTEX
  8
0
  6
________________
 62
     7
 10
818.1515366551542
 20
567.3706599251011
  0
VERTEX
  8
0
  6
________________
 62
     7
 10
818.1319117837414
 20
567.2453290166885
  0
SEQEND
  8
0
  6
________________
 62
     7
  0
LINE
  8
0
  6
________________
 62
     7
 10
752.2522932207147
 20
585.7500000000001
 11
727.2522932207147
 21
585.7500000000001
  0
LINE
  8
0
  6
________________
 62
     7
 10
727.2522932207147
 20
433.2500000000001
 11
752.2522932207147
 21
433.2500000000001
  0
LINE
  8
0
  6
________________
 62
     7
 10
726.7522932207147
 20
407.9772727272728
 11
726.7397932207147
 21
407.9772727272728
  0
LINE
  8
0
  6
________________
 62
     7
 10
752.2522932207147
 20
434.8442577099028
 11
837.2459799887492
 21
436.6657600988287
  0
LINE
  8
0
  6
________________
 62
     7
 10
837.2459799887492
 20
584.6742567034781
 11
752.2522932207147
 21
584.6742567034781
  0
LINE
  8
0
  6
________________
 62
     7
 10
697.2540150112507
 20
433.6655878703561
 11
726.7522932207147
 21
434.2977664035027
  0
LINE
  8
0
  6
________________
 62
     7
 10
726.7522932207147
 20
584.6742567034781
 11
697.2540150112507
 21
584.6742567034781
  0
INSERT
  8
0
  6
________________
 62
     7
  2
_50476
 10
0.0
 20
0.0
 30
0.0
  0
ENDSEC
  0
EOF
