  0
SECTION
  2
HEADER
  9
$ACADVER
  1
AC1014
  9
$ACADMAINTVER
 70
     0
  9
$DWGCODEPAGE
  3
DOS932
  9
$INSBASE
 10
0.0
 20
0.0
 30
0.0
  9
$EXTMIN
 10
68.238165
 20
440.027273
 30
0.0
  9
$EXTMAX
 10
522.653364
 20
561.761835
 30
0.0
  9
$LIMMIN
 10
68.238165
 20
440.027273
  9
$LIMMAX
 10
522.653364
 20
561.761835
  9
$ORTHOMODE
 70
     0
  9
$REGENMODE
 70
     1
  9
$FILLMODE
 70
     1
  9
$QTEXTMODE
 70
     0
  9
$MIRRTEXT
 70
     1
  9
$DRAGMODE
 70
     2
  9
$LTSCALE
 40
10.0
  9
$OSMODE
 70
     0
  9
$ATTMODE
 70
     1
  9
$TEXTSIZE
 40
0.2
  9
$TRACEWID
 40
0.05
  9
$TEXTSTYLE
  7
STANDARD
  9
$CLAYER
  8
0
  9
$CELTYPE
  6
CONTINUOUS
  9
$CECOLOR
 62
   256
  9
$CELTSCALE
 40
1.0
  9
$DELOBJ
 70
     1
  9
$DISPSILH
 70
     0
  9
$DIMSCALE
 40
1.0
  9
$DIMASZ
 40
1.2
  9
$DIMEXO
 40
1.2
  9
$DIMDLI
 40
0.38
  9
$DIMRND
 40
0.0
  9
$DIMDLE
 40
0.0
  9
$DIMEXE
 40
0.9
  9
$DIMTP
 40
0.0
  9
$DIMTM
 40
0.0
  9
$DIMTXT
 40
3.0
  9
$DIMCEN
 40
0.09
  9
$DIMTSZ
 40
0.0
  9
$DIMTOL
 70
     0
  9
$DIMLIM
 70
     0
  9
$DIMTIH
 70
     0
  9
$DIMTOH
 70
     0
  9
$DIMSE1
 70
     0
  9
$DIMSE2
 70
     0
  9
$DIMTAD
 70
     1
  9
$DIMZIN
 70
     0
  9
$DIMBLK
  1

  9
$DIMASO
 70
     1
  9
$DIMSHO
 70
     1
  9
$DIMPOST
  1

  9
$DIMAPOST
  1

  9
$DIMALT
 70
     0
  9
$DIMALTD
 70
     2
  9
$DIMALTF
 40
25.4
  9
$DIMLFAC
 40
1.0
  9
$DIMTOFL
 70
     0
  9
$DIMTVP
 40
0.0
  9
$DIMTIX
 70
     0
  9
$DIMSOXD
 70
     0
  9
$DIMSAH
 70
     0
  9
$DIMBLK1
  1

  9
$DIMBLK2
  1

  9
$DIMSTYLE
  2
STANDARD
  9
$DIMCLRD
 70
     7
  9
$DIMCLRE
 70
     7
  9
$DIMCLRT
 70
     7
  9
$DIMTFAC
 40
0.5
  9
$DIMGAP
 40
1.5
  9
$DIMJUST
 70
     0
  9
$DIMSD1
 70
     0
  9
$DIMSD2
 70
     0
  9
$DIMTOLJ
 70
     1
  9
$DIMTZIN
 70
     0
  9
$DIMALTZ
 70
     0
  9
$DIMALTTZ
 70
     0
  9
$DIMFIT
 70
     3
  9
$DIMUPT
 70
     0
  9
$DIMUNIT
 70
     2
  9
$DIMDEC
 70
     2
  9
$DIMTDEC
 70
     4
  9
$DIMALTU
 70
     2
  9
$DIMALTTD
 70
     2
  9
$DIMTXSTY
  7
STANDARD
  9
$DIMAUNIT
 70
     0
  9
$LUNITS
 70
     2
  9
$LUPREC
 70
     4
  9
$SKETCHINC
 40
0.1
  9
$FILLETRAD
 40
0.0
  9
$AUNITS
 70
     0
  9
$AUPREC
 70
     0
  9
$MENU
  1
acad
  9
$ELEVATION
 40
0.0
  9
$PELEVATION
 40
0.0
  9
$THICKNESS
 40
0.0
  9
$LIMCHECK
 70
     0
  9
$BLIPMODE
 70
     1
  9
$CHAMFERA
 40
0.0
  9
$CHAMFERB
 40
0.0
  9
$CHAMFERC
 40
0.0
  9
$CHAMFERD
 40
0.0
  9
$SKPOLY
 70
     0
  9
$TDCREATE
 40
2458108.595555556
  9
$TDUPDATE
 40
2458108.220381944
  9
$TDINDWG
 40
0.0000000000
  9
$TDUSRTIMER
 40
0.0000000000
  9
$USRTIMER
 70
     1
  9
$ANGBASE
 50
0.0
  9
$ANGDIR
 70
     0
  9
$PDMODE
 70
     0
  9
$PDSIZE
 40
0.0
  9
$PLINEWID
 40
0.0
  9
$COORDS
 70
     0
  9
$SPLFRAME
 70
     0
  9
$SPLINETYPE
 70
     6
  9
$SPLINESEGS
 70
     8
  9
$ATTDIA
 70
     0
  9
$ATTREQ
 70
     1
  9
$HANDLING
 70
     1
  9
$HANDSEED
  5
222
  9
$SURFTAB1
 70
     6
  9
$SURFTAB2
 70
     6
  9
$SURFTYPE
 70
     6
  9
$SURFU
 70
     6
  9
$SURFV
 70
     6
  9
$UCSNAME
  2

  9
$UCSORG
 10
0.0
 20
0.0
 30
0.0
  9
$UCSXDIR
 10
1.0
 20
0.0
 30
0.0
  9
$UCSYDIR
 10
0.0
 20
1.0
 30
0.0
  9
$PUCSNAME
  2

  9
$PUCSORG
 10
0.0
 20
0.0
 30
0.0
  9
$PUCSXDIR
 10
1.0
 20
0.0
 30
0.0
  9
$PUCSYDIR
 10
0.0
 20
1.0
 30
0.0
  9
$USERI1
 70
     0
  9
$USERI2
 70
     0
  9
$USERI3
 70
     0
  9
$USERI4
 70
     0
  9
$USERI5
 70
     0
  9
$USERR1
 40
0.0
  9
$USERR2
 40
0.0
  9
$USERR3
 40
0.0
  9
$USERR4
 40
0.0
  9
$USERR5
 40
0.0
  9
$WORLDVIEW
 70
     1
  9
$SHADEDGE
 70
     3
  9
$SHADEDIF
 70
    70
  9
$TILEMODE
 70
     1
  9
$MAXACTVP
 70
    16
  9
$PINSBASE
 10
0.0
 20
0.0
 30
0.0
  9
$PLIMCHECK
 70
     0
  9
$PEXTMIN
 10
1.000000E+20
 20
1.000000E+20
 30
1.000000E+20
  9
$PEXTMAX
 10
-1.000000E+20
 20
-1.000000E+20
 30
-1.000000E+20
  9
$PLIMMIN
 10
0.0
 20
0.0
  9
$PLIMMAX
 10
12.0
 20
9.0
  9
$UNITMODE
 70
     0
  9
$VISRETAIN
 70
     0
  9
$PLINEGEN
 70
     1
  9
$PSLTSCALE
 70
     0
  9
$TREEDEPTH
 70
  3020
  9
$PICKSTYLE
 70
     1
  9
$CMLSTYLE
  2
STANDARD
  9
$CMLJUST
 70
     0
  9
$CMLSCALE
 40
1.0
  9
$PROXYGRAPHICS
 70
     0
  9
$MEASUREMENT
 70
     1
  0
ENDSEC
  0
SECTION
  2
CLASSES
  0
CLASS
  1
LWPOLYLINE
  2
AcDbPolyline
  3
"AutoCAD"
 90
        0
280
     0
281
     1
  0
CLASS
  1
IMAGE
  2
AcDbRasterImage
  3
ISM
 90
      127
280
     0
281
     1
  0
CLASS
  1
OLE2FRAME
  2
AcDbOle2Frame
  3
""
 90
        0
280
     0
281
     1
  0
CLASS
  1
HATCH
  2
AcDbHatch
  3
"ACAD_SEDONA"
 90
        0
280
     0
281
     1
  0
CLASS
  1
DICTIONARYVAR
  2
AcDbDictionaryVar
  3
"AutoCAD"
 90
        0
280
     0
281
     0
  0
CLASS
  1
RASTERVARIABLES
  2
AcDbRasterVariables
  3
ISM
 90
        0
280
     0
281
     0
  0
CLASS
  1
IMAGEDEF
  2
AcDbRasterImageDef
  3
ISM
 90
        0
280
     0
281
     0
  0
CLASS
  1
IMAGEDEF_REACTOR
  2
AcDbRasterImageDefReactor
  3
ISM
 90
        1
280
     0
281
     0
  0
CLASS
  1
IDBUFFER
  2
AcDbIdBuffer
  3
"Acad"
 90
        0
280
     0
281
     0
  0
CLASS
  1
SPATIAL_FILTER
  2
AcDbSpatialFilter
  3
"Acad"
 90
        0
280
     0
281
     0
  0
CLASS
  1
XRECORD
  2
AcDbXrecord
  3
"<Built In>"
 90
        0
280
     0
281
     0
  0
CLASS
  1
SORTENTSTABLE
  2
AcDbSortentsTable
  3
"AutoCAD"
 90
        0
280
     0
281
     0
  0
CLASS
  1
LAYER_INDEX
  2
AcDbLayerIndex
  3
"Acad"
 90
        0
280
     0
281
     0
  0
CLASS
  1
SPATIAL_INDEX
  2
AcDbSpatialIndex
  3
"Acad"
 90
        0
280
     0
281
     0
  0
CLASS
  1
OBJECT_PTR
  2
CAseDLPNTableRecord
  3
"ASE-LPNTableRecord"
 90
        1
280
     0
281
     0
  0
CLASS
  1
LAYOUT
  2
AcDbLayout
  3
"AutoCAD 2000"
 90
        0
280
     0
281
     0
  0
CLASS
  1
PLOTSETTINGS
  2
AcDbPlotSettings
  3
"AutoCAD 2000"
 90
        0
280
     0
281
     0
  0
CLASS
  1
ACDBDICTIONARYWDFLT
  2
AcDbDictionaryWithDefault
  3
"AutoCAD 2000"
 90
        0
280
     0
281
     0
  0
CLASS
  1
ACDBPLACEHOLDER
  2
AcDbPlaceHolder
  3
"AutoCAD 2000"
 90
        0
280
     0
281
     0
  0
CLASS
  1
VBA_PROJECT
  2
AcDbVbaProject
  3
"acadvba"
 90
        0
280
     0
281
     0
  0
CLASS
  1
WIPEOUT
  2
AcDbWipeout
  3
WipeOut|AutoCAD Express Tool|expresstools@autodesk.com
 90
      127
280
     0
281
     1
  0
CLASS
  1
WIPEOUTVARIABLES
  2
AcDbWipeoutVariables
  3
WipeOut|AutoCAD Express Tool|expresstools@autodesk.com
 90
        0
280
     0
281
     0
  0
CLASS
  1
RTEXT
  2
RText
  3
RText|AutoCAD Express Tool|expresstools@autodesk.com
 90
        0
280
     0
281
     1
  0
CLASS
  1
ARCALIGNEDTEXT
  2
AcDbArcAlignedText
  3
ATEXT|AutoCAD Express Tool|expresstools@autodesk.com
 90
        0
280
     0
281
     1
  0
ENDSEC
  0
SECTION
  2
TABLES
  0
TABLE
  2
VPORT
  5
7
100
AcDbSymbolTable
 70
     1
  0
VPORT
  5
15
100
AcDbSymbolTableRecord
100
AcDbViewportTableRecord
  2
*ACTIVE
 70
     0
 10
0.0
 20
0.0
 11
1.0
 21
1.0
 12
6.591288
 22
4.579184
 13
0.0
 23
0.0
 14
1.0
 24
1.0
 15
0.0
 25
0.0
 16
0.0
 26
0.0
 36
1.0
 17
0.0
 27
0.0
 37
0.0
 40
9.158369
 41
0.688564
 42
50.0
 43
0.0
 44
0.0
 50
0.0
 51
0.0
 71
     0
 72
   100
 73
     1
 74
     1
 75
     0
 76
     0
 77
     0
 78
     0
  0
ENDTAB
  0
TABLE
  2
LTYPE
  5
4
100
AcDbSymbolTable
 70
     3
  0
LTYPE
  5
11
100
AcDbSymbolTableRecord
100
AcDbLinetypeTableRecord
  2
BYBLOCK
 70
    64
  3

 72
    65
 73
     0
 40
0.0
  0
LTYPE
  5
12
100
AcDbSymbolTableRecord
100
AcDbLinetypeTableRecord
  2
BYLAYER
 70
    64
  3

 72
    65
 73
     0
 40
0.0
  0
LTYPE
  5
13
100
AcDbSymbolTableRecord
100
AcDbLinetypeTableRecord
  2
CONTINUOUS
 70
    64
  3
Solid line
 72
    65
 73
     0
 40
0.0
  0
ENDTAB
  0
TABLE
  2
LAYER
  5
2
100
AcDbSymbolTable
 70
     1
  0
LAYER
  5
14
100
AcDbSymbolTableRecord
100
AcDbLayerTableRecord
  2
0
 70
     0
 62
     7
  6
CONTINUOUS
  0
ENDTAB
  0
TABLE
  2
STYLE
  5
3
100
AcDbSymbolTable
 70
     2
  0
STYLE
  5
17
100
AcDbSymbolTableRecord
100
AcDbTextStyleTableRecord
  2
STANDARD
 70
     0
 40
0.0
 41
1.0
 50
0.0
 71
     0
 42
0.0
  3
FG教科書体NT-M
  4

1001
ACAD
1000
FG教科書体NT-M
1071
        0
  0
STYLE
  5
220
100
AcDbSymbolTableRecord
100
AcDbTextStyleTableRecord
  2
TOPSTYLE2
 70
     0
 40
0.0
 41
1.0
 50
0.0
 71
     0
 42
0.0
  3
ＭＳ ゴシック
  4

1001
ACAD
1000
ＭＳ ゴシック
1071
        2
  0
ENDTAB
  0
TABLE
  2
VIEW
  5
5
100
AcDbSymbolTable
 70
     0
  0
ENDTAB
  0
TABLE
  2
UCS
  5
6
100
AcDbSymbolTable
 70
     0
  0
ENDTAB
  0
TABLE
  2
APPID
  5
8
100
AcDbSymbolTable
 70
     2
  0
APPID
  5
16
100
AcDbSymbolTableRecord
100
AcDbRegAppTableRecord
  2
ACAD
 70
     0
  0
APPID
  5
1F
100
AcDbSymbolTableRecord
100
AcDbRegAppTableRecord
  2
TOPsolid_Design
 70
     0
  0
ENDTAB
  0
TABLE
  2
DIMSTYLE
  5
9
100
AcDbSymbolTable
 70
     1
  0
DIMSTYLE
105
18
100
AcDbSymbolTableRecord
100
AcDbDimStyleTableRecord
  2
STANDARD
 70
     0
  3

  4

  5

  6

  7

 40
1.0
 41
1.2
 42
1.2
 43
0.38
 44
0.9
 45
0.0
 46
0.0
 47
0.0
 48
0.0
 71
     0
 72
     0
 73
     0
 74
     0
 75
     0
 76
     0
 77
     1
 78
     0
140
3.0
141
0.09
142
0.0
143
25.4
144
1.0
145
0.0
146
0.5
147
1.5
170
     0
171
     2
172
     0
173
     0
174
     0
175
     0
176
     7
177
     7
178
     7
270
     2
271
     2
272
     4
273
     2
274
     2
275
     0
280
     0
281
     0
282
     0
283
     1
284
     0
285
     0
286
     0
287
     3
288
     0
340
17
  0
ENDTAB
  0
TABLE
  2
BLOCK_RECORD
  5
1
100
AcDbSymbolTable
 70
     0
  0
BLOCK_RECORD
  5
A
100
AcDbSymbolTableRecord
100
AcDbBlockTableRecord
  2
*MODEL_SPACE
  0
BLOCK_RECORD
  5
B
100
AcDbSymbolTableRecord
100
AcDbBlockTableRecord
  2
*PAPER_SPACE
  0
ENDTAB
  0
ENDSEC
  0
SECTION
  2
BLOCKS
  0
BLOCK
  5
D
100
AcDbEntity
  8
0
100
AcDbBlockBegin
  2
*MODEL_SPACE
 70
     0
 10
0.0
 20
0.0
 30
0.0
  3
*MODEL_SPACE
  1

  0
ENDBLK
  5
E
100
AcDbEntity
  8
0
100
AcDbBlockEnd
  0
BLOCK
  5
F
100
AcDbEntity
 67
     1
  8
0
100
AcDbBlockBegin
  2
*PAPER_SPACE
 70
     0
 10
0.0
 20
0.0
 30
0.0
  3
*PAPER_SPACE
  1

  0
ENDBLK
  5
10
100
AcDbEntity
 67
     1
  8
0
100
AcDbBlockEnd
  0
ENDSEC
  0
SECTION
  2
ENTITIES
  0
ARC
  5
20
100
AcDbEntity
  8
0
  6
CONTINUOUS
 62
     7
100
AcDbCircle
 10
113.738223
 20
516.261777
 30
0.0
 40
32.219013
210
0.0
220
0.0
230
1.0
100
AcDbArc
 50
90.0
 51
180.0
  0
LINE
  5
21
100
AcDbEntity
  8
0
  6
CONTINUOUS
 62
     7
100
AcDbLine
 10
142.004459
 20
461.214553
 30
0.0
 11
142.004459
 21
448.238165
 31
0.0
  0
LINE
  5
22
100
AcDbEntity
  8
0
  6
CONTINUOUS
 62
     7
100
AcDbLine
 10
119.261835
 20
448.238165
 30
0.0
 11
142.004459
 21
448.238165
 31
0.0
  0
ARC
  5
23
100
AcDbEntity
  8
0
  6
CONTINUOUS
 62
     7
100
AcDbCircle
 10
168.785447
 20
461.214553
 30
0.0
 40
26.780987
210
0.0
220
0.0
230
1.0
100
AcDbArc
 50
90.0
 51
180.0
  0
LINE
  5
24
100
AcDbEntity
  8
0
  6
CONTINUOUS
 62
     7
100
AcDbLine
 10
181.761835
 20
487.995541
 30
0.0
 11
168.785447
 21
487.995541
 31
0.0
  0
LINE
  5
25
100
AcDbEntity
  8
0
  6
CONTINUOUS
 62
     7
100
AcDbLine
 10
181.761835
 20
510.738165
 30
0.0
 11
181.761835
 21
487.995541
 31
0.0
  0
LINE
  5
26
100
AcDbEntity
  8
0
  6
CONTINUOUS
 62
     7
100
AcDbLine
 10
81.51921
 20
516.261777
 30
0.0
 11
81.51921
 21
448.238165
 31
0.0
  0
LINE
  5
27
100
AcDbEntity
  8
0
  6
CONTINUOUS
 62
     7
100
AcDbLine
 10
104.261835
 20
448.238165
 30
0.0
 11
81.51921
 21
448.238165
 31
0.0
  0
LINE
  5
28
100
AcDbEntity
  8
0
  6
CONTINUOUS
 62
     7
100
AcDbLine
 10
181.761835
 20
548.48079
 30
0.0
 11
113.738223
 21
548.48079
 31
0.0
  0
LINE
  5
29
100
AcDbEntity
  8
0
  6
CONTINUOUS
 62
     7
100
AcDbLine
 10
181.761835
 20
525.738165
 30
0.0
 11
181.761835
 21
548.48079
 31
0.0
  0
LINE
  5
2A
100
AcDbEntity
  8
0
  6
CONTINUOUS
 62
     7
100
AcDbLine
 10
181.761835
 20
525.738165
 30
0.0
 11
181.761835
 21
510.738165
 31
0.0
  0
LINE
  5
2B
100
AcDbEntity
  8
0
  6
CONTINUOUS
 62
     7
100
AcDbLine
 10
104.261835
 20
448.238165
 30
0.0
 11
119.261835
 21
448.238165
 31
0.0
  0
LINE
  5
2C
100
AcDbEntity
  8
0
  6
CONTINUOUS
 62
     7
100
AcDbLine
 10
181.761835
 20
487.995541
 30
0.0
 11
181.761835
 21
480.334947
 31
0.0
  0
LINE
  5
2D
100
AcDbEntity
  8
0
  6
CONTINUOUS
 62
     7
100
AcDbLine
 10
81.51921
 20
448.238165
 30
0.0
 11
73.858616
 21
448.238165
 31
0.0
  0
LINE
  5
2E
100
AcDbEntity
  8
0
  6
CONTINUOUS
 62
     7
100
AcDbLine
 10
142.004459
 20
448.238165
 30
0.0
 11
149.665053
 21
448.238165
 31
0.0
  0
LINE
  5
2F
100
AcDbEntity
  8
0
  6
CONTINUOUS
 62
     7
100
AcDbLine
 10
181.761835
 20
548.48079
 30
0.0
 11
181.761835
 21
556.141384
 31
0.0
  0
LINE
  5
30
100
AcDbEntity
  8
0
  6
CONTINUOUS
 62
     7
100
AcDbLine
 10
73.858616
 20
448.238165
 30
0.0
 11
68.698298
 21
448.238165
 31
0.0
  0
LINE
  5
31
100
AcDbEntity
  8
0
  6
CONTINUOUS
 62
     7
100
AcDbLine
 10
154.825371
 20
448.238165
 30
0.0
 11
149.665053
 21
448.238165
 31
0.0
  0
LINE
  5
32
100
AcDbEntity
  8
0
  6
CONTINUOUS
 62
     7
100
AcDbLine
 10
181.761835
 20
480.334947
 30
0.0
 11
181.761835
 21
475.174629
 31
0.0
  0
LINE
  5
33
100
AcDbEntity
  8
0
  6
CONTINUOUS
 62
     7
100
AcDbLine
 10
181.761835
 20
561.301702
 30
0.0
 11
181.761835
 21
556.141384
 31
0.0
  0
LINE
  5
34
100
AcDbEntity
  8
0
  6
CONTINUOUS
 62
     7
100
AcDbLine
 10
155.285504
 20
461.214553
 30
0.0
 11
155.285504
 21
448.238165
 31
0.0
  0
LINE
  5
35
100
AcDbEntity
  8
0
  6
CONTINUOUS
 62
     7
100
AcDbLine
 10
154.825371
 20
448.238165
 30
0.0
 11
155.285504
 21
448.238165
 31
0.0
  0
LINE
  5
36
100
AcDbEntity
  8
0
  6
CONTINUOUS
 62
     7
100
AcDbLine
 10
181.761835
 20
474.714496
 30
0.0
 11
168.785447
 21
474.714496
 31
0.0
  0
LINE
  5
37
100
AcDbEntity
  8
0
  6
CONTINUOUS
 62
     7
100
AcDbLine
 10
181.761835
 20
475.174629
 30
0.0
 11
181.761835
 21
474.714496
 31
0.0
  0
LINE
  5
38
100
AcDbEntity
  8
0
  6
CONTINUOUS
 62
     7
100
AcDbLine
 10
68.238165
 20
516.261777
 30
0.0
 11
68.238165
 21
448.238165
 31
0.0
  0
LINE
  5
39
100
AcDbEntity
  8
0
  6
CONTINUOUS
 62
     7
100
AcDbLine
 10
68.698298
 20
448.238165
 30
0.0
 11
68.238165
 21
448.238165
 31
0.0
  0
ARC
  5
3A
100
AcDbEntity
  8
0
  6
CONTINUOUS
 62
     7
100
AcDbCircle
 10
168.785447
 20
461.214553
 30
0.0
 40
13.499943
210
0.0
220
0.0
230
1.0
100
AcDbArc
 50
90.0
 51
180.0
  0
ARC
  5
3B
100
AcDbEntity
  8
0
  6
CONTINUOUS
 62
     7
100
AcDbCircle
 10
113.738223
 20
516.261777
 30
0.0
 40
45.500057
210
0.0
220
0.0
230
1.0
100
AcDbArc
 50
90.0
 51
180.0
  0
LINE
  5
3C
100
AcDbEntity
  8
0
  6
CONTINUOUS
 62
     7
100
AcDbLine
 10
181.761835
 20
561.761835
 30
0.0
 11
113.738223
 21
561.761835
 31
0.0
  0
LINE
  5
3D
100
AcDbEntity
  8
0
  6
CONTINUOUS
 62
     7
100
AcDbLine
 10
181.761835
 20
561.301702
 30
0.0
 11
181.761835
 21
561.761835
 31
0.0
  0
LINE
  5
3E
100
AcDbEntity
  8
0
  6
CONTINUOUS
 62
     7
100
AcDbLine
 10
313.25
 20
509.238165
 30
0.0
 11
313.25
 21
508.738165
 31
0.0
  0
LINE
  5
3F
100
AcDbEntity
  8
0
  6
CONTINUOUS
 62
     7
100
AcDbLine
 10
311.25
 20
508.738165
 30
0.0
 11
311.25
 21
509.238165
 31
0.0
  0
LINE
  5
40
100
AcDbEntity
  8
0
  6
CONTINUOUS
 62
     7
100
AcDbLine
 10
313.25
 20
522.738165
 30
0.0
 11
313.25
 21
522.238165
 31
0.0
  0
LINE
  5
41
100
AcDbEntity
  8
0
  6
CONTINUOUS
 62
     7
100
AcDbLine
 10
311.25
 20
522.238165
 30
0.0
 11
311.25
 21
522.738165
 31
0.0
  0
LINE
  5
42
100
AcDbEntity
  8
0
  6
CONTINUOUS
 62
     7
100
AcDbLine
 10
313.25
 20
522.738165
 30
0.0
 11
313.25
 21
527.238165
 31
0.0
  0
LINE
  5
43
100
AcDbEntity
  8
0
  6
CONTINUOUS
 62
     7
100
AcDbLine
 10
311.25
 20
522.738165
 30
0.0
 11
311.25
 21
527.238165
 31
0.0
  0
LINE
  5
44
100
AcDbEntity
  8
0
  6
CONTINUOUS
 62
     7
100
AcDbLine
 10
313.25
 20
509.238165
 30
0.0
 11
313.25
 21
513.738165
 31
0.0
  0
LINE
  5
45
100
AcDbEntity
  8
0
  6
CONTINUOUS
 62
     7
100
AcDbLine
 10
311.25
 20
509.238165
 30
0.0
 11
311.25
 21
513.738165
 31
0.0
  0
LINE
  5
46
100
AcDbEntity
  8
0
  6
CONTINUOUS
 62
     7
100
AcDbLine
 10
313.25
 20
514.238165
 30
0.0
 11
313.25
 21
513.738165
 31
0.0
  0
LINE
  5
47
100
AcDbEntity
  8
0
  6
CONTINUOUS
 62
     7
100
AcDbLine
 10
311.25
 20
513.738165
 30
0.0
 11
311.25
 21
514.238165
 31
0.0
  0
LINE
  5
48
100
AcDbEntity
  8
0
  6
CONTINUOUS
 62
     7
100
AcDbLine
 10
313.25
 20
527.738165
 30
0.0
 11
313.25
 21
527.238165
 31
0.0
  0
LINE
  5
49
100
AcDbEntity
  8
0
  6
CONTINUOUS
 62
     7
100
AcDbLine
 10
311.25
 20
527.238165
 30
0.0
 11
311.25
 21
527.738165
 31
0.0
  0
ARC
  5
4A
100
AcDbEntity
  8
0
  6
CONTINUOUS
 62
     7
100
AcDbCircle
 10
311.25
 20
511.488165
 30
0.0
 40
1.25
210
0.0
220
0.0
230
1.0
100
AcDbArc
 50
180.0
 51
270.0
  0
ARC
  5
4B
100
AcDbEntity
  8
0
  6
CONTINUOUS
 62
     7
100
AcDbCircle
 10
311.25
 20
511.488165
 30
0.0
 40
1.25
210
0.0
220
0.0
230
1.0
100
AcDbArc
 50
90.0
 51
180.0
  0
ARC
  5
4C
100
AcDbEntity
  8
0
  6
CONTINUOUS
 62
     7
100
AcDbCircle
 10
311.25
 20
524.988165
 30
0.0
 40
1.25
210
0.0
220
0.0
230
1.0
100
AcDbArc
 50
180.0
 51
270.0
  0
ARC
  5
4D
100
AcDbEntity
  8
0
  6
CONTINUOUS
 62
     7
100
AcDbCircle
 10
311.25
 20
524.988165
 30
0.0
 40
1.25
210
0.0
220
0.0
230
1.0
100
AcDbArc
 50
90.0
 51
180.0
  0
LINE
  5
4E
100
AcDbEntity
  8
0
  6
CONTINUOUS
 62
     7
100
AcDbLine
 10
313.25
 20
514.238165
 30
0.0
 11
313.25
 21
514.738165
 31
0.0
  0
LINE
  5
4F
100
AcDbEntity
  8
0
  6
CONTINUOUS
 62
     7
100
AcDbLine
 10
311.25
 20
514.738165
 30
0.0
 11
311.25
 21
514.238165
 31
0.0
  0
LINE
  5
50
100
AcDbEntity
  8
0
  6
CONTINUOUS
 62
     7
100
AcDbLine
 10
313.25
 20
521.738165
 30
0.0
 11
313.25
 21
522.238165
 31
0.0
  0
LINE
  5
51
100
AcDbEntity
  8
0
  6
CONTINUOUS
 62
     7
100
AcDbLine
 10
311.25
 20
522.238165
 30
0.0
 11
311.25
 21
521.738165
 31
0.0
  0
LINE
  5
52
100
AcDbEntity
  8
0
  6
CONTINUOUS
 62
     7
100
AcDbLine
 10
313.25
 20
508.238165
 30
0.0
 11
313.25
 21
508.738165
 31
0.0
  0
LINE
  5
53
100
AcDbEntity
  8
0
  6
CONTINUOUS
 62
     7
100
AcDbLine
 10
311.25
 20
508.738165
 30
0.0
 11
311.25
 21
508.238165
 31
0.0
  0
LINE
  5
54
100
AcDbEntity
  8
0
  6
CONTINUOUS
 62
     7
100
AcDbLine
 10
313.25
 20
527.738165
 30
0.0
 11
313.25
 21
528.238165
 31
0.0
  0
LINE
  5
55
100
AcDbEntity
  8
0
  6
CONTINUOUS
 62
     7
100
AcDbLine
 10
311.25
 20
528.238165
 30
0.0
 11
311.25
 21
527.738165
 31
0.0
  0
LINE
  5
56
100
AcDbEntity
  8
0
  6
CONTINUOUS
 62
     7
100
AcDbLine
 10
305.25
 20
482.408339
 30
0.0
 11
305.25
 21
485.238165
 31
0.0
  0
ARC
  5
57
100
AcDbEntity
  8
0
  6
CONTINUOUS
 62
     7
100
AcDbCircle
 10
308.75
 20
485.238165
 30
0.0
 40
3.5
210
0.0
220
0.0
230
1.0
100
AcDbArc
 50
90.0
 51
180.0
  0
LINE
  5
58
100
AcDbEntity
  8
0
  6
CONTINUOUS
 62
     7
100
AcDbLine
 10
308.75
 20
488.738165
 30
0.0
 11
311.25
 21
488.738165
 31
0.0
  0
LINE
  5
59
100
AcDbEntity
  8
0
  6
CONTINUOUS
 62
     7
100
AcDbLine
 10
308.75
 20
487.238165
 30
0.0
 11
313.25
 21
487.238165
 31
0.0
  0
ARC
  5
5A
100
AcDbEntity
  8
0
  6
CONTINUOUS
 62
     7
100
AcDbCircle
 10
308.75
 20
485.238165
 30
0.0
 40
2.0
210
0.0
220
0.0
230
1.0
100
AcDbArc
 50
90.0
 51
180.0
  0
LINE
  5
5B
100
AcDbEntity
  8
0
  6
CONTINUOUS
 62
     7
100
AcDbLine
 10
306.75
 20
480.92143
 30
0.0
 11
306.75
 21
485.238165
 31
0.0
  0
LINE
  5
5C
100
AcDbEntity
  8
0
  6
CONTINUOUS
 62
     7
100
AcDbLine
 10
298.745637
 20
482.351577
 30
0.0
 11
305.25
 21
482.408339
 31
0.0
  0
LINE
  5
5D
100
AcDbEntity
  8
0
  6
CONTINUOUS
 62
     7
100
AcDbLine
 10
313.25
 20
487.238165
 30
0.0
 11
313.25
 21
508.238165
 31
0.0
  0
LINE
  5
5E
100
AcDbEntity
  8
0
  6
CONTINUOUS
 62
     7
100
AcDbLine
 10
311.25
 20
488.738165
 30
0.0
 11
311.25
 21
508.238165
 31
0.0
  0
LINE
  5
5F
100
AcDbEntity
  8
0
  6
CONTINUOUS
 62
     7
100
AcDbLine
 10
311.25
 20
517.488165
 30
0.0
 11
310.95
 21
517.488165
 31
0.0
  0
LINE
  5
60
100
AcDbEntity
  8
0
  6
CONTINUOUS
 62
     7
100
AcDbLine
 10
310.95
 20
517.488165
 30
0.0
 11
310.95
 21
518.988165
 31
0.0
  0
LINE
  5
61
100
AcDbEntity
  8
0
  6
CONTINUOUS
 62
     7
100
AcDbLine
 10
311.25
 20
518.988165
 30
0.0
 11
310.95
 21
518.988165
 31
0.0
  0
LINE
  5
62
100
AcDbEntity
  8
0
  6
CONTINUOUS
 62
     7
100
AcDbLine
 10
313.25
 20
514.738165
 30
0.0
 11
313.25
 21
521.738165
 31
0.0
  0
LINE
  5
63
100
AcDbEntity
  8
0
  6
CONTINUOUS
 62
     7
100
AcDbLine
 10
311.25
 20
518.988165
 30
0.0
 11
311.25
 21
521.738165
 31
0.0
  0
LINE
  5
64
100
AcDbEntity
  8
0
  6
CONTINUOUS
 62
     7
100
AcDbLine
 10
311.25
 20
514.738165
 30
0.0
 11
311.25
 21
517.488165
 31
0.0
  0
LINE
  5
65
100
AcDbEntity
  8
0
  6
CONTINUOUS
 62
     7
100
AcDbLine
 10
302.25
 20
553.738165
 30
0.0
 11
311.25
 21
544.738165
 31
0.0
  0
LINE
  5
66
100
AcDbEntity
  8
0
  6
CONTINUOUS
 62
     7
100
AcDbLine
 10
301.25
 20
554.738165
 30
0.0
 11
302.25
 21
553.738165
 31
0.0
  0
LINE
  5
67
100
AcDbEntity
  8
0
  6
CONTINUOUS
 62
     7
100
AcDbLine
 10
301.25
 20
554.738165
 30
0.0
 11
301.25
 21
555.633443
 31
0.0
  0
LINE
  5
68
100
AcDbEntity
  8
0
  6
CONTINUOUS
 62
     7
100
AcDbLine
 10
313.25
 20
528.238165
 30
0.0
 11
313.25
 21
555.738165
 31
0.0
  0
LINE
  5
69
100
AcDbEntity
  8
0
  6
CONTINUOUS
 62
     7
100
AcDbLine
 10
311.25
 20
528.238165
 30
0.0
 11
311.25
 21
544.738165
 31
0.0
  0
LINE
  5
6A
100
AcDbEntity
  8
0
  6
CONTINUOUS
 62
     7
100
AcDbLine
 10
298.25
 20
480.847251
 30
0.0
 11
298.25
 21
482.347251
 31
0.0
  0
LINE
  5
6B
100
AcDbEntity
  8
0
  6
CONTINUOUS
 62
     7
100
AcDbLine
 10
298.25
 20
482.347251
 30
0.0
 11
298.745637
 21
482.351577
 31
0.0
  0
LINE
  5
6C
100
AcDbEntity
  8
0
  6
CONTINUOUS
 62
     7
100
AcDbLine
 10
313.25
 20
483.869893
 30
0.0
 11
313.25
 21
487.238165
 31
0.0
  0
ELLIPSE
  5
6D
100
AcDbEntity
  8
0
  6
CONTINUOUS
 62
     7
100
AcDbEllipse
 10
317.810183
 20
476.359841
 30
0.0
 11
100.74420657188487
 21
3.7383529680229954
 31
0.0
210
0.0
220
0.0
230
1.0
 40
0.03649
 41
1.6794487135431706
 42
1.7367401380854171
  0
LINE
  5
6E
100
AcDbEntity
  8
0
  6
CONTINUOUS
 62
     7
100
AcDbLine
 10
298.25
 20
479.350835
 30
0.0
 11
298.25
 21
480.847251
 31
0.0
  0
LINE
  5
6F
100
AcDbEntity
  8
0
  6
CONTINUOUS
 62
     7
100
AcDbLine
 10
306.75
 20
479.60897
 30
0.0
 11
306.75
 21
480.92143
 31
0.0
  0
LINE
  5
70
100
AcDbEntity
  8
0
  6
CONTINUOUS
 62
     7
100
AcDbLine
 10
298.25
 20
480.308311
 30
0.0
 11
297.25
 21
480.265083
 31
0.0
  0
LINE
  5
71
100
AcDbEntity
  8
0
  6
CONTINUOUS
 62
     7
100
AcDbLine
 10
294.25
 20
480.135396
 30
0.0
 11
286.697664
 21
479.808919
 31
0.0
  0
LINE
  5
72
100
AcDbEntity
  8
0
  6
CONTINUOUS
 62
     7
100
AcDbLine
 10
297.639904
 20
479.263803
 30
0.0
 11
298.25
 21
479.293942
 31
0.0
  0
LINE
  5
73
100
AcDbEntity
  8
0
  6
CONTINUOUS
 62
     7
100
AcDbLine
 10
306.75
 20
479.60897
 30
0.0
 11
306.75
 21
476.63912
 31
0.0
  0
LINE
  5
74
100
AcDbEntity
  8
0
  6
CONTINUOUS
 62
     7
100
AcDbLine
 10
301.034388
 20
479.368017
 30
0.0
 11
298.25
 21
479.247651
 31
0.0
  0
LINE
  5
75
100
AcDbEntity
  8
0
  6
CONTINUOUS
 62
     7
100
AcDbLine
 10
298.25
 20
479.350835
 30
0.0
 11
298.25
 21
479.247651
 31
0.0
  0
LINE
  5
76
100
AcDbEntity
  8
0
  6
CONTINUOUS
 62
     7
100
AcDbLine
 10
285.75
 20
478.856311
 30
0.0
 11
285.75
 21
479.096933
 31
0.0
  0
POLYLINE
  5
77
100
AcDbEntity
  8
0
  6
CONTINUOUS
 62
     7
100
AcDb2dPolyline
 66
     1
 10
0.0
 20
0.0
 30
0.0
 40
0.1
 41
0.1
  0
VERTEX
  5
78
100
AcDbEntity
  8
0
 62
     7
100
AcDbVertex
100
AcDb2dVertex
 10
285.75
 20
479.096933
 30
0.0
  0
VERTEX
  5
79
100
AcDbEntity
  8
0
 62
     7
100
AcDbVertex
100
AcDb2dVertex
 10
285.751126
 20
479.13048
 30
0.0
  0
VERTEX
  5
7A
100
AcDbEntity
  8
0
 62
     7
100
AcDbVertex
100
AcDb2dVertex
 10
285.7545
 20
479.163966
 30
0.0
  0
VERTEX
  5
7B
100
AcDbEntity
  8
0
 62
     7
100
AcDbVertex
100
AcDb2dVertex
 10
285.760115
 20
479.197315
 30
0.0
  0
VERTEX
  5
7C
100
AcDbEntity
  8
0
 62
     7
100
AcDbVertex
100
AcDb2dVertex
 10
285.767959
 20
479.230451
 30
0.0
  0
VERTEX
  5
7D
100
AcDbEntity
  8
0
 62
     7
100
AcDbVertex
100
AcDb2dVertex
 10
285.778013
 20
479.263301
 30
0.0
  0
VERTEX
  5
7E
100
AcDbEntity
  8
0
 62
     7
100
AcDbVertex
100
AcDb2dVertex
 10
285.790256
 20
479.295791
 30
0.0
  0
VERTEX
  5
7F
100
AcDbEntity
  8
0
 62
     7
100
AcDbVertex
100
AcDb2dVertex
 10
285.804659
 20
479.327846
 30
0.0
  0
VERTEX
  5
80
100
AcDbEntity
  8
0
 62
     7
100
AcDbVertex
100
AcDb2dVertex
 10
285.82119
 20
479.359396
 30
0.0
  0
VERTEX
  5
81
100
AcDbEntity
  8
0
 62
     7
100
AcDbVertex
100
AcDb2dVertex
 10
285.839813
 20
479.390369
 30
0.0
  0
VERTEX
  5
82
100
AcDbEntity
  8
0
 62
     7
100
AcDbVertex
100
AcDb2dVertex
 10
285.860484
 20
479.420695
 30
0.0
  0
VERTEX
  5
83
100
AcDbEntity
  8
0
 62
     7
100
AcDbVertex
100
AcDb2dVertex
 10
285.883158
 20
479.450306
 30
0.0
  0
VERTEX
  5
84
100
AcDbEntity
  8
0
 62
     7
100
AcDbVertex
100
AcDb2dVertex
 10
285.907783
 20
479.479135
 30
0.0
  0
VERTEX
  5
85
100
AcDbEntity
  8
0
 62
     7
100
AcDbVertex
100
AcDb2dVertex
 10
285.934304
 20
479.507118
 30
0.0
  0
VERTEX
  5
86
100
AcDbEntity
  8
0
 62
     7
100
AcDbVertex
100
AcDb2dVertex
 10
285.962661
 20
479.534191
 30
0.0
  0
VERTEX
  5
87
100
AcDbEntity
  8
0
 62
     7
100
AcDbVertex
100
AcDb2dVertex
 10
285.992791
 20
479.560294
 30
0.0
  0
VERTEX
  5
88
100
AcDbEntity
  8
0
 62
     7
100
AcDbVertex
100
AcDb2dVertex
 10
286.024626
 20
479.585368
 30
0.0
  0
VERTEX
  5
89
100
AcDbEntity
  8
0
 62
     7
100
AcDbVertex
100
AcDb2dVertex
 10
286.058093
 20
479.609356
 30
0.0
  0
VERTEX
  5
8A
100
AcDbEntity
  8
0
 62
     7
100
AcDbVertex
100
AcDb2dVertex
 10
286.093118
 20
479.632204
 30
0.0
  0
VERTEX
  5
8B
100
AcDbEntity
  8
0
 62
     7
100
AcDbVertex
100
AcDb2dVertex
 10
286.129622
 20
479.653861
 30
0.0
  0
VERTEX
  5
8C
100
AcDbEntity
  8
0
 62
     7
100
AcDbVertex
100
AcDb2dVertex
 10
286.167522
 20
479.674279
 30
0.0
  0
VERTEX
  5
8D
100
AcDbEntity
  8
0
 62
     7
100
AcDbVertex
100
AcDb2dVertex
 10
286.206734
 20
479.69341
 30
0.0
  0
VERTEX
  5
8E
100
AcDbEntity
  8
0
 62
     7
100
AcDbVertex
100
AcDb2dVertex
 10
286.247169
 20
479.711213
 30
0.0
  0
VERTEX
  5
8F
100
AcDbEntity
  8
0
 62
     7
100
AcDbVertex
100
AcDb2dVertex
 10
286.288735
 20
479.727647
 30
0.0
  0
VERTEX
  5
90
100
AcDbEntity
  8
0
 62
     7
100
AcDbVertex
100
AcDb2dVertex
 10
286.33134
 20
479.742674
 30
0.0
  0
VERTEX
  5
91
100
AcDbEntity
  8
0
 62
     7
100
AcDbVertex
100
AcDb2dVertex
 10
286.374888
 20
479.756262
 30
0.0
  0
VERTEX
  5
92
100
AcDbEntity
  8
0
 62
     7
100
AcDbVertex
100
AcDb2dVertex
 10
286.41928
 20
479.76838
 30
0.0
  0
VERTEX
  5
93
100
AcDbEntity
  8
0
 62
     7
100
AcDbVertex
100
AcDb2dVertex
 10
286.464416
 20
479.779
 30
0.0
  0
VERTEX
  5
94
100
AcDbEntity
  8
0
 62
     7
100
AcDbVertex
100
AcDb2dVertex
 10
286.510196
 20
479.788098
 30
0.0
  0
VERTEX
  5
95
100
AcDbEntity
  8
0
 62
     7
100
AcDbVertex
100
AcDb2dVertex
 10
286.556515
 20
479.795655
 30
0.0
  0
VERTEX
  5
96
100
AcDbEntity
  8
0
 62
     7
100
AcDbVertex
100
AcDb2dVertex
 10
286.60327
 20
479.801652
 30
0.0
  0
VERTEX
  5
97
100
AcDbEntity
  8
0
 62
     7
100
AcDbVertex
100
AcDb2dVertex
 10
286.650355
 20
479.806076
 30
0.0
  0
VERTEX
  5
98
100
AcDbEntity
  8
0
 62
     7
100
AcDbVertex
100
AcDb2dVertex
 10
286.697664
 20
479.808919
 30
0.0
  0
SEQEND
  5
99
100
AcDbEntity
  8
0
  0
LINE
  5
9A
100
AcDbEntity
  8
0
  6
CONTINUOUS
 62
     7
100
AcDbLine
 10
292.08273
 20
553.905436
 30
0.0
 11
291.25
 21
554.738165
 31
0.0
  0
LINE
  5
9B
100
AcDbEntity
  8
0
  6
CONTINUOUS
 62
     7
100
AcDbLine
 10
302.170767
 20
553.817399
 30
0.0
 11
292.08273
 21
553.905436
 31
0.0
  0
LINE
  5
9C
100
AcDbEntity
  8
0
  6
CONTINUOUS
 62
     7
100
AcDbLine
 10
291.25
 20
554.738165
 30
0.0
 11
291.25
 21
555.546174
 31
0.0
  0
LINE
  5
9D
100
AcDbEntity
  8
0
  6
CONTINUOUS
 62
     7
100
AcDbLine
 10
301.25
 20
555.633443
 30
0.0
 11
291.25
 21
555.546174
 31
0.0
  0
LINE
  5
9E
100
AcDbEntity
  8
0
  6
CONTINUOUS
 62
     7
100
AcDbLine
 10
313.25
 20
483.869893
 30
0.0
 11
313.25
 21
476.581908
 31
0.0
  0
LINE
  5
9F
100
AcDbEntity
  8
0
  6
CONTINUOUS
 62
     7
100
AcDbLine
 10
295.45
 20
552.238165
 30
0.0
 11
296.75
 21
552.238165
 31
0.0
  0
LINE
  5
A0
100
AcDbEntity
  8
0
  6
CONTINUOUS
 62
     7
100
AcDbLine
 10
294.45
 20
553.238165
 30
0.0
 11
295.45
 21
552.238165
 31
0.0
  0
LINE
  5
A1
100
AcDbEntity
  8
0
  6
CONTINUOUS
 62
     7
100
AcDbLine
 10
294.45
 20
553.884777
 30
0.0
 11
294.45
 21
553.238165
 31
0.0
  0
LINE
  5
A2
100
AcDbEntity
  8
0
  6
CONTINUOUS
 62
     7
100
AcDbLine
 10
296.75
 20
553.864705
 30
0.0
 11
296.75
 21
552.238165
 31
0.0
  0
LINE
  5
A3
100
AcDbEntity
  8
0
  6
CONTINUOUS
 62
     7
100
AcDbLine
 10
301.25
 20
555.633443
 30
0.0
 11
301.25
 21
558.265495
 31
0.0
  0
LINE
  5
A4
100
AcDbEntity
  8
0
  6
CONTINUOUS
 62
     7
100
AcDbLine
 10
301.25
 20
558.265495
 30
0.0
 11
306.75
 21
559.237662
 31
0.0
  0
ELLIPSE
  5
A5
100
AcDbEntity
  8
0
  6
CONTINUOUS
 62
     7
100
AcDbEllipse
 10
310.790568
 20
514.738165
 30
0.0
 11
-849.11058260390473
 21
0.0
 31
0.0
210
0.0
220
0.0
230
1.0
 40
0.052408
 41
4.7153810195684809
 42
4.7171475874212989
  0
LINE
  5
A6
100
AcDbEntity
  8
0
  6
CONTINUOUS
 62
     7
100
AcDbLine
 10
308.25
 20
559.237966
 30
0.0
 11
309.182615
 21
557.238082
 31
0.0
  0
ELLIPSE
  5
A7
100
AcDbEntity
  8
0
  6
CONTINUOUS
 62
     7
100
AcDbEllipse
 10
310.790568
 20
514.738165
 30
0.0
 11
-810.94830922844835
 21
0.0
 31
0.0
210
0.0
220
0.0
230
1.0
 40
0.052408
 41
4.7123889803846897
 42
4.7143717875042972
  0
LINE
  5
A8
100
AcDbEntity
  8
0
  6
CONTINUOUS
 62
     7
100
AcDbLine
 10
313.25
 20
557.23797
 30
0.0
 11
313.25
 21
555.738165
 31
0.0
  0
ELLIPSE
  5
A9
100
AcDbEntity
  8
0
  6
CONTINUOUS
 62
     7
100
AcDbEllipse
 10
310.790568
 20
514.738165
 30
0.0
 11
-810.94830922844835
 21
0.0
 31
0.0
210
0.0
220
0.0
230
1.0
 40
0.052408
 41
4.7093561909967798
 42
4.7123889803846897
  0
LINE
  5
AA
100
AcDbEntity
  8
0
  6
CONTINUOUS
 62
     7
100
AcDbLine
 10
313.25
 20
557.23797
 30
0.0
 11
313.25
 21
557.238165
 31
0.0
  0
LINE
  5
AB
100
AcDbEntity
  8
0
  6
CONTINUOUS
 62
     7
100
AcDbLine
 10
301.25
 20
553.825434
 30
0.0
 11
301.25
 21
516.238165
 31
0.0
  0
LINE
  5
AC
100
AcDbEntity
  8
0
  6
CONTINUOUS
 62
     7
100
AcDbLine
 10
292.08273
 20
482.623253
 30
0.0
 11
294.25
 21
480.805896
 31
0.0
  0
LINE
  5
AD
100
AcDbEntity
  8
0
  6
CONTINUOUS
 62
     7
100
AcDbLine
 10
292.08273
 20
485.738165
 30
0.0
 11
292.08273
 21
482.623253
 31
0.0
  0
LINE
  5
AE
100
AcDbEntity
  8
0
  6
CONTINUOUS
 62
     7
100
AcDbLine
 10
298.75
 20
497.435758
 30
0.0
 11
299.75
 21
497.488165
 31
0.0
  0
LINE
  5
AF
100
AcDbEntity
  8
0
  6
CONTINUOUS
 62
     7
100
AcDbLine
 10
299.75
 20
497.488165
 30
0.0
 11
299.75
 21
499.988165
 31
0.0
  0
LINE
  5
B0
100
AcDbEntity
  8
0
  6
CONTINUOUS
 62
     7
100
AcDbLine
 10
299.75
 20
499.988165
 30
0.0
 11
293.247259
 21
500.32896
 31
0.0
  0
LINE
  5
B1
100
AcDbEntity
  8
0
  6
CONTINUOUS
 62
     7
100
AcDbLine
 10
292.08273
 20
501.556117
 30
0.0
 11
293.247259
 21
500.32896
 31
0.0
  0
LINE
  5
B2
100
AcDbEntity
  8
0
  6
CONTINUOUS
 62
     7
100
AcDbLine
 10
298.75
 20
486.13335
 30
0.0
 11
305.293841
 21
485.790402
 31
0.0
  0
LINE
  5
B3
100
AcDbEntity
  8
0
  6
CONTINUOUS
 62
     7
100
AcDbLine
 10
311.25
 20
496.998078
 30
0.0
 11
298.75
 21
496.342981
 31
0.0
  0
LINE
  5
B4
100
AcDbEntity
  8
0
  6
CONTINUOUS
 62
     7
100
AcDbLine
 10
293.74931
 20
480.113752
 30
0.0
 11
291.25
 21
482.238165
 31
0.0
  0
LINE
  5
B5
100
AcDbEntity
  8
0
  6
CONTINUOUS
 62
     7
100
AcDbLine
 10
292.08273
 20
482.623253
 30
0.0
 11
291.25
 21
482.238165
 31
0.0
  0
LINE
  5
B6
100
AcDbEntity
  8
0
  6
CONTINUOUS
 62
     7
100
AcDbLine
 10
301.25
 20
514.738165
 30
0.0
 11
301.25
 21
515.884612
 31
0.0
  0
LINE
  5
B7
100
AcDbEntity
  8
0
  6
CONTINUOUS
 62
     7
100
AcDbLine
 10
291.25
 20
509.738165
 30
0.0
 11
301.25
 21
514.738165
 31
0.0
  0
LINE
  5
B8
100
AcDbEntity
  8
0
  6
CONTINUOUS
 62
     7
100
AcDbLine
 10
301.25
 20
515.884612
 30
0.0
 11
301.25
 21
516.238165
 31
0.0
  0
LINE
  5
B9
100
AcDbEntity
  8
0
  6
CONTINUOUS
 62
     7
100
AcDbLine
 10
291.25
 20
482.238165
 30
0.0
 11
291.25
 21
485.738165
 31
0.0
  0
LINE
  5
BA
100
AcDbEntity
  8
0
  6
CONTINUOUS
 62
     7
100
AcDbLine
 10
291.25
 20
502.433632
 30
0.0
 11
291.25
 21
509.738165
 31
0.0
  0
LINE
  5
BB
100
AcDbEntity
  8
0
  6
CONTINUOUS
 62
     7
100
AcDbLine
 10
291.25
 20
502.433632
 30
0.0
 11
292.08273
 21
501.556117
 31
0.0
  0
LINE
  5
BC
100
AcDbEntity
  8
0
  6
CONTINUOUS
 62
     7
100
AcDbLine
 10
313.25
 20
561.761835
 30
0.0
 11
313.25
 21
560.261777
 31
0.0
  0
LINE
  5
BD
100
AcDbEntity
  8
0
  6
CONTINUOUS
 62
     7
100
AcDbLine
 10
313.25
 20
474.714496
 30
0.0
 11
313.25
 21
476.214553
 31
0.0
  0
LINE
  5
BE
100
AcDbEntity
  8
0
  6
CONTINUOUS
 62
     7
100
AcDbLine
 10
260.524036
 20
475.174629
 30
0.0
 11
313.25
 21
474.714496
 31
0.0
  0
ARC
  5
BF
100
AcDbEntity
  8
0
  6
CONTINUOUS
 62
     7
100
AcDbCircle
 10
260.711657
 20
496.67381
 30
0.0
 40
21.5
210
0.0
220
0.0
230
1.0
100
AcDbArc
 50
229.459536
 51
269.5
  0
LINE
  5
C0
100
AcDbEntity
  8
0
  6
CONTINUOUS
 62
     7
100
AcDbLine
 10
237.780395
 20
487.995541
 30
0.0
 11
246.736981
 21
480.334947
 31
0.0
  0
ARC
  5
C1
100
AcDbEntity
  8
0
  6
CONTINUOUS
 62
     7
100
AcDbCircle
 10
488.25
 20
510.738165
 30
0.0
 40
251.5
210
0.0
220
0.0
230
1.0
100
AcDbArc
 50
180.0
 51
185.188226
  0
LINE
  5
C2
100
AcDbEntity
  8
0
  6
CONTINUOUS
 62
     7
100
AcDbLine
 10
236.75
 20
525.738165
 30
0.0
 11
236.75
 21
510.738165
 31
0.0
  0
ARC
  5
C3
100
AcDbEntity
  8
0
  6
CONTINUOUS
 62
     7
100
AcDbCircle
 10
488.25
 20
525.738165
 30
0.0
 40
251.5
210
0.0
220
0.0
230
1.0
100
AcDbArc
 50
174.811774
 51
180.0
  0
LINE
  5
C4
100
AcDbEntity
  8
0
  6
CONTINUOUS
 62
     7
100
AcDbLine
 10
237.780395
 20
548.48079
 30
0.0
 11
246.736981
 21
556.141384
 31
0.0
  0
ARC
  5
C5
100
AcDbEntity
  8
0
  6
CONTINUOUS
 62
     7
100
AcDbCircle
 10
260.711657
 20
539.802521
 30
0.0
 40
21.5
210
0.0
220
0.0
230
1.0
100
AcDbArc
 50
90.5
 51
130.540464
  0
LINE
  5
C6
100
AcDbEntity
  8
0
  6
CONTINUOUS
 62
     7
100
AcDbLine
 10
260.524036
 20
561.301702
 30
0.0
 11
313.25
 21
561.761835
 31
0.0
  0
LINE
  5
C7
100
AcDbEntity
  8
0
  6
CONTINUOUS
 62
     7
100
AcDbLine
 10
237.780395
 20
461.214553
 30
0.0
 11
237.780395
 21
487.995541
 31
0.0
  0
LINE
  5
C8
100
AcDbEntity
  8
0
  6
CONTINUOUS
 62
     7
100
AcDbLine
 10
236.75
 20
461.214553
 30
0.0
 11
236.75
 21
510.738165
 31
0.0
  0
LINE
  5
C9
100
AcDbEntity
  8
0
  6
CONTINUOUS
 62
     7
100
AcDbLine
 10
313.25
 20
461.214553
 30
0.0
 11
313.25
 21
474.714496
 31
0.0
  0
LINE
  5
CA
100
AcDbEntity
  8
0
  6
CONTINUOUS
 62
     7
100
AcDbLine
 10
260.541489
 20
559.301778
 30
0.0
 11
313.25
 21
559.761758
 31
0.0
  0
ARC
  5
CB
100
AcDbEntity
  8
0
  6
CONTINUOUS
 62
     7
100
AcDbCircle
 10
260.711657
 20
539.802521
 30
0.0
 40
19.5
210
0.0
220
0.0
230
1.0
100
AcDbArc
 50
90.5
 51
130.540464
  0
LINE
  5
CC
100
AcDbEntity
  8
0
  6
CONTINUOUS
 62
     7
100
AcDbLine
 10
239.700071
 20
547.490933
 30
0.0
 11
248.036951
 21
554.621489
 31
0.0
  0
ARC
  5
CD
100
AcDbEntity
  8
0
  6
CONTINUOUS
 62
     7
100
AcDbCircle
 10
488.25
 20
525.738165
 30
0.0
 40
249.5
210
0.0
220
0.0
230
1.0
100
AcDbArc
 50
174.998292
 51
180.0
  0
LINE
  5
CE
100
AcDbEntity
  8
0
  6
CONTINUOUS
 62
     7
100
AcDbLine
 10
238.75
 20
510.738165
 30
0.0
 11
238.75
 21
525.738165
 31
0.0
  0
ARC
  5
CF
100
AcDbEntity
  8
0
  6
CONTINUOUS
 62
     7
100
AcDbCircle
 10
488.25
 20
510.738165
 30
0.0
 40
249.5
210
0.0
220
0.0
230
1.0
100
AcDbArc
 50
180.0
 51
180.009498
  0
POLYLINE
  5
D0
100
AcDbEntity
  8
0
  6
CONTINUOUS
 62
     7
100
AcDb2dPolyline
 66
     1
 10
0.0
 20
0.0
 30
0.0
 40
0.1
 41
0.1
  0
VERTEX
  5
D1
100
AcDbEntity
  8
0
 62
     7
100
AcDbVertex
100
AcDb2dVertex
 10
239.700071
 20
488.911572
 30
0.0
  0
VERTEX
  5
D2
100
AcDbEntity
  8
0
 62
     7
100
AcDbVertex
100
AcDb2dVertex
 10
239.342901
 20
493.484484
 30
0.0
  0
VERTEX
  5
D3
100
AcDbEntity
  8
0
 62
     7
100
AcDbVertex
100
AcDb2dVertex
 10
238.898524
 20
502.080448
 30
0.0
  0
VERTEX
  5
D4
100
AcDbEntity
  8
0
 62
     7
100
AcDbVertex
100
AcDb2dVertex
 10
238.750003
 20
510.696804
 30
0.0
  0
SEQEND
  5
D5
100
AcDbEntity
  8
0
  0
LINE
  5
D6
100
AcDbEntity
  8
0
  6
CONTINUOUS
 62
     7
100
AcDbLine
 10
248.036951
 20
481.755402
 30
0.0
 11
239.700071
 21
488.911572
 31
0.0
  0
ARC
  5
D7
100
AcDbEntity
  8
0
  6
CONTINUOUS
 62
     7
100
AcDbCircle
 10
260.727412
 20
496.494509
 30
0.0
 40
19.449654
210
0.0
220
0.0
230
1.0
100
AcDbArc
 50
229.271348
 51
269.452291
  0
LINE
  5
D8
100
AcDbEntity
  8
0
  6
CONTINUOUS
 62
     7
100
AcDbLine
 10
313.25
 20
476.581908
 30
0.0
 11
260.541489
 21
477.045743
 31
0.0
  0
LINE
  5
D9
100
AcDbEntity
  8
0
  6
CONTINUOUS
 62
     7
100
AcDbLine
 10
313.25
 20
559.761758
 30
0.0
 11
313.25
 21
560.261777
 31
0.0
  0
LINE
  5
DA
100
AcDbEntity
  8
0
  6
CONTINUOUS
 62
     7
100
AcDbLine
 10
313.25
 20
476.581908
 30
0.0
 11
313.25
 21
476.214553
 31
0.0
  0
LINE
  5
DB
100
AcDbEntity
  8
0
  6
CONTINUOUS
 62
     7
100
AcDbLine
 10
260.596823
 20
479.034686
 30
0.0
 11
294.25
 21
478.796032
 31
0.0
  0
LINE
  5
DC
100
AcDbEntity
  8
0
  6
CONTINUOUS
 62
     7
100
AcDbLine
 10
294.25
 20
478.796032
 30
0.0
 11
294.25
 21
480.910147
 31
0.0
  0
ELLIPSE
  5
DD
100
AcDbEntity
  8
0
  6
CONTINUOUS
 62
     7
100
AcDbEllipse
 10
295.25
 20
480.910147
 30
0.0
 11
1.0000000000000009
 21
0.0
 31
0.0
210
0.0
220
0.0
230
1.0
 40
0.707107
 41
1.5607738821470065
 42
3.1415926535897931
  0
LINE
  5
DE
100
AcDbEntity
  8
0
  6
CONTINUOUS
 62
     7
100
AcDbLine
 10
296.755011
 20
481.606623
 30
0.0
 11
295.260022
 21
481.617218
 31
0.0
  0
ELLIPSE
  5
DF
100
AcDbEntity
  8
0
  6
CONTINUOUS
 62
     7
100
AcDbEllipse
 10
296.75
 20
481.253087
 30
0.0
 11
0.5000000000000004
 21
0.0
 31
0.0
210
0.0
220
0.0
230
1.0
 40
0.707107
 41
0.0
 42
1.5607738821470065
  0
LINE
  5
E0
100
AcDbEntity
  8
0
  6
CONTINUOUS
 62
     7
100
AcDbLine
 10
297.25
 20
481.253087
 30
0.0
 11
297.25
 21
479.7576
 31
0.0
  0
ELLIPSE
  5
E1
100
AcDbEntity
  8
0
  6
CONTINUOUS
 62
     7
100
AcDbEllipse
 10
297.75
 20
479.7576
 30
0.0
 11
-0.5000000000000004
 21
0.0000000000000555
 31
0.0
210
0.0
220
0.0
230
1.0
 40
0.707107
 41
0.000000000000222
 42
0.629236722476647
  0
LINE
  5
E2
100
AcDbEntity
  8
0
  6
CONTINUOUS
 62
     7
100
AcDbLine
 10
297.345762
 20
479.549524
 30
0.0
 11
299.154238
 21
477.79282
 31
0.0
  0
LINE
  5
E3
100
AcDbEntity
  8
0
  6
CONTINUOUS
 62
     7
100
AcDbLine
 10
299.25
 20
476.705124
 30
0.0
 11
299.25
 21
477.584744
 31
0.0
  0
ARC
  5
E4
100
AcDbEntity
  8
0
  6
CONTINUOUS
 62
     7
100
AcDbCircle
 10
260.620211
 20
497.877247
 30
0.0
 40
18.842572
210
0.0
220
0.0
230
1.0
100
AcDbArc
 50
237.14468
 51
269.928883
  0
LINE
  5
E5
100
AcDbEntity
  8
0
  6
CONTINUOUS
 62
     7
100
AcDbLine
 10
243.199019
 20
486.679272
 30
0.0
 11
243.290088
 21
486.602774
 31
0.0
  0
LINE
  5
E6
100
AcDbEntity
  8
0
  6
CONTINUOUS
 62
     7
100
AcDbLine
 10
243.290088
 20
486.602774
 30
0.0
 11
250.39775
 21
482.048675
 31
0.0
  0
ELLIPSE
  5
E7
100
AcDbEntity
  8
0
  6
CONTINUOUS
 62
     7
100
AcDbEllipse
 10
239.615795
 20
498.616034
 30
0.0
 11
0.4999999868437743
 21
0.0001147005896929
 31
0.0
210
0.0
220
0.0
230
1.0
 40
0.707112
 41
0.589322283123854
 42
1.5706341156564125
  0
LINE
  5
E8
100
AcDbEntity
  8
0
  6
CONTINUOUS
 62
     7
100
AcDbLine
 10
240.031408
 20
498.812635
 30
0.0
 11
242.477781
 21
496.22644
 31
0.0
  0
ELLIPSE
  5
E9
100
AcDbEntity
  8
0
  6
CONTINUOUS
 62
     7
100
AcDbEllipse
 10
242.062167
 20
496.02984
 30
0.0
 11
0.4999999868437466
 21
0.0001147005896374
 31
0.0
210
0.0
220
0.0
230
1.0
 40
0.707112
 41
0.0430365701128255
 42
0.5893222831239027
  0
LINE
  5
EA
100
AcDbEntity
  8
0
  6
CONTINUOUS
 62
     7
100
AcDbLine
 10
242.561701
 20
496.045165
 30
0.0
 11
243.123737
 21
486.851092
 31
0.0
  0
LINE
  5
EB
100
AcDbEntity
  8
0
  6
CONTINUOUS
 62
     7
100
AcDbLine
 10
243.123737
 20
486.851092
 30
0.0
 11
243.199019
 21
486.679272
 31
0.0
  0
LINE
  5
EC
100
AcDbEntity
  8
0
  6
CONTINUOUS
 62
     7
100
AcDbLine
 10
239.615795
 20
498.96959
 30
0.0
 11
239.059347
 21
498.969526
 31
0.0
  0
LINE
  5
ED
100
AcDbEntity
  8
0
  6
CONTINUOUS
 62
     7
100
AcDbLine
 10
260.524036
 20
448.238165
 30
0.0
 11
313.25
 21
448.238165
 31
0.0
  0
LINE
  5
EE
100
AcDbEntity
  8
0
  6
CONTINUOUS
 62
     7
100
AcDbLine
 10
313.25
 20
461.214553
 30
0.0
 11
313.25
 21
448.238165
 31
0.0
  0
LINE
  5
EF
100
AcDbEntity
  8
0
  6
CONTINUOUS
 62
     7
100
AcDbLine
 10
260.524036
 20
448.238165
 30
0.0
 11
246.736981
 21
448.238165
 31
0.0
  0
LINE
  5
F0
100
AcDbEntity
  8
0
  6
CONTINUOUS
 62
     7
100
AcDbLine
 10
237.780395
 20
461.214553
 30
0.0
 11
237.780395
 21
448.238165
 31
0.0
  0
LINE
  5
F1
100
AcDbEntity
  8
0
  6
CONTINUOUS
 62
     7
100
AcDbLine
 10
237.780395
 20
448.238165
 30
0.0
 11
246.736981
 21
448.238165
 31
0.0
  0
LINE
  5
F2
100
AcDbEntity
  8
0
  6
CONTINUOUS
 62
     7
100
AcDbLine
 10
290.75
 20
554.238165
 30
0.0
 11
293.25
 21
551.738165
 31
0.0
  0
LINE
  5
F3
100
AcDbEntity
  8
0
  6
CONTINUOUS
 62
     7
100
AcDbLine
 10
297.25
 20
551.738165
 30
0.0
 11
293.25
 21
551.738165
 31
0.0
  0
LINE
  5
F4
100
AcDbEntity
  8
0
  6
CONTINUOUS
 62
     7
100
AcDbLine
 10
297.25
 20
553.238165
 30
0.0
 11
297.25
 21
551.738165
 31
0.0
  0
LINE
  5
F5
100
AcDbEntity
  8
0
  6
CONTINUOUS
 62
     7
100
AcDbLine
 10
298.75
 20
552.038165
 30
0.0
 11
297.75
 21
551.038165
 31
0.0
  0
LINE
  5
F6
100
AcDbEntity
  8
0
  6
CONTINUOUS
 62
     7
100
AcDbLine
 10
292.25
 20
551.038165
 30
0.0
 11
297.75
 21
551.038165
 31
0.0
  0
LINE
  5
F7
100
AcDbEntity
  8
0
  6
CONTINUOUS
 62
     7
100
AcDbLine
 10
292.25
 20
551.038165
 30
0.0
 11
289.25
 21
554.038165
 31
0.0
  0
LINE
  5
F8
100
AcDbEntity
  8
0
  6
CONTINUOUS
 62
     7
100
AcDbLine
 10
289.25
 20
559.552314
 30
0.0
 11
289.25
 21
554.038165
 31
0.0
  0
LINE
  5
F9
100
AcDbEntity
  8
0
  6
CONTINUOUS
 62
     7
100
AcDbLine
 10
290.75
 20
554.238165
 30
0.0
 11
290.75
 21
559.565404
 31
0.0
  0
LINE
  5
FA
100
AcDbEntity
  8
0
  6
CONTINUOUS
 62
     7
100
AcDbLine
 10
298.75
 20
552.038165
 30
0.0
 11
298.75
 21
553.238165
 31
0.0
  0
LINE
  5
FB
100
AcDbEntity
  8
0
  6
CONTINUOUS
 62
     7
100
AcDbLine
 10
298.75
 20
553.238165
 30
0.0
 11
297.25
 21
553.238165
 31
0.0
  0
LINE
  5
FC
100
AcDbEntity
  8
0
  6
CONTINUOUS
 62
     7
100
AcDbLine
 10
236.75
 20
448.238165
 30
0.0
 11
237.780395
 21
448.238165
 31
0.0
  0
LINE
  5
FD
100
AcDbEntity
  8
0
  6
CONTINUOUS
 62
     7
100
AcDbLine
 10
236.75
 20
461.214553
 30
0.0
 11
236.75
 21
448.238165
 31
0.0
  0
LINE
  5
FE
100
AcDbEntity
  8
0
  6
CONTINUOUS
 62
     7
100
AcDbLine
 10
298.75
 20
553.238165
 30
0.0
 11
298.75
 21
553.847251
 31
0.0
  0
LINE
  5
FF
100
AcDbEntity
  8
0
  6
CONTINUOUS
 62
     7
100
AcDbLine
 10
298.75
 20
555.611626
 30
0.0
 11
298.75
 21
559.635219
 31
0.0
  0
LINE
  5
100
100
AcDbEntity
  8
0
  6
CONTINUOUS
 62
     7
100
AcDbLine
 10
313.25
 20
557.238165
 30
0.0
 11
313.25
 21
559.761758
 31
0.0
  0
LINE
  5
101
100
AcDbEntity
  8
0
  6
CONTINUOUS
 62
     7
100
AcDbLine
 10
292.25
 20
499.488165
 30
0.0
 11
292.25
 21
485.738165
 31
0.0
  0
LINE
  5
102
100
AcDbEntity
  8
0
  6
CONTINUOUS
 62
     7
100
AcDbLine
 10
292.25
 20
499.488165
 30
0.0
 11
297.75
 21
499.488165
 31
0.0
  0
LINE
  5
103
100
AcDbEntity
  8
0
  6
CONTINUOUS
 62
     7
100
AcDbLine
 10
292.25
 20
485.738165
 30
0.0
 11
297.75
 21
485.738165
 31
0.0
  0
LINE
  5
104
100
AcDbEntity
  8
0
  6
CONTINUOUS
 62
     7
100
AcDbLine
 10
298.75
 20
499.488165
 30
0.0
 11
298.75
 21
485.738165
 31
0.0
  0
LINE
  5
105
100
AcDbEntity
  8
0
  6
CONTINUOUS
 62
     7
100
AcDbLine
 10
298.75
 20
485.738165
 30
0.0
 11
297.75
 21
485.738165
 31
0.0
  0
LINE
  5
106
100
AcDbEntity
  8
0
  6
CONTINUOUS
 62
     7
100
AcDbLine
 10
297.75
 20
499.488165
 30
0.0
 11
298.75
 21
499.488165
 31
0.0
  0
LINE
  5
107
100
AcDbEntity
  8
0
  6
CONTINUOUS
 62
     7
100
AcDbLine
 10
292.25
 20
485.738165
 30
0.0
 11
289.25
 21
485.738165
 31
0.0
  0
LINE
  5
108
100
AcDbEntity
  8
0
  6
CONTINUOUS
 62
     7
100
AcDbLine
 10
289.25
 20
485.738165
 30
0.0
 11
289.25
 21
499.488165
 31
0.0
  0
LINE
  5
109
100
AcDbEntity
  8
0
  6
CONTINUOUS
 62
     7
100
AcDbLine
 10
289.25
 20
499.488165
 30
0.0
 11
292.25
 21
499.488165
 31
0.0
  0
LINE
  5
10A
100
AcDbEntity
  8
0
  6
CONTINUOUS
 62
     7
100
AcDbLine
 10
313.25
 20
557.238165
 30
0.0
 11
310.790568
 21
557.238165
 31
0.0
  0
LINE
  5
10B
100
AcDbEntity
  8
0
  6
CONTINUOUS
 62
     7
100
AcDbLine
 10
486.582159
 20
485.373437
 30
0.0
 11
486.582159
 21
497.102894
 31
0.0
  0
LINE
  5
10C
100
AcDbEntity
  8
0
  6
CONTINUOUS
 62
     7
100
AcDbLine
 10
480.573437
 20
497.102894
 30
0.0
 11
486.582159
 21
497.102894
 31
0.0
  0
LINE
  5
10D
100
AcDbEntity
  8
0
  6
CONTINUOUS
 62
     7
100
AcDbLine
 10
480.573437
 20
485.373437
 30
0.0
 11
480.573437
 21
497.102894
 31
0.0
  0
LINE
  5
10E
100
AcDbEntity
  8
0
  6
CONTINUOUS
 62
     7
100
AcDbLine
 10
480.573437
 20
485.373437
 30
0.0
 11
486.582159
 21
485.373437
 31
0.0
  0
ARC
  5
10F
100
AcDbEntity
  8
0
  6
CONTINUOUS
 62
     7
100
AcDbCircle
 10
455.238165
 20
448.738165
 30
0.0
 40
0.5
210
0.0
220
0.0
230
1.0
100
AcDbArc
 50
180.0
 51
270.0
  0
LINE
  5
110
100
AcDbEntity
  8
0
  6
CONTINUOUS
 62
     7
100
AcDbLine
 10
454.738165
 20
448.738165
 30
0.0
 11
454.738165
 21
462.738146
 31
0.0
  0
ELLIPSE
  5
111
100
AcDbEntity
  8
0
  6
CONTINUOUS
 62
     7
100
AcDbEllipse
 10
454.238165
 20
462.738146
 30
0.0
 11
0.0
 21
-0.5000190391928894
 31
0.0
210
0.0
220
0.0
230
1.0
 40
0.999962
 41
1.5707963267948934
 42
3.1415926535897931
  0
LINE
  5
112
100
AcDbEntity
  8
0
  6
CONTINUOUS
 62
     7
100
AcDbLine
 10
454.238165
 20
463.238165
 30
0.0
 11
447.238165
 21
463.238165
 31
0.0
  0
ELLIPSE
  5
113
100
AcDbEntity
  8
0
  6
CONTINUOUS
 62
     7
100
AcDbEllipse
 10
447.238165
 20
462.738146
 30
0.0
 11
0.0
 21
-0.5000190391928339
 31
0.0
210
0.0
220
0.0
230
1.0
 40
0.999962
 41
3.1415926535897931
 42
4.7123889803846941
  0
LINE
  5
114
100
AcDbEntity
  8
0
  6
CONTINUOUS
 62
     7
100
AcDbLine
 10
446.738165
 20
462.738146
 30
0.0
 11
446.738165
 21
448.738165
 31
0.0
  0
ARC
  5
115
100
AcDbEntity
  8
0
  6
CONTINUOUS
 62
     7
100
AcDbCircle
 10
446.238165
 20
448.738165
 30
0.0
 40
0.5
210
0.0
220
0.0
230
1.0
100
AcDbArc
 50
270.0
 51
360.0
  0
LINE
  5
116
100
AcDbEntity
  8
0
  6
CONTINUOUS
 62
     7
100
AcDbLine
 10
446.238165
 20
448.238165
 30
0.0
 11
441.738165
 21
448.238165
 31
0.0
  0
ARC
  5
117
100
AcDbEntity
  8
0
  6
CONTINUOUS
 62
     7
100
AcDbCircle
 10
441.738165
 20
448.738165
 30
0.0
 40
0.5
210
0.0
220
0.0
230
1.0
100
AcDbArc
 50
180.0
 51
270.0
  0
LINE
  5
118
100
AcDbEntity
  8
0
  6
CONTINUOUS
 62
     7
100
AcDbLine
 10
441.238165
 20
448.738165
 30
0.0
 11
441.238165
 21
462.738146
 31
0.0
  0
ELLIPSE
  5
119
100
AcDbEntity
  8
0
  6
CONTINUOUS
 62
     7
100
AcDbEllipse
 10
440.738165
 20
462.738146
 30
0.0
 11
0.0
 21
-0.5000190391928894
 31
0.0
210
0.0
220
0.0
230
1.0
 40
0.999962
 41
1.5707963267948934
 42
3.1415926535897931
  0
LINE
  5
11A
100
AcDbEntity
  8
0
  6
CONTINUOUS
 62
     7
100
AcDbLine
 10
440.738165
 20
463.238165
 30
0.0
 11
419.738165
 21
463.238165
 31
0.0
  0
LINE
  5
11B
100
AcDbEntity
  8
0
  6
CONTINUOUS
 62
     7
100
AcDbLine
 10
419.738165
 20
465.985857
 30
0.0
 11
419.738165
 21
463.238165
 31
0.0
  0
ARC
  5
11C
100
AcDbEntity
  8
0
  6
CONTINUOUS
 62
     7
100
AcDbCircle
 10
408.238165
 20
465.985857
 30
0.0
 40
11.5
210
0.0
220
0.0
230
1.0
100
AcDbArc
 50
360.0
 51
45.0
  0
LINE
  5
11D
100
AcDbEntity
  8
0
  6
CONTINUOUS
 62
     7
100
AcDbLine
 10
406.617585
 20
483.869893
 30
0.0
 11
416.369893
 21
474.117585
 31
0.0
  0
ARC
  5
11E
100
AcDbEntity
  8
0
  6
CONTINUOUS
 62
     7
100
AcDbCircle
 10
398.485857
 20
475.738165
 30
0.0
 40
11.5
210
0.0
220
0.0
230
1.0
100
AcDbArc
 50
45.0
 51
90.0
  0
LINE
  5
11F
100
AcDbEntity
  8
0
  6
CONTINUOUS
 62
     7
100
AcDbLine
 10
395.738165
 20
487.238165
 30
0.0
 11
398.485857
 21
487.238165
 31
0.0
  0
LINE
  5
120
100
AcDbEntity
  8
0
  6
CONTINUOUS
 62
     7
100
AcDbLine
 10
395.738165
 20
487.238165
 30
0.0
 11
395.738165
 21
508.238165
 31
0.0
  0
ELLIPSE
  5
121
100
AcDbEntity
  8
0
  6
CONTINUOUS
 62
     7
100
AcDbEllipse
 10
395.238146
 20
508.238165
 30
0.0
 11
-0.5000190391928339
 21
0.0
 31
0.0
210
0.0
220
0.0
230
1.0
 40
0.999962
 41
3.1415926535897931
 42
4.7123889803846941
  0
LINE
  5
122
100
AcDbEntity
  8
0
  6
CONTINUOUS
 62
     7
100
AcDbLine
 10
395.238146
 20
508.738165
 30
0.0
 11
381.238165
 21
508.738165
 31
0.0
  0
ARC
  5
123
100
AcDbEntity
  8
0
  6
CONTINUOUS
 62
     7
100
AcDbCircle
 10
381.238165
 20
509.238165
 30
0.0
 40
0.5
210
0.0
220
0.0
230
1.0
100
AcDbArc
 50
180.0
 51
270.0
  0
LINE
  5
124
100
AcDbEntity
  8
0
  6
CONTINUOUS
 62
     7
100
AcDbLine
 10
380.738165
 20
509.238165
 30
0.0
 11
380.738165
 21
513.738165
 31
0.0
  0
ARC
  5
125
100
AcDbEntity
  8
0
  6
CONTINUOUS
 62
     7
100
AcDbCircle
 10
381.238165
 20
513.738165
 30
0.0
 40
0.5
210
0.0
220
0.0
230
1.0
100
AcDbArc
 50
90.0
 51
180.0
  0
LINE
  5
126
100
AcDbEntity
  8
0
  6
CONTINUOUS
 62
     7
100
AcDbLine
 10
381.238165
 20
514.238165
 30
0.0
 11
395.238146
 21
514.238165
 31
0.0
  0
ELLIPSE
  5
127
100
AcDbEntity
  8
0
  6
CONTINUOUS
 62
     7
100
AcDbEllipse
 10
395.238146
 20
514.738165
 30
0.0
 11
-0.5000190391928894
 21
0.0
 31
0.0
210
0.0
220
0.0
230
1.0
 40
0.999962
 41
1.5707963267948934
 42
3.1415926535897931
  0
LINE
  5
128
100
AcDbEntity
  8
0
  6
CONTINUOUS
 62
     7
100
AcDbLine
 10
395.738165
 20
514.738165
 30
0.0
 11
395.738165
 21
521.738165
 31
0.0
  0
ELLIPSE
  5
129
100
AcDbEntity
  8
0
  6
CONTINUOUS
 62
     7
100
AcDbEllipse
 10
395.238146
 20
521.738165
 30
0.0
 11
-0.5000190391928339
 21
0.0
 31
0.0
210
0.0
220
0.0
230
1.0
 40
0.999962
 41
3.1415926535897931
 42
4.7123889803846941
  0
LINE
  5
12A
100
AcDbEntity
  8
0
  6
CONTINUOUS
 62
     7
100
AcDbLine
 10
395.238146
 20
522.238165
 30
0.0
 11
381.238165
 21
522.238165
 31
0.0
  0
ARC
  5
12B
100
AcDbEntity
  8
0
  6
CONTINUOUS
 62
     7
100
AcDbCircle
 10
381.238165
 20
522.738165
 30
0.0
 40
0.5
210
0.0
220
0.0
230
1.0
100
AcDbArc
 50
180.0
 51
270.0
  0
LINE
  5
12C
100
AcDbEntity
  8
0
  6
CONTINUOUS
 62
     7
100
AcDbLine
 10
380.738165
 20
522.738165
 30
0.0
 11
380.738165
 21
527.238165
 31
0.0
  0
ARC
  5
12D
100
AcDbEntity
  8
0
  6
CONTINUOUS
 62
     7
100
AcDbCircle
 10
381.238165
 20
527.238165
 30
0.0
 40
0.5
210
0.0
220
0.0
230
1.0
100
AcDbArc
 50
90.0
 51
180.0
  0
LINE
  5
12E
100
AcDbEntity
  8
0
  6
CONTINUOUS
 62
     7
100
AcDbLine
 10
381.238165
 20
527.738165
 30
0.0
 11
395.238146
 21
527.738165
 31
0.0
  0
ELLIPSE
  5
12F
100
AcDbEntity
  8
0
  6
CONTINUOUS
 62
     7
100
AcDbEllipse
 10
395.238146
 20
528.238165
 30
0.0
 11
-0.5000190391928339
 21
0.0
 31
0.0
210
0.0
220
0.0
230
1.0
 40
0.999962
 41
1.5707963267948934
 42
3.1415926535897931
  0
LINE
  5
130
100
AcDbEntity
  8
0
  6
CONTINUOUS
 62
     7
100
AcDbLine
 10
395.738165
 20
528.238165
 30
0.0
 11
395.738165
 21
555.738165
 31
0.0
  0
LINE
  5
131
100
AcDbEntity
  8
0
  6
CONTINUOUS
 62
     7
100
AcDbLine
 10
447.109272
 20
555.738165
 30
0.0
 11
395.738165
 21
555.738165
 31
0.0
  0
LINE
  5
132
100
AcDbEntity
  8
0
  6
CONTINUOUS
 62
     7
100
AcDbLine
 10
447.109272
 20
557.23797
 30
0.0
 11
447.109272
 21
555.738165
 31
0.0
  0
ARC
  5
133
100
AcDbEntity
  8
0
  6
CONTINUOUS
 62
     7
100
AcDbCircle
 10
447.238165
 20
514.738165
 30
0.0
 40
42.5
210
0.0
220
0.0
230
1.0
100
AcDbArc
 50
359.826234
 51
90.173766
  0
LINE
  5
134
100
AcDbEntity
  8
0
  6
CONTINUOUS
 62
     7
100
AcDbLine
 10
488.238165
 20
514.609272
 30
0.0
 11
489.73797
 21
514.609272
 31
0.0
  0
LINE
  5
135
100
AcDbEntity
  8
0
  6
CONTINUOUS
 62
     7
100
AcDbLine
 10
488.238165
 20
514.609272
 30
0.0
 11
488.238165
 21
463.238165
 31
0.0
  0
LINE
  5
136
100
AcDbEntity
  8
0
  6
CONTINUOUS
 62
     7
100
AcDbLine
 10
460.738165
 20
463.238165
 30
0.0
 11
488.238165
 21
463.238165
 31
0.0
  0
ELLIPSE
  5
137
100
AcDbEntity
  8
0
  6
CONTINUOUS
 62
     7
100
AcDbEllipse
 10
460.738165
 20
462.738146
 30
0.0
 11
0.0
 21
-0.5000190391928339
 31
0.0
210
0.0
220
0.0
230
1.0
 40
0.999962
 41
3.1415926535897931
 42
4.7123889803846941
  0
LINE
  5
138
100
AcDbEntity
  8
0
  6
CONTINUOUS
 62
     7
100
AcDbLine
 10
460.238165
 20
462.738146
 30
0.0
 11
460.238165
 21
448.738165
 31
0.0
  0
ARC
  5
139
100
AcDbEntity
  8
0
  6
CONTINUOUS
 62
     7
100
AcDbCircle
 10
459.738165
 20
448.738165
 30
0.0
 40
0.5
210
0.0
220
0.0
230
1.0
100
AcDbArc
 50
270.0
 51
360.0
  0
LINE
  5
13A
100
AcDbEntity
  8
0
  6
CONTINUOUS
 62
     7
100
AcDbLine
 10
459.738165
 20
448.238165
 30
0.0
 11
455.238165
 21
448.238165
 31
0.0
  0
ARC
  5
13B
100
AcDbEntity
  8
0
  6
CONTINUOUS
 62
     7
100
AcDbCircle
 10
418.238165
 20
518.238165
 30
0.0
 40
2.5
210
0.0
220
0.0
230
1.0
100
AcDbArc
 50
180.0
 51
270.0
  0
LINE
  5
13C
100
AcDbEntity
  8
0
  6
CONTINUOUS
 62
     7
100
AcDbLine
 10
418.238165
 20
515.738165
 30
0.0
 11
423.238165
 21
515.738165
 31
0.0
  0
ARC
  5
13D
100
AcDbEntity
  8
0
  6
CONTINUOUS
 62
     7
100
AcDbCircle
 10
423.238165
 20
518.238165
 30
0.0
 40
2.5
210
0.0
220
0.0
230
1.0
100
AcDbArc
 50
270.0
 51
360.0
  0
ARC
  5
13E
100
AcDbEntity
  8
0
  6
CONTINUOUS
 62
     7
100
AcDbCircle
 10
423.238165
 20
518.238165
 30
0.0
 40
2.5
210
0.0
220
0.0
230
1.0
100
AcDbArc
 50
0.0
 51
90.0
  0
LINE
  5
13F
100
AcDbEntity
  8
0
  6
CONTINUOUS
 62
     7
100
AcDbLine
 10
423.238165
 20
520.738165
 30
0.0
 11
418.238165
 21
520.738165
 31
0.0
  0
ARC
  5
140
100
AcDbEntity
  8
0
  6
CONTINUOUS
 62
     7
100
AcDbCircle
 10
418.238165
 20
518.238165
 30
0.0
 40
2.5
210
0.0
220
0.0
230
1.0
100
AcDbArc
 50
90.0
 51
180.0
  0
ARC
  5
141
100
AcDbEntity
  8
0
  6
CONTINUOUS
 62
     7
100
AcDbCircle
 10
450.738165
 20
490.738165
 30
0.0
 40
2.5
210
0.0
220
0.0
230
1.0
100
AcDbArc
 50
360.0
 51
90.0
  0
ARC
  5
142
100
AcDbEntity
  8
0
  6
CONTINUOUS
 62
     7
100
AcDbCircle
 10
450.738165
 20
490.738165
 30
0.0
 40
2.5
210
0.0
220
0.0
230
1.0
100
AcDbArc
 50
90.0
 51
180.0
  0
LINE
  5
143
100
AcDbEntity
  8
0
  6
CONTINUOUS
 62
     7
100
AcDbLine
 10
448.238165
 20
485.738165
 30
0.0
 11
448.238165
 21
490.738165
 31
0.0
  0
ARC
  5
144
100
AcDbEntity
  8
0
  6
CONTINUOUS
 62
     7
100
AcDbCircle
 10
450.738165
 20
485.738165
 30
0.0
 40
2.5
210
0.0
220
0.0
230
1.0
100
AcDbArc
 50
180.0
 51
270.0
  0
ARC
  5
145
100
AcDbEntity
  8
0
  6
CONTINUOUS
 62
     7
100
AcDbCircle
 10
450.738165
 20
485.738165
 30
0.0
 40
2.5
210
0.0
220
0.0
230
1.0
100
AcDbArc
 50
270.0
 51
360.0
  0
LINE
  5
146
100
AcDbEntity
  8
0
  6
CONTINUOUS
 62
     7
100
AcDbLine
 10
453.238165
 20
490.738165
 30
0.0
 11
453.238165
 21
485.738165
 31
0.0
  0
LINE
  5
147
100
AcDbEntity
  8
0
  6
CONTINUOUS
 62
     7
100
AcDbLine
 10
429.602894
 20
548.073437
 30
0.0
 11
429.602894
 21
554.082159
 31
0.0
  0
LINE
  5
148
100
AcDbEntity
  8
0
  6
CONTINUOUS
 62
     7
100
AcDbLine
 10
417.873437
 20
554.082159
 30
0.0
 11
429.602894
 21
554.082159
 31
0.0
  0
LINE
  5
149
100
AcDbEntity
  8
0
  6
CONTINUOUS
 62
     7
100
AcDbLine
 10
417.873437
 20
548.073437
 30
0.0
 11
417.873437
 21
554.082159
 31
0.0
  0
LINE
  5
14A
100
AcDbEntity
  8
0
  6
CONTINUOUS
 62
     7
100
AcDbLine
 10
417.873437
 20
548.073437
 30
0.0
 11
429.602894
 21
548.073437
 31
0.0
  0
CIRCLE
  5
14B
100
AcDbEntity
  8
0
  6
CONTINUOUS
 62
     7
100
AcDbCircle
 10
464.880301
 20
532.380301
 30
0.0
 40
2.5
210
0.0
220
0.0
230
1.0
  0
ARC
  5
14C
100
AcDbEntity
  8
0
  6
CONTINUOUS
 62
     7
100
AcDbCircle
 10
447.238165
 20
514.738165
 30
0.0
 40
44.5
210
0.0
220
0.0
230
1.0
100
AcDbArc
 50
0.171431
 51
89.828569
  0
LINE
  5
14D
100
AcDbEntity
  8
0
  6
CONTINUOUS
 62
     7
100
AcDbLine
 10
489.738082
 20
514.822435
 30
0.0
 11
491.737966
 21
514.871311
 31
0.0
  0
LINE
  5
14E
100
AcDbEntity
  8
0
  6
CONTINUOUS
 62
     7
100
AcDbLine
 10
447.371311
 20
559.237966
 30
0.0
 11
447.322435
 21
557.238082
 31
0.0
  0
LINE
  5
14F
100
AcDbEntity
  8
0
  6
CONTINUOUS
 62
     7
100
AcDbLine
 10
411.793942
 20
469.748
 30
0.0
 11
411.299937
 21
469.995153
 31
0.0
  0
LINE
  5
150
100
AcDbEntity
  8
0
  6
CONTINUOUS
 62
     7
100
AcDbLine
 10
411.299937
 20
469.995153
 30
0.0
 11
402.495153
 21
478.799937
 31
0.0
  0
LINE
  5
151
100
AcDbEntity
  8
0
  6
CONTINUOUS
 62
     7
100
AcDbLine
 10
402.495153
 20
478.799937
 30
0.0
 11
402.248
 21
479.293942
 31
0.0
  0
LINE
  5
152
100
AcDbEntity
  8
0
  6
CONTINUOUS
 62
     7
100
AcDbLine
 10
411.793942
 20
469.748
 30
0.0
 11
411.747651
 21
469.70171
 31
0.0
  0
LINE
  5
153
100
AcDbEntity
  8
0
  6
CONTINUOUS
 62
     7
100
AcDbLine
 10
402.248
 20
479.293942
 30
0.0
 11
402.20171
 21
479.247651
 31
0.0
  0
LINE
  5
154
100
AcDbEntity
  8
0
  6
CONTINUOUS
 62
     7
100
AcDbLine
 10
396.364724
 20
480.847251
 30
0.0
 11
398.485857
 21
480.847251
 31
0.0
  0
LINE
  5
155
100
AcDbEntity
  8
0
  6
CONTINUOUS
 62
     7
100
AcDbLine
 10
395.864743
 20
480.851577
 30
0.0
 11
396.364724
 21
480.847251
 31
0.0
  0
LINE
  5
156
100
AcDbEntity
  8
0
  6
CONTINUOUS
 62
     7
100
AcDbLine
 10
395.79489
 20
480.92143
 30
0.0
 11
395.864743
 21
480.851577
 31
0.0
  0
ARC
  5
157
100
AcDbEntity
  8
0
  6
CONTINUOUS
 62
     7
100
AcDbCircle
 10
398.485857
 20
475.738165
 30
0.0
 40
5.109086
210
0.0
220
0.0
230
1.0
100
AcDbArc
 50
45.0
 51
90.0
  0
ARC
  5
158
100
AcDbEntity
  8
0
  6
CONTINUOUS
 62
     7
100
AcDbCircle
 10
408.238165
 20
465.985857
 30
0.0
 40
5.109086
210
0.0
220
0.0
230
1.0
100
AcDbArc
 50
360.0
 51
45.0
  0
LINE
  5
159
100
AcDbEntity
  8
0
  6
CONTINUOUS
 62
     7
100
AcDbLine
 10
413.347251
 20
463.864724
 30
0.0
 11
413.351577
 21
463.364743
 31
0.0
  0
LINE
  5
15A
100
AcDbEntity
  8
0
  6
CONTINUOUS
 62
     7
100
AcDbLine
 10
413.347251
 20
465.985857
 30
0.0
 11
413.347251
 21
463.864724
 31
0.0
  0
LINE
  5
15B
100
AcDbEntity
  8
0
  6
CONTINUOUS
 62
     7
100
AcDbLine
 10
413.351577
 20
463.364743
 30
0.0
 11
413.42143
 21
463.29489
 31
0.0
  0
LINE
  5
15C
100
AcDbEntity
  8
0
  6
CONTINUOUS
 62
     7
100
AcDbLine
 10
411.747651
 20
469.70171
 30
0.0
 11
411.850835
 21
469.598526
 31
0.0
  0
LINE
  5
15D
100
AcDbEntity
  8
0
  6
CONTINUOUS
 62
     7
100
AcDbLine
 10
402.098526
 20
479.350835
 30
0.0
 11
402.20171
 21
479.247651
 31
0.0
  0
POLYLINE
  5
15E
100
AcDbEntity
  8
0
  6
CONTINUOUS
 62
     7
100
AcDb2dPolyline
 66
     1
 10
0.0
 20
0.0
 30
0.0
 40
0.1
 41
0.1
  0
VERTEX
  5
15F
100
AcDbEntity
  8
0
 62
     7
100
AcDbVertex
100
AcDb2dVertex
 10
401.435139
 20
477.739922
 30
0.0
  0
VERTEX
  5
160
100
AcDbEntity
  8
0
 62
     7
100
AcDbVertex
100
AcDb2dVertex
 10
401.406426
 20
477.709992
 30
0.0
  0
VERTEX
  5
161
100
AcDbEntity
  8
0
 62
     7
100
AcDbVertex
100
AcDb2dVertex
 10
401.378978
 20
477.678898
 30
0.0
  0
VERTEX
  5
162
100
AcDbEntity
  8
0
 62
     7
100
AcDbVertex
100
AcDb2dVertex
 10
401.352595
 20
477.646371
 30
0.0
  0
VERTEX
  5
163
100
AcDbEntity
  8
0
 62
     7
100
AcDbVertex
100
AcDb2dVertex
 10
401.327596
 20
477.612769
 30
0.0
  0
VERTEX
  5
164
100
AcDbEntity
  8
0
 62
     7
100
AcDbVertex
100
AcDb2dVertex
 10
401.303696
 20
477.577642
 30
0.0
  0
VERTEX
  5
165
100
AcDbEntity
  8
0
 62
     7
100
AcDbVertex
100
AcDb2dVertex
 10
401.281309
 20
477.541533
 30
0.0
  0
VERTEX
  5
166
100
AcDbEntity
  8
0
 62
     7
100
AcDbVertex
100
AcDb2dVertex
 10
401.260276
 20
477.504131
 30
0.0
  0
VERTEX
  5
167
100
AcDbEntity
  8
0
 62
     7
100
AcDbVertex
100
AcDb2dVertex
 10
401.240864
 20
477.465862
 30
0.0
  0
VERTEX
  5
168
100
AcDbEntity
  8
0
 62
     7
100
AcDbVertex
100
AcDb2dVertex
 10
401.223633
 20
477.428009
 30
0.0
  0
VERTEX
  5
169
100
AcDbEntity
  8
0
 62
     7
100
AcDbVertex
100
AcDb2dVertex
 10
401.20799
 20
477.389474
 30
0.0
  0
VERTEX
  5
16A
100
AcDbEntity
  8
0
 62
     7
100
AcDbVertex
100
AcDb2dVertex
 10
401.191595
 20
477.343162
 30
0.0
  0
VERTEX
  5
16B
100
AcDbEntity
  8
0
 62
     7
100
AcDbVertex
100
AcDb2dVertex
 10
401.177483
 20
477.296074
 30
0.0
  0
VERTEX
  5
16C
100
AcDbEntity
  8
0
 62
     7
100
AcDbVertex
100
AcDb2dVertex
 10
401.165702
 20
477.24838
 30
0.0
  0
VERTEX
  5
16D
100
AcDbEntity
  8
0
 62
     7
100
AcDbVertex
100
AcDb2dVertex
 10
401.158633
 20
477.213457
 30
0.0
  0
VERTEX
  5
16E
100
AcDbEntity
  8
0
 62
     7
100
AcDbVertex
100
AcDb2dVertex
 10
401.152808
 20
477.178294
 30
0.0
  0
VERTEX
  5
16F
100
AcDbEntity
  8
0
 62
     7
100
AcDbVertex
100
AcDb2dVertex
 10
401.148239
 20
477.142957
 30
0.0
  0
VERTEX
  5
170
100
AcDbEntity
  8
0
 62
     7
100
AcDbVertex
100
AcDb2dVertex
 10
401.1445
 20
477.101515
 30
0.0
  0
VERTEX
  5
171
100
AcDbEntity
  8
0
 62
     7
100
AcDbVertex
100
AcDb2dVertex
 10
401.142486
 20
477.059954
 30
0.0
  0
VERTEX
  5
172
100
AcDbEntity
  8
0
 62
     7
100
AcDbVertex
100
AcDb2dVertex
 10
401.142337
 20
477.010803
 30
0.0
  0
VERTEX
  5
173
100
AcDbEntity
  8
0
 62
     7
100
AcDbVertex
100
AcDb2dVertex
 10
401.144599
 20
476.961674
 30
0.0
  0
VERTEX
  5
174
100
AcDbEntity
  8
0
 62
     7
100
AcDbVertex
100
AcDb2dVertex
 10
401.149264
 20
476.912745
 30
0.0
  0
VERTEX
  5
175
100
AcDbEntity
  8
0
 62
     7
100
AcDbVertex
100
AcDb2dVertex
 10
401.15415
 20
476.877433
 30
0.0
  0
VERTEX
  5
176
100
AcDbEntity
  8
0
 62
     7
100
AcDbVertex
100
AcDb2dVertex
 10
401.16029
 20
476.842306
 30
0.0
  0
VERTEX
  5
177
100
AcDbEntity
  8
0
 62
     7
100
AcDbVertex
100
AcDb2dVertex
 10
401.167674
 20
476.807431
 30
0.0
  0
VERTEX
  5
178
100
AcDbEntity
  8
0
 62
     7
100
AcDbVertex
100
AcDb2dVertex
 10
401.17513
 20
476.777227
 30
0.0
  0
VERTEX
  5
179
100
AcDbEntity
  8
0
 62
     7
100
AcDbVertex
100
AcDb2dVertex
 10
401.18352
 20
476.747269
 30
0.0
  0
VERTEX
  5
17A
100
AcDbEntity
  8
0
 62
     7
100
AcDbVertex
100
AcDb2dVertex
 10
401.199716
 20
476.697521
 30
0.0
  0
VERTEX
  5
17B
100
AcDbEntity
  8
0
 62
     7
100
AcDbVertex
100
AcDb2dVertex
 10
401.218486
 20
476.648686
 30
0.0
  0
VERTEX
  5
17C
100
AcDbEntity
  8
0
 62
     7
100
AcDbVertex
100
AcDb2dVertex
 10
401.235604
 20
476.609761
 30
0.0
  0
VERTEX
  5
17D
100
AcDbEntity
  8
0
 62
     7
100
AcDbVertex
100
AcDb2dVertex
 10
401.254358
 20
476.571598
 30
0.0
  0
VERTEX
  5
17E
100
AcDbEntity
  8
0
 62
     7
100
AcDbVertex
100
AcDb2dVertex
 10
401.274927
 20
476.533898
 30
0.0
  0
VERTEX
  5
17F
100
AcDbEntity
  8
0
 62
     7
100
AcDbVertex
100
AcDb2dVertex
 10
401.285453
 20
476.515983
 30
0.0
  0
SEQEND
  5
180
100
AcDbEntity
  8
0
  0
LINE
  5
181
100
AcDbEntity
  8
0
  6
CONTINUOUS
 62
     7
100
AcDbLine
 10
408.824093
 20
468.935463
 30
0.0
 11
408.949368
 21
468.829234
 31
0.0
  0
LINE
  5
182
100
AcDbEntity
  8
0
  6
CONTINUOUS
 62
     7
100
AcDbLine
 10
408.824093
 20
468.935463
 30
0.0
 11
407.958205
 21
469.801351
 31
0.0
  0
LINE
  5
183
100
AcDbEntity
  8
0
  6
CONTINUOUS
 62
     7
100
AcDbLine
 10
402.301351
 20
475.458205
 30
0.0
 11
401.435463
 21
476.324093
 31
0.0
  0
LINE
  5
184
100
AcDbEntity
  8
0
  6
CONTINUOUS
 62
     7
100
AcDbLine
 10
411.299937
 20
469.995153
 30
0.0
 11
410.239922
 21
468.935139
 31
0.0
  0
LINE
  5
185
100
AcDbEntity
  8
0
  6
CONTINUOUS
 62
     7
100
AcDbLine
 10
402.495153
 20
478.799937
 30
0.0
 11
401.435139
 21
477.739922
 31
0.0
  0
LINE
  5
186
100
AcDbEntity
  8
0
  6
CONTINUOUS
 62
     7
100
AcDbLine
 10
401.285453
 20
476.515983
 30
0.0
 11
401.33873
 21
476.436324
 31
0.0
  0
POLYLINE
  5
187
100
AcDbEntity
  8
0
  6
CONTINUOUS
 62
     7
100
AcDb2dPolyline
 66
     1
 10
0.0
 20
0.0
 30
0.0
 40
0.1
 41
0.1
  0
VERTEX
  5
188
100
AcDbEntity
  8
0
 62
     7
100
AcDbVertex
100
AcDb2dVertex
 10
408.949368
 20
468.829234
 30
0.0
  0
VERTEX
  5
189
100
AcDbEntity
  8
0
 62
     7
100
AcDbVertex
100
AcDb2dVertex
 10
408.951075
 20
468.828014
 30
0.0
  0
VERTEX
  5
18A
100
AcDbEntity
  8
0
 62
     7
100
AcDbVertex
100
AcDb2dVertex
 10
408.986356
 20
468.80399
 30
0.0
  0
VERTEX
  5
18B
100
AcDbEntity
  8
0
 62
     7
100
AcDbVertex
100
AcDb2dVertex
 10
409.022628
 20
468.781491
 30
0.0
  0
VERTEX
  5
18C
100
AcDbEntity
  8
0
 62
     7
100
AcDbVertex
100
AcDb2dVertex
 10
409.060102
 20
468.760409
 30
0.0
  0
VERTEX
  5
18D
100
AcDbEntity
  8
0
 62
     7
100
AcDbVertex
100
AcDb2dVertex
 10
409.098447
 20
468.740955
 30
0.0
  0
VERTEX
  5
18E
100
AcDbEntity
  8
0
 62
     7
100
AcDbVertex
100
AcDb2dVertex
 10
409.136203
 20
468.723761
 30
0.0
  0
VERTEX
  5
18F
100
AcDbEntity
  8
0
 62
     7
100
AcDbVertex
100
AcDb2dVertex
 10
409.174639
 20
468.708146
 30
0.0
  0
VERTEX
  5
190
100
AcDbEntity
  8
0
 62
     7
100
AcDbVertex
100
AcDb2dVertex
 10
409.213961
 20
468.694044
 30
0.0
  0
VERTEX
  5
191
100
AcDbEntity
  8
0
 62
     7
100
AcDbVertex
100
AcDb2dVertex
 10
409.253838
 20
468.681594
 30
0.0
  0
VERTEX
  5
192
100
AcDbEntity
  8
0
 62
     7
100
AcDbVertex
100
AcDb2dVertex
 10
409.295082
 20
468.670603
 30
0.0
  0
VERTEX
  5
193
100
AcDbEntity
  8
0
 62
     7
100
AcDbVertex
100
AcDb2dVertex
 10
409.336757
 20
468.661378
 30
0.0
  0
VERTEX
  5
194
100
AcDbEntity
  8
0
 62
     7
100
AcDbVertex
100
AcDb2dVertex
 10
409.379098
 20
468.65389
 30
0.0
  0
VERTEX
  5
195
100
AcDbEntity
  8
0
 62
     7
100
AcDbVertex
100
AcDb2dVertex
 10
409.421721
 20
468.648226
 30
0.0
  0
VERTEX
  5
196
100
AcDbEntity
  8
0
 62
     7
100
AcDbVertex
100
AcDb2dVertex
 10
409.463036
 20
468.644501
 30
0.0
  0
VERTEX
  5
197
100
AcDbEntity
  8
0
 62
     7
100
AcDbVertex
100
AcDb2dVertex
 10
409.50447
 20
468.64249
 30
0.0
  0
VERTEX
  5
198
100
AcDbEntity
  8
0
 62
     7
100
AcDbVertex
100
AcDb2dVertex
 10
409.546676
 20
468.642211
 30
0.0
  0
VERTEX
  5
199
100
AcDbEntity
  8
0
 62
     7
100
AcDbVertex
100
AcDb2dVertex
 10
409.588893
 20
468.643712
 30
0.0
  0
VERTEX
  5
19A
100
AcDbEntity
  8
0
 62
     7
100
AcDbVertex
100
AcDb2dVertex
 10
409.63101
 20
468.646986
 30
0.0
  0
VERTEX
  5
19B
100
AcDbEntity
  8
0
 62
     7
100
AcDbVertex
100
AcDb2dVertex
 10
409.672915
 20
468.652029
 30
0.0
  0
VERTEX
  5
19C
100
AcDbEntity
  8
0
 62
     7
100
AcDbVertex
100
AcDb2dVertex
 10
409.715343
 20
468.658981
 30
0.0
  0
VERTEX
  5
19D
100
AcDbEntity
  8
0
 62
     7
100
AcDbVertex
100
AcDb2dVertex
 10
409.757434
 20
468.667748
 30
0.0
  0
VERTEX
  5
19E
100
AcDbEntity
  8
0
 62
     7
100
AcDbVertex
100
AcDb2dVertex
 10
409.797642
 20
468.677909
 30
0.0
  0
VERTEX
  5
19F
100
AcDbEntity
  8
0
 62
     7
100
AcDbVertex
100
AcDb2dVertex
 10
409.837394
 20
468.689727
 30
0.0
  0
VERTEX
  5
1A0
100
AcDbEntity
  8
0
 62
     7
100
AcDbVertex
100
AcDb2dVertex
 10
409.877301
 20
468.703435
 30
0.0
  0
VERTEX
  5
1A1
100
AcDbEntity
  8
0
 62
     7
100
AcDbVertex
100
AcDb2dVertex
 10
409.91663
 20
468.718826
 30
0.0
  0
VERTEX
  5
1A2
100
AcDbEntity
  8
0
 62
     7
100
AcDbVertex
100
AcDb2dVertex
 10
409.955277
 20
468.735858
 30
0.0
  0
VERTEX
  5
1A3
100
AcDbEntity
  8
0
 62
     7
100
AcDbVertex
100
AcDb2dVertex
 10
409.993137
 20
468.754487
 30
0.0
  0
VERTEX
  5
1A4
100
AcDbEntity
  8
0
 62
     7
100
AcDbVertex
100
AcDb2dVertex
 10
410.030861
 20
468.775091
 30
0.0
  0
VERTEX
  5
1A5
100
AcDbEntity
  8
0
 62
     7
100
AcDbVertex
100
AcDb2dVertex
 10
410.067665
 20
468.797296
 30
0.0
  0
VERTEX
  5
1A6
100
AcDbEntity
  8
0
 62
     7
100
AcDbVertex
100
AcDb2dVertex
 10
410.090631
 20
468.81228
 30
0.0
  0
VERTEX
  5
1A7
100
AcDbEntity
  8
0
 62
     7
100
AcDbVertex
100
AcDb2dVertex
 10
410.113179
 20
468.827888
 30
0.0
  0
VERTEX
  5
1A8
100
AcDbEntity
  8
0
 62
     7
100
AcDbVertex
100
AcDb2dVertex
 10
410.142778
 20
468.849817
 30
0.0
  0
VERTEX
  5
1A9
100
AcDbEntity
  8
0
 62
     7
100
AcDbVertex
100
AcDb2dVertex
 10
410.17156
 20
468.872828
 30
0.0
  0
VERTEX
  5
1AA
100
AcDbEntity
  8
0
 62
     7
100
AcDbVertex
100
AcDb2dVertex
 10
410.199466
 20
468.896875
 30
0.0
  0
VERTEX
  5
1AB
100
AcDbEntity
  8
0
 62
     7
100
AcDbVertex
100
AcDb2dVertex
 10
410.219961
 20
468.915725
 30
0.0
  0
VERTEX
  5
1AC
100
AcDbEntity
  8
0
 62
     7
100
AcDbVertex
100
AcDb2dVertex
 10
410.239922
 20
468.935139
 30
0.0
  0
SEQEND
  5
1AD
100
AcDbEntity
  8
0
  0
LINE
  5
1AE
100
AcDbEntity
  8
0
  6
CONTINUOUS
 62
     7
100
AcDbLine
 10
380.738165
 20
561.761835
 30
0.0
 11
448.761777
 21
561.761835
 31
0.0
  0
ARC
  5
1AF
100
AcDbEntity
  8
0
  6
CONTINUOUS
 62
     7
100
AcDbCircle
 10
448.761777
 20
516.261777
 30
0.0
 40
45.500057
210
0.0
220
0.0
230
1.0
100
AcDbArc
 50
360.0
 51
90.0
  0
LINE
  5
1B0
100
AcDbEntity
  8
0
  6
CONTINUOUS
 62
     7
100
AcDbLine
 10
494.261835
 20
516.261777
 30
0.0
 11
494.261835
 21
448.238165
 31
0.0
  0
LINE
  5
1B1
100
AcDbEntity
  8
0
  6
CONTINUOUS
 62
     7
100
AcDbLine
 10
494.261835
 20
448.238165
 30
0.0
 11
492.761777
 21
448.238165
 31
0.0
  0
LINE
  5
1B2
100
AcDbEntity
  8
0
  6
CONTINUOUS
 62
     7
100
AcDbLine
 10
492.761777
 20
448.238165
 30
0.0
 11
492.761777
 21
463.238165
 31
0.0
  0
LINE
  5
1B3
100
AcDbEntity
  8
0
  6
CONTINUOUS
 62
     7
100
AcDbLine
 10
492.261758
 20
463.238165
 30
0.0
 11
492.761777
 21
463.238165
 31
0.0
  0
LINE
  5
1B4
100
AcDbEntity
  8
0
  6
CONTINUOUS
 62
     7
100
AcDbLine
 10
492.261758
 20
516.261777
 30
0.0
 11
492.261758
 21
463.238165
 31
0.0
  0
ARC
  5
1B5
100
AcDbEntity
  8
0
  6
CONTINUOUS
 62
     7
100
AcDbCircle
 10
448.761777
 20
516.261777
 30
0.0
 40
43.499981
210
0.0
220
0.0
230
1.0
100
AcDbArc
 50
360.0
 51
90.0
  0
LINE
  5
1B6
100
AcDbEntity
  8
0
  6
CONTINUOUS
 62
     7
100
AcDbLine
 10
395.738165
 20
559.761758
 30
0.0
 11
448.761777
 21
559.761758
 31
0.0
  0
LINE
  5
1B7
100
AcDbEntity
  8
0
  6
CONTINUOUS
 62
     7
100
AcDbLine
 10
395.738165
 20
559.761758
 30
0.0
 11
395.738165
 21
560.261777
 31
0.0
  0
LINE
  5
1B8
100
AcDbEntity
  8
0
  6
CONTINUOUS
 62
     7
100
AcDbLine
 10
380.738165
 20
560.261777
 30
0.0
 11
395.738165
 21
560.261777
 31
0.0
  0
LINE
  5
1B9
100
AcDbEntity
  8
0
  6
CONTINUOUS
 62
     7
100
AcDbLine
 10
380.738165
 20
561.761835
 30
0.0
 11
380.738165
 21
560.261777
 31
0.0
  0
ARC
  5
1BA
100
AcDbEntity
  8
0
  6
CONTINUOUS
 62
     7
100
AcDbCircle
 10
393.714553
 20
461.214553
 30
0.0
 40
15.500019
210
0.0
220
0.0
230
1.0
100
AcDbArc
 50
7.501691
 51
82.498309
  0
LINE
  5
1BB
100
AcDbEntity
  8
0
  6
CONTINUOUS
 62
     7
100
AcDbLine
 10
409.081908
 20
463.238165
 30
0.0
 11
408.714553
 21
463.238165
 31
0.0
  0
LINE
  5
1BC
100
AcDbEntity
  8
0
  6
CONTINUOUS
 62
     7
100
AcDbLine
 10
408.714553
 20
448.238165
 30
0.0
 11
408.714553
 21
463.238165
 31
0.0
  0
LINE
  5
1BD
100
AcDbEntity
  8
0
  6
CONTINUOUS
 62
     7
100
AcDbLine
 10
407.214496
 20
448.238165
 30
0.0
 11
408.714553
 21
448.238165
 31
0.0
  0
LINE
  5
1BE
100
AcDbEntity
  8
0
  6
CONTINUOUS
 62
     7
100
AcDbLine
 10
407.214496
 20
461.214553
 30
0.0
 11
407.214496
 21
448.238165
 31
0.0
  0
ARC
  5
1BF
100
AcDbEntity
  8
0
  6
CONTINUOUS
 62
     7
100
AcDbCircle
 10
393.714553
 20
461.214553
 30
0.0
 40
13.499943
210
0.0
220
0.0
230
1.0
100
AcDbArc
 50
360.0
 51
90.0
  0
LINE
  5
1C0
100
AcDbEntity
  8
0
  6
CONTINUOUS
 62
     7
100
AcDbLine
 10
380.738165
 20
474.714496
 30
0.0
 11
393.714553
 21
474.714496
 31
0.0
  0
LINE
  5
1C1
100
AcDbEntity
  8
0
  6
CONTINUOUS
 62
     7
100
AcDbLine
 10
380.738165
 20
474.714496
 30
0.0
 11
380.738165
 21
476.214553
 31
0.0
  0
LINE
  5
1C2
100
AcDbEntity
  8
0
  6
CONTINUOUS
 62
     7
100
AcDbLine
 10
380.738165
 20
476.214553
 30
0.0
 11
395.738165
 21
476.214553
 31
0.0
  0
LINE
  5
1C3
100
AcDbEntity
  8
0
  6
CONTINUOUS
 62
     7
100
AcDbLine
 10
395.738165
 20
476.581908
 30
0.0
 11
395.738165
 21
476.214553
 31
0.0
  0
LINE
  5
1C4
100
AcDbEntity
  8
0
  6
CONTINUOUS
 62
     7
100
AcDbLine
 10
380.738165
 20
560.261777
 30
0.0
 11
380.738165
 21
559.801759
 31
0.0
  0
LINE
  5
1C5
100
AcDbEntity
  8
0
  6
CONTINUOUS
 62
     7
100
AcDbLine
 10
395.738165
 20
559.301778
 30
0.0
 11
395.738165
 21
559.761758
 31
0.0
  0
LINE
  5
1C6
100
AcDbEntity
  8
0
  6
CONTINUOUS
 62
     7
100
AcDbLine
 10
380.738165
 20
476.214553
 30
0.0
 11
380.738165
 21
476.674572
 31
0.0
  0
ARC
  5
1C7
100
AcDbEntity
  8
0
  6
CONTINUOUS
 62
     7
100
AcDbCircle
 10
393.714553
 20
461.214553
 30
0.0
 40
15.683283
210
0.0
220
0.0
230
1.0
100
AcDbArc
 50
57.146681
 51
59.776467
  0
ARC
  5
1C8
100
AcDbEntity
  8
0
  6
CONTINUOUS
 62
     7
100
AcDbCircle
 10
393.714553
 20
461.214553
 30
0.0
 40
15.700737
210
0.0
220
0.0
230
1.0
100
AcDbArc
 50
32.867028
 51
57.132972
  0
ARC
  5
1C9
100
AcDbEntity
  8
0
  6
CONTINUOUS
 62
     7
100
AcDbCircle
 10
393.714553
 20
461.214553
 30
0.0
 40
15.683283
210
0.0
220
0.0
230
1.0
100
AcDbArc
 50
30.223533
 51
32.853319
  0
LINE
  5
1CA
100
AcDbEntity
  8
0
  6
CONTINUOUS
 62
     7
100
AcDbLine
 10
408.626027
 20
465.872979
 30
0.0
 11
408.453136
 21
466.407194
 31
0.0
  0
ARC
  5
1CB
100
AcDbEntity
  8
0
  6
CONTINUOUS
 62
     7
100
AcDbCircle
 10
393.714553
 20
461.214553
 30
0.0
 40
15.622195
210
0.0
220
0.0
230
1.0
100
AcDbArc
 50
15.258411
 51
17.349089
  0
LINE
  5
1CC
100
AcDbEntity
  8
0
  6
CONTINUOUS
 62
     7
100
AcDbLine
 10
409.081908
 20
463.238165
 30
0.0
 11
409.545743
 21
463.238165
 31
0.0
  0
ARC
  5
1CD
100
AcDbEntity
  8
0
  6
CONTINUOUS
 62
     7
100
AcDbCircle
 10
393.714553
 20
461.214553
 30
0.0
 40
15.622195
210
0.0
220
0.0
230
1.0
100
AcDbArc
 50
72.650911
 51
74.741589
  0
LINE
  5
1CE
100
AcDbEntity
  8
0
  6
CONTINUOUS
 62
     7
100
AcDbLine
 10
398.907194
 20
475.953136
 30
0.0
 11
398.372979
 21
476.126027
 31
0.0
  0
LINE
  5
1CF
100
AcDbEntity
  8
0
  6
CONTINUOUS
 62
     7
100
AcDbLine
 10
395.738165
 20
476.581908
 30
0.0
 11
395.738165
 21
477.045743
 31
0.0
  0
LINE
  5
1D0
100
AcDbEntity
  8
0
  6
CONTINUOUS
 62
     7
100
AcDbLine
 10
408.714553
 20
448.238165
 30
0.0
 11
409.174572
 21
448.238165
 31
0.0
  0
LINE
  5
1D1
100
AcDbEntity
  8
0
  6
CONTINUOUS
 62
     7
100
AcDbLine
 10
491.801778
 20
463.238165
 30
0.0
 11
492.261758
 21
463.238165
 31
0.0
  0
LINE
  5
1D2
100
AcDbEntity
  8
0
  6
CONTINUOUS
 62
     7
100
AcDbLine
 10
492.761777
 20
448.238165
 30
0.0
 11
492.301759
 21
448.238165
 31
0.0
  0
LINE
  5
1D3
100
AcDbEntity
  8
0
  6
CONTINUOUS
 62
     7
100
AcDbLine
 10
408.453136
 20
466.407194
 30
0.0
 11
409.377637
 21
467.331696
 31
0.0
  0
LINE
  5
1D4
100
AcDbEntity
  8
0
  6
CONTINUOUS
 62
     7
100
AcDbLine
 10
398.907194
 20
475.953136
 30
0.0
 11
399.831696
 21
476.877637
 31
0.0
  0
LINE
  5
1D5
100
AcDbEntity
  8
0
  6
CONTINUOUS
 62
     7
100
AcDbLine
 10
399.332665
 20
477.79282
 30
0.0
 11
399.124589
 21
477.584744
 31
0.0
  0
LINE
  5
1D6
100
AcDbEntity
  8
0
  6
CONTINUOUS
 62
     7
100
AcDbLine
 10
410.29282
 20
466.832665
 30
0.0
 11
410.084744
 21
466.624589
 31
0.0
  0
LINE
  5
1D7
100
AcDbEntity
  8
0
  6
CONTINUOUS
 62
     7
100
AcDbLine
 10
397.825891
 20
476.286046
 30
0.0
 11
399.124589
 21
477.584744
 31
0.0
  0
LINE
  5
1D8
100
AcDbEntity
  8
0
  6
CONTINUOUS
 62
     7
100
AcDbLine
 10
408.786046
 20
465.325891
 30
0.0
 11
410.084744
 21
466.624589
 31
0.0
  0
LINE
  5
1D9
100
AcDbEntity
  8
0
  6
CONTINUOUS
 62
     7
100
AcDbLine
 10
399.831696
 20
476.877637
 30
0.0
 11
401.5884
 21
478.634341
 31
0.0
  0
LINE
  5
1DA
100
AcDbEntity
  8
0
  6
CONTINUOUS
 62
     7
100
AcDbLine
 10
409.377637
 20
467.331696
 30
0.0
 11
411.134341
 21
469.0884
 31
0.0
  0
LINE
  5
1DB
100
AcDbEntity
  8
0
  6
CONTINUOUS
 62
     7
100
AcDbLine
 10
401.089369
 20
479.549524
 30
0.0
 11
399.332665
 21
477.79282
 31
0.0
  0
LINE
  5
1DC
100
AcDbEntity
  8
0
  6
CONTINUOUS
 62
     7
100
AcDbLine
 10
412.049524
 20
468.589369
 30
0.0
 11
410.29282
 21
466.832665
 31
0.0
  0
LINE
  5
1DD
100
AcDbEntity
  8
0
  6
CONTINUOUS
 62
     7
100
AcDbLine
 10
402.004552
 20
479.050493
 30
0.0
 11
401.5884
 21
478.634341
 31
0.0
  0
LINE
  5
1DE
100
AcDbEntity
  8
0
  6
CONTINUOUS
 62
     7
100
AcDbLine
 10
401.089369
 20
479.549524
 30
0.0
 11
401.297445
 21
479.7576
 31
0.0
  0
LINE
  5
1DF
100
AcDbEntity
  8
0
  6
CONTINUOUS
 62
     7
100
AcDbLine
 10
411.550493
 20
469.504552
 30
0.0
 11
411.134341
 21
469.0884
 31
0.0
  0
LINE
  5
1E0
100
AcDbEntity
  8
0
  6
CONTINUOUS
 62
     7
100
AcDbLine
 10
412.049524
 20
468.589369
 30
0.0
 11
412.2576
 21
468.797445
 31
0.0
  0
LINE
  5
1E1
100
AcDbEntity
  8
0
  6
CONTINUOUS
 62
     7
100
AcDbLine
 10
401.443767
 20
479.903922
 30
0.0
 11
401.297445
 21
479.7576
 31
0.0
  0
LINE
  5
1E2
100
AcDbEntity
  8
0
  6
CONTINUOUS
 62
     7
100
AcDbLine
 10
402.004552
 20
479.050493
 30
0.0
 11
402.20171
 21
479.247651
 31
0.0
  0
LINE
  5
1E3
100
AcDbEntity
  8
0
  6
CONTINUOUS
 62
     7
100
AcDbLine
 10
411.550493
 20
469.504552
 30
0.0
 11
411.747651
 21
469.70171
 31
0.0
  0
LINE
  5
1E4
100
AcDbEntity
  8
0
  6
CONTINUOUS
 62
     7
100
AcDbLine
 10
412.403922
 20
468.943767
 30
0.0
 11
412.2576
 21
468.797445
 31
0.0
  0
LINE
  5
1E5
100
AcDbEntity
  8
0
  6
CONTINUOUS
 62
     7
100
AcDbLine
 10
401.947798
 20
475.104652
 30
0.0
 11
401.609124
 21
474.765979
 31
0.0
  0
LINE
  5
1E6
100
AcDbEntity
  8
0
  6
CONTINUOUS
 62
     7
100
AcDbLine
 10
407.265979
 20
469.109124
 30
0.0
 11
407.604652
 21
469.447798
 31
0.0
  0
LINE
  5
1E7
100
AcDbEntity
  8
0
  6
CONTINUOUS
 62
     7
100
AcDbLine
 10
409.372419
 20
471.215564
 30
0.0
 11
403.715564
 21
476.872419
 31
0.0
  0
LINE
  5
1E8
100
AcDbEntity
  8
0
  6
CONTINUOUS
 62
     7
100
AcDbLine
 10
409.372419
 20
471.215564
 30
0.0
 11
407.604652
 21
469.447798
 31
0.0
  0
LINE
  5
1E9
100
AcDbEntity
  8
0
  6
CONTINUOUS
 62
     7
100
AcDbLine
 10
401.947798
 20
475.104652
 30
0.0
 11
403.715564
 21
476.872419
 31
0.0
  0
LINE
  5
1EA
100
AcDbEntity
  8
0
  6
CONTINUOUS
 62
     7
100
AcDbLine
 10
400.659129
 20
479.122419
 30
0.0
 11
401.28214
 21
479.744751
 31
0.0
  0
LINE
  5
1EB
100
AcDbEntity
  8
0
  6
CONTINUOUS
 62
     7
100
AcDbLine
 10
401.28214
 20
479.744751
 30
0.0
 11
401.438332
 21
479.899551
 31
0.0
  0
LINE
  5
1EC
100
AcDbEntity
  8
0
  6
CONTINUOUS
 62
     7
100
AcDbLine
 10
412.400362
 20
468.939151
 30
0.0
 11
412.246717
 21
468.78412
 31
0.0
  0
LINE
  5
1ED
100
AcDbEntity
  8
0
  6
CONTINUOUS
 62
     7
100
AcDbLine
 10
412.246717
 20
468.78412
 30
0.0
 11
411.623377
 21
468.160084
 31
0.0
  0
LINE
  5
1EE
100
AcDbEntity
  8
0
  6
CONTINUOUS
 62
     7
100
AcDbLine
 10
411.107948
 20
469.064092
 30
0.0
 11
411.163856
 21
469.12008
 31
0.0
  0
LINE
  5
1EF
100
AcDbEntity
  8
0
  6
CONTINUOUS
 62
     7
100
AcDbLine
 10
410.710291
 20
468.664283
 30
0.0
 11
411.107948
 21
469.064092
 31
0.0
  0
LINE
  5
1F0
100
AcDbEntity
  8
0
  6
CONTINUOUS
 62
     7
100
AcDbLine
 10
410.516492
 20
468.470802
 30
0.0
 11
410.520406
 21
468.474722
 31
0.0
  0
LINE
  5
1F1
100
AcDbEntity
  8
0
  6
CONTINUOUS
 62
     7
100
AcDbLine
 10
411.063
 20
469.017142
 30
0.0
 11
411.10783
 21
469.061886
 31
0.0
  0
LINE
  5
1F2
100
AcDbEntity
  8
0
  6
CONTINUOUS
 62
     7
100
AcDbLine
 10
411.45304
 20
469.407087
 30
0.0
 11
411.746259
 21
469.700726
 31
0.0
  0
LINE
  5
1F3
100
AcDbEntity
  8
0
  6
CONTINUOUS
 62
     7
100
AcDbLine
 10
400.970802
 20
478.016492
 30
0.0
 11
400.974722
 21
478.020406
 31
0.0
  0
LINE
  5
1F4
100
AcDbEntity
  8
0
  6
CONTINUOUS
 62
     7
100
AcDbLine
 10
401.517142
 20
478.563
 30
0.0
 11
401.561886
 21
478.60783
 31
0.0
  0
LINE
  5
1F5
100
AcDbEntity
  8
0
  6
CONTINUOUS
 62
     7
100
AcDbLine
 10
401.907087
 20
478.95304
 30
0.0
 11
402.200726
 21
479.246259
 31
0.0
  0
LINE
  5
1F6
100
AcDbEntity
  8
0
  6
CONTINUOUS
 62
     7
100
AcDbLine
 10
401.56409
 20
478.607946
 30
0.0
 11
401.192165
 21
478.23809
 31
0.0
  0
LINE
  5
1F7
100
AcDbEntity
  8
0
  6
CONTINUOUS
 62
     7
100
AcDbLine
 10
414.255402
 20
463.238165
 30
0.0
 11
409.545743
 21
463.238165
 31
0.0
  0
LINE
  5
1F8
100
AcDbEntity
  8
0
  6
CONTINUOUS
 62
     7
100
AcDbLine
 10
395.738165
 20
477.045743
 30
0.0
 11
395.738165
 21
481.755402
 31
0.0
  0
LINE
  5
1F9
100
AcDbEntity
  8
0
  6
CONTINUOUS
 62
     7
100
AcDbLine
 10
395.738165
 20
559.301778
 30
0.0
 11
395.738165
 21
555.738165
 31
0.0
  0
LINE
  5
1FA
100
AcDbEntity
  8
0
  6
CONTINUOUS
 62
     7
100
AcDbLine
 10
488.238165
 20
463.238165
 30
0.0
 11
491.801778
 21
463.238165
 31
0.0
  0
LINE
  5
1FB
100
AcDbEntity
  8
0
  6
CONTINUOUS
 62
     7
100
AcDbLine
 10
380.738165
 20
559.801759
 30
0.0
 11
380.738165
 21
555.001463
 31
0.0
  0
LINE
  5
1FC
100
AcDbEntity
  8
0
  6
CONTINUOUS
 62
     7
100
AcDbLine
 10
380.738165
 20
481.474868
 30
0.0
 11
380.738165
 21
476.674572
 31
0.0
  0
LINE
  5
1FD
100
AcDbEntity
  8
0
  6
CONTINUOUS
 62
     7
100
AcDbLine
 10
409.174572
 20
448.238165
 30
0.0
 11
413.974868
 21
448.238165
 31
0.0
  0
LINE
  5
1FE
100
AcDbEntity
  8
0
  6
CONTINUOUS
 62
     7
100
AcDbLine
 10
487.501463
 20
448.238165
 30
0.0
 11
492.301759
 21
448.238165
 31
0.0
  0
LINE
  5
1FF
100
AcDbEntity
  8
0
  6
CONTINUOUS
 62
     7
100
AcDbLine
 10
414.255402
 20
463.238165
 30
0.0
 11
419.688746
 21
463.238165
 31
0.0
  0
LINE
  5
200
100
AcDbEntity
  8
0
  6
CONTINUOUS
 62
     7
100
AcDbLine
 10
395.738165
 20
481.755402
 30
0.0
 11
395.738165
 21
485.29127
 31
0.0
  0
LINE
  5
201
100
AcDbEntity
  8
0
  6
CONTINUOUS
 62
     7
100
AcDbLine
 10
395.738165
 20
485.29127
 30
0.0
 11
395.738165
 21
487.188746
 31
0.0
  0
LINE
  5
202
100
AcDbEntity
  8
0
  6
CONTINUOUS
 62
     7
100
AcDbLine
 10
380.738165
 20
547.738165
 30
0.0
 11
395.738165
 21
547.738165
 31
0.0
  0
LINE
  5
203
100
AcDbEntity
  8
0
  6
CONTINUOUS
 62
     7
100
AcDbLine
 10
380.738165
 20
555.001463
 30
0.0
 11
380.738165
 21
547.738165
 31
0.0
  0
LINE
  5
204
100
AcDbEntity
  8
0
  6
CONTINUOUS
 62
     7
100
AcDbLine
 10
380.738165
 20
488.738165
 30
0.0
 11
395.738165
 21
488.738165
 31
0.0
  0
LINE
  5
205
100
AcDbEntity
  8
0
  6
CONTINUOUS
 62
     7
100
AcDbLine
 10
380.738165
 20
481.474868
 30
0.0
 11
380.738165
 21
488.738165
 31
0.0
  0
LINE
  5
206
100
AcDbEntity
  8
0
  6
CONTINUOUS
 62
     7
100
AcDbLine
 10
421.238165
 20
448.238165
 30
0.0
 11
421.238165
 21
463.238165
 31
0.0
  0
LINE
  5
207
100
AcDbEntity
  8
0
  6
CONTINUOUS
 62
     7
100
AcDbLine
 10
413.974868
 20
448.238165
 30
0.0
 11
421.238165
 21
448.238165
 31
0.0
  0
LINE
  5
208
100
AcDbEntity
  8
0
  6
CONTINUOUS
 62
     7
100
AcDbLine
 10
480.238165
 20
448.238165
 30
0.0
 11
480.238165
 21
463.238165
 31
0.0
  0
LINE
  5
209
100
AcDbEntity
  8
0
  6
CONTINUOUS
 62
     7
100
AcDbLine
 10
487.501463
 20
448.238165
 30
0.0
 11
480.238165
 21
448.238165
 31
0.0
  0
LINE
  5
20A
100
AcDbEntity
  8
0
  6
CONTINUOUS
 62
     7
100
AcDbLine
 10
380.738165
 20
509.238165
 30
0.0
 11
380.738165
 21
488.738165
 31
0.0
  0
LINE
  5
20B
100
AcDbEntity
  8
0
  6
CONTINUOUS
 62
     7
100
AcDbLine
 10
380.738165
 20
527.238165
 30
0.0
 11
380.738165
 21
547.738165
 31
0.0
  0
LINE
  5
20C
100
AcDbEntity
  8
0
  6
CONTINUOUS
 62
     7
100
AcDbLine
 10
441.738165
 20
448.238165
 30
0.0
 11
421.238165
 21
448.238165
 31
0.0
  0
LINE
  5
20D
100
AcDbEntity
  8
0
  6
CONTINUOUS
 62
     7
100
AcDbLine
 10
459.738165
 20
448.238165
 30
0.0
 11
480.238165
 21
448.238165
 31
0.0
  0
LINE
  5
20E
100
AcDbEntity
  8
0
  6
CONTINUOUS
 62
     7
100
AcDbLine
 10
380.738165
 20
522.738165
 30
0.0
 11
380.738165
 21
513.738165
 31
0.0
  0
LINE
  5
20F
100
AcDbEntity
  8
0
  6
CONTINUOUS
 62
     7
100
AcDbLine
 10
446.238165
 20
448.238165
 30
0.0
 11
455.238165
 21
448.238165
 31
0.0
  0
LINE
  5
210
100
AcDbEntity
  8
0
  6
CONTINUOUS
 62
     7
100
AcDbLine
 10
410.531759
 20
468.486074
 30
0.0
 11
410.364409
 21
468.318732
 31
0.0
  0
LINE
  5
211
100
AcDbEntity
  8
0
  6
CONTINUOUS
 62
     7
100
AcDbLine
 10
410.364409
 20
468.318732
 30
0.0
 11
408.795404
 21
466.749781
 31
0.0
  0
LINE
  5
212
100
AcDbEntity
  8
0
  6
CONTINUOUS
 62
     7
100
AcDbLine
 10
411.792654
 20
469.748736
 30
0.0
 11
411.76986
 21
469.725944
 31
0.0
  0
LINE
  5
213
100
AcDbEntity
  8
0
  6
CONTINUOUS
 62
     7
100
AcDbLine
 10
411.76986
 20
469.725944
 30
0.0
 11
411.746729
 21
469.702815
 31
0.0
  0
LINE
  5
214
100
AcDbEntity
  8
0
  6
CONTINUOUS
 62
     7
100
AcDbLine
 10
411.746729
 20
469.702815
 30
0.0
 11
411.148609
 21
469.10475
 31
0.0
  0
LINE
  5
215
100
AcDbEntity
  8
0
  6
CONTINUOUS
 62
     7
100
AcDbLine
 10
411.148609
 20
469.10475
 30
0.0
 11
411.109216
 21
469.06536
 31
0.0
  0
LINE
  5
216
100
AcDbEntity
  8
0
  6
CONTINUOUS
 62
     7
100
AcDbLine
 10
399.249008
 20
476.29463
 30
0.0
 11
400.812887
 21
477.858563
 31
0.0
  0
LINE
  5
217
100
AcDbEntity
  8
0
  6
CONTINUOUS
 62
     7
100
AcDbLine
 10
400.812887
 20
477.858563
 30
0.0
 11
400.986074
 21
478.031759
 31
0.0
  0
LINE
  5
218
100
AcDbEntity
  8
0
  6
CONTINUOUS
 62
     7
100
AcDbLine
 10
401.564802
 20
478.608658
 30
0.0
 11
401.60475
 21
478.648609
 31
0.0
  0
LINE
  5
219
100
AcDbEntity
  8
0
  6
CONTINUOUS
 62
     7
100
AcDbLine
 10
401.60475
 20
478.648609
 30
0.0
 11
402.202815
 21
479.246729
 31
0.0
  0
LINE
  5
21A
100
AcDbEntity
  8
0
  6
CONTINUOUS
 62
     7
100
AcDbLine
 10
402.202815
 20
479.246729
 30
0.0
 11
402.225944
 21
479.26986
 31
0.0
  0
LINE
  5
21B
100
AcDbEntity
  8
0
  6
CONTINUOUS
 62
     7
100
AcDbLine
 10
402.225944
 20
479.26986
 30
0.0
 11
402.248736
 21
479.292654
 31
0.0
  0
LINE
  5
21C
100
AcDbEntity
  8
0
  6
CONTINUOUS
 62
     7
100
AcDbLine
 10
401.33873
 20
476.436324
 30
0.0
 11
401.435463
 21
476.324093
 31
0.0
  0
LINE
  5
21D
100
AcDbEntity
  8
0
  6
CONTINUOUS
 62
     7
100
AcDbLine
 10
401.285455
 20
476.51598
 30
0.0
 11
401.338825
 21
476.436394
 31
0.0
  0
LINE
  5
21E
100
AcDbEntity
  8
0
  6
CONTINUOUS
 62
     7
100
AcDbLine
 10
411.746259
 20
469.700726
 30
0.0
 11
411.793265
 21
469.747717
 31
0.0
  0
LINE
  5
21F
100
AcDbEntity
  8
0
  6
CONTINUOUS
 62
     7
100
AcDbLine
 10
402.200726
 20
479.246259
 30
0.0
 11
402.247717
 21
479.293265
 31
0.0
  0
MTEXT
  5
221
100
AcDbEntity
  8
0
 62
     7
100
AcDbMText
 10
512.317
 20
440.0
 30
0.0
 40
3.0
 41
20.345455
 71
     7
 72
     1
  1
RDM-80
  7
TOPSTYLE2
210
0.0
220
0.0
230
1.0
  0
ENDSEC
  0
SECTION
  2
OBJECTS
  0
DICTIONARY
  5
19
100
AcDbDictionary
  3
ACAD_GROUP
350
1A
  3
ACAD_MLINESTYLE
350
1B
  0
DICTIONARY
  5
1A
102
{ACAD_REACTORS
330
19
102
}
100
AcDbDictionary
  0
DICTIONARY
  5
1B
102
{ACAD_REACTORS
330
19
102
}
100
AcDbDictionary
  3
STANDARD
350
1C
  0
MLINESTYLE
  5
1C
102
{ACAD_REACTORS
330
1B
102
}
100
AcDbMlineStyle
  2
STANDARD
 70
     0
  3

 62
     0
 51
90.0
 52
90.0
 71
     2
 49
0.5
 62
   256
  6
BYLAYER
 49
-0.5
 62
   256
  6
BYLAYER
  0
ENDSEC
  0
EOF
