  0
SECTION
  2
HEADER
  9
$ACADVER
  1
AC1006
  9
$DWGCODEPAGE
  3
ansi_932
  9
$INSBASE
 10
0.0
 20
0.0
 30
0.0
  9
$EXTMIN
 10
358.2539328177846
 20
215.0
  9
$EXTMAX
 10
470.0000000000044
 20
330.7879476527277
  9
$LIMMIN
 10
0.0
 20
0.0
  9
$LIMMAX
 10
12.0
 20
9.0
  9
$ORTHOMODE
 70
     0
  9
$REGENMODE
 70
     1
  9
$FILLMODE
 70
     1
  9
$QTEXTMODE
 70
     0
  9
$MIRRTEXT
 70
     1
  9
$DRAGMODE
 70
     2
  9
$LTSCALE
 40
1.0
  9
$OSMODE
 70
    37
  9
$ATTMODE
 70
     1
  9
$TEXTSIZE
 40
0.2
  9
$TRACEWID
 40
0.05
  9
$TEXTSTYLE
  7
STANDARD
  9
$CLAYER
  8
0
  9
$CELTYPE
  6
BYLAYER
  9
$CECOLOR
 62
   256
  9
$DIMSCALE
 40
1.0
  9
$DIMASZ
 40
3.0
  9
$DIMEXO
 40
0.0625
  9
$DIMDLI
 40
0.38
  9
$DIMRND
 40
0.0
  9
$DIMDLE
 40
0.0
  9
$DIMEXE
 40
1.5
  9
$DIMTP
 40
0.0
  9
$DIMTM
 40
0.0
  9
$DIMTXT
 40
3.0
  9
$DIMCEN
 40
0.09
  9
$DIMTSZ
 40
0.0
  9
$DIMTOL
 70
     0
  9
$DIMLIM
 70
     0
  9
$DIMTIH
 70
     1
  9
$DIMTOH
 70
     1
  9
$DIMSE1
 70
     0
  9
$DIMSE2
 70
     0
  9
$DIMTAD
 70
     1
  9
$DIMZIN
 70
     0
  9
$DIMBLK
  1

  9
$DIMASO
 70
     1
  9
$DIMSHO
 70
     1
  9
$DIMPOST
  1

  9
$DIMAPOST
  1

  9
$DIMALT
 70
     0
  9
$DIMALTD
 70
     2
  9
$DIMALTF
 40
25.4
  9
$DIMLFAC
 40
1.0
  9
$DIMTOFL
 70
     0
  9
$DIMTVP
 40
0.0
  9
$DIMTIX
 70
     0
  9
$DIMSOXD
 70
     0
  9
$DIMSAH
 70
     0
  9
$DIMBLK1
  1

  9
$DIMBLK2
  1

  9
$LUNITS
 70
     2
  9
$LUPREC
 70
     4
  9
$SKETCHINC
 40
0.1
  9
$FILLETRAD
 40
0.5
  9
$AUNITS
 70
     0
  9
$AUPREC
 70
     0
  9
$MENU
  1
.
  9
$ELEVATION
 40
0.0
  9
$THICKNESS
 40
0.0
  9
$LIMCHECK
 70
     0
  9
$CHAMFERA
 40
0.0
  9
$CHAMFERB
 40
0.0
  9
$SKPOLY
 70
     0
  9
$TDCREATE
 40
2460262.671419166
  9
$TDUPDATE
 40
2460262.671419282
  9
$TDINDWG
 40
0.0000000116
  9
$TDUSRTIMER
 40
0.0000000116
  9
$USRTIMER
 70
     1
  9
$ANGBASE
 50
0.0
  9
$ANGDIR
 70
     0
  9
$PDMODE
 70
     0
  9
$PDSIZE
 40
0.0
  9
$PLINEWID
 40
0.0
  9
$COORDS
 70
     1
  9
$SPLFRAME
 70
     0
  9
$SPLINETYPE
 70
     6
  9
$SPLINESEGS
 70
     8
  9
$ATTDIA
 70
     0
  9
$ATTREQ
 70
     1
  9
$HANDLING
 70
     1
  9
$HANDSEED
  5
381
  9
$SURFTAB1
 70
     6
  9
$SURFTAB2
 70
     6
  9
$SURFTYPE
 70
     6
  9
$SURFU
 70
     6
  9
$SURFV
 70
     6
  9
$UCSNAME
  2

  9
$UCSORG
 10
0.0
 20
0.0
 30
0.0
  9
$UCSXDIR
 10
1.0
 20
0.0
 30
0.0
  9
$UCSYDIR
 10
0.0
 20
1.0
 30
0.0
  9
$USERI1
 70
     0
  9
$USERI2
 70
     0
  9
$USERI3
 70
     0
  9
$USERI4
 70
     0
  9
$USERI5
 70
     0
  9
$USERR1
 40
0.0
  9
$USERR2
 40
0.0
  9
$USERR3
 40
0.0
  9
$USERR4
 40
0.0
  9
$USERR5
 40
0.0
  9
$WORLDVIEW
 70
     1
  0
ENDSEC
  0
SECTION
  2
TABLES
  0
TABLE
  2
VPORT
 70
     1
  0
VPORT
  2
*ACTIVE
 70
     0
 10
0.0
 20
0.0
 11
1.0
 21
1.0
 12
414.1269664088945
 22
272.8939738263638
 13
0.0
 23
0.0
 14
0.5
 24
0.5
 15
0.5
 25
0.5
 16
0.0
 26
0.0
 36
1.0
 17
0.0
 27
0.0
 37
0.0
 40
115.7879476527277
 41
1.6
 42
50.0
 43
0.0
 44
0.0
 50
0.0
 51
0.0
 71
     0
 72
   100
 73
     1
 74
     3
 75
     0
 76
     0
 77
     0
 78
     0
  0
ENDTAB
  0
TABLE
  2
LTYPE
 70
     2
  0
LTYPE
  2
CONTINUOUS
 70
     0
  3
Solid line
 72
    65
 73
     0
 40
0.0
  0
LTYPE
  2
CENTER
 70
     0
  3

 72
    65
 73
     0
 40
0.0
  0
ENDTAB
  0
TABLE
  2
LAYER
 70
     1
  0
LAYER
  2
0
 70
     0
 62
     7
  6
CONTINUOUS
  0
ENDTAB
  0
TABLE
  2
STYLE
 70
     2
  0
STYLE
  2
STANDARD
 70
     0
 40
0.0
 41
1.0
 50
0.0
 71
     0
 42
0.2
  3
txt
  4

  0
STYLE
  2
ＭＳ_ゴシック
 70
     0
 40
0.0
 41
1.0
 50
0.0
 71
     0
 42
0.2
  3
ＭＳ ゴシック.shx
  4

  0
ENDTAB
  0
TABLE
  2
VIEW
 70
     0
  0
ENDTAB
  0
TABLE
  2
UCS
 70
     0
  0
ENDTAB
  0
ENDSEC
  0
SECTION
  2
BLOCKS
  0
BLOCK
  8
0
  2
D_FRAME_VIEW_1667
 70
     0
 10
0.0
 20
0.0
 30
0.0
  0
LINE
  5
75
  8
0
  6
CONTINUOUS
 62
     7
 10
455.0
 20
327.0023792786406
 30
0.0
 11
455.0
 21
327.6987170035442
 31
0.0
  0
LINE
  5
76
  8
0
  6
CONTINUOUS
 62
     7
 10
470.0
 20
327.0370221139908
 30
0.0
 11
470.0
 21
327.0345258665873
 31
0.0
  0
LINE
  5
77
  8
0
  6
CONTINUOUS
 62
     7
 10
470.0
 20
304.6739557719929
 30
0.0
 11
470.0
 21
326.3191134816302
 31
0.0
  0
LINE
  5
78
  8
0
  6
CONTINUOUS
 62
     7
 10
440.0
 20
304.6739557719928
 30
0.0
 11
440.0
 21
326.4580048080368
 31
0.0
  0
LINE
  5
79
  8
0
  6
CONTINUOUS
 62
     7
 10
455.0
 20
327.6987170035442
 30
0.0
 11
455.0
 21
329.7154040211107
 31
0.0
  0
LINE
  5
7A
  8
0
  6
CONTINUOUS
 62
     7
 10
470.0
 20
329.252338409984
 30
0.0
 11
470.0
 21
327.0370221139908
 31
0.0
  0
LINE
  5
7B
  8
0
  6
CONTINUOUS
 62
     7
 10
470.0000000000044
 20
326.317544401132
 30
0.0
 11
470.0
 21
327.0345258665873
 31
0.0
  0
LINE
  5
7C
  8
0
  6
CONTINUOUS
 62
     7
 10
455.0
 20
326.2103149272663
 30
0.0
 11
455.0
 21
327.0023792786406
 31
0.0
  0
LINE
  5
7D
  8
0
  6
CONTINUOUS
 62
     7
 10
470.0
 20
295.3406224386596
 30
0.0
 11
470.0
 21
304.6739557719929
 31
0.0
  0
LINE
  5
7E
  8
0
  6
CONTINUOUS
 62
     7
 10
440.0
 20
295.3406224386595
 30
0.0
 11
440.0
 21
304.6739557719929
 31
0.0
  0
LINE
  5
7F
  8
0
  6
CONTINUOUS
 62
     7
 10
455.0
 20
326.0510054174873
 30
0.0
 11
455.0
 21
326.2103149272663
 31
0.0
  0
LINE
  5
80
  8
0
  6
CONTINUOUS
 62
     7
 10
458.5
 20
326.1826397530012
 30
0.0
 11
470.0000000000044
 21
326.317544401132
 31
0.0
  0
LINE
  5
81
  8
0
  6
CONTINUOUS
 62
     7
 10
458.5
 20
326.1826397530012
 30
0.0
 11
458.5
 21
326.0815494547549
 31
0.0
  0
LINE
  5
82
  8
0
  6
CONTINUOUS
 62
     7
 10
455.0
 20
329.7154040211107
 30
0.0
 11
455.0
 21
329.9039251784968
 31
0.0
  0
LINE
  5
83
  8
0
  6
CONTINUOUS
 62
     7
 10
455.0
 20
330.7879476527277
 30
0.0
 11
455.0
 21
329.9609173245773
 31
0.0
  0
LINE
  5
84
  8
0
  6
CONTINUOUS
 62
     7
 10
455.0
 20
329.9609173245773
 30
0.0
 11
455.0
 21
329.9104431185244
 31
0.0
  0
LINE
  5
85
  8
0
  6
CONTINUOUS
 62
     7
 10
440.4965792155676
 20
329.9415254846426
 30
0.0
 11
455.0
 21
329.9104431185244
 31
0.0
  0
POLYLINE
  5
86
  8
0
  6
CONTINUOUS
 62
     7
 66
     1
 10
0.0
 20
0.0
 30
0.0
  0
VERTEX
  5
124
  8
0
  6
CONTINUOUS
 62
     7
 10
440.4965792155676
 20
329.9415254846426
 30
0.0
  0
VERTEX
  5
125
  8
0
  6
CONTINUOUS
 62
     7
 10
440.4761090360151
 20
329.9413230393632
 30
0.0
  0
VERTEX
  5
126
  8
0
  6
CONTINUOUS
 62
     7
 10
440.455664253188
 20
329.9406297864618
 30
0.0
  0
VERTEX
  5
127
  8
0
  6
CONTINUOUS
 62
     7
 10
440.4352980956092
 20
329.9394484271958
 30
0.0
  0
VERTEX
  5
128
  8
0
  6
CONTINUOUS
 62
     7
 10
440.4150637918014
 20
329.9377816628231
 30
0.0
  0
VERTEX
  5
129
  8
0
  6
CONTINUOUS
 62
     7
 10
440.3943944943699
 20
329.9355595234579
 30
0.0
  0
VERTEX
  5
12A
  8
0
  6
CONTINUOUS
 62
     7
 10
440.3739024087874
 20
329.932827612709
 30
0.0
  0
VERTEX
  5
12B
  8
0
  6
CONTINUOUS
 62
     7
 10
440.353643222583
 20
329.929594714062
 30
0.0
  0
VERTEX
  5
12C
  8
0
  6
CONTINUOUS
 62
     7
 10
440.3336726232858
 20
329.9258696110028
 30
0.0
  0
VERTEX
  5
12D
  8
0
  6
CONTINUOUS
 62
     7
 10
440.3145652105844
 20
329.9217816685862
 30
0.0
  0
VERTEX
  5
12E
  8
0
  6
CONTINUOUS
 62
     7
 10
440.2957630611198
 20
329.9172373034252
 30
0.0
  0
VERTEX
  5
12F
  8
0
  6
CONTINUOUS
 62
     7
 10
440.2773132903542
 20
329.9122494930153
 30
0.0
  0
VERTEX
  5
130
  8
0
  6
CONTINUOUS
 62
     7
 10
440.2592630137494
 20
329.9068312148516
 30
0.0
  0
VERTEX
  5
131
  8
0
  6
CONTINUOUS
 62
     7
 10
440.2411306130218
 20
329.9008133934162
 30
0.0
  0
VERTEX
  5
132
  8
0
  6
CONTINUOUS
 62
     7
 10
440.2234517152919
 20
329.8943522612313
 30
0.0
  0
VERTEX
  5
133
  8
0
  6
CONTINUOUS
 62
     7
 10
440.2062716655589
 20
329.887466590954
 30
0.0
  0
VERTEX
  5
134
  8
0
  6
CONTINUOUS
 62
     7
 10
440.189635808822
 20
329.880175155241
 30
0.0
  0
VERTEX
  5
135
  8
0
  6
CONTINUOUS
 62
     7
 10
440.1738640727796
 20
329.8726363211772
 30
0.0
  0
VERTEX
  5
136
  8
0
  6
CONTINUOUS
 62
     7
 10
440.1586406004281
 20
329.8647217822374
 30
0.0
  0
VERTEX
  5
137
  8
0
  6
CONTINUOUS
 62
     7
 10
440.144001393497
 20
329.8564528275646
 30
0.0
  0
VERTEX
  5
138
  8
0
  6
CONTINUOUS
 62
     7
 10
440.1299824537158
 20
329.8478507463012
 30
0.0
  0
VERTEX
  5
139
  8
0
  6
CONTINUOUS
 62
     7
 10
440.1162308190435
 20
329.8386685972936
 30
0.0
  0
VERTEX
  5
13A
  8
0
  6
CONTINUOUS
 62
     7
 10
440.1031552690458
 20
329.8291520414581
 30
0.0
  0
VERTEX
  5
13B
  8
0
  6
CONTINUOUS
 62
     7
 10
440.0907867346594
 20
329.8193271231
 30
0.0
  0
VERTEX
  5
13C
  8
0
  6
CONTINUOUS
 62
     7
 10
440.0791561468206
 20
329.8092198865249
 30
0.0
  0
VERTEX
  5
13D
  8
0
  6
CONTINUOUS
 62
     7
 10
440.0683566284076
 20
329.798922282824
 30
0.0
  0
VERTEX
  5
13E
  8
0
  6
CONTINUOUS
 62
     7
 10
440.0582978747475
 20
329.7883657168139
 30
0.0
  0
VERTEX
  5
13F
  8
0
  6
CONTINUOUS
 62
     7
 10
440.0490017063199
 20
329.7775775257712
 30
0.0
  0
VERTEX
  5
140
  8
0
  6
CONTINUOUS
 62
     7
 10
440.0404899436045
 20
329.7665850469726
 30
0.0
  0
VERTEX
  5
141
  8
0
  6
CONTINUOUS
 62
     7
 10
440.0325670765586
 20
329.7550849490501
 30
0.0
  0
VERTEX
  5
142
  8
0
  6
CONTINUOUS
 62
     7
 10
440.0254819106404
 20
329.7433899412459
 30
0.0
  0
VERTEX
  5
143
  8
0
  6
CONTINUOUS
 62
     7
 10
440.0192490379284
 20
329.7315308025524
 30
0.0
  0
VERTEX
  5
144
  8
0
  6
CONTINUOUS
 62
     7
 10
440.0138830505007
 20
329.7195383119616
 30
0.0
  0
VERTEX
  5
145
  8
0
  6
CONTINUOUS
 62
     7
 10
440.0089007727708
 20
329.7059314179248
 30
0.0
  0
VERTEX
  5
146
  8
0
  6
CONTINUOUS
 62
     7
 10
440.0050154711869
 20
329.6921775461689
 30
0.0
  0
VERTEX
  5
147
  8
0
  6
CONTINUOUS
 62
     7
 10
440.0022330034178
 20
329.6783206185892
 30
0.0
  0
VERTEX
  5
148
  8
0
  6
CONTINUOUS
 62
     7
 10
440.0005592271326
 20
329.6644045570816
 30
0.0
  0
VERTEX
  5
149
  8
0
  6
CONTINUOUS
 62
     7
 10
440.0
 20
329.6504732835413
 30
0.0
  0
SEQEND
  5
36F
  8
0
  6
CONTINUOUS
 62
     7
  0
LINE
  5
87
  8
0
  6
CONTINUOUS
 62
     7
 10
455.0
 20
329.9039251784968
 30
0.0
 11
455.0
 21
329.9104431185244
 31
0.0
  0
LINE
  5
88
  8
0
  6
CONTINUOUS
 62
     7
 10
440.0
 20
327.2051461079328
 30
0.0
 11
440.0
 21
329.6504732835413
 31
0.0
  0
LINE
  5
89
  8
0
  6
CONTINUOUS
 62
     7
 10
440.0
 20
329.6504732835413
 30
0.0
 11
440.0
 21
329.8199551299305
 31
0.0
  0
LINE
  5
8A
  8
0
  6
CONTINUOUS
 62
     7
 10
440.0
 20
329.8199551299305
 30
0.0
 11
440.0
 21
330.1313200703706
 31
0.0
  0
LINE
  5
8B
  8
0
  6
CONTINUOUS
 62
     7
 10
440.0
 20
284.9512049786488
 30
0.0
 11
440.0
 21
295.3406224386596
 31
0.0
  0
LINE
  5
8C
  8
0
  6
CONTINUOUS
 62
     7
 10
470.0
 20
284.9512049786488
 30
0.0
 11
470.0
 21
295.3406224386596
 31
0.0
  0
LINE
  5
8D
  8
0
  6
CONTINUOUS
 62
     7
 10
440.0
 20
326.4580048080368
 30
0.0
 11
440.0
 21
327.1555240990106
 31
0.0
  0
LINE
  5
8E
  8
0
  6
CONTINUOUS
 62
     7
 10
440.0
 20
327.1555240990106
 30
0.0
 11
440.0
 21
327.2051461079328
 31
0.0
  0
LINE
  5
8F
  8
0
  6
CONTINUOUS
 62
     7
 10
440.0
 20
282.2099381425425
 30
0.0
 11
440.0
 21
284.8392769979744
 31
0.0
  0
LINE
  5
90
  8
0
  6
CONTINUOUS
 62
     7
 10
440.0
 20
284.8392769979744
 30
0.0
 11
440.0
 21
284.9512049786488
 31
0.0
  0
LINE
  5
91
  8
0
  6
CONTINUOUS
 62
     7
 10
470.0
 20
284.9512049786488
 30
0.0
 11
470.0
 21
284.8429090169365
 31
0.0
  0
LINE
  5
92
  8
0
  6
CONTINUOUS
 62
     7
 10
470.0
 20
284.8429090169365
 30
0.0
 11
470.0
 21
282.2099381425425
 31
0.0
  0
LINE
  5
93
  8
0
  6
CONTINUOUS
 62
     7
 10
440.4956367322508
 20
279.0739557719929
 30
0.0
 11
455.0
 21
279.0739557719929
 31
0.0
  0
LINE
  5
94
  8
0
  6
CONTINUOUS
 62
     7
 10
469.5043632677492
 20
279.0739557719929
 30
0.0
 11
455.0
 21
279.0739557719929
 31
0.0
  0
LINE
  5
95
  8
0
  6
CONTINUOUS
 62
     7
 10
440.4956367322508
 20
279.0739557719929
 30
0.0
 11
440.0
 21
279.0739557719929
 31
0.0
  0
LINE
  5
96
  8
0
  6
CONTINUOUS
 62
     7
 10
440.0
 20
279.0739557719929
 30
0.0
 11
440.0
 21
282.2099381425425
 31
0.0
  0
LINE
  5
97
  8
0
  6
CONTINUOUS
 62
     7
 10
470.0
 20
279.0739557719929
 30
0.0
 11
469.5043632677492
 21
279.0739557719929
 31
0.0
  0
LINE
  5
98
  8
0
  6
CONTINUOUS
 62
     7
 10
470.0
 20
282.2099381425425
 30
0.0
 11
470.0
 21
279.0739557719929
 31
0.0
  0
LINE
  5
99
  8
0
  6
CONTINUOUS
 62
     7
 10
455.0
 20
326.0510054174873
 30
0.0
 11
458.5
 21
326.0815494547549
 31
0.0
  0
LINE
  5
9A
  8
0
  6
CONTINUOUS
 62
     7
 10
454.9996140483409
 20
330.7879433262803
 30
0.0
 11
440.4942798949292
 21
330.6330780084164
 31
0.0
  0
POLYLINE
  5
9B
  8
0
  6
CONTINUOUS
 62
     7
 66
     1
 10
0.0
 20
0.0
 30
0.0
  0
VERTEX
  5
14A
  8
0
  6
CONTINUOUS
 62
     7
 10
440.4949261141307
 20
330.633084637596
 30
0.0
  0
VERTEX
  5
14B
  8
0
  6
CONTINUOUS
 62
     7
 10
440.4705584020572
 20
330.6322411133494
 30
0.0
  0
VERTEX
  5
14C
  8
0
  6
CONTINUOUS
 62
     7
 10
440.4462606798755
 20
330.6302062921782
 30
0.0
  0
VERTEX
  5
14D
  8
0
  6
CONTINUOUS
 62
     7
 10
440.4220907265298
 20
330.6269850121653
 30
0.0
  0
VERTEX
  5
14E
  8
0
  6
CONTINUOUS
 62
     7
 10
440.3981060174151
 20
330.6225849345977
 30
0.0
  0
VERTEX
  5
14F
  8
0
  6
CONTINUOUS
 62
     7
 10
440.3743635877166
 20
330.6170165256573
 30
0.0
  0
VERTEX
  5
150
  8
0
  6
CONTINUOUS
 62
     7
 10
440.3509198967947
 20
330.610293031399
 30
0.0
  0
VERTEX
  5
151
  8
0
  6
CONTINUOUS
 62
     7
 10
440.3278306939383
 20
330.602430446076
 30
0.0
  0
VERTEX
  5
152
  8
0
  6
CONTINUOUS
 62
     7
 10
440.305150885804
 20
330.5934474738891
 30
0.0
  0
VERTEX
  5
153
  8
0
  6
CONTINUOUS
 62
     7
 10
440.282934405859
 20
330.5833654842501
 30
0.0
  0
VERTEX
  5
154
  8
0
  6
CONTINUOUS
 62
     7
 10
440.2612340861343
 20
330.5722084606679
 30
0.0
  0
VERTEX
  5
155
  8
0
  6
CONTINUOUS
 62
     7
 10
440.2401015315976
 20
330.5600029433786
 30
0.0
  0
VERTEX
  5
156
  8
0
  6
CONTINUOUS
 62
     7
 10
440.2195869974401
 20
330.5467779658587
 30
0.0
  0
VERTEX
  5
157
  8
0
  6
CONTINUOUS
 62
     7
 10
440.1997392695727
 20
330.5325649853718
 30
0.0
  0
VERTEX
  5
158
  8
0
  6
CONTINUOUS
 62
     7
 10
440.1806055486131
 20
330.5173978077162
 30
0.0
  0
VERTEX
  5
159
  8
0
  6
CONTINUOUS
 62
     7
 10
440.162231337641
 20
330.5013125063539
 30
0.0
  0
VERTEX
  5
15A
  8
0
  6
CONTINUOUS
 62
     7
 10
440.1446603339879
 20
330.4843473361154
 30
0.0
  0
VERTEX
  5
15B
  8
0
  6
CONTINUOUS
 62
     7
 10
440.1279343253186
 20
330.4665426416847
 30
0.0
  0
VERTEX
  5
15C
  8
0
  6
CONTINUOUS
 62
     7
 10
440.1120930902522
 20
330.447940761088
 30
0.0
  0
VERTEX
  5
15D
  8
0
  6
CONTINUOUS
 62
     7
 10
440.0971743037576
 20
330.4285859244134
 30
0.0
  0
VERTEX
  5
15E
  8
0
  6
CONTINUOUS
 62
     7
 10
440.08321344755
 20
330.4085241480074
 30
0.0
  0
VERTEX
  5
15F
  8
0
  6
CONTINUOUS
 62
     7
 10
440.0702437257006
 20
330.3878031244004
 30
0.0
  0
VERTEX
  5
160
  8
0
  6
CONTINUOUS
 62
     7
 10
440.0582959856599
 20
330.3664721082251
 30
0.0
  0
VERTEX
  5
161
  8
0
  6
CONTINUOUS
 62
     7
 10
440.0473986448836
 20
330.3445817984031
 30
0.0
  0
VERTEX
  5
162
  8
0
  6
CONTINUOUS
 62
     7
 10
440.0375776232343
 20
330.3221842168786
 30
0.0
  0
VERTEX
  5
163
  8
0
  6
CONTINUOUS
 62
     7
 10
440.0288562813212
 20
330.2993325841949
 30
0.0
  0
VERTEX
  5
164
  8
0
  6
CONTINUOUS
 62
     7
 10
440.0212553649223
 20
330.2760811922066
 30
0.0
  0
VERTEX
  5
165
  8
0
  6
CONTINUOUS
 62
     7
 10
440.0147929556248
 20
330.2524852742378
 30
0.0
  0
VERTEX
  5
166
  8
0
  6
CONTINUOUS
 62
     7
 10
440.009484427797
 20
330.2286008729932
 30
0.0
  0
VERTEX
  5
167
  8
0
  6
CONTINUOUS
 62
     7
 10
440.0053424119975
 20
330.2044847065423
 30
0.0
  0
VERTEX
  5
168
  8
0
  6
CONTINUOUS
 62
     7
 10
440.0023767649072
 20
330.1801940326953
 30
0.0
  0
VERTEX
  5
169
  8
0
  6
CONTINUOUS
 62
     7
 10
440.0005945458561
 20
330.1557865120976
 30
0.0
  0
VERTEX
  5
16A
  8
0
  6
CONTINUOUS
 62
     7
 10
440.0
 20
330.1313200703706
 30
0.0
  0
SEQEND
  5
370
  8
0
  6
CONTINUOUS
 62
     7
  0
LINE
  5
9C
  8
0
  6
CONTINUOUS
 62
     7
 10
469.5057201050707
 20
330.6330780084164
 30
0.0
 11
455.000385951659
 21
330.7879433262803
 31
0.0
  0
POLYLINE
  5
9D
  8
0
  6
CONTINUOUS
 62
     7
 66
     1
 10
0.0
 20
0.0
 30
0.0
  0
VERTEX
  5
16B
  8
0
  6
CONTINUOUS
 62
     7
 10
470.0
 20
330.1313200703706
 30
0.0
  0
VERTEX
  5
16C
  8
0
  6
CONTINUOUS
 62
     7
 10
469.9994054541439
 20
330.1557865120976
 30
0.0
  0
VERTEX
  5
16D
  8
0
  6
CONTINUOUS
 62
     7
 10
469.9976232350928
 20
330.1801940326953
 30
0.0
  0
VERTEX
  5
16E
  8
0
  6
CONTINUOUS
 62
     7
 10
469.9946575880025
 20
330.2044847065423
 30
0.0
  0
VERTEX
  5
16F
  8
0
  6
CONTINUOUS
 62
     7
 10
469.990515572203
 20
330.2286008729932
 30
0.0
  0
VERTEX
  5
170
  8
0
  6
CONTINUOUS
 62
     7
 10
469.9852070443752
 20
330.2524852742378
 30
0.0
  0
VERTEX
  5
171
  8
0
  6
CONTINUOUS
 62
     7
 10
469.9787446350777
 20
330.2760811922066
 30
0.0
  0
VERTEX
  5
172
  8
0
  6
CONTINUOUS
 62
     7
 10
469.9711437186789
 20
330.2993325841949
 30
0.0
  0
VERTEX
  5
173
  8
0
  6
CONTINUOUS
 62
     7
 10
469.9624223767657
 20
330.3221842168786
 30
0.0
  0
VERTEX
  5
174
  8
0
  6
CONTINUOUS
 62
     7
 10
469.9526013551164
 20
330.3445817984031
 30
0.0
  0
VERTEX
  5
175
  8
0
  6
CONTINUOUS
 62
     7
 10
469.9417040143401
 20
330.3664721082251
 30
0.0
  0
VERTEX
  5
176
  8
0
  6
CONTINUOUS
 62
     7
 10
469.9297562742995
 20
330.3878031244004
 30
0.0
  0
VERTEX
  5
177
  8
0
  6
CONTINUOUS
 62
     7
 10
469.91678655245
 20
330.4085241480074
 30
0.0
  0
VERTEX
  5
178
  8
0
  6
CONTINUOUS
 62
     7
 10
469.9028256962424
 20
330.4285859244134
 30
0.0
  0
VERTEX
  5
179
  8
0
  6
CONTINUOUS
 62
     7
 10
469.8879069097479
 20
330.447940761088
 30
0.0
  0
VERTEX
  5
17A
  8
0
  6
CONTINUOUS
 62
     7
 10
469.8720656746814
 20
330.4665426416847
 30
0.0
  0
VERTEX
  5
17B
  8
0
  6
CONTINUOUS
 62
     7
 10
469.8553396660122
 20
330.4843473361154
 30
0.0
  0
VERTEX
  5
17C
  8
0
  6
CONTINUOUS
 62
     7
 10
469.8377686623591
 20
330.5013125063539
 30
0.0
  0
VERTEX
  5
17D
  8
0
  6
CONTINUOUS
 62
     7
 10
469.8193944513869
 20
330.5173978077162
 30
0.0
  0
VERTEX
  5
17E
  8
0
  6
CONTINUOUS
 62
     7
 10
469.8002607304273
 20
330.5325649853718
 30
0.0
  0
VERTEX
  5
17F
  8
0
  6
CONTINUOUS
 62
     7
 10
469.7804130025599
 20
330.5467779658587
 30
0.0
  0
VERTEX
  5
180
  8
0
  6
CONTINUOUS
 62
     7
 10
469.7598984684024
 20
330.5600029433786
 30
0.0
  0
VERTEX
  5
181
  8
0
  6
CONTINUOUS
 62
     7
 10
469.7387659138657
 20
330.5722084606679
 30
0.0
  0
VERTEX
  5
182
  8
0
  6
CONTINUOUS
 62
     7
 10
469.717065594141
 20
330.5833654842501
 30
0.0
  0
VERTEX
  5
183
  8
0
  6
CONTINUOUS
 62
     7
 10
469.694849114196
 20
330.5934474738891
 30
0.0
  0
VERTEX
  5
184
  8
0
  6
CONTINUOUS
 62
     7
 10
469.6721693060617
 20
330.602430446076
 30
0.0
  0
VERTEX
  5
185
  8
0
  6
CONTINUOUS
 62
     7
 10
469.6490801032053
 20
330.610293031399
 30
0.0
  0
VERTEX
  5
186
  8
0
  6
CONTINUOUS
 62
     7
 10
469.6256364122834
 20
330.6170165256573
 30
0.0
  0
VERTEX
  5
187
  8
0
  6
CONTINUOUS
 62
     7
 10
469.6018939825849
 20
330.6225849345977
 30
0.0
  0
VERTEX
  5
188
  8
0
  6
CONTINUOUS
 62
     7
 10
469.5779092734702
 20
330.6269850121653
 30
0.0
  0
VERTEX
  5
189
  8
0
  6
CONTINUOUS
 62
     7
 10
469.5537393201246
 20
330.6302062921782
 30
0.0
  0
VERTEX
  5
18A
  8
0
  6
CONTINUOUS
 62
     7
 10
469.5294415979428
 20
330.6322411133494
 30
0.0
  0
VERTEX
  5
18B
  8
0
  6
CONTINUOUS
 62
     7
 10
469.5050738858693
 20
330.633084637596
 30
0.0
  0
SEQEND
  5
371
  8
0
  6
CONTINUOUS
 62
     7
  0
ENDBLK
  8
0
  0
BLOCK
  8
0
  2
D_FRAME_VIEW_1832
 70
     0
 10
0.0
 20
0.0
 30
0.0
  0
LINE
  5
A2
  8
0
  6
CONTINUOUS
 62
     7
 10
385.0
 20
223.2
 30
0.0
 11
385.0
 21
216.8
 31
0.0
  0
LINE
  5
A3
  8
0
  6
CONTINUOUS
 62
     7
 10
375.0
 20
223.2
 30
0.0
 11
385.0
 21
223.2
 31
0.0
  0
LINE
  5
A4
  8
0
  6
CONTINUOUS
 62
     7
 10
375.0
 20
216.8
 30
0.0
 11
375.0
 21
223.2
 31
0.0
  0
LINE
  5
A5
  8
0
  6
CONTINUOUS
 62
     7
 10
385.0
 20
216.8
 30
0.0
 11
375.0
 21
216.8
 31
0.0
  0
LINE
  5
A6
  8
0
  6
CONTINUOUS
 62
     7
 10
382.5
 20
243.0000000000001
 30
0.0
 11
382.5
 21
237.0000000000001
 31
0.0
  0
LINE
  5
A7
  8
0
  6
CONTINUOUS
 62
     7
 10
377.5
 20
243.0000000000001
 30
0.0
 11
382.5
 21
243.0000000000001
 31
0.0
  0
LINE
  5
A8
  8
0
  6
CONTINUOUS
 62
     7
 10
377.5
 20
237.0000000000001
 30
0.0
 11
377.5
 21
243.0000000000001
 31
0.0
  0
LINE
  5
A9
  8
0
  6
CONTINUOUS
 62
     7
 10
382.5
 20
237.0000000000001
 30
0.0
 11
377.5
 21
237.0000000000001
 31
0.0
  0
ARC
  5
AA
  8
0
  6
CONTINUOUS
 62
     7
 10
373.9956556052974
 20
244.5
 30
0.0
 40
0.5000000000000004
 50
90.0
 51
179.4999999999999
  0
ARC
  5
AB
  8
0
  6
CONTINUOUS
 62
     7
 10
386.0043443947025
 20
244.5
 30
0.0
 40
0.5000000000000013
 50
0.5000000000000828
 51
90.0
  0
LINE
  5
AC
  8
0
  6
CONTINUOUS
 62
     7
 10
386.5043253562346
 20
244.5043632677492
 30
0.0
 11
386.6309030168614
 21
230.0
 31
0.0
  0
LINE
  5
AD
  8
0
  6
CONTINUOUS
 62
     7
 10
386.5043253562346
 20
215.4956367322508
 30
0.0
 11
386.6309030168614
 21
230.0
 31
0.0
  0
ARC
  5
AE
  8
0
  6
CONTINUOUS
 62
     7
 10
386.0043443947025
 20
215.5
 30
0.0
 40
0.5000000000000004
 50
270.0
 51
359.4999999999999
  0
LINE
  5
AF
  8
0
  6
CONTINUOUS
 62
     7
 10
373.9956556052974
 20
215.0
 30
0.0
 11
386.0043443947025
 21
215.0
 31
0.0
  0
ARC
  5
B0
  8
0
  6
CONTINUOUS
 62
     7
 10
373.9956556052974
 20
215.5
 30
0.0
 40
0.5000000000000013
 50
180.5000000000001
 51
270.0
  0
LINE
  5
B1
  8
0
  6
CONTINUOUS
 62
     7
 10
373.4956746437654
 20
215.4956367322508
 30
0.0
 11
373.3690969831385
 21
230.0
 31
0.0
  0
CIRCLE
  5
B2
  8
0
  6
CONTINUOUS
 62
     7
 10
380.0
 20
230.0
 30
0.0
 40
2.749999999999975
  0
LINE
  5
B3
  8
0
  6
CONTINUOUS
 62
     7
 10
386.0043443947025
 20
245.0
 30
0.0
 11
373.9956556052974
 21
245.0
 31
0.0
  0
LINE
  5
B4
  8
0
  6
CONTINUOUS
 62
     7
 10
373.4956746437654
 20
244.5043632677492
 30
0.0
 11
373.3690969831385
 21
230.0
 31
0.0
  0
LINE
  5
B5
  8
0
  6
CONTINUOUS
 62
     7
 10
378.5
 20
227.6951138856767
 30
0.0
 11
378.4999999999999
 21
232.3048861143232
 31
0.0
  0
LINE
  5
B6
  8
0
  6
CONTINUOUS
 62
     7
 10
381.5
 20
232.3048861143233
 30
0.0
 11
381.5000000000001
 21
227.6951138856768
 31
0.0
  0
LINE
  5
B7
  8
0
  6
CONTINUOUS
 62
     7
 10
386.0043443947025
 20
245.0
 30
0.0
 11
387.6094189252344
 21
245.0
 31
0.0
  0
LINE
  5
B8
  8
0
  6
CONTINUOUS
 62
     7
 10
373.9956556052974
 20
215.0
 30
0.0
 11
372.3905810747656
 21
215.0
 31
0.0
  0
LINE
  5
B9
  8
0
  6
CONTINUOUS
 62
     7
 10
372.3905810747656
 20
245.0
 30
0.0
 11
373.9956556052974
 21
245.0
 31
0.0
  0
LINE
  5
BA
  8
0
  6
CONTINUOUS
 62
     7
 10
387.6094189252344
 20
215.0
 30
0.0
 11
386.0043443947025
 21
215.0
 31
0.0
  0
LINE
  5
BB
  8
0
  6
CONTINUOUS
 62
     7
 10
372.3905810747656
 20
245.0
 30
0.0
 11
362.9351563473647
 21
245.0
 31
0.0
  0
LINE
  5
BC
  8
0
  6
CONTINUOUS
 62
     7
 10
372.3905810747656
 20
215.0
 30
0.0
 11
362.9351563473646
 21
215.0
 31
0.0
  0
LINE
  5
BD
  8
0
  6
CONTINUOUS
 62
     7
 10
387.6094189252344
 20
245.0
 30
0.0
 11
397.0648436526354
 21
245.0
 31
0.0
  0
LINE
  5
BE
  8
0
  6
CONTINUOUS
 62
     7
 10
387.6094189252344
 20
215.0
 30
0.0
 11
397.0648436526353
 21
215.0
 31
0.0
  0
LINE
  5
BF
  8
0
  6
CONTINUOUS
 62
     7
 10
362.9351563473646
 20
215.0
 30
0.0
 11
359.6353247018274
 21
215.0
 31
0.0
  0
LINE
  5
C0
  8
0
  6
CONTINUOUS
 62
     7
 10
362.9351563473647
 20
245.0
 30
0.0
 11
359.6353247018275
 21
245.0
 31
0.0
  0
LINE
  5
C1
  8
0
  6
CONTINUOUS
 62
     7
 10
397.0648436526353
 20
215.0
 30
0.0
 11
400.3646752981726
 21
215.0
 31
0.0
  0
LINE
  5
C2
  8
0
  6
CONTINUOUS
 62
     7
 10
397.0648436526354
 20
245.0
 30
0.0
 11
400.3646752981726
 21
245.0
 31
0.0
  0
LINE
  5
C3
  8
0
  6
CONTINUOUS
 62
     7
 10
359.6353247018275
 20
215.0
 30
0.0
 11
358.4
 21
215.0
 31
0.0
  0
LINE
  5
C4
  8
0
  6
CONTINUOUS
 62
     7
 10
359.6353247018275
 20
245.0
 30
0.0
 11
358.4
 21
245.0
 31
0.0
  0
LINE
  5
C5
  8
0
  6
CONTINUOUS
 62
     7
 10
400.3646752981725
 20
215.0
 30
0.0
 11
401.6
 21
215.0
 31
0.0
  0
LINE
  5
C6
  8
0
  6
CONTINUOUS
 62
     7
 10
400.3646752981726
 20
245.0
 30
0.0
 11
401.6
 21
245.0
 31
0.0
  0
LINE
  5
C7
  8
0
  6
CONTINUOUS
 62
     7
 10
401.7309030168614
 20
230.0
 30
0.0
 11
401.7460671822154
 21
230.0
 31
0.0
  0
LINE
  5
C8
  8
0
  6
CONTINUOUS
 62
     7
 10
358.2690969831386
 20
230.0
 30
0.0
 11
358.4
 21
215.0
 31
0.0
  0
LINE
  5
C9
  8
0
  6
CONTINUOUS
 62
     7
 10
358.4
 20
245.0
 30
0.0
 11
358.2690969831386
 21
230.0
 31
0.0
  0
LINE
  5
CA
  8
0
  6
CONTINUOUS
 62
     7
 10
401.6
 20
215.0
 30
0.0
 11
401.7309030168614
 21
230.0
 31
0.0
  0
LINE
  5
CB
  8
0
  6
CONTINUOUS
 62
     7
 10
401.7309030168614
 20
230.0
 30
0.0
 11
401.6
 21
245.0
 31
0.0
  0
ENDBLK
  8
0
  0
BLOCK
  8
0
  2
D_FRAME_VIEW_1489
 70
     0
 10
0.0
 20
0.0
 30
0.0
  0
LINE
  5
D0
  8
0
  6
CONTINUOUS
 62
     7
 10
400.0976678300586
 20
329.9039251784968
 30
0.0
 11
400.106976413117
 21
329.9104431185243
 31
0.0
  0
LINE
  5
D1
  8
0
  6
CONTINUOUS
 62
     7
 10
397.9518668285289
 20
328.4014191417278
 30
0.0
 11
400.0976678300586
 21
329.9039251784968
 31
0.0
  0
LINE
  5
D2
  8
0
  6
CONTINUOUS
 62
     7
 10
396.2120635828394
 20
327.1831957940942
 30
0.0
 11
397.9518668285289
 21
328.4014191417278
 31
0.0
  0
ARC
  5
D3
  8
0
  6
CONTINUOUS
 62
     7
 10
360.1035897551133
 20
326.9319084343487
 30
0.0
 40
0.8809030168613826
 50
235.0
 51
325.0000000000002
  0
LINE
  5
D4
  8
0
  6
CONTINUOUS
 62
     7
 10
386.0043443947025
 20
279.0739557719929
 30
0.0
 11
373.9956556052974
 21
279.0739557719929
 31
0.0
  0
POLYLINE
  5
D5
  8
0
  6
CONTINUOUS
 62
     7
 66
     1
 10
0.0
 20
0.0
 30
0.0
  0
VERTEX
  5
18E
  8
0
  6
CONTINUOUS
 62
     7
 10
398.5569763827475
 20
305.5653404302436
 30
0.0
  0
VERTEX
  5
18F
  8
0
  6
CONTINUOUS
 62
     7
 10
398.5486835337661
 20
305.5427778910376
 30
0.0
  0
VERTEX
  5
190
  8
0
  6
CONTINUOUS
 62
     7
 10
398.5392794775095
 20
305.5205800749188
 30
0.0
  0
VERTEX
  5
191
  8
0
  6
CONTINUOUS
 62
     7
 10
398.5288038730556
 20
305.4988203426246
 30
0.0
  0
VERTEX
  5
192
  8
0
  6
CONTINUOUS
 62
     7
 10
398.5172963794817
 20
305.4775720548928
 30
0.0
  0
VERTEX
  5
193
  8
0
  6
CONTINUOUS
 62
     7
 10
398.5047966558657
 20
305.4569085724607
 30
0.0
  0
VERTEX
  5
194
  8
0
  6
CONTINUOUS
 62
     7
 10
398.4913443612851
 20
305.4369032560662
 30
0.0
  0
VERTEX
  5
195
  8
0
  6
CONTINUOUS
 62
     7
 10
398.4769791548177
 20
305.4176294664465
 30
0.0
  0
VERTEX
  5
196
  8
0
  6
CONTINUOUS
 62
     7
 10
398.4616857833159
 20
305.3990830561962
 30
0.0
  0
VERTEX
  5
197
  8
0
  6
CONTINUOUS
 62
     7
 10
398.4454641097044
 20
305.3812489032634
 30
0.0
  0
VERTEX
  5
198
  8
0
  6
CONTINUOUS
 62
     7
 10
398.4283758893652
 20
305.3641831696066
 30
0.0
  0
VERTEX
  5
199
  8
0
  6
CONTINUOUS
 62
     7
 10
398.41048287768
 20
305.3479420171841
 30
0.0
  0
VERTEX
  5
19A
  8
0
  6
CONTINUOUS
 62
     7
 10
398.3918468300303
 20
305.3325816079545
 30
0.0
  0
VERTEX
  5
19B
  8
0
  6
CONTINUOUS
 62
     7
 10
398.3725295017982
 20
305.318158103876
 30
0.0
  0
VERTEX
  5
19C
  8
0
  6
CONTINUOUS
 62
     7
 10
398.3525926483653
 20
305.304727666907
 30
0.0
  0
VERTEX
  5
19D
  8
0
  6
CONTINUOUS
 62
     7
 10
398.3320277383735
 20
305.2922955873396
 30
0.0
  0
VERTEX
  5
19E
  8
0
  6
CONTINUOUS
 62
     7
 10
398.3108228490914
 20
305.2808427979143
 30
0.0
  0
VERTEX
  5
19F
  8
0
  6
CONTINUOUS
 62
     7
 10
398.289054848895
 20
305.2704018228584
 30
0.0
  0
VERTEX
  5
1A0
  8
0
  6
CONTINUOUS
 62
     7
 10
398.2668006061604
 20
305.2610051863994
 30
0.0
  0
VERTEX
  5
1A1
  8
0
  6
CONTINUOUS
 62
     7
 10
398.2441369892639
 20
305.2526854127642
 30
0.0
  0
VERTEX
  5
1A2
  8
0
  6
CONTINUOUS
 62
     7
 10
398.2211408665818
 20
305.2454750261803
 30
0.0
  0
VERTEX
  5
1A3
  8
0
  6
CONTINUOUS
 62
     7
 10
398.19788910649
 20
305.2394065508749
 30
0.0
  0
VERTEX
  5
1A4
  8
0
  6
CONTINUOUS
 62
     7
 10
398.1743783684566
 20
305.2344883096556
 30
0.0
  0
VERTEX
  5
1A5
  8
0
  6
CONTINUOUS
 62
     7
 10
398.1505882394534
 20
305.2307053924054
 30
0.0
  0
VERTEX
  5
1A6
  8
0
  6
CONTINUOUS
 62
     7
 10
398.1266019515312
 20
305.228062985428
 30
0.0
  0
VERTEX
  5
1A7
  8
0
  6
CONTINUOUS
 62
     7
 10
398.1025027367407
 20
305.2265662750272
 30
0.0
  0
VERTEX
  5
1A8
  8
0
  6
CONTINUOUS
 62
     7
 10
398.0783738271326
 20
305.2262204475067
 30
0.0
  0
VERTEX
  5
1A9
  8
0
  6
CONTINUOUS
 62
     7
 10
398.0542984547577
 20
305.2270306891703
 30
0.0
  0
VERTEX
  5
1AA
  8
0
  6
CONTINUOUS
 62
     7
 10
398.0303598516667
 20
305.2290021863217
 30
0.0
  0
VERTEX
  5
1AB
  8
0
  6
CONTINUOUS
 62
     7
 10
398.0065529857955
 20
305.2321445558593
 30
0.0
  0
VERTEX
  5
1AC
  8
0
  6
CONTINUOUS
 62
     7
 10
397.9828583534039
 20
305.2364501618263
 30
0.0
  0
VERTEX
  5
1AD
  8
0
  6
CONTINUOUS
 62
     7
 10
397.9593561235927
 20
305.2418963141569
 30
0.0
  0
VERTEX
  5
1AE
  8
0
  6
CONTINUOUS
 62
     7
 10
397.9361264654628
 20
305.2484603227855
 30
0.0
  0
VERTEX
  5
1AF
  8
0
  6
CONTINUOUS
 62
     7
 10
397.9132495481148
 20
305.2561194976465
 30
0.0
  0
VERTEX
  5
1B0
  8
0
  6
CONTINUOUS
 62
     7
 10
397.8908055406497
 20
305.2648511486741
 30
0.0
  0
VERTEX
  5
1B1
  8
0
  6
CONTINUOUS
 62
     7
 10
397.868874612168
 20
305.2746325858026
 30
0.0
  0
VERTEX
  5
1B2
  8
0
  6
CONTINUOUS
 62
     7
 10
397.8474486135736
 20
305.2854780073496
 30
0.0
  0
VERTEX
  5
1B3
  8
0
  6
CONTINUOUS
 62
     7
 10
397.8265134705185
 20
305.2973837593472
 30
0.0
  0
VERTEX
  5
1B4
  8
0
  6
CONTINUOUS
 62
     7
 10
397.8061372671708
 20
305.3103018942844
 30
0.0
  0
VERTEX
  5
1B5
  8
0
  6
CONTINUOUS
 62
     7
 10
397.7863880876986
 20
305.3241844646503
 30
0.0
  0
VERTEX
  5
1B6
  8
0
  6
CONTINUOUS
 62
     7
 10
397.76733401627
 20
305.3389835229339
 30
0.0
  0
VERTEX
  5
1B7
  8
0
  6
CONTINUOUS
 62
     7
 10
397.7490431370526
 20
305.3546511216243
 30
0.0
  0
VERTEX
  5
1B8
  8
0
  6
CONTINUOUS
 62
     7
 10
397.7315835342148
 20
305.3711393132107
 30
0.0
  0
VERTEX
  5
1B9
  8
0
  6
CONTINUOUS
 62
     7
 10
397.7149475079729
 20
305.3884692836946
 30
0.0
  0
VERTEX
  5
1BA
  8
0
  6
CONTINUOUS
 62
     7
 10
397.6991257117127
 20
305.4066376034047
 30
0.0
  0
VERTEX
  5
1BB
  8
0
  6
CONTINUOUS
 62
     7
 10
397.6841665288235
 20
305.4255764913827
 30
0.0
  0
VERTEX
  5
1BC
  8
0
  6
CONTINUOUS
 62
     7
 10
397.6701183426948
 20
305.4452181666701
 30
0.0
  0
VERTEX
  5
1BD
  8
0
  6
CONTINUOUS
 62
     7
 10
397.6570295367159
 20
305.4654948483088
 30
0.0
  0
VERTEX
  5
1BE
  8
0
  6
CONTINUOUS
 62
     7
 10
397.6449484942761
 20
305.4863387553402
 30
0.0
  0
VERTEX
  5
1BF
  8
0
  6
CONTINUOUS
 62
     7
 10
397.633923598765
 20
305.5076821068062
 30
0.0
  0
VERTEX
  5
1C0
  8
0
  6
CONTINUOUS
 62
     7
 10
397.6249066458867
 20
305.5273153505481
 30
0.0
  0
VERTEX
  5
1C1
  8
0
  6
CONTINUOUS
 62
     7
 10
397.6167356401372
 20
305.5473481592424
 30
0.0
  0
VERTEX
  5
1C2
  8
0
  6
CONTINUOUS
 62
     7
 10
397.6094309337795
 20
305.5677236405812
 30
0.0
  0
VERTEX
  5
1C3
  8
0
  6
CONTINUOUS
 62
     7
 10
397.6030128790767
 20
305.5883849022563
 30
0.0
  0
VERTEX
  5
1C4
  8
0
  6
CONTINUOUS
 62
     7
 10
397.597501828292
 20
305.6092750519599
 30
0.0
  0
SEQEND
  5
372
  8
0
  6
CONTINUOUS
 62
     7
  0
ARC
  5
D6
  8
0
  6
CONTINUOUS
 62
     7
 10
380.0
 20
311.8739557719929
 30
0.0
 40
19.6
 50
341.2240608656028
 51
36.89328652072788
  0
POLYLINE
  5
D7
  8
0
  6
CONTINUOUS
 62
     7
 66
     1
 10
0.0
 20
0.0
 30
0.0
  0
VERTEX
  5
1C5
  8
0
  6
CONTINUOUS
 62
     7
 10
394.7753548892068
 20
323.340072747158
 30
0.0
  0
VERTEX
  5
1C6
  8
0
  6
CONTINUOUS
 62
     7
 10
394.775937905623
 20
323.3640998930597
 30
0.0
  0
VERTEX
  5
1C7
  8
0
  6
CONTINUOUS
 62
     7
 10
394.7776902440971
 20
323.3881396869597
 30
0.0
  0
VERTEX
  5
1C8
  8
0
  6
CONTINUOUS
 62
     7
 10
394.7805979800949
 20
323.4121099153897
 30
0.0
  0
VERTEX
  5
1C9
  8
0
  6
CONTINUOUS
 62
     7
 10
394.7846471890819
 20
323.435928364882
 30
0.0
  0
VERTEX
  5
1CA
  8
0
  6
CONTINUOUS
 62
     7
 10
394.7898239465239
 20
323.4595128219684
 30
0.0
  0
VERTEX
  5
1CB
  8
0
  6
CONTINUOUS
 62
     7
 10
394.7961143278866
 20
323.4827810731808
 30
0.0
  0
VERTEX
  5
1CC
  8
0
  6
CONTINUOUS
 62
     7
 10
394.8035044086359
 20
323.5056509050511
 30
0.0
  0
VERTEX
  5
1CD
  8
0
  6
CONTINUOUS
 62
     7
 10
394.8120072474532
 20
323.5281310952977
 30
0.0
  0
VERTEX
  5
1CE
  8
0
  6
CONTINUOUS
 62
     7
 10
394.8216181032395
 20
323.5502360731392
 30
0.0
  0
VERTEX
  5
1CF
  8
0
  6
CONTINUOUS
 62
     7
 10
394.8322965997039
 20
323.571892809777
 30
0.0
  0
VERTEX
  5
1D0
  8
0
  6
CONTINUOUS
 62
     7
 10
394.8440023605556
 20
323.593028276413
 30
0.0
  0
VERTEX
  5
1D1
  8
0
  6
CONTINUOUS
 62
     7
 10
394.8566950095037
 20
323.6135694442485
 30
0.0
  0
VERTEX
  5
1D2
  8
0
  6
CONTINUOUS
 62
     7
 10
394.8703341702572
 20
323.6334432844854
 30
0.0
  0
VERTEX
  5
1D3
  8
0
  6
CONTINUOUS
 62
     7
 10
394.8848794665253
 20
323.6525767683251
 30
0.0
  0
VERTEX
  5
1D4
  8
0
  6
CONTINUOUS
 62
     7
 10
394.9003417580714
 20
323.6709688974792
 30
0.0
  0
VERTEX
  5
1D5
  8
0
  6
CONTINUOUS
 62
     7
 10
394.9167251985902
 20
323.6886402225859
 30
0.0
  0
VERTEX
  5
1D6
  8
0
  6
CONTINUOUS
 62
     7
 10
394.9339675046828
 20
323.7055352220401
 30
0.0
  0
VERTEX
  5
1D7
  8
0
  6
CONTINUOUS
 62
     7
 10
394.9520063929505
 20
323.7215983742362
 30
0.0
  0
VERTEX
  5
1D8
  8
0
  6
CONTINUOUS
 62
     7
 10
394.9707795799945
 20
323.736774157569
 30
0.0
  0
VERTEX
  5
1D9
  8
0
  6
CONTINUOUS
 62
     7
 10
394.9902247824158
 20
323.7510070504329
 30
0.0
  0
VERTEX
  5
1DA
  8
0
  6
CONTINUOUS
 62
     7
 10
395.0102797168158
 20
323.7642415312226
 30
0.0
  0
VERTEX
  5
1DB
  8
0
  6
CONTINUOUS
 62
     7
 10
395.0309526030931
 20
323.7764721507347
 30
0.0
  0
VERTEX
  5
1DC
  8
0
  6
CONTINUOUS
 62
     7
 10
395.0522557098572
 20
323.787718045716
 30
0.0
  0
VERTEX
  5
1DD
  8
0
  6
CONTINUOUS
 62
     7
 10
395.074111923191
 20
323.7979475037423
 30
0.0
  0
VERTEX
  5
1DE
  8
0
  6
CONTINUOUS
 62
     7
 10
395.0964441291771
 20
323.8071288123893
 30
0.0
  0
VERTEX
  5
1DF
  8
0
  6
CONTINUOUS
 62
     7
 10
395.1191752138984
 20
323.8152302592329
 30
0.0
  0
VERTEX
  5
1E0
  8
0
  6
CONTINUOUS
 62
     7
 10
395.1422280634374
 20
323.8222201318488
 30
0.0
  0
VERTEX
  5
1E1
  8
0
  6
CONTINUOUS
 62
     7
 10
395.1655255638769
 20
323.8280667178129
 30
0.0
  0
VERTEX
  5
1E2
  8
0
  6
CONTINUOUS
 62
     7
 10
395.1890775825416
 20
323.8327628912955
 30
0.0
  0
VERTEX
  5
1E3
  8
0
  6
CONTINUOUS
 62
     7
 10
395.2128981646566
 20
323.83632161973
 30
0.0
  0
VERTEX
  5
1E4
  8
0
  6
CONTINUOUS
 62
     7
 10
395.2369041007301
 20
323.8387385486741
 30
0.0
  0
VERTEX
  5
1E5
  8
0
  6
CONTINUOUS
 62
     7
 10
395.2610121812699
 20
323.8400093236852
 30
0.0
  0
VERTEX
  5
1E6
  8
0
  6
CONTINUOUS
 62
     7
 10
395.2851391967841
 20
323.8401295903209
 30
0.0
  0
VERTEX
  5
1E7
  8
0
  6
CONTINUOUS
 62
     7
 10
395.3092019377808
 20
323.8390949941389
 30
0.0
  0
VERTEX
  5
1E8
  8
0
  6
CONTINUOUS
 62
     7
 10
395.3331171947676
 20
323.8369011806966
 30
0.0
  0
VERTEX
  5
1E9
  8
0
  6
CONTINUOUS
 62
     7
 10
395.3568976970167
 20
323.8335372514379
 30
0.0
  0
VERTEX
  5
1EA
  8
0
  6
CONTINUOUS
 62
     7
 10
395.3805551512047
 20
323.8290112156012
 30
0.0
  0
VERTEX
  5
1EB
  8
0
  6
CONTINUOUS
 62
     7
 10
395.4040096327316
 20
323.8233465189317
 30
0.0
  0
VERTEX
  5
1EC
  8
0
  6
CONTINUOUS
 62
     7
 10
395.4271812169973
 20
323.8165666071753
 30
0.0
  0
VERTEX
  5
1ED
  8
0
  6
CONTINUOUS
 62
     7
 10
395.4499899794016
 20
323.8086949260774
 30
0.0
  0
VERTEX
  5
1EE
  8
0
  6
CONTINUOUS
 62
     7
 10
395.4723559953444
 20
323.7997549213834
 30
0.0
  0
VERTEX
  5
1EF
  8
0
  6
CONTINUOUS
 62
     7
 10
395.4941993402257
 20
323.7897700388392
 30
0.0
  0
VERTEX
  5
1F0
  8
0
  6
CONTINUOUS
 62
     7
 10
395.5155329472957
 20
323.7787233260138
 30
0.0
  0
VERTEX
  5
1F1
  8
0
  6
CONTINUOUS
 62
     7
 10
395.5363657872844
 20
323.7666204943519
 30
0.0
  0
VERTEX
  5
1F2
  8
0
  6
CONTINUOUS
 62
     7
 10
395.5566301897428
 20
323.7535101212945
 30
0.0
  0
VERTEX
  5
1F3
  8
0
  6
CONTINUOUS
 62
     7
 10
395.5762584842223
 20
323.7394407842831
 30
0.0
  0
VERTEX
  5
1F4
  8
0
  6
CONTINUOUS
 62
     7
 10
395.595183000274
 20
323.724461060759
 30
0.0
  0
VERTEX
  5
1F5
  8
0
  6
CONTINUOUS
 62
     7
 10
395.6133360674493
 20
323.7086195281633
 30
0.0
  0
VERTEX
  5
1F6
  8
0
  6
CONTINUOUS
 62
     7
 10
395.6306500152992
 20
323.6919647639374
 30
0.0
  0
VERTEX
  5
1F7
  8
0
  6
CONTINUOUS
 62
     7
 10
395.6462731476897
 20
323.6754451063254
 30
0.0
  0
VERTEX
  5
1F8
  8
0
  6
CONTINUOUS
 62
     7
 10
395.661137840679
 20
323.6582242649127
 30
0.0
  0
VERTEX
  5
1F9
  8
0
  6
CONTINUOUS
 62
     7
 10
395.6751981102827
 20
323.6403555698661
 30
0.0
  0
SEQEND
  5
373
  8
0
  6
CONTINUOUS
 62
     7
  0
ARC
  5
D8
  8
0
  6
CONTINUOUS
 62
     7
 10
375.6753555447254
 20
323.3350686677398
 30
0.0
 40
19.1
 50
333.2225622280778
 51
0.0150111326852311
  0
POLYLINE
  5
D9
  8
0
  6
CONTINUOUS
 62
     7
 66
     1
 10
0.0
 20
0.0
 30
0.0
  0
VERTEX
  5
1FA
  8
0
  6
CONTINUOUS
 62
     7
 10
392.8193859904636
 20
314.151801553951
 30
0.0
  0
VERTEX
  5
1FB
  8
0
  6
CONTINUOUS
 62
     7
 10
392.8028486737567
 20
314.1692272077879
 30
0.0
  0
VERTEX
  5
1FC
  8
0
  6
CONTINUOUS
 62
     7
 10
392.7871306262513
 20
314.1874868699547
 30
0.0
  0
VERTEX
  5
1FD
  8
0
  6
CONTINUOUS
 62
     7
 10
392.7722799568953
 20
314.206512461366
 30
0.0
  0
VERTEX
  5
1FE
  8
0
  6
CONTINUOUS
 62
     7
 10
392.7583447746374
 20
314.226235902936
 30
0.0
  0
VERTEX
  5
1FF
  8
0
  6
CONTINUOUS
 62
     7
 10
392.7453731884256
 20
314.2465891155788
 30
0.0
  0
VERTEX
  5
200
  8
0
  6
CONTINUOUS
 62
     7
 10
392.7334133072083
 20
314.267504020209
 30
0.0
  0
VERTEX
  5
201
  8
0
  6
CONTINUOUS
 62
     7
 10
392.7225132399337
 20
314.2889125377408
 30
0.0
  0
VERTEX
  5
202
  8
0
  6
CONTINUOUS
 62
     7
 10
392.7126760822469
 20
314.3108298344089
 30
0.0
  0
VERTEX
  5
203
  8
0
  6
CONTINUOUS
 62
     7
 10
392.7038881185736
 20
314.3332629675608
 30
0.0
  0
VERTEX
  5
204
  8
0
  6
CONTINUOUS
 62
     7
 10
392.6961722075465
 20
314.3561317647427
 30
0.0
  0
VERTEX
  5
205
  8
0
  6
CONTINUOUS
 62
     7
 10
392.6895512077984
 20
314.3793560535008
 30
0.0
  0
VERTEX
  5
206
  8
0
  6
CONTINUOUS
 62
     7
 10
392.6840479779622
 20
314.4028556613815
 30
0.0
  0
VERTEX
  5
207
  8
0
  6
CONTINUOUS
 62
     7
 10
392.6796853766706
 20
314.4265504159309
 30
0.0
  0
VERTEX
  5
208
  8
0
  6
CONTINUOUS
 62
     7
 10
392.6764862625565
 20
314.4503601446954
 30
0.0
  0
VERTEX
  5
209
  8
0
  6
CONTINUOUS
 62
     7
 10
392.6744586033666
 20
314.4742975733515
 30
0.0
  0
VERTEX
  5
20A
  8
0
  6
CONTINUOUS
 62
     7
 10
392.6735916967177
 20
314.4983744540941
 30
0.0
  0
VERTEX
  5
20B
  8
0
  6
CONTINUOUS
 62
     7
 10
392.6738805689864
 20
314.5225075744132
 30
0.0
  0
VERTEX
  5
20C
  8
0
  6
CONTINUOUS
 62
     7
 10
392.6753202465497
 20
314.5466137217988
 30
0.0
  0
VERTEX
  5
20D
  8
0
  6
CONTINUOUS
 62
     7
 10
392.6779057557843
 20
314.570609683741
 30
0.0
  0
VERTEX
  5
20E
  8
0
  6
CONTINUOUS
 62
     7
 10
392.6816321230669
 20
314.5944122477297
 30
0.0
  0
VERTEX
  5
20F
  8
0
  6
CONTINUOUS
 62
     7
 10
392.6864943747747
 20
314.6179382012549
 30
0.0
  0
VERTEX
  5
210
  8
0
  6
CONTINUOUS
 62
     7
 10
392.6924564503796
 20
314.641053412346
 30
0.0
  0
VERTEX
  5
211
  8
0
  6
CONTINUOUS
 62
     7
 10
392.6995293405404
 20
314.6638961156643
 30
0.0
  0
VERTEX
  5
212
  8
0
  6
CONTINUOUS
 62
     7
 10
392.7076852093217
 20
314.6863895643965
 30
0.0
  0
VERTEX
  5
213
  8
0
  6
CONTINUOUS
 62
     7
 10
392.7168962207882
 20
314.7084570117297
 30
0.0
  0
VERTEX
  5
214
  8
0
  6
CONTINUOUS
 62
     7
 10
392.7271345390045
 20
314.730021710851
 30
0.0
  0
SEQEND
  5
374
  8
0
  6
CONTINUOUS
 62
     7
  0
ARC
  5
DA
  8
0
  6
CONTINUOUS
 62
     7
 10
380.0
 20
301.3739557719929
 30
0.0
 40
18.1
 50
13.53242071999233
 51
44.90701820574896
  0
POLYLINE
  5
DB
  8
0
  6
CONTINUOUS
 62
     7
 66
     1
 10
0.0
 20
0.0
 30
0.0
  0
VERTEX
  5
215
  8
0
  6
CONTINUOUS
 62
     7
 10
364.3248018897173
 20
323.6403555698661
 30
0.0
  0
VERTEX
  5
216
  8
0
  6
CONTINUOUS
 62
     7
 10
364.3396972350212
 20
323.6592174978707
 30
0.0
  0
VERTEX
  5
217
  8
0
  6
CONTINUOUS
 62
     7
 10
364.3555351631334
 20
323.6773873191523
 30
0.0
  0
VERTEX
  5
218
  8
0
  6
CONTINUOUS
 62
     7
 10
364.3722551678754
 20
323.6948076581985
 30
0.0
  0
VERTEX
  5
219
  8
0
  6
CONTINUOUS
 62
     7
 10
364.3897967430692
 20
323.7114211394965
 30
0.0
  0
VERTEX
  5
21A
  8
0
  6
CONTINUOUS
 62
     7
 10
364.4080993825362
 20
323.7271703875338
 30
0.0
  0
VERTEX
  5
21B
  8
0
  6
CONTINUOUS
 62
     7
 10
364.4271025800984
 20
323.7419980267977
 30
0.0
  0
VERTEX
  5
21C
  8
0
  6
CONTINUOUS
 62
     7
 10
364.4467458295774
 20
323.7558466817756
 30
0.0
  0
VERTEX
  5
21D
  8
0
  6
CONTINUOUS
 62
     7
 10
364.4670448439825
 20
323.7687155288971
 30
0.0
  0
VERTEX
  5
21E
  8
0
  6
CONTINUOUS
 62
     7
 10
364.4880044976196
 20
323.7806189529474
 30
0.0
  0
VERTEX
  5
21F
  8
0
  6
CONTINUOUS
 62
     7
 10
364.5095486492768
 20
323.7915228076891
 30
0.0
  0
VERTEX
  5
220
  8
0
  6
CONTINUOUS
 62
     7
 10
364.531601157742
 20
323.8013929468846
 30
0.0
  0
VERTEX
  5
221
  8
0
  6
CONTINUOUS
 62
     7
 10
364.5540858818033
 20
323.8101952242967
 30
0.0
  0
VERTEX
  5
222
  8
0
  6
CONTINUOUS
 62
     7
 10
364.5769266802488
 20
323.8178954936877
 30
0.0
  0
VERTEX
  5
223
  8
0
  6
CONTINUOUS
 62
     7
 10
364.6000474118667
 20
323.8244596088203
 30
0.0
  0
VERTEX
  5
224
  8
0
  6
CONTINUOUS
 62
     7
 10
364.6234561609687
 20
323.829880249867
 30
0.0
  0
VERTEX
  5
225
  8
0
  6
CONTINUOUS
 62
     7
 10
364.6471685898698
 20
323.8341713545131
 30
0.0
  0
VERTEX
  5
226
  8
0
  6
CONTINUOUS
 62
     7
 10
364.6711015541838
 20
323.8373259312351
 30
0.0
  0
VERTEX
  5
227
  8
0
  6
CONTINUOUS
 62
     7
 10
364.6951719095249
 20
323.8393369885092
 30
0.0
  0
VERTEX
  5
228
  8
0
  6
CONTINUOUS
 62
     7
 10
364.719296511507
 20
323.8401975348121
 30
0.0
  0
VERTEX
  5
229
  8
0
  6
CONTINUOUS
 62
     7
 10
364.7433922157442
 20
323.8399005786199
 30
0.0
  0
VERTEX
  5
22A
  8
0
  6
CONTINUOUS
 62
     7
 10
364.7673758778506
 20
323.8384391284091
 30
0.0
  0
VERTEX
  5
22B
  8
0
  6
CONTINUOUS
 62
     7
 10
364.7912507981917
 20
323.8358038906352
 30
0.0
  0
VERTEX
  5
22C
  8
0
  6
CONTINUOUS
 62
     7
 10
364.8150382788282
 20
323.8320027992583
 30
0.0
  0
VERTEX
  5
22D
  8
0
  6
CONTINUOUS
 62
     7
 10
364.838657615192
 20
323.8270568067805
 30
0.0
  0
VERTEX
  5
22E
  8
0
  6
CONTINUOUS
 62
     7
 10
364.8620281027149
 20
323.8209868657038
 30
0.0
  0
VERTEX
  5
22F
  8
0
  6
CONTINUOUS
 62
     7
 10
364.8850690368288
 20
323.8138139285301
 30
0.0
  0
VERTEX
  5
230
  8
0
  6
CONTINUOUS
 62
     7
 10
364.9076997129654
 20
323.8055589477614
 30
0.0
  0
VERTEX
  5
231
  8
0
  6
CONTINUOUS
 62
     7
 10
364.9298394265567
 20
323.7962428758997
 30
0.0
  0
VERTEX
  5
232
  8
0
  6
CONTINUOUS
 62
     7
 10
364.951491787918
 20
323.7858540895903
 30
0.0
  0
VERTEX
  5
233
  8
0
  6
CONTINUOUS
 62
     7
 10
364.9726758152562
 20
323.774394522792
 30
0.0
  0
VERTEX
  5
234
  8
0
  6
CONTINUOUS
 62
     7
 10
364.99332235945
 20
323.7619106640008
 30
0.0
  0
VERTEX
  5
235
  8
0
  6
CONTINUOUS
 62
     7
 10
365.0133622713778
 20
323.748449001713
 30
0.0
  0
VERTEX
  5
236
  8
0
  6
CONTINUOUS
 62
     7
 10
365.0327264019184
 20
323.7340560244246
 30
0.0
  0
VERTEX
  5
237
  8
0
  6
CONTINUOUS
 62
     7
 10
365.0513456019502
 20
323.7187782206317
 30
0.0
  0
VERTEX
  5
238
  8
0
  6
CONTINUOUS
 62
     7
 10
365.0691507223518
 20
323.7026620788307
 30
0.0
  0
VERTEX
  5
239
  8
0
  6
CONTINUOUS
 62
     7
 10
365.0861453961631
 20
323.685691240467
 30
0.0
  0
VERTEX
  5
23A
  8
0
  6
CONTINUOUS
 62
     7
 10
365.102343794159
 20
323.6678650791646
 30
0.0
  0
VERTEX
  5
23B
  8
0
  6
CONTINUOUS
 62
     7
 10
365.1176960888305
 20
323.6492503396906
 30
0.0
  0
VERTEX
  5
23C
  8
0
  6
CONTINUOUS
 62
     7
 10
365.1321524526685
 20
323.6299137668115
 30
0.0
  0
VERTEX
  5
23D
  8
0
  6
CONTINUOUS
 62
     7
 10
365.1456630581641
 20
323.6099221052941
 30
0.0
  0
VERTEX
  5
23E
  8
0
  6
CONTINUOUS
 62
     7
 10
365.158178077808
 20
323.5893420999052
 30
0.0
  0
VERTEX
  5
23F
  8
0
  6
CONTINUOUS
 62
     7
 10
365.1696476840914
 20
323.5682404954115
 30
0.0
  0
VERTEX
  5
240
  8
0
  6
CONTINUOUS
 62
     7
 10
365.1800720378489
 20
323.5465959698517
 30
0.0
  0
VERTEX
  5
241
  8
0
  6
CONTINUOUS
 62
     7
 10
365.1894617420111
 20
323.5244077027983
 30
0.0
  0
VERTEX
  5
242
  8
0
  6
CONTINUOUS
 62
     7
 10
365.197791859952
 20
323.5017551752014
 30
0.0
  0
VERTEX
  5
243
  8
0
  6
CONTINUOUS
 62
     7
 10
365.2050374550454
 20
323.4787178680106
 30
0.0
  0
VERTEX
  5
244
  8
0
  6
CONTINUOUS
 62
     7
 10
365.2111735906655
 20
323.4553752621761
 30
0.0
  0
VERTEX
  5
245
  8
0
  6
CONTINUOUS
 62
     7
 10
365.216175330186
 20
323.4318068386475
 30
0.0
  0
VERTEX
  5
246
  8
0
  6
CONTINUOUS
 62
     7
 10
365.2200177369811
 20
323.4080920783749
 30
0.0
  0
VERTEX
  5
247
  8
0
  6
CONTINUOUS
 62
     7
 10
365.222589308172
 20
323.3855007434997
 30
0.0
  0
VERTEX
  5
248
  8
0
  6
CONTINUOUS
 62
     7
 10
365.2241333467757
 20
323.3628042138533
 30
0.0
  0
VERTEX
  5
249
  8
0
  6
CONTINUOUS
 62
     7
 10
365.2246451107932
 20
323.340072747158
 30
0.0
  0
SEQEND
  5
375
  8
0
  6
CONTINUOUS
 62
     7
  0
ARC
  5
DC
  8
0
  6
CONTINUOUS
 62
     7
 10
380.0
 20
311.8739557719929
 30
0.0
 40
19.6
 50
143.1067134792722
 51
198.7759391343973
  0
POLYLINE
  5
DD
  8
0
  6
CONTINUOUS
 62
     7
 66
     1
 10
0.0
 20
0.0
 30
0.0
  0
VERTEX
  5
24A
  8
0
  6
CONTINUOUS
 62
     7
 10
362.402498171708
 20
305.6092750519599
 30
0.0
  0
VERTEX
  5
24B
  8
0
  6
CONTINUOUS
 62
     7
 10
362.3963019931301
 20
305.5860490555766
 30
0.0
  0
VERTEX
  5
24C
  8
0
  6
CONTINUOUS
 62
     7
 10
362.3889659257214
 20
305.5630847039228
 30
0.0
  0
VERTEX
  5
24D
  8
0
  6
CONTINUOUS
 62
     7
 10
362.3805227582286
 20
305.5404586751451
 30
0.0
  0
VERTEX
  5
24E
  8
0
  6
CONTINUOUS
 62
     7
 10
362.3710052793987
 20
305.518247647391
 30
0.0
  0
VERTEX
  5
24F
  8
0
  6
CONTINUOUS
 62
     7
 10
362.3604462779784
 20
305.4965282988073
 30
0.0
  0
VERTEX
  5
250
  8
0
  6
CONTINUOUS
 62
     7
 10
362.3488785427145
 20
305.4753773075411
 30
0.0
  0
VERTEX
  5
251
  8
0
  6
CONTINUOUS
 62
     7
 10
362.3363348623539
 20
305.4548713517395
 30
0.0
  0
VERTEX
  5
252
  8
0
  6
CONTINUOUS
 62
     7
 10
362.3228004265797
 20
305.4350049073622
 30
0.0
  0
VERTEX
  5
253
  8
0
  6
CONTINUOUS
 62
     7
 10
362.3082764808883
 20
305.4157629031436
 30
0.0
  0
VERTEX
  5
254
  8
0
  6
CONTINUOUS
 62
     7
 10
362.2928193896486
 20
305.3972069097889
 30
0.0
  0
VERTEX
  5
255
  8
0
  6
CONTINUOUS
 62
     7
 10
362.2764855172297
 20
305.3793984980029
 30
0.0
  0
VERTEX
  5
256
  8
0
  6
CONTINUOUS
 62
     7
 10
362.2593312280007
 20
305.3623992384905
 30
0.0
  0
VERTEX
  5
257
  8
0
  6
CONTINUOUS
 62
     7
 10
362.2414128863308
 20
305.3462707019565
 30
0.0
  0
VERTEX
  5
258
  8
0
  6
CONTINUOUS
 62
     7
 10
362.222786856589
 20
305.3310744591059
 30
0.0
  0
VERTEX
  5
259
  8
0
  6
CONTINUOUS
 62
     7
 10
362.2034441602111
 20
305.3168149988246
 30
0.0
  0
VERTEX
  5
25A
  8
0
  6
CONTINUOUS
 62
     7
 10
362.1833746663679
 20
305.3034722435866
 30
0.0
  0
VERTEX
  5
25B
  8
0
  6
CONTINUOUS
 62
     7
 10
362.1626519494091
 20
305.2910856064353
 30
0.0
  0
VERTEX
  5
25C
  8
0
  6
CONTINUOUS
 62
     7
 10
362.1413495836844
 20
305.2796945004146
 30
0.0
  0
VERTEX
  5
25D
  8
0
  6
CONTINUOUS
 62
     7
 10
362.1195411435432
 20
305.2693383385679
 30
0.0
  0
VERTEX
  5
25E
  8
0
  6
CONTINUOUS
 62
     7
 10
362.0973002033355
 20
305.2600565339388
 30
0.0
  0
VERTEX
  5
25F
  8
0
  6
CONTINUOUS
 62
     7
 10
362.0747003374106
 20
305.2518884995711
 30
0.0
  0
VERTEX
  5
260
  8
0
  6
CONTINUOUS
 62
     7
 10
362.0517374590241
 20
305.2448422182703
 30
0.0
  0
VERTEX
  5
261
  8
0
  6
CONTINUOUS
 62
     7
 10
362.0283926027887
 20
305.2389009766261
 30
0.0
  0
VERTEX
  5
262
  8
0
  6
CONTINUOUS
 62
     7
 10
362.0047481784758
 20
305.234077545723
 30
0.0
  0
VERTEX
  5
263
  8
0
  6
CONTINUOUS
 62
     7
 10
361.980886595857
 20
305.2303846966457
 30
0.0
  0
VERTEX
  5
264
  8
0
  6
CONTINUOUS
 62
     7
 10
361.9568902647036
 20
305.2278352004788
 30
0.0
  0
VERTEX
  5
265
  8
0
  6
CONTINUOUS
 62
     7
 10
361.9328415947871
 20
305.2264418283067
 30
0.0
  0
VERTEX
  5
266
  8
0
  6
CONTINUOUS
 62
     7
 10
361.9088229958787
 20
305.2262173512143
 30
0.0
  0
VERTEX
  5
267
  8
0
  6
CONTINUOUS
 62
     7
 10
361.8848285776381
 20
305.2271708860017
 30
0.0
  0
VERTEX
  5
268
  8
0
  6
CONTINUOUS
 62
     7
 10
361.8608396162425
 20
305.2292930462501
 30
0.0
  0
VERTEX
  5
269
  8
0
  6
CONTINUOUS
 62
     7
 10
361.8369380189215
 20
305.2325685634139
 30
0.0
  0
VERTEX
  5
26A
  8
0
  6
CONTINUOUS
 62
     7
 10
361.8132056929045
 20
305.2369821689475
 30
0.0
  0
VERTEX
  5
26B
  8
0
  6
CONTINUOUS
 62
     7
 10
361.7897245454209
 20
305.2425185943054
 30
0.0
  0
VERTEX
  5
26C
  8
0
  6
CONTINUOUS
 62
     7
 10
361.7665764837004
 20
305.2491625709418
 30
0.0
  0
VERTEX
  5
26D
  8
0
  6
CONTINUOUS
 62
     7
 10
361.7438434149723
 20
305.2568988303113
 30
0.0
  0
VERTEX
  5
26E
  8
0
  6
CONTINUOUS
 62
     7
 10
361.7215159259541
 20
305.2657407668784
 30
0.0
  0
VERTEX
  5
26F
  8
0
  6
CONTINUOUS
 62
     7
 10
361.6995803358695
 20
305.2756834554944
 30
0.0
  0
VERTEX
  5
270
  8
0
  6
CONTINUOUS
 62
     7
 10
361.6781088258481
 20
305.2866853714397
 30
0.0
  0
VERTEX
  5
271
  8
0
  6
CONTINUOUS
 62
     7
 10
361.6571735770193
 20
305.2987049899945
 30
0.0
  0
VERTEX
  5
272
  8
0
  6
CONTINUOUS
 62
     7
 10
361.6368467705125
 20
305.3117007864388
 30
0.0
  0
VERTEX
  5
273
  8
0
  6
CONTINUOUS
 62
     7
 10
361.6172005874572
 20
305.3256312360532
 30
0.0
  0
VERTEX
  5
274
  8
0
  6
CONTINUOUS
 62
     7
 10
361.5983072089828
 20
305.3404548141177
 30
0.0
  0
VERTEX
  5
275
  8
0
  6
CONTINUOUS
 62
     7
 10
361.5801570312081
 20
305.3561919144466
 30
0.0
  0
VERTEX
  5
276
  8
0
  6
CONTINUOUS
 62
     7
 10
361.562741060237
 20
305.3728382674252
 30
0.0
  0
VERTEX
  5
277
  8
0
  6
CONTINUOUS
 62
     7
 10
361.5461136714295
 20
305.390330797447
 30
0.0
  0
VERTEX
  5
278
  8
0
  6
CONTINUOUS
 62
     7
 10
361.5303292401455
 20
305.4086064289057
 30
0.0
  0
VERTEX
  5
279
  8
0
  6
CONTINUOUS
 62
     7
 10
361.5154421417452
 20
305.4276020861947
 30
0.0
  0
VERTEX
  5
27A
  8
0
  6
CONTINUOUS
 62
     7
 10
361.5015067515884
 20
305.4472546937077
 30
0.0
  0
VERTEX
  5
27B
  8
0
  6
CONTINUOUS
 62
     7
 10
361.4885774450353
 20
305.4675011758383
 30
0.0
  0
VERTEX
  5
27C
  8
0
  6
CONTINUOUS
 62
     7
 10
361.4778039642297
 20
305.4862282090432
 30
0.0
  0
VERTEX
  5
27D
  8
0
  6
CONTINUOUS
 62
     7
 10
361.4678363746225
 20
305.5054304453383
 30
0.0
  0
VERTEX
  5
27E
  8
0
  6
CONTINUOUS
 62
     7
 10
361.4587001426398
 20
305.5250530904715
 30
0.0
  0
VERTEX
  5
27F
  8
0
  6
CONTINUOUS
 62
     7
 10
361.4504207347077
 20
305.5450413501907
 30
0.0
  0
VERTEX
  5
280
  8
0
  6
CONTINUOUS
 62
     7
 10
361.4430236172526
 20
305.5653404302436
 30
0.0
  0
SEQEND
  5
376
  8
0
  6
CONTINUOUS
 62
     7
  0
ARC
  5
DE
  8
0
  6
CONTINUOUS
 62
     7
 10
380.0
 20
301.3739557719929
 30
0.0
 40
18.1
 50
135.092981794251
 51
166.4675792800077
  0
POLYLINE
  5
DF
  8
0
  6
CONTINUOUS
 62
     7
 66
     1
 10
0.0
 20
0.0
 30
0.0
  0
VERTEX
  5
281
  8
0
  6
CONTINUOUS
 62
     7
 10
367.2728654609955
 20
314.730021710851
 30
0.0
  0
VERTEX
  5
282
  8
0
  6
CONTINUOUS
 62
     7
 10
367.2831594956306
 20
314.7083152807798
 30
0.0
  0
VERTEX
  5
283
  8
0
  6
CONTINUOUS
 62
     7
 10
367.2924154175442
 20
314.6860711761818
 30
0.0
  0
VERTEX
  5
284
  8
0
  6
CONTINUOUS
 62
     7
 10
367.3006086901197
 20
314.6633690662937
 30
0.0
  0
VERTEX
  5
285
  8
0
  6
CONTINUOUS
 62
     7
 10
367.3077147767401
 20
314.640288620352
 30
0.0
  0
VERTEX
  5
286
  8
0
  6
CONTINUOUS
 62
     7
 10
367.3137091407887
 20
314.6169095075932
 30
0.0
  0
VERTEX
  5
287
  8
0
  6
CONTINUOUS
 62
     7
 10
367.3185672456483
 20
314.5933113972537
 30
0.0
  0
VERTEX
  5
288
  8
0
  6
CONTINUOUS
 62
     7
 10
367.3222645547023
 20
314.5695739585701
 30
0.0
  0
VERTEX
  5
289
  8
0
  6
CONTINUOUS
 62
     7
 10
367.3247934067548
 20
314.5456837414952
 30
0.0
  0
VERTEX
  5
28A
  8
0
  6
CONTINUOUS
 62
     7
 10
367.3261646404588
 20
314.5216297712062
 30
0.0
  0
VERTEX
  5
28B
  8
0
  6
CONTINUOUS
 62
     7
 10
367.3263814790249
 20
314.4974953528672
 30
0.0
  0
VERTEX
  5
28C
  8
0
  6
CONTINUOUS
 62
     7
 10
367.3254471456634
 20
314.4733637916422
 30
0.0
  0
VERTEX
  5
28D
  8
0
  6
CONTINUOUS
 62
     7
 10
367.3233648635849
 20
314.4493183926952
 30
0.0
  0
VERTEX
  5
28E
  8
0
  6
CONTINUOUS
 62
     7
 10
367.3201378559999
 20
314.4254424611901
 30
0.0
  0
VERTEX
  5
28F
  8
0
  6
CONTINUOUS
 62
     7
 10
367.3157693461189
 20
314.4018193022911
 30
0.0
  0
VERTEX
  5
290
  8
0
  6
CONTINUOUS
 62
     7
 10
367.3102478019399
 20
314.3784393013856
 30
0.0
  0
VERTEX
  5
291
  8
0
  6
CONTINUOUS
 62
     7
 10
367.3035797376323
 20
314.3552879594845
 30
0.0
  0
VERTEX
  5
292
  8
0
  6
CONTINUOUS
 62
     7
 10
367.2957957729016
 20
314.3324428104021
 30
0.0
  0
VERTEX
  5
293
  8
0
  6
CONTINUOUS
 62
     7
 10
367.2869265274533
 20
314.3099813879529
 30
0.0
  0
VERTEX
  5
294
  8
0
  6
CONTINUOUS
 62
     7
 10
367.277002620993
 20
314.2879812259512
 30
0.0
  0
VERTEX
  5
295
  8
0
  6
CONTINUOUS
 62
     7
 10
367.2660546732259
 20
314.2665198582117
 30
0.0
  0
VERTEX
  5
296
  8
0
  6
CONTINUOUS
 62
     7
 10
367.2541133038579
 20
314.2456748185487
 30
0.0
  0
VERTEX
  5
297
  8
0
  6
CONTINUOUS
 62
     7
 10
367.2412545206577
 20
314.2255623591288
 30
0.0
  0
VERTEX
  5
298
  8
0
  6
CONTINUOUS
 62
     7
 10
367.2274248645147
 20
314.2060545278532
 30
0.0
  0
VERTEX
  5
299
  8
0
  6
CONTINUOUS
 62
     7
 10
367.2126746705397
 20
314.1872155998278
 30
0.0
  0
VERTEX
  5
29A
  8
0
  6
CONTINUOUS
 62
     7
 10
367.1970542738434
 20
314.1691098501585
 30
0.0
  0
VERTEX
  5
29B
  8
0
  6
CONTINUOUS
 62
     7
 10
367.1806140095364
 20
314.151801553951
 30
0.0
  0
SEQEND
  5
377
  8
0
  6
CONTINUOUS
 62
     7
  0
ARC
  5
E0
  8
0
  6
CONTINUOUS
 62
     7
 10
384.3246444552746
 20
323.3350686677399
 30
0.0
 40
19.1
 50
179.9849888673148
 51
206.7774377719222
  0
LINE
  5
E1
  8
0
  6
CONTINUOUS
 62
     7
 10
359.5983245419309
 20
326.2103149272663
 30
0.0
 11
358.4671394173042
 21
327.0023792786407
 31
0.0
  0
LINE
  5
E2
  8
0
  6
CONTINUOUS
 62
     7
 10
360.670136168489
 20
327.5660500239537
 30
0.0
 11
360.7104746061081
 21
327.5704073793348
 31
0.0
  0
LINE
  5
E3
  8
0
  6
CONTINUOUS
 62
     7
 10
360.670136168489
 20
327.5660500239537
 30
0.0
 11
359.7014618683314
 21
326.1826397530012
 31
0.0
  0
LINE
  5
E4
  8
0
  6
CONTINUOUS
 62
     7
 10
361.1858991707756
 20
328.249384023721
 30
0.0
 11
360.7104746061081
 21
327.5704073793348
 31
0.0
  0
POLYLINE
  5
E5
  8
0
  6
CONTINUOUS
 62
     7
 66
     1
 10
0.0
 20
0.0
 30
0.0
  0
VERTEX
  5
29C
  8
0
  6
CONTINUOUS
 62
     7
 10
396.2120635828394
 20
327.1831957940942
 30
0.0
  0
VERTEX
  5
29D
  8
0
  6
CONTINUOUS
 62
     7
 10
396.1927278519339
 20
327.1689375198695
 30
0.0
  0
VERTEX
  5
29E
  8
0
  6
CONTINUOUS
 62
     7
 10
396.1740525547699
 20
327.1537145655734
 30
0.0
  0
VERTEX
  5
29F
  8
0
  6
CONTINUOUS
 62
     7
 10
396.1560969913771
 20
327.1375855214641
 30
0.0
  0
VERTEX
  5
2A0
  8
0
  6
CONTINUOUS
 62
     7
 10
396.1389204617858
 20
327.1206089778001
 30
0.0
  0
VERTEX
  5
2A1
  8
0
  6
CONTINUOUS
 62
     7
 10
396.1225822660256
 20
327.1028435248396
 30
0.0
  0
VERTEX
  5
2A2
  8
0
  6
CONTINUOUS
 62
     7
 10
396.1071417041267
 20
327.0843477528409
 30
0.0
  0
VERTEX
  5
2A3
  8
0
  6
CONTINUOUS
 62
     7
 10
396.0926580761188
 20
327.0651802520624
 30
0.0
  0
VERTEX
  5
2A4
  8
0
  6
CONTINUOUS
 62
     7
 10
396.0791317610856
 20
327.045325515452
 30
0.0
  0
VERTEX
  5
2A5
  8
0
  6
CONTINUOUS
 62
     7
 10
396.0665480452844
 20
327.0247790187707
 30
0.0
  0
VERTEX
  5
2A6
  8
0
  6
CONTINUOUS
 62
     7
 10
396.0549434928962
 20
327.0036156919058
 30
0.0
  0
VERTEX
  5
2A7
  8
0
  6
CONTINUOUS
 62
     7
 10
396.0443546681025
 20
326.9819104647444
 30
0.0
  0
VERTEX
  5
2A8
  8
0
  6
CONTINUOUS
 62
     7
 10
396.0348181350845
 20
326.959738267174
 30
0.0
  0
VERTEX
  5
2A9
  8
0
  6
CONTINUOUS
 62
     7
 10
396.0263704580237
 20
326.9371740290817
 30
0.0
  0
VERTEX
  5
2AA
  8
0
  6
CONTINUOUS
 62
     7
 10
396.0190482011012
 20
326.9142926803546
 30
0.0
  0
VERTEX
  5
2AB
  8
0
  6
CONTINUOUS
 62
     7
 10
396.0128571570301
 20
326.891080999771
 30
0.0
  0
VERTEX
  5
2AC
  8
0
  6
CONTINUOUS
 62
     7
 10
396.0077844957441
 20
326.8675286042412
 30
0.0
  0
VERTEX
  5
2AD
  8
0
  6
CONTINUOUS
 62
     7
 10
396.0038399070027
 20
326.8437182955972
 30
0.0
  0
VERTEX
  5
2AE
  8
0
  6
CONTINUOUS
 62
     7
 10
396.0010330805648
 20
326.8197328756708
 30
0.0
  0
VERTEX
  5
2AF
  8
0
  6
CONTINUOUS
 62
     7
 10
395.9993737061897
 20
326.7956551462939
 30
0.0
  0
VERTEX
  5
2B0
  8
0
  6
CONTINUOUS
 62
     7
 10
395.9988714736364
 20
326.7715679092982
 30
0.0
  0
VERTEX
  5
2B1
  8
0
  6
CONTINUOUS
 62
     7
 10
395.9995360726643
 20
326.7475539665157
 30
0.0
  0
VERTEX
  5
2B2
  8
0
  6
CONTINUOUS
 62
     7
 10
396.0013773862818
 20
326.7236022354027
 30
0.0
  0
VERTEX
  5
2B3
  8
0
  6
CONTINUOUS
 62
     7
 10
396.0043867331482
 20
326.6996991997159
 30
0.0
  0
VERTEX
  5
2B4
  8
0
  6
CONTINUOUS
 62
     7
 10
396.0085458427949
 20
326.6759261871166
 30
0.0
  0
VERTEX
  5
2B5
  8
0
  6
CONTINUOUS
 62
     7
 10
396.0138364447533
 20
326.6523645252659
 30
0.0
  0
VERTEX
  5
2B6
  8
0
  6
CONTINUOUS
 62
     7
 10
396.0202402685547
 20
326.6290955418251
 30
0.0
  0
VERTEX
  5
2B7
  8
0
  6
CONTINUOUS
 62
     7
 10
396.0277390437304
 20
326.6062005644553
 30
0.0
  0
VERTEX
  5
2B8
  8
0
  6
CONTINUOUS
 62
     7
 10
396.0363144998118
 20
326.5837609208177
 30
0.0
  0
VERTEX
  5
2B9
  8
0
  6
CONTINUOUS
 62
     7
 10
396.0462097460718
 20
326.561280881422
 30
0.0
  0
VERTEX
  5
2BA
  8
0
  6
CONTINUOUS
 62
     7
 10
396.0572410221901
 20
326.5392530855433
 30
0.0
  0
VERTEX
  5
2BB
  8
0
  6
CONTINUOUS
 62
     7
 10
396.0693608389952
 20
326.5177529102471
 30
0.0
  0
VERTEX
  5
2BC
  8
0
  6
CONTINUOUS
 62
     7
 10
396.082521707316
 20
326.4968557325988
 30
0.0
  0
VERTEX
  5
2BD
  8
0
  6
CONTINUOUS
 62
     7
 10
396.0966761379811
 20
326.4766369296637
 30
0.0
  0
VERTEX
  5
2BE
  8
0
  6
CONTINUOUS
 62
     7
 10
396.1117766418192
 20
326.4571718785073
 30
0.0
  0
VERTEX
  5
2BF
  8
0
  6
CONTINUOUS
 62
     7
 10
396.1277757296591
 20
326.438535956195
 30
0.0
  0
SEQEND
  5
378
  8
0
  6
CONTINUOUS
 62
     7
  0
ARC
  5
E6
  8
0
  6
CONTINUOUS
 62
     7
 10
380.0
 20
311.8739557719929
 30
0.0
 40
21.73090301686138
 50
340.5287793655094
 51
42.08438201674402
  0
ARC
  5
E7
  8
0
  6
CONTINUOUS
 62
     7
 10
380.0
 20
301.3739557719929
 30
0.0
 40
18.23090301686138
 50
295.2530954381589
 51
340.5287793655094
  0
LINE
  5
E8
  8
0
  6
CONTINUOUS
 62
     7
 10
386.5043253562346
 20
279.0739557719929
 30
0.0
 11
386.0043443947025
 21
279.0739557719929
 31
0.0
  0
ARC
  5
E9
  8
0
  6
CONTINUOUS
 62
     7
 10
380.0
 20
311.8739557719929
 30
0.0
 40
21.73090301686138
 50
137.9156179832562
 51
199.4712206344908
  0
ARC
  5
EA
  8
0
  6
CONTINUOUS
 62
     7
 10
361.6930337301267
 20
327.8942845823766
 30
0.0
 40
0.6190969831386202
 50
54.99999999999977
 51
144.9999999999998
  0
LINE
  5
EB
  8
0
  6
CONTINUOUS
 62
     7
 10
362.8117397994974
 20
295.2969880997058
 30
0.0
 11
359.5119081539602
 21
304.6303214330391
 31
0.0
  0
LINE
  5
EC
  8
0
  6
CONTINUOUS
 62
     7
 10
373.9956556052974
 20
279.0739557719929
 30
0.0
 11
373.4956746437654
 21
279.0739557719929
 31
0.0
  0
LINE
  5
ED
  8
0
  6
CONTINUOUS
 62
     7
 10
363.7879364171606
 20
327.1831957940942
 30
0.0
 11
362.048133171471
 21
328.4014191417278
 31
0.0
  0
ARC
  5
EE
  8
0
  6
CONTINUOUS
 62
     7
 10
380.0
 20
301.3739557719929
 30
0.0
 40
18.23090301686138
 50
199.4712206344907
 51
244.7469045618411
  0
LINE
  5
EF
  8
0
  6
CONTINUOUS
 62
     7
 10
397.1882602005026
 20
295.2969880997058
 30
0.0
 11
400.4880918460398
 21
304.6303214330391
 31
0.0
  0
POLYLINE
  5
F0
  8
0
  6
CONTINUOUS
 62
     7
 66
     1
 10
0.0
 20
0.0
 30
0.0
  0
VERTEX
  5
2C0
  8
0
  6
CONTINUOUS
 62
     7
 10
358.3443562887186
 20
327.6987170035441
 30
0.0
  0
VERTEX
  5
2C1
  8
0
  6
CONTINUOUS
 62
     7
 10
358.2962770772623
 20
327.613303833951
 30
0.0
  0
VERTEX
  5
2C2
  8
0
  6
CONTINUOUS
 62
     7
 10
358.2657850385402
 20
327.520153461019
 30
0.0
  0
VERTEX
  5
2C3
  8
0
  6
CONTINUOUS
 62
     7
 10
358.2540518512509
 20
327.4228452553742
 30
0.0
  0
VERTEX
  5
2C4
  8
0
  6
CONTINUOUS
 62
     7
 10
358.2615283716241
 20
327.32511835538
 30
0.0
  0
VERTEX
  5
2C5
  8
0
  6
CONTINUOUS
 62
     7
 10
358.287927308943
 20
327.2307279880335
 30
0.0
  0
VERTEX
  5
2C6
  8
0
  6
CONTINUOUS
 62
     7
 10
358.3322342648985
 20
327.1433011716456
 30
0.0
  0
VERTEX
  5
2C7
  8
0
  6
CONTINUOUS
 62
     7
 10
358.3927467125794
 20
327.0661973450319
 30
0.0
  0
VERTEX
  5
2C8
  8
0
  6
CONTINUOUS
 62
     7
 10
358.4671394173042
 20
327.0023792786406
 30
0.0
  0
SEQEND
  5
379
  8
0
  6
CONTINUOUS
 62
     7
  0
POLYLINE
  5
F1
  8
0
  6
CONTINUOUS
 62
     7
 66
     1
 10
0.0
 20
0.0
 30
0.0
  0
VERTEX
  5
2C9
  8
0
  6
CONTINUOUS
 62
     7
 10
363.8722242703408
 20
326.438535956195
 30
0.0
  0
VERTEX
  5
2CA
  8
0
  6
CONTINUOUS
 62
     7
 10
363.8878838633604
 20
326.4567553420237
 30
0.0
  0
VERTEX
  5
2CB
  8
0
  6
CONTINUOUS
 62
     7
 10
363.9026841101614
 20
326.4757673844256
 30
0.0
  0
VERTEX
  5
2CC
  8
0
  6
CONTINUOUS
 62
     7
 10
363.9165803068358
 20
326.4955017209639
 30
0.0
  0
VERTEX
  5
2CD
  8
0
  6
CONTINUOUS
 62
     7
 10
363.9295277494758
 20
326.5158879892015
 30
0.0
  0
VERTEX
  5
2CE
  8
0
  6
CONTINUOUS
 62
     7
 10
363.9414817341732
 20
326.5368558267018
 30
0.0
  0
VERTEX
  5
2CF
  8
0
  6
CONTINUOUS
 62
     7
 10
363.9523975570202
 20
326.5583348710275
 30
0.0
  0
VERTEX
  5
2D0
  8
0
  6
CONTINUOUS
 62
     7
 10
363.9622305141089
 20
326.5802547597419
 30
0.0
  0
VERTEX
  5
2D1
  8
0
  6
CONTINUOUS
 62
     7
 10
363.9709767698747
 20
326.6026305228423
 30
0.0
  0
VERTEX
  5
2D2
  8
0
  6
CONTINUOUS
 62
     7
 10
363.9786496545685
 20
326.6254698588598
 30
0.0
  0
VERTEX
  5
2D3
  8
0
  6
CONTINUOUS
 62
     7
 10
363.9852302770863
 20
326.6486915609378
 30
0.0
  0
VERTEX
  5
2D4
  8
0
  6
CONTINUOUS
 62
     7
 10
363.9906997463243
 20
326.6722144222198
 30
0.0
  0
VERTEX
  5
2D5
  8
0
  6
CONTINUOUS
 62
     7
 10
363.9950391711784
 20
326.6959572358493
 30
0.0
  0
VERTEX
  5
2D6
  8
0
  6
CONTINUOUS
 62
     7
 10
363.9982296605447
 20
326.7198387949697
 30
0.0
  0
VERTEX
  5
2D7
  8
0
  6
CONTINUOUS
 62
     7
 10
364.0002523233192
 20
326.7437778927244
 30
0.0
  0
VERTEX
  5
2D8
  8
0
  6
CONTINUOUS
 62
     7
 10
364.0010985581908
 20
326.767786121077
 30
0.0
  0
VERTEX
  5
2D9
  8
0
  6
CONTINUOUS
 62
     7
 10
364.0007785498443
 20
326.791876468153
 30
0.0
  0
VERTEX
  5
2DA
  8
0
  6
CONTINUOUS
 62
     7
 10
363.9993013611873
 20
326.8159660611676
 30
0.0
  0
VERTEX
  5
2DB
  8
0
  6
CONTINUOUS
 62
     7
 10
363.9966760551275
 20
326.8399720273358
 30
0.0
  0
VERTEX
  5
2DC
  8
0
  6
CONTINUOUS
 62
     7
 10
363.9929116945725
 20
326.8638114938725
 30
0.0
  0
VERTEX
  5
2DD
  8
0
  6
CONTINUOUS
 62
     7
 10
363.9880173424298
 20
326.8874015879927
 30
0.0
  0
VERTEX
  5
2DE
  8
0
  6
CONTINUOUS
 62
     7
 10
363.982002061607
 20
326.9106594369116
 30
0.0
  0
VERTEX
  5
2DF
  8
0
  6
CONTINUOUS
 62
     7
 10
363.9748537420084
 20
326.9335936337813
 30
0.0
  0
VERTEX
  5
2E0
  8
0
  6
CONTINUOUS
 62
     7
 10
363.9665778242458
 20
326.9562192933028
 30
0.0
  0
VERTEX
  5
2E1
  8
0
  6
CONTINUOUS
 62
     7
 10
363.9572102945686
 20
326.9784612291187
 30
0.0
  0
VERTEX
  5
2E2
  8
0
  6
CONTINUOUS
 62
     7
 10
363.9467871392267
 20
327.0002442548719
 30
0.0
  0
VERTEX
  5
2E3
  8
0
  6
CONTINUOUS
 62
     7
 10
363.9353443444697
 20
327.0214931842047
 30
0.0
  0
VERTEX
  5
2E4
  8
0
  6
CONTINUOUS
 62
     7
 10
363.9229178965472
 20
327.0421328307598
 30
0.0
  0
VERTEX
  5
2E5
  8
0
  6
CONTINUOUS
 62
     7
 10
363.9095437817089
 20
327.06208800818
 30
0.0
  0
VERTEX
  5
2E6
  8
0
  6
CONTINUOUS
 62
     7
 10
363.8948742378907
 20
327.0817875653853
 30
0.0
  0
VERTEX
  5
2E7
  8
0
  6
CONTINUOUS
 62
     7
 10
363.8791984890025
 20
327.1007924000597
 30
0.0
  0
VERTEX
  5
2E8
  8
0
  6
CONTINUOUS
 62
     7
 10
363.86257967072
 20
327.1190396567353
 30
0.0
  0
VERTEX
  5
2E9
  8
0
  6
CONTINUOUS
 62
     7
 10
363.8450809187188
 20
327.1364664799445
 30
0.0
  0
VERTEX
  5
2EA
  8
0
  6
CONTINUOUS
 62
     7
 10
363.8267653686747
 20
327.1530100142193
 30
0.0
  0
VERTEX
  5
2EB
  8
0
  6
CONTINUOUS
 62
     7
 10
363.8076961562634
 20
327.1686074040917
 30
0.0
  0
VERTEX
  5
2EC
  8
0
  6
CONTINUOUS
 62
     7
 10
363.7879364171606
 20
327.1831957940942
 30
0.0
  0
SEQEND
  5
37A
  8
0
  6
CONTINUOUS
 62
     7
  0
ARC
  5
F2
  8
0
  6
CONTINUOUS
 62
     7
 10
398.2049731224948
 20
328.2874224619135
 30
0.0
 40
2.500362487585129
 50
40.47484540354446
 51
124.9904903592811
  0
LINE
  5
F3
  8
0
  6
CONTINUOUS
 62
     7
 10
359.9023321699414
 20
329.9039251784968
 30
0.0
 11
359.7564557406283
 21
329.7154040211106
 31
0.0
  0
POLYLINE
  5
F4
  8
0
  6
CONTINUOUS
 62
     7
 66
     1
 10
0.0
 20
0.0
 30
0.0
  0
VERTEX
  5
2ED
  8
0
  6
CONTINUOUS
 62
     7
 10
363.238144365146
 20
330.3293196640388
 30
0.0
  0
VERTEX
  5
2EE
  8
0
  6
CONTINUOUS
 62
     7
 10
362.8382891050824
 20
330.5575484269375
 30
0.0
  0
VERTEX
  5
2EF
  8
0
  6
CONTINUOUS
 62
     7
 10
362.4033678056965
 20
330.7085800085868
 30
0.0
  0
VERTEX
  5
2F0
  8
0
  6
CONTINUOUS
 62
     7
 10
361.9481301733332
 20
330.77729239845
 30
0.0
  0
VERTEX
  5
2F1
  8
0
  6
CONTINUOUS
 62
     7
 10
361.4880149124294
 20
330.7613553184418
 30
0.0
  0
VERTEX
  5
2F2
  8
0
  6
CONTINUOUS
 62
     7
 10
361.0386261449097
 20
330.6613092508298
 30
0.0
  0
VERTEX
  5
2F3
  8
0
  6
CONTINUOUS
 62
     7
 10
360.6152042196948
 20
330.4805471085855
 30
0.0
  0
VERTEX
  5
2F4
  8
0
  6
CONTINUOUS
 62
     7
 10
360.2321088590281
 20
330.2251991698078
 30
0.0
  0
VERTEX
  5
2F5
  8
0
  6
CONTINUOUS
 62
     7
 10
359.9023321699414
 20
329.9039251784967
 30
0.0
  0
SEQEND
  5
37B
  8
0
  6
CONTINUOUS
 62
     7
  0
POLYLINE
  5
F5
  8
0
  6
CONTINUOUS
 62
     7
 66
     1
 10
0.0
 20
0.0
 30
0.0
  0
VERTEX
  5
2F6
  8
0
  6
CONTINUOUS
 62
     7
 10
390.1683887937177
 20
313.6871977413803
 30
0.0
  0
VERTEX
  5
2F7
  8
0
  6
CONTINUOUS
 62
     7
 10
390.1502455264318
 20
313.702944720909
 30
0.0
  0
VERTEX
  5
2F8
  8
0
  6
CONTINUOUS
 62
     7
 10
390.1328371402982
 20
313.719600941178
 30
0.0
  0
VERTEX
  5
2F9
  8
0
  6
CONTINUOUS
 62
     7
 10
390.1162180968231
 20
313.737103289775
 30
0.0
  0
VERTEX
  5
2FA
  8
0
  6
CONTINUOUS
 62
     7
 10
390.1004428575127
 20
313.7553886542871
 30
0.0
  0
VERTEX
  5
2FB
  8
0
  6
CONTINUOUS
 62
     7
 10
390.0855658838732
 20
313.7743939223017
 30
0.0
  0
VERTEX
  5
2FC
  8
0
  6
CONTINUOUS
 62
     7
 10
390.0716416374109
 20
313.7940559814064
 30
0.0
  0
VERTEX
  5
2FD
  8
0
  6
CONTINUOUS
 62
     7
 10
390.058724579632
 20
313.8143117191883
 30
0.0
  0
VERTEX
  5
2FE
  8
0
  6
CONTINUOUS
 62
     7
 10
390.0468163239237
 20
313.8351765419847
 30
0.0
  0
VERTEX
  5
2FF
  8
0
  6
CONTINUOUS
 62
     7
 10
390.0359025459724
 20
313.8566561413413
 30
0.0
  0
VERTEX
  5
300
  8
0
  6
CONTINUOUS
 62
     7
 10
390.0260137443784
 20
313.8786729260044
 30
0.0
  0
VERTEX
  5
301
  8
0
  6
CONTINUOUS
 62
     7
 10
390.0171804177419
 20
313.9011493047201
 30
0.0
  0
VERTEX
  5
302
  8
0
  6
CONTINUOUS
 62
     7
 10
390.0094330646632
 20
313.9240076862346
 30
0.0
  0
VERTEX
  5
303
  8
0
  6
CONTINUOUS
 62
     7
 10
390.0028021837423
 20
313.9471704792943
 30
0.0
  0
VERTEX
  5
304
  8
0
  6
CONTINUOUS
 62
     7
 10
389.9973182735795
 20
313.9705600926453
 30
0.0
  0
VERTEX
  5
305
  8
0
  6
CONTINUOUS
 62
     7
 10
389.9929880785797
 20
313.9941897085871
 30
0.0
  0
VERTEX
  5
306
  8
0
  6
CONTINUOUS
 62
     7
 10
389.9897997479738
 20
314.0180702400276
 30
0.0
  0
VERTEX
  5
307
  8
0
  6
CONTINUOUS
 62
     7
 10
389.9877563698072
 20
314.0421183813745
 30
0.0
  0
VERTEX
  5
308
  8
0
  6
CONTINUOUS
 62
     7
 10
389.9868610321253
 20
314.0662508270353
 30
0.0
  0
VERTEX
  5
309
  8
0
  6
CONTINUOUS
 62
     7
 10
389.9871168229732
 20
314.0903842714176
 30
0.0
  0
VERTEX
  5
30A
  8
0
  6
CONTINUOUS
 62
     7
 10
389.9885268303964
 20
314.1144354089292
 30
0.0
  0
VERTEX
  5
30B
  8
0
  6
CONTINUOUS
 62
     7
 10
389.9910941424404
 20
314.1383209339776
 30
0.0
  0
VERTEX
  5
30C
  8
0
  6
CONTINUOUS
 62
     7
 10
389.9948295870853
 20
314.1620516581013
 30
0.0
  0
VERTEX
  5
30D
  8
0
  6
CONTINUOUS
 62
     7
 10
389.999725536302
 20
314.1856411897377
 30
0.0
  0
VERTEX
  5
30E
  8
0
  6
CONTINUOUS
 62
     7
 10
390.0057573263168
 20
314.209009906394
 30
0.0
  0
VERTEX
  5
30F
  8
0
  6
CONTINUOUS
 62
     7
 10
390.0129002933559
 20
314.2320781855774
 30
0.0
  0
VERTEX
  5
310
  8
0
  6
CONTINUOUS
 62
     7
 10
390.0211297736458
 20
314.2547664047951
 30
0.0
  0
VERTEX
  5
311
  8
0
  6
CONTINUOUS
 62
     7
 10
390.0304211034129
 20
314.2769949415544
 30
0.0
  0
VERTEX
  5
312
  8
0
  6
CONTINUOUS
 62
     7
 10
390.0407496188834
 20
314.2986841733624
 30
0.0
  0
VERTEX
  5
313
  8
0
  6
CONTINUOUS
 62
     7
 10
390.0513542653313
 20
314.3184969513407
 30
0.0
  0
VERTEX
  5
314
  8
0
  6
CONTINUOUS
 62
     7
 10
390.062838005855
 20
314.3378134833044
 30
0.0
  0
SEQEND
  5
37C
  8
0
  6
CONTINUOUS
 62
     7
  0
POLYLINE
  5
F6
  8
0
  6
CONTINUOUS
 62
     7
 66
     1
 10
0.0
 20
0.0
 30
0.0
  0
VERTEX
  5
315
  8
0
  6
CONTINUOUS
 62
     7
 10
369.937161994145
 20
314.3378134833044
 30
0.0
  0
VERTEX
  5
316
  8
0
  6
CONTINUOUS
 62
     7
 10
369.949396410446
 20
314.3171382669849
 30
0.0
  0
VERTEX
  5
317
  8
0
  6
CONTINUOUS
 62
     7
 10
369.9606461860016
 20
314.295832771652
 30
0.0
  0
VERTEX
  5
318
  8
0
  6
CONTINUOUS
 62
     7
 10
369.97087960515
 20
314.2739740904254
 30
0.0
  0
VERTEX
  5
319
  8
0
  6
CONTINUOUS
 62
     7
 10
369.9800649522293
 20
314.2516393164244
 30
0.0
  0
VERTEX
  5
31A
  8
0
  6
CONTINUOUS
 62
     7
 10
369.9881705115775
 20
314.2289055427686
 30
0.0
  0
VERTEX
  5
31B
  8
0
  6
CONTINUOUS
 62
     7
 10
369.9951645675329
 20
314.2058498625777
 30
0.0
  0
VERTEX
  5
31C
  8
0
  6
CONTINUOUS
 62
     7
 10
370.0010154044334
 20
314.1825493689709
 30
0.0
  0
VERTEX
  5
31D
  8
0
  6
CONTINUOUS
 62
     7
 10
370.0057166210251
 20
314.1589899558437
 30
0.0
  0
VERTEX
  5
31E
  8
0
  6
CONTINUOUS
 62
     7
 10
370.0092800076009
 20
314.1351616950216
 30
0.0
  0
VERTEX
  5
31F
  8
0
  6
CONTINUOUS
 62
     7
 10
370.0117011597727
 20
314.1111478401452
 30
0.0
  0
VERTEX
  5
320
  8
0
  6
CONTINUOUS
 62
     7
 10
370.0129756731528
 20
314.0870316448548
 30
0.0
  0
VERTEX
  5
321
  8
0
  6
CONTINUOUS
 62
     7
 10
370.0130991433531
 20
314.062896362791
 30
0.0
  0
VERTEX
  5
322
  8
0
  6
CONTINUOUS
 62
     7
 10
370.012067165986
 20
314.038825247594
 30
0.0
  0
VERTEX
  5
323
  8
0
  6
CONTINUOUS
 62
     7
 10
370.0098753366634
 20
314.0149015529043
 30
0.0
  0
VERTEX
  5
324
  8
0
  6
CONTINUOUS
 62
     7
 10
370.0065130893921
 20
313.9911149047255
 30
0.0
  0
VERTEX
  5
325
  8
0
  6
CONTINUOUS
 62
     7
 10
370.0019882170848
 20
313.967451203313
 30
0.0
  0
VERTEX
  5
326
  8
0
  6
CONTINUOUS
 62
     7
 10
369.9963241266096
 20
313.9439904578931
 30
0.0
  0
VERTEX
  5
327
  8
0
  6
CONTINUOUS
 62
     7
 10
369.9895442248347
 20
313.9208126776917
 30
0.0
  0
VERTEX
  5
328
  8
0
  6
CONTINUOUS
 62
     7
 10
369.9816719186281
 20
313.8979978719352
 30
0.0
  0
VERTEX
  5
329
  8
0
  6
CONTINUOUS
 62
     7
 10
369.9727306148579
 20
313.8756260498497
 30
0.0
  0
VERTEX
  5
32A
  8
0
  6
CONTINUOUS
 62
     7
 10
369.9627437203923
 20
313.8537772206612
 30
0.0
  0
VERTEX
  5
32B
  8
0
  6
CONTINUOUS
 62
     7
 10
369.9516975446044
 20
313.832444550538
 30
0.0
  0
VERTEX
  5
32C
  8
0
  6
CONTINUOUS
 62
     7
 10
369.9395950220715
 20
313.8116127174477
 30
0.0
  0
VERTEX
  5
32D
  8
0
  6
CONTINUOUS
 62
     7
 10
369.9264847237387
 20
313.791349462858
 30
0.0
  0
VERTEX
  5
32E
  8
0
  6
CONTINUOUS
 62
     7
 10
369.9124152205512
 20
313.7717225282359
 30
0.0
  0
VERTEX
  5
32F
  8
0
  6
CONTINUOUS
 62
     7
 10
369.897435083454
 20
313.7527996550487
 30
0.0
  0
VERTEX
  5
330
  8
0
  6
CONTINUOUS
 62
     7
 10
369.8815928833921
 20
313.7346485847636
 30
0.0
  0
VERTEX
  5
331
  8
0
  6
CONTINUOUS
 62
     7
 10
369.8649371913107
 20
313.7173370588478
 30
0.0
  0
VERTEX
  5
332
  8
0
  6
CONTINUOUS
 62
     7
 10
369.8486127595503
 20
313.70189304301
 30
0.0
  0
VERTEX
  5
333
  8
0
  6
CONTINUOUS
 62
     7
 10
369.8316112062823
 20
313.6871977413803
 30
0.0
  0
SEQEND
  5
37D
  8
0
  6
CONTINUOUS
 62
     7
  0
POLYLINE
  5
F7
  8
0
  6
CONTINUOUS
 62
     7
 66
     1
 10
0.0
 20
0.0
 30
0.0
  0
VERTEX
  5
334
  8
0
  6
CONTINUOUS
 62
     7
 10
367.5151805543998
 20
327.3345066831275
 30
0.0
  0
VERTEX
  5
335
  8
0
  6
CONTINUOUS
 62
     7
 10
367.53451568212
 20
327.3202488295931
 30
0.0
  0
VERTEX
  5
336
  8
0
  6
CONTINUOUS
 62
     7
 10
367.5531903747384
 20
327.3050262996183
 30
0.0
  0
VERTEX
  5
337
  8
0
  6
CONTINUOUS
 62
     7
 10
367.5711453378294
 20
327.2888976885488
 30
0.0
  0
VERTEX
  5
338
  8
0
  6
CONTINUOUS
 62
     7
 10
367.5883212769677
 20
327.2719215917299
 30
0.0
  0
VERTEX
  5
339
  8
0
  6
CONTINUOUS
 62
     7
 10
367.6046588977282
 20
327.2541566045073
 30
0.0
  0
VERTEX
  5
33A
  8
0
  6
CONTINUOUS
 62
     7
 10
367.6200989056852
 20
327.2356613222261
 30
0.0
  0
VERTEX
  5
33B
  8
0
  6
CONTINUOUS
 62
     7
 10
367.6345820064135
 20
327.2164943402321
 30
0.0
  0
VERTEX
  5
33C
  8
0
  6
CONTINUOUS
 62
     7
 10
367.6481078085303
 20
327.1966401889987
 30
0.0
  0
VERTEX
  5
33D
  8
0
  6
CONTINUOUS
 62
     7
 10
367.6606910557485
 20
327.1760943211557
 30
0.0
  0
VERTEX
  5
33E
  8
0
  6
CONTINUOUS
 62
     7
 10
367.6722951944436
 20
327.1549316621241
 30
0.0
  0
VERTEX
  5
33F
  8
0
  6
CONTINUOUS
 62
     7
 10
367.682883670991
 20
327.1332271373249
 30
0.0
  0
VERTEX
  5
340
  8
0
  6
CONTINUOUS
 62
     7
 10
367.6924199317662
 20
327.1110556721789
 30
0.0
  0
VERTEX
  5
341
  8
0
  6
CONTINUOUS
 62
     7
 10
367.7008674231444
 20
327.088492192107
 30
0.0
  0
VERTEX
  5
342
  8
0
  6
CONTINUOUS
 62
     7
 10
367.7081895915014
 20
327.0656116225303
 30
0.0
  0
VERTEX
  5
343
  8
0
  6
CONTINUOUS
 62
     7
 10
367.7143808465663
 20
327.0423999431206
 30
0.0
  0
VERTEX
  5
344
  8
0
  6
CONTINUOUS
 62
     7
 10
367.7194537529155
 20
327.0188475521417
 30
0.0
  0
VERTEX
  5
345
  8
0
  6
CONTINUOUS
 62
     7
 10
367.7233986249098
 20
326.9950372454258
 30
0.0
  0
VERTEX
  5
346
  8
0
  6
CONTINUOUS
 62
     7
 10
367.7262057769098
 20
326.9710518188051
 30
0.0
  0
VERTEX
  5
347
  8
0
  6
CONTINUOUS
 62
     7
 10
367.7278655232763
 20
326.9469740681115
 30
0.0
  0
VERTEX
  5
348
  8
0
  6
CONTINUOUS
 62
     7
 10
367.7283681783699
 20
326.9228867891772
 30
0.0
  0
VERTEX
  5
349
  8
0
  6
CONTINUOUS
 62
     7
 10
367.7277040565514
 20
326.8988727778342
 30
0.0
  0
VERTEX
  5
34A
  8
0
  6
CONTINUOUS
 62
     7
 10
367.7256934409098
 20
326.8731607487282
 30
0.0
  0
VERTEX
  5
34B
  8
0
  6
CONTINUOUS
 62
     7
 10
367.722358750999
 20
326.8475693778914
 30
0.0
  0
VERTEX
  5
34C
  8
0
  6
CONTINUOUS
 62
     7
 10
367.7177132896811
 20
326.822200681932
 30
0.0
  0
SEQEND
  5
37E
  8
0
  6
CONTINUOUS
 62
     7
  0
POLYLINE
  5
F8
  8
0
  6
CONTINUOUS
 62
     7
 66
     1
 10
0.0
 20
0.0
 30
0.0
  0
VERTEX
  5
34D
  8
0
  6
CONTINUOUS
 62
     7
 10
392.2822867103189
 20
326.8222006819321
 30
0.0
  0
VERTEX
  5
34E
  8
0
  6
CONTINUOUS
 62
     7
 10
392.2779279708665
 20
326.8458255616512
 30
0.0
  0
VERTEX
  5
34F
  8
0
  6
CONTINUOUS
 62
     7
 10
392.2747107764312
 20
326.8697027311481
 30
0.0
  0
VERTEX
  5
350
  8
0
  6
CONTINUOUS
 62
     7
 10
392.2726383248735
 20
326.8937488896598
 30
0.0
  0
VERTEX
  5
351
  8
0
  6
CONTINUOUS
 62
     7
 10
392.2717138140536
 20
326.9178807364235
 30
0.0
  0
VERTEX
  5
352
  8
0
  6
CONTINUOUS
 62
     7
 10
392.2719404418318
 20
326.9420149706765
 30
0.0
  0
VERTEX
  5
353
  8
0
  6
CONTINUOUS
 62
     7
 10
392.2733214060685
 20
326.966068291656
 30
0.0
  0
VERTEX
  5
354
  8
0
  6
CONTINUOUS
 62
     7
 10
392.2758599046239
 20
326.9899573985992
 30
0.0
  0
VERTEX
  5
355
  8
0
  6
CONTINUOUS
 62
     7
 10
392.279566801137
 20
327.0136933115233
 30
0.0
  0
VERTEX
  5
356
  8
0
  6
CONTINUOUS
 62
     7
 10
392.2844344470582
 20
327.0372894302541
 30
0.0
  0
VERTEX
  5
357
  8
0
  6
CONTINUOUS
 62
     7
 10
392.2904382804726
 20
327.0606660886224
 30
0.0
  0
VERTEX
  5
358
  8
0
  6
CONTINUOUS
 62
     7
 10
392.2975537394653
 20
327.0837436204591
 30
0.0
  0
VERTEX
  5
359
  8
0
  6
CONTINUOUS
 62
     7
 10
392.3057562621216
 20
327.106442359595
 30
0.0
  0
VERTEX
  5
35A
  8
0
  6
CONTINUOUS
 62
     7
 10
392.3150212865267
 20
327.1286826398609
 30
0.0
  0
VERTEX
  5
35B
  8
0
  6
CONTINUOUS
 62
     7
 10
392.3253242507658
 20
327.1503847950877
 30
0.0
  0
VERTEX
  5
35C
  8
0
  6
CONTINUOUS
 62
     7
 10
392.336678820987
 20
327.171555232858
 30
0.0
  0
VERTEX
  5
35D
  8
0
  6
CONTINUOUS
 62
     7
 10
392.349082394865
 20
327.1922095509221
 30
0.0
  0
VERTEX
  5
35E
  8
0
  6
CONTINUOUS
 62
     7
 10
392.3624854239451
 20
327.2122807126329
 30
0.0
  0
VERTEX
  5
35F
  8
0
  6
CONTINUOUS
 62
     7
 10
392.3768383597726
 20
327.2317016813435
 30
0.0
  0
VERTEX
  5
360
  8
0
  6
CONTINUOUS
 62
     7
 10
392.3920916538927
 20
327.2504054204066
 30
0.0
  0
VERTEX
  5
361
  8
0
  6
CONTINUOUS
 62
     7
 10
392.4081957578508
 20
327.2683248931752
 30
0.0
  0
VERTEX
  5
362
  8
0
  6
CONTINUOUS
 62
     7
 10
392.425101123192
 20
327.2853930630022
 30
0.0
  0
VERTEX
  5
363
  8
0
  6
CONTINUOUS
 62
     7
 10
392.4441500884432
 20
327.3027794927366
 30
0.0
  0
VERTEX
  5
364
  8
0
  6
CONTINUOUS
 62
     7
 10
392.464082684456
 20
327.3191724800891
 30
0.0
  0
VERTEX
  5
365
  8
0
  6
CONTINUOUS
 62
     7
 10
392.4848194456002
 20
327.3345066831275
 30
0.0
  0
SEQEND
  5
37F
  8
0
  6
CONTINUOUS
 62
     7
  0
ARC
  5
F9
  8
0
  6
CONTINUOUS
 62
     7
 10
388.6315422005097
 20
283.0760930755607
 30
0.0
 40
2.000639235047876
 50
115.2660831680483
 51
179.9870122701105
  0
LINE
  5
FA
  8
0
  6
CONTINUOUS
 62
     7
 10
373.3690969831385
 20
279.0739557719929
 30
0.0
 11
373.3690969831385
 21
283.0765465777556
 31
0.0
  0
LINE
  5
FB
  8
0
  6
CONTINUOUS
 62
     7
 10
373.4956746437654
 20
279.0739557719929
 30
0.0
 11
373.3690969831385
 21
279.0739557719929
 31
0.0
  0
ARC
  5
FC
  8
0
  6
CONTINUOUS
 62
     7
 10
375.6753555447254
 20
323.3350686677398
 30
0.0
 40
16.96909698313862
 50
327.9800753708383
 51
11.85871004590246
  0
LINE
  5
FD
  8
0
  6
CONTINUOUS
 62
     7
 10
396.7618556348541
 20
330.3293196640388
 30
0.0
 11
392.4848194456002
 21
327.3345066831275
 31
0.0
  0
LINE
  5
FE
  8
0
  6
CONTINUOUS
 62
     7
 10
396.7711640822771
 20
330.3358375090934
 30
0.0
 11
396.761855634854
 21
330.3293196640388
 31
0.0
  0
ARC
  5
FF
  8
0
  6
CONTINUOUS
 62
     7
 10
384.3246444552746
 20
323.3350686677399
 30
0.0
 40
16.96909698313862
 50
168.1412899540979
 51
212.0199246291617
  0
LINE
  5
100
  8
0
  6
CONTINUOUS
 62
     7
 10
375.6309030168613
 20
286.0141689893316
 30
0.0
 11
375.7356635080112
 21
285.8760743559143
 31
0.0
  0
LINE
  5
101
  8
0
  6
CONTINUOUS
 62
     7
 10
363.238144365146
 20
330.3293196640388
 30
0.0
 11
367.5151805543998
 21
327.3345066831275
 31
0.0
  0
LINE
  5
102
  8
0
  6
CONTINUOUS
 62
     7
 10
358.3443562887186
 20
327.6987170035441
 30
0.0
 11
359.7564557406283
 21
329.7154040211106
 31
0.0
  0
LINE
  5
103
  8
0
  6
CONTINUOUS
 62
     7
 10
386.6309030168614
 20
279.0739557719929
 30
0.0
 11
386.6309030168614
 21
283.0765465777556
 31
0.0
  0
LINE
  5
104
  8
0
  6
CONTINUOUS
 62
     7
 10
386.5043253562346
 20
279.0739557719929
 30
0.0
 11
386.6309030168614
 21
279.0739557719929
 31
0.0
  0
ARC
  5
105
  8
0
  6
CONTINUOUS
 62
     7
 10
380.0
 20
301.3739557719929
 30
0.0
 40
15.96909698313862
 50
285.8784217981718
 51
50.44979166878761
  0
ARC
  5
106
  8
0
  6
CONTINUOUS
 62
     7
 10
371.3684577994917
 20
283.0760930755615
 30
0.0
 40
2.000639235046524
 50
0.0129877298649352
 51
64.7339168319762
  0
LINE
  5
107
  8
0
  6
CONTINUOUS
 62
     7
 10
384.2643364919887
 20
285.8760743559143
 30
0.0
 11
384.3690969831386
 21
286.0141689893316
 31
0.0
  0
ARC
  5
108
  8
0
  6
CONTINUOUS
 62
     7
 10
380.0
 20
301.3739557719929
 30
0.0
 40
15.96909698313862
 50
129.5502083312125
 51
254.1215782018282
  0
ARC
  5
109
  8
0
  6
CONTINUOUS
 62
     7
 10
360.1035897551133
 20
326.9319084343487
 30
0.0
 40
0.8809030168613822
 50
324.9999999999997
 51
46.45414227854178
  0
LINE
  5
10A
  8
0
  6
CONTINUOUS
 62
     7
 10
363.2288359177229
 20
330.3358375090934
 30
0.0
 11
363.238144365146
 21
330.3293196640388
 31
0.0
  0
LINE
  5
10B
  8
0
  6
CONTINUOUS
 62
     7
 10
400.2435442593717
 20
329.7154040211106
 30
0.0
 11
400.0976678300586
 21
329.9039251784968
 31
0.0
  0
LINE
  5
10C
  8
0
  6
CONTINUOUS
 62
     7
 10
401.6556437112814
 20
327.6987170035441
 30
0.0
 11
400.2435442593717
 21
329.7154040211106
 31
0.0
  0
POLYLINE
  5
10D
  8
0
  6
CONTINUOUS
 62
     7
 66
     1
 10
0.0
 20
0.0
 30
0.0
  0
VERTEX
  5
366
  8
0
  6
CONTINUOUS
 62
     7
 10
401.5328605826957
 20
327.0023792786406
 30
0.0
  0
VERTEX
  5
367
  8
0
  6
CONTINUOUS
 62
     7
 10
401.6072532874205
 20
327.0661973450319
 30
0.0
  0
VERTEX
  5
368
  8
0
  6
CONTINUOUS
 62
     7
 10
401.6677657351015
 20
327.1433011716456
 30
0.0
  0
VERTEX
  5
369
  8
0
  6
CONTINUOUS
 62
     7
 10
401.7120726910569
 20
327.2307279880335
 30
0.0
  0
VERTEX
  5
36A
  8
0
  6
CONTINUOUS
 62
     7
 10
401.7384716283758
 20
327.32511835538
 30
0.0
  0
VERTEX
  5
36B
  8
0
  6
CONTINUOUS
 62
     7
 10
401.7459481487491
 20
327.4228452553742
 30
0.0
  0
VERTEX
  5
36C
  8
0
  6
CONTINUOUS
 62
     7
 10
401.7342149614597
 20
327.520153461019
 30
0.0
  0
VERTEX
  5
36D
  8
0
  6
CONTINUOUS
 62
     7
 10
401.7037229227377
 20
327.613303833951
 30
0.0
  0
VERTEX
  5
36E
  8
0
  6
CONTINUOUS
 62
     7
 10
401.6556437112814
 20
327.6987170035441
 30
0.0
  0
SEQEND
  5
380
  8
0
  6
CONTINUOUS
 62
     7
  0
LINE
  5
10E
  8
0
  6
CONTINUOUS
 62
     7
 10
400.401675458069
 20
326.2103149272663
 30
0.0
 11
401.5328605826958
 21
327.0023792786407
 31
0.0
  0
ARC
  5
10F
  8
0
  6
CONTINUOUS
 62
     7
 10
399.8964102448867
 20
326.9319084343487
 30
0.0
 40
0.8809030168613826
 50
214.9999999999997
 51
305.0
  0
ARC
  5
110
  8
0
  6
CONTINUOUS
 62
     7
 10
399.8964102448867
 20
326.9319084343487
 30
0.0
 40
0.8809030168613822
 50
133.5458577214582
 51
215.0000000000003
  0
LINE
  5
111
  8
0
  6
CONTINUOUS
 62
     7
 10
398.8141008292244
 20
328.249384023721
 30
0.0
 11
399.2895253938919
 21
327.5704073793348
 31
0.0
  0
ARC
  5
112
  8
0
  6
CONTINUOUS
 62
     7
 10
398.3069662698733
 20
327.8942845823766
 30
0.0
 40
0.6190969831386182
 50
35.00000000000017
 51
124.9999999999996
  0
LINE
  5
113
  8
0
  6
CONTINUOUS
 62
     7
 10
383.7643555304566
 20
285.7426541444237
 30
0.0
 11
384.2643364919887
 21
285.8760743559143
 31
0.0
  0
LINE
  5
114
  8
0
  6
CONTINUOUS
 62
     7
 10
375.7356635080113
 20
285.8760743559143
 30
0.0
 11
376.2356444695434
 21
285.7426541444237
 31
0.0
  0
ARC
  5
115
  8
0
  6
CONTINUOUS
 62
     7
 10
380.0
 20
301.3739557719929
 30
0.0
 40
16.07818283052311
 50
256.4597630105866
 51
283.5402369894132
  0
ENDBLK
  8
0
  0
ENDSEC
  0
SECTION
  2
ENTITIES
  0
LINE
  5
6F
  8
0
  6
CENTER
 62
     1
 10
375.25
 20
230.0
 30
0.0
 11
384.75
 21
230.0
 31
0.0
  0
LINE
  5
71
  8
0
  6
CENTER
 62
     1
 10
380.0
 20
225.25
 30
0.0
 11
380.0
 21
234.75
 31
0.0
  0
LINE
  5
72
  8
0
  6
CENTER
 62
     1
 10
362.0309030168614
 20
301.3739557719929
 30
0.0
 11
397.9690969831386
 21
301.3739557719929
 31
0.0
  0
LINE
  5
73
  8
0
  6
CENTER
 62
     1
 10
380.0
 20
283.4048587888543
 30
0.0
 11
380.0
 21
319.3430527551316
 31
0.0
  0
INSERT
  5
9E
  8
0
  6
CONTINUOUS
 62
     7
  2
D_FRAME_VIEW_1667
 10
0.0
 20
0.0
 30
0.0
  0
INSERT
  5
CC
  8
0
  6
CONTINUOUS
 62
     7
  2
D_FRAME_VIEW_1832
 10
0.0
 20
0.0
 30
0.0
  0
INSERT
  5
116
  8
0
  6
CONTINUOUS
 62
     7
  2
D_FRAME_VIEW_1489
 10
0.0
 20
0.0
 30
0.0
  0
POINT
  5
117
  8
0
 62
     7
 10
470.0
 20
330.1313200703706
 30
0.0
  0
TEXT
  5
118
  8
0
  6
CONTINUOUS
 62
     7
 10
445.0218050518944
 20
249.6852382143304
 30
0.0
 40
3.0
  1
RM-25SP
  0
LINE
  5
119
  8
0
  6
CONTINUOUS
 62
     7
 10
384.2643364919887
 20
285.8760743559143
 30
0.0
 11
384.2643364919887
 21
281.3739557719929
 31
0.0
  0
LINE
  5
11A
  8
0
  6
CONTINUOUS
 62
     7
 10
375.7356635080113
 20
281.3739557719929
 30
0.0
 11
384.2643364919887
 21
281.3739557719929
 31
0.0
  0
LINE
  5
11B
  8
0
  6
CONTINUOUS
 62
     7
 10
375.7356635080113
 20
281.3739557719929
 30
0.0
 11
375.7356635080113
 21
285.8760743559143
 31
0.0
  0
LINE
  5
11C
  8
0
  6
CONTINUOUS
 62
     7
 10
470.0
 20
330.1313200703706
 30
0.0
 11
470.0
 21
329.252338409984
 31
0.0
  0
ENDSEC
  0
EOF
