  0
SECTION
  2
HEADER
  9
$ACADVER
  1
AC1006
  9
$DWGCODEPAGE
  3
ansi_932
  9
$INSBASE
 10
0.0
 20
0.0
 30
0.0
  9
$EXTMIN
 10
623.3333333333334
 20
-12.40909090909088
  9
$EXTMAX
 10
2745.833333333333
 20
2152.5
  9
$LIMMIN
 10
0.0
 20
0.0
  9
$LIMMAX
 10
12.0
 20
9.0
  9
$ORTHOMODE
 70
     0
  9
$REGENMODE
 70
     1
  9
$FILLMODE
 70
     1
  9
$QTEXTMODE
 70
     0
  9
$MIRRTEXT
 70
     1
  9
$DRAGMODE
 70
     2
  9
$LTSCALE
 40
1.0
  9
$OSMODE
 70
    37
  9
$ATTMODE
 70
     1
  9
$TEXTSIZE
 40
0.2
  9
$TRACEWID
 40
0.05
  9
$TEXTSTYLE
  7
STANDARD
  9
$CLAYER
  8
0
  9
$CELTYPE
  6
BYLAYER
  9
$CECOLOR
 62
   256
  9
$DIMSCALE
 40
1.0
  9
$DIMASZ
 40
3.0
  9
$DIMEXO
 40
0.0625
  9
$DIMDLI
 40
0.38
  9
$DIMRND
 40
0.0
  9
$DIMDLE
 40
0.0
  9
$DIMEXE
 40
1.5
  9
$DIMTP
 40
0.0
  9
$DIMTM
 40
0.0
  9
$DIMTXT
 40
3.0
  9
$DIMCEN
 40
0.09
  9
$DIMTSZ
 40
0.0
  9
$DIMTOL
 70
     0
  9
$DIMLIM
 70
     0
  9
$DIMTIH
 70
     1
  9
$DIMTOH
 70
     1
  9
$DIMSE1
 70
     0
  9
$DIMSE2
 70
     0
  9
$DIMTAD
 70
     1
  9
$DIMZIN
 70
     0
  9
$DIMBLK
  1

  9
$DIMASO
 70
     1
  9
$DIMSHO
 70
     1
  9
$DIMPOST
  1

  9
$DIMAPOST
  1

  9
$DIMALT
 70
     0
  9
$DIMALTD
 70
     2
  9
$DIMALTF
 40
25.4
  9
$DIMLFAC
 40
1.0
  9
$DIMTOFL
 70
     0
  9
$DIMTVP
 40
0.0
  9
$DIMTIX
 70
     0
  9
$DIMSOXD
 70
     0
  9
$DIMSAH
 70
     0
  9
$DIMBLK1
  1

  9
$DIMBLK2
  1

  9
$LUNITS
 70
     2
  9
$LUPREC
 70
     4
  9
$SKETCHINC
 40
0.1
  9
$FILLETRAD
 40
0.5
  9
$AUNITS
 70
     0
  9
$AUPREC
 70
     0
  9
$MENU
  1
.
  9
$ELEVATION
 40
0.0
  9
$THICKNESS
 40
0.0
  9
$LIMCHECK
 70
     0
  9
$CHAMFERA
 40
0.0
  9
$CHAMFERB
 40
0.0
  9
$SKPOLY
 70
     0
  9
$TDCREATE
 40
2459871.420074086
  9
$TDUPDATE
 40
2459871.420074201
  9
$TDINDWG
 40
0.0000000116
  9
$TDUSRTIMER
 40
0.0000000116
  9
$USRTIMER
 70
     1
  9
$ANGBASE
 50
0.0
  9
$ANGDIR
 70
     0
  9
$PDMODE
 70
     0
  9
$PDSIZE
 40
0.0
  9
$PLINEWID
 40
0.0
  9
$COORDS
 70
     1
  9
$SPLFRAME
 70
     0
  9
$SPLINETYPE
 70
     6
  9
$SPLINESEGS
 70
     8
  9
$ATTDIA
 70
     0
  9
$ATTREQ
 70
     1
  9
$HANDLING
 70
     1
  9
$HANDSEED
  5
16E
  9
$SURFTAB1
 70
     6
  9
$SURFTAB2
 70
     6
  9
$SURFTYPE
 70
     6
  9
$SURFU
 70
     6
  9
$SURFV
 70
     6
  9
$UCSNAME
  2

  9
$UCSORG
 10
0.0
 20
0.0
 30
0.0
  9
$UCSXDIR
 10
1.0
 20
0.0
 30
0.0
  9
$UCSYDIR
 10
0.0
 20
1.0
 30
0.0
  9
$USERI1
 70
     0
  9
$USERI2
 70
     0
  9
$USERI3
 70
     0
  9
$USERI4
 70
     0
  9
$USERI5
 70
     0
  9
$USERR1
 40
0.0
  9
$USERR2
 40
0.0
  9
$USERR3
 40
0.0
  9
$USERR4
 40
0.0
  9
$USERR5
 40
0.0
  9
$WORLDVIEW
 70
     1
  0
ENDSEC
  0
SECTION
  2
TABLES
  0
TABLE
  2
VPORT
 70
     1
  0
VPORT
  2
*ACTIVE
 70
     0
 10
0.0
 20
0.0
 11
1.0
 21
1.0
 12
1684.583333333333
 22
1070.045454545455
 13
0.0
 23
0.0
 14
0.5
 24
0.5
 15
0.5
 25
0.5
 16
0.0
 26
0.0
 36
1.0
 17
0.0
 27
0.0
 37
0.0
 40
2164.909090909091
 41
1.6
 42
50.0
 43
0.0
 44
0.0
 50
0.0
 51
0.0
 71
     0
 72
   100
 73
     1
 74
     3
 75
     0
 76
     0
 77
     0
 78
     0
  0
ENDTAB
  0
TABLE
  2
LTYPE
 70
     2
  0
LTYPE
  2
CONTINUOUS
 70
     0
  3
Solid line
 72
    65
 73
     0
 40
0.0
  0
LTYPE
  2
CENTER
 70
     0
  3

 72
    65
 73
     0
 40
0.0
  0
ENDTAB
  0
TABLE
  2
LAYER
 70
     2
  0
LAYER
  2
0
 70
     0
 62
     7
  6
CONTINUOUS
  0
LAYER
  2
1
 70
     0
 62
     7
  6
CONTINUOUS
  0
ENDTAB
  0
TABLE
  2
STYLE
 70
     2
  0
STYLE
  2
STANDARD
 70
     0
 40
0.0
 41
1.0
 50
0.0
 71
     0
 42
0.2
  3
txt
  4

  0
STYLE
  2
ＭＳ_ゴシック
 70
     0
 40
0.0
 41
1.0
 50
0.0
 71
     0
 42
0.2
  3
ＭＳ ゴシック.shx
  4

  0
ENDTAB
  0
TABLE
  2
VIEW
 70
     0
  0
ENDTAB
  0
TABLE
  2
UCS
 70
     0
  0
ENDTAB
  0
ENDSEC
  0
SECTION
  2
BLOCKS
  0
BLOCK
  8
0
  2
D_FRAME_VIEW_1491
 70
     0
 10
0.0
 20
0.0
 30
0.0
  0
LINE
  5
72
  8
1
  6
CONTINUOUS
 62
     7
 10
638.8333333333334
 20
152.5
 30
0.0
 11
638.8333333333334
 21
272.5
 31
0.0
  0
LINE
  5
73
  8
1
  6
CONTINUOUS
 62
     7
 10
638.8333333333334
 20
152.5
 30
0.0
 11
672.8333333333336
 21
152.5
 31
0.0
  0
LINE
  5
74
  8
1
  6
CONTINUOUS
 62
     7
 10
626.6167307338056
 20
152.5
 30
0.0
 11
638.8333333333334
 21
152.5
 31
0.0
  0
LINE
  5
75
  8
1
  6
CONTINUOUS
 62
     7
 10
685.0499359328611
 20
152.5
 30
0.0
 11
672.8333333333334
 21
152.5
 31
0.0
  0
LINE
  5
76
  8
1
  6
CONTINUOUS
 62
     7
 10
623.3333333333334
 20
152.5
 30
0.0
 11
623.3333333333334
 21
272.5
 31
0.0
  0
LINE
  5
77
  8
1
  6
CONTINUOUS
 62
     7
 10
623.3333333333334
 20
152.5
 30
0.0
 11
626.6167307338056
 21
152.5
 31
0.0
  0
LINE
  5
78
  8
1
  6
CONTINUOUS
 62
     7
 10
688.3333333333334
 20
152.5
 30
0.0
 11
685.0499359328611
 21
152.5
 31
0.0
  0
ENDBLK
  8
0
  0
BLOCK
  8
0
  2
D_FRAME_VIEW_1724
 70
     0
 10
0.0
 20
0.0
 30
0.0
  0
LINE
  5
8C
  8
1
  6
CONTINUOUS
 62
     7
 10
648.4333333333334
 20
41.00000000000011
 30
0.0
 11
647.8333333333334
 21
41.00000000000011
 31
0.0
  0
ARC
  5
8D
  8
1
  6
CONTINUOUS
 62
     7
 10
648.4333333333334
 20
40.50000000000011
 30
0.0
 40
0.5000000000000004
 50
0.0
 51
90.0
  0
LINE
  5
8E
  8
1
  6
CONTINUOUS
 62
     7
 10
648.9333333333334
 20
39.50000000000012
 30
0.0
 11
648.9333333333334
 21
40.50000000000011
 31
0.0
  0
ARC
  5
8F
  8
1
  6
CONTINUOUS
 62
     7
 10
648.4333333333334
 20
39.50000000000012
 30
0.0
 40
0.4999999999999449
 50
270.0
 51
0.0
  0
LINE
  5
90
  8
1
  6
CONTINUOUS
 62
     7
 10
647.8333333333334
 20
39.00000000000011
 30
0.0
 11
648.4333333333334
 21
39.00000000000011
 31
0.0
  0
ARC
  5
91
  8
1
  6
CONTINUOUS
 62
     7
 10
647.8333333333334
 20
38.50000000000011
 30
0.0
 40
0.4999999999999449
 50
90.0
 51
180.0
  0
LINE
  5
92
  8
1
  6
CONTINUOUS
 62
     7
 10
647.3333333333334
 20
37.50000000000011
 30
0.0
 11
647.3333333333334
 21
38.50000000000011
 31
0.0
  0
ARC
  5
93
  8
1
  6
CONTINUOUS
 62
     7
 10
647.8333333333334
 20
37.50000000000011
 30
0.0
 40
0.5000000000000004
 50
180.0
 51
270.0
  0
LINE
  5
94
  8
1
  6
CONTINUOUS
 62
     7
 10
655.3333333333333
 20
37.00000000000011
 30
0.0
 11
647.8333333333334
 21
37.00000000000011
 31
0.0
  0
LINE
  5
95
  8
1
  6
CONTINUOUS
 62
     7
 10
655.3333333333333
 20
37.00000000000011
 30
0.0
 11
655.8333333333334
 21
36.50000000000006
 31
0.0
  0
LINE
  5
96
  8
1
  6
CONTINUOUS
 62
     7
 10
655.8333333333334
 20
36.50000000000006
 30
0.0
 11
656.3333333333333
 21
37.00000000000011
 31
0.0
  0
LINE
  5
97
  8
1
  6
CONTINUOUS
 62
     7
 10
663.8333333333334
 20
37.00000000000011
 30
0.0
 11
656.3333333333333
 21
37.00000000000011
 31
0.0
  0
ARC
  5
98
  8
1
  6
CONTINUOUS
 62
     7
 10
663.8333333333334
 20
37.50000000000011
 30
0.0
 40
0.4999999999999449
 50
270.0
 51
0.0
  0
LINE
  5
99
  8
1
  6
CONTINUOUS
 62
     7
 10
664.3333333333334
 20
38.50000000000011
 30
0.0
 11
664.3333333333334
 21
37.50000000000011
 31
0.0
  0
ARC
  5
9A
  8
1
  6
CONTINUOUS
 62
     7
 10
663.8333333333334
 20
38.50000000000011
 30
0.0
 40
0.5000000000000004
 50
0.0
 51
90.0
  0
LINE
  5
9B
  8
1
  6
CONTINUOUS
 62
     7
 10
663.2333333333333
 20
39.00000000000011
 30
0.0
 11
663.8333333333334
 21
39.00000000000011
 31
0.0
  0
ARC
  5
9C
  8
1
  6
CONTINUOUS
 62
     7
 10
663.2333333333333
 20
39.50000000000011
 30
0.0
 40
0.5000000000000004
 50
180.0
 51
270.0
  0
LINE
  5
9D
  8
1
  6
CONTINUOUS
 62
     7
 10
662.7333333333333
 20
40.50000000000011
 30
0.0
 11
662.7333333333333
 21
39.50000000000011
 31
0.0
  0
ARC
  5
9E
  8
1
  6
CONTINUOUS
 62
     7
 10
663.2333333333333
 20
40.50000000000011
 30
0.0
 40
0.4999999999999449
 50
90.0
 51
180.0
  0
LINE
  5
9F
  8
1
  6
CONTINUOUS
 62
     7
 10
663.8333333333334
 20
41.00000000000011
 30
0.0
 11
663.2333333333333
 21
41.00000000000011
 31
0.0
  0
ARC
  5
A0
  8
1
  6
CONTINUOUS
 62
     7
 10
663.8333333333334
 20
41.50000000000011
 30
0.0
 40
0.4999999999999449
 50
270.0
 51
0.0
  0
LINE
  5
A1
  8
1
  6
CONTINUOUS
 62
     7
 10
664.3333333333334
 20
43.25013513612236
 30
0.0
 11
664.3333333333334
 21
41.50000000000011
 31
0.0
  0
ARC
  5
A2
  8
1
  6
CONTINUOUS
 62
     7
 10
676.8333333333334
 20
43.25013513612236
 30
0.0
 40
12.50000000000004
 50
127.1172634671791
 51
180.0
  0
ARC
  5
A3
  8
1
  6
CONTINUOUS
 62
     7
 10
669.8333333333334
 20
52.50000000000011
 30
0.0
 40
0.9000000000000264
 50
307.117263467179
 51
127.117263467179
  0
ARC
  5
A4
  8
1
  6
CONTINUOUS
 62
     7
 10
676.8333333333334
 20
43.25013513612236
 30
0.0
 40
10.70000000000004
 50
127.117263467179
 51
180.0
  0
LINE
  5
A5
  8
1
  6
CONTINUOUS
 62
     7
 10
666.1333333333333
 20
42.41421356237321
 30
0.0
 11
666.1333333333333
 21
43.25013513612237
 31
0.0
  0
ARC
  5
A6
  8
1
  6
CONTINUOUS
 62
     7
 10
665.6333333333334
 20
42.41421356237321
 30
0.0
 40
0.4999999999999449
 50
289.4712206344907
 51
0.0
  0
ARC
  5
A7
  8
1
  6
CONTINUOUS
 62
     7
 10
666.1333333333333
 20
41.00000000000011
 30
0.0
 40
0.9999999999999911
 50
109.4712206344908
 51
340.5287793655093
  0
ARC
  5
A8
  8
1
  6
CONTINUOUS
 62
     7
 10
667.5475468957064
 20
40.50000000000011
 30
0.0
 40
0.5000000000000516
 50
90.0
 51
160.5287793655093
  0
LINE
  5
A9
  8
1
  6
CONTINUOUS
 62
     7
 10
674.8333333333334
 20
41.00000000000011
 30
0.0
 11
667.5475468957064
 21
41.00000000000011
 31
0.0
  0
ARC
  5
AA
  8
1
  6
CONTINUOUS
 62
     7
 10
674.8333333333334
 20
41.50000000000011
 30
0.0
 40
0.4999999999999449
 50
270.0
 51
0.0
  0
LINE
  5
AB
  8
1
  6
CONTINUOUS
 62
     7
 10
675.3333333333334
 20
45.00000000000011
 30
0.0
 11
675.3333333333334
 21
41.50000000000011
 31
0.0
  0
ARC
  5
AC
  8
1
  6
CONTINUOUS
 62
     7
 10
677.3333333333334
 20
45.00000000000011
 30
0.0
 40
2.000000000000002
 50
120.0
 51
180.0
  0
LINE
  5
AD
  8
1
  6
CONTINUOUS
 62
     7
 10
679.5833333333334
 20
48.60843918243528
 30
0.0
 11
676.3333333333334
 21
46.732050807569
 31
0.0
  0
ARC
  5
AE
  8
1
  6
CONTINUOUS
 62
     7
 10
679.3333333333334
 20
49.0414518843275
 30
0.0
 40
0.500000000000056
 50
300.0
 51
0.0
  0
LINE
  5
AF
  8
1
  6
CONTINUOUS
 62
     7
 10
679.8333333333334
 20
71.00656046586198
 30
0.0
 11
679.8333333333334
 21
49.0414518843275
 31
0.0
  0
ARC
  5
B0
  8
1
  6
CONTINUOUS
 62
     7
 10
676.8333333333334
 20
71.00656046586198
 30
0.0
 40
3.000000000000003
 50
0.0
 51
19.14833117107583
  0
ARC
  5
B1
  8
1
  6
CONTINUOUS
 62
     7
 10
648.9654929536306
 20
61.33012142190557
 30
0.0
 40
32.49999999999992
 50
19.1483311710754
 51
44.64942621926313
  0
ARC
  5
B2
  8
1
  6
CONTINUOUS
 62
     7
 10
672.7980652523247
 20
84.87281662928389
 30
0.0
 40
0.9999999999999714
 50
124.9999999999997
 51
224.6494262192635
  0
LINE
  5
B3
  8
1
  6
CONTINUOUS
 62
     7
 10
672.2244888159736
 20
85.69196867357289
 30
0.0
 11
673.6531510060701
 21
86.69232870863358
 31
0.0
  0
ARC
  5
B4
  8
1
  6
CONTINUOUS
 62
     7
 10
674.0833333333334
 20
86.07796467541684
 30
0.0
 40
0.750000000000023
 50
304.9999999999994
 51
125.0000000000003
  0
LINE
  5
B5
  8
1
  6
CONTINUOUS
 62
     7
 10
674.5135156605967
 20
85.46360064220009
 30
0.0
 11
673.4858944712403
 21
84.74405253898875
 31
0.0
  0
ARC
  5
B6
  8
1
  6
CONTINUOUS
 62
     7
 10
652.5025176185168
 20
62.26605449964853
 30
0.0
 40
30.74999999999997
 50
18.40672567443539
 51
46.96960522405441
  0
ARC
  5
B7
  8
1
  6
CONTINUOUS
 62
     7
 10
681.8333333333334
 20
71.50000000000011
 30
0.0
 40
0.4999999999999949
 50
107.9409011970105
 51
269.9999999999996
  0
LINE
  5
B8
  8
1
  6
CONTINUOUS
 62
     7
 10
681.8333333333334
 20
48.75277674973268
 30
0.0
 11
681.8333333333334
 21
71.00000000000011
 31
0.0
  0
ARC
  5
B9
  8
1
  6
CONTINUOUS
 62
     7
 10
679.8333333333334
 20
48.75277674973268
 30
0.0
 40
2.000000000000002
 50
300.0
 51
0.0
  0
LINE
  5
BA
  8
1
  6
CONTINUOUS
 62
     7
 10
677.5833333333334
 20
45.14433756729752
 30
0.0
 11
680.8333333333334
 21
47.02072594216381
 31
0.0
  0
ARC
  5
BB
  8
1
  6
CONTINUOUS
 62
     7
 10
677.8333333333334
 20
44.7113248654053
 30
0.0
 40
0.500000000000056
 50
120.0
 51
180.0
  0
LINE
  5
BC
  8
1
  6
CONTINUOUS
 62
     7
 10
677.3333333333334
 20
41.18198511713324
 30
0.0
 11
677.3333333333334
 21
44.7113248654053
 31
0.0
  0
ARC
  5
BD
  8
1
  6
CONTINUOUS
 62
     7
 10
677.8333333333334
 20
41.18198511713324
 30
0.0
 40
0.500000000000008
 50
180.0
 51
220.0
  0
LINE
  5
BE
  8
1
  6
CONTINUOUS
 62
     7
 10
680.5398634655605
 20
37.17860619515685
 30
0.0
 11
677.4503111117739
 21
40.86059131228997
 31
0.0
  0
ARC
  5
BF
  8
1
  6
CONTINUOUS
 62
     7
 10
680.92288568712
 20
37.50000000000011
 30
0.0
 40
0.5000000000000004
 50
220.0
 51
270.0
  0
LINE
  5
C0
  8
1
  6
CONTINUOUS
 62
     7
 10
685.3333333333334
 20
37.00000000000011
 30
0.0
 11
680.92288568712
 21
37.00000000000011
 31
0.0
  0
ARC
  5
C1
  8
1
  6
CONTINUOUS
 62
     7
 10
685.3333333333334
 20
36.50000000000011
 30
0.0
 40
0.5000000000000004
 50
0.0
 51
90.0
  0
LINE
  5
C2
  8
1
  6
CONTINUOUS
 62
     7
 10
685.8333333333334
 20
35.50000000000011
 30
0.0
 11
685.8333333333334
 21
36.50000000000011
 31
0.0
  0
ARC
  5
C3
  8
1
  6
CONTINUOUS
 62
     7
 10
685.3333333333334
 20
35.50000000000011
 30
0.0
 40
0.500000000000056
 50
270.0
 51
0.0
  0
LINE
  5
C4
  8
1
  6
CONTINUOUS
 62
     7
 10
679.9902703708101
 20
35.00000000000011
 30
0.0
 11
685.3333333333334
 21
35.00000000000011
 31
0.0
  0
ARC
  5
C5
  8
1
  6
CONTINUOUS
 62
     7
 10
679.9902703708101
 20
35.50000000000011
 30
0.0
 40
0.5000000000000004
 50
220.0
 51
270.0
  0
LINE
  5
C6
  8
1
  6
CONTINUOUS
 62
     7
 10
676.5505864095054
 20
38.82139380484338
 30
0.0
 11
679.6072481492505
 21
35.17860619515685
 31
0.0
  0
ARC
  5
C7
  8
1
  6
CONTINUOUS
 62
     7
 10
676.1675641879459
 20
38.50000000000011
 30
0.0
 40
0.5000000000000004
 50
39.99999999999983
 51
90.0
  0
LINE
  5
C8
  8
1
  6
CONTINUOUS
 62
     7
 10
674.8333333333334
 20
39.00000000000011
 30
0.0
 11
676.1675641879459
 21
39.00000000000011
 31
0.0
  0
ARC
  5
C9
  8
1
  6
CONTINUOUS
 62
     7
 10
674.8333333333334
 20
38.50000000000011
 30
0.0
 40
0.500000000000056
 50
90.0
 51
180.0
  0
LINE
  5
CA
  8
1
  6
CONTINUOUS
 62
     7
 10
674.3333333333334
 20
37.50000000000011
 30
0.0
 11
674.3333333333334
 21
38.50000000000011
 31
0.0
  0
ARC
  5
CB
  8
1
  6
CONTINUOUS
 62
     7
 10
674.8333333333334
 20
37.50000000000011
 30
0.0
 40
0.4999999999999935
 50
180.0
 51
270.0
  0
LINE
  5
CC
  8
1
  6
CONTINUOUS
 62
     7
 10
675.0097265355835
 20
37.00000000000011
 30
0.0
 11
674.8333333333334
 21
37.00000000000011
 31
0.0
  0
ARC
  5
CD
  8
1
  6
CONTINUOUS
 62
     7
 10
675.0097265355835
 20
36.80000000000011
 30
0.0
 40
0.2000000000000057
 50
333.4349488229223
 51
90.0
  0
LINE
  5
CE
  8
1
  6
CONTINUOUS
 62
     7
 10
675.1886119737834
 20
36.71055728090012
 30
0.0
 11
674.4715299344583
 21
35.27639320225013
 31
0.0
  0
ARC
  5
CF
  8
1
  6
CONTINUOUS
 62
     7
 10
674.0243163389584
 20
35.50000000000011
 30
0.0
 40
0.4999999999999739
 50
270.0
 51
333.434948822922
  0
LINE
  5
D0
  8
1
  6
CONTINUOUS
 62
     7
 10
672.8333333333334
 20
35.00000000000011
 30
0.0
 11
674.0243163389584
 21
35.00000000000011
 31
0.0
  0
ARC
  5
D1
  8
1
  6
CONTINUOUS
 62
     7
 10
672.8333333333334
 20
35.50000000000011
 30
0.0
 40
0.5000000000000004
 50
180.0
 51
270.0
  0
LINE
  5
D2
  8
1
  6
CONTINUOUS
 62
     7
 10
672.3333333333334
 20
38.00000000000011
 30
0.0
 11
672.3333333333334
 21
35.50000000000011
 31
0.0
  0
ARC
  5
D3
  8
1
  6
CONTINUOUS
 62
     7
 10
671.3333333333334
 20
38.00000000000011
 30
0.0
 40
1.000000000000001
 50
0.0
 51
90.0
  0
LINE
  5
D4
  8
1
  6
CONTINUOUS
 62
     7
 10
668.3333333333334
 20
39.00000000000011
 30
0.0
 11
671.3333333333334
 21
39.00000000000011
 31
0.0
  0
ARC
  5
D5
  8
1
  6
CONTINUOUS
 62
     7
 10
668.3333333333334
 20
37.00000000000011
 30
0.0
 40
2.000000000000002
 50
90.0
 51
180.0
  0
LINE
  5
D6
  8
1
  6
CONTINUOUS
 62
     7
 10
666.3333333333334
 20
36.50000000000011
 30
0.0
 11
666.3333333333334
 21
37.00000000000011
 31
0.0
  0
ARC
  5
D7
  8
1
  6
CONTINUOUS
 62
     7
 10
664.8333333333334
 20
36.50000000000011
 30
0.0
 40
1.499999999999946
 50
269.9999999999999
 51
0.0
  0
LINE
  5
D8
  8
1
  6
CONTINUOUS
 62
     7
 10
646.8333333333334
 20
35.00000000000011
 30
0.0
 11
664.8333333333334
 21
35.00000000000011
 31
0.0
  0
ARC
  5
D9
  8
1
  6
CONTINUOUS
 62
     7
 10
646.8333333333334
 20
36.50000000000011
 30
0.0
 40
1.500000000000001
 50
180.0
 51
270.0
  0
LINE
  5
DA
  8
1
  6
CONTINUOUS
 62
     7
 10
645.3333333333334
 20
37.00000000000011
 30
0.0
 11
645.3333333333334
 21
36.50000000000011
 31
0.0
  0
ARC
  5
DB
  8
1
  6
CONTINUOUS
 62
     7
 10
643.3333333333334
 20
37.00000000000011
 30
0.0
 40
1.999999999999995
 50
0.0
 51
90.0
  0
LINE
  5
DC
  8
1
  6
CONTINUOUS
 62
     7
 10
640.3333333333334
 20
39.00000000000011
 30
0.0
 11
643.3333333333334
 21
39.00000000000011
 31
0.0
  0
ARC
  5
DD
  8
1
  6
CONTINUOUS
 62
     7
 10
640.3333333333334
 20
38.00000000000011
 30
0.0
 40
1.000000000000001
 50
90.0
 51
180.0
  0
LINE
  5
DE
  8
1
  6
CONTINUOUS
 62
     7
 10
639.3333333333334
 20
35.50000000000011
 30
0.0
 11
639.3333333333334
 21
38.00000000000011
 31
0.0
  0
ARC
  5
DF
  8
1
  6
CONTINUOUS
 62
     7
 10
638.8333333333334
 20
35.50000000000011
 30
0.0
 40
0.500000000000056
 50
270.0
 51
0.0
  0
LINE
  5
E0
  8
1
  6
CONTINUOUS
 62
     7
 10
637.6423503277083
 20
35.00000000000011
 30
0.0
 11
638.8333333333334
 21
35.00000000000011
 31
0.0
  0
ARC
  5
E1
  8
1
  6
CONTINUOUS
 62
     7
 10
637.6423503277083
 20
35.50000000000011
 30
0.0
 40
0.5000000000000004
 50
206.5650511770781
 51
270.0
  0
LINE
  5
E2
  8
1
  6
CONTINUOUS
 62
     7
 10
637.1951367322084
 20
35.27639320225013
 30
0.0
 11
636.4780546928833
 21
36.71055728090013
 31
0.0
  0
ARC
  5
E3
  8
1
  6
CONTINUOUS
 62
     7
 10
636.6569401310833
 20
36.80000000000012
 30
0.0
 40
0.2000000000000088
 50
89.99999999999994
 51
206.5650511770775
  0
LINE
  5
E4
  8
1
  6
CONTINUOUS
 62
     7
 10
636.8333333333334
 20
37.00000000000011
 30
0.0
 11
636.6569401310833
 21
37.00000000000011
 31
0.0
  0
ARC
  5
E5
  8
1
  6
CONTINUOUS
 62
     7
 10
636.8333333333334
 20
37.50000000000011
 30
0.0
 40
0.500000000000056
 50
270.0
 51
0.0
  0
LINE
  5
E6
  8
1
  6
CONTINUOUS
 62
     7
 10
637.3333333333334
 20
38.50000000000011
 30
0.0
 11
637.3333333333334
 21
37.50000000000011
 31
0.0
  0
ARC
  5
E7
  8
1
  6
CONTINUOUS
 62
     7
 10
636.8333333333334
 20
38.50000000000011
 30
0.0
 40
0.5000000000000004
 50
0.0
 51
90.0
  0
LINE
  5
E8
  8
1
  6
CONTINUOUS
 62
     7
 10
635.4991024787208
 20
39.00000000000011
 30
0.0
 11
636.8333333333334
 21
39.00000000000011
 31
0.0
  0
ARC
  5
E9
  8
1
  6
CONTINUOUS
 62
     7
 10
635.4991024787208
 20
38.50000000000011
 30
0.0
 40
0.5000000000000124
 50
90.0
 51
140.0000000000001
  0
LINE
  5
EA
  8
1
  6
CONTINUOUS
 62
     7
 10
632.0594185174162
 20
35.17860619515685
 30
0.0
 11
635.1160802571613
 21
38.82139380484338
 31
0.0
  0
ARC
  5
EB
  8
1
  6
CONTINUOUS
 62
     7
 10
631.6763962958566
 20
35.50000000000011
 30
0.0
 40
0.5000000000000124
 50
270.0
 51
320.0
  0
LINE
  5
EC
  8
1
  6
CONTINUOUS
 62
     7
 10
626.3333333333334
 20
35.00000000000011
 30
0.0
 11
631.6763962958566
 21
35.00000000000011
 31
0.0
  0
ARC
  5
ED
  8
1
  6
CONTINUOUS
 62
     7
 10
626.3333333333334
 20
35.50000000000011
 30
0.0
 40
0.5000000000000004
 50
180.0
 51
270.0
  0
LINE
  5
EE
  8
1
  6
CONTINUOUS
 62
     7
 10
625.8333333333334
 20
36.50000000000011
 30
0.0
 11
625.8333333333334
 21
35.50000000000011
 31
0.0
  0
ARC
  5
EF
  8
1
  6
CONTINUOUS
 62
     7
 10
626.3333333333334
 20
36.50000000000011
 30
0.0
 40
0.500000000000056
 50
90.0
 51
180.0
  0
LINE
  5
F0
  8
1
  6
CONTINUOUS
 62
     7
 10
630.7437809795467
 20
37.00000000000011
 30
0.0
 11
626.3333333333334
 21
37.00000000000011
 31
0.0
  0
ARC
  5
F1
  8
1
  6
CONTINUOUS
 62
     7
 10
630.7437809795467
 20
37.50000000000011
 30
0.0
 40
0.5000000000000124
 50
270.0
 51
320.0000000000001
  0
LINE
  5
F2
  8
1
  6
CONTINUOUS
 62
     7
 10
634.2163555548929
 20
40.86059131228997
 30
0.0
 11
631.1268032011062
 21
37.17860619515685
 31
0.0
  0
ARC
  5
F3
  8
1
  6
CONTINUOUS
 62
     7
 10
633.8333333333334
 20
41.18198511713324
 30
0.0
 40
0.500000000000056
 50
320.0000000000001
 51
0.0
  0
LINE
  5
F4
  8
1
  6
CONTINUOUS
 62
     7
 10
634.3333333333334
 20
44.7113248654053
 30
0.0
 11
634.3333333333334
 21
41.18198511713324
 31
0.0
  0
ARC
  5
F5
  8
1
  6
CONTINUOUS
 62
     7
 10
633.8333333333334
 20
44.7113248654053
 30
0.0
 40
0.499999999999982
 50
0.0
 51
60.0
  0
LINE
  5
F6
  8
1
  6
CONTINUOUS
 62
     7
 10
630.8333333333334
 20
47.02072594216381
 30
0.0
 11
634.0833333333334
 21
45.14433756729752
 31
0.0
  0
ARC
  5
F7
  8
1
  6
CONTINUOUS
 62
     7
 10
631.8333333333334
 20
48.75277674973269
 30
0.0
 40
2.000000000000002
 50
180.0
 51
240.0
  0
LINE
  5
F8
  8
1
  6
CONTINUOUS
 62
     7
 10
629.8333333333334
 20
71.00000000000011
 30
0.0
 11
629.8333333333334
 21
48.75277674973269
 31
0.0
  0
ARC
  5
F9
  8
1
  6
CONTINUOUS
 62
     7
 10
629.8333333333334
 20
71.50000000000011
 30
0.0
 40
0.5000000000000004
 50
270.0000000000004
 51
72.05909880298952
  0
ARC
  5
FA
  8
1
  6
CONTINUOUS
 62
     7
 10
659.16414904815
 20
62.26605449964853
 30
0.0
 40
30.75000000000001
 50
133.0303947759455
 51
161.5932743255646
  0
LINE
  5
FB
  8
1
  6
CONTINUOUS
 62
     7
 10
638.1807721954265
 20
84.74405253898875
 30
0.0
 11
637.1531510060701
 21
85.46360064220009
 31
0.0
  0
ARC
  5
FC
  8
1
  6
CONTINUOUS
 62
     7
 10
637.5833333333334
 20
86.07796467541684
 30
0.0
 40
0.750000000000023
 50
54.99999999999972
 51
235.0000000000007
  0
LINE
  5
FD
  8
1
  6
CONTINUOUS
 62
     7
 10
638.0135156605967
 20
86.69232870863358
 30
0.0
 11
639.4421778506932
 21
85.69196867357289
 31
0.0
  0
ARC
  5
FE
  8
1
  6
CONTINUOUS
 62
     7
 10
638.868601414342
 20
84.87281662928389
 30
0.0
 40
0.9999999999999807
 50
315.3505737807364
 51
55.00000000000033
  0
ARC
  5
FF
  8
1
  6
CONTINUOUS
 62
     7
 10
662.7011737130363
 20
61.33012142190557
 30
0.0
 40
32.50000000000003
 50
135.3505737807369
 51
160.8516688289246
  0
ARC
  5
100
  8
1
  6
CONTINUOUS
 62
     7
 10
634.8333333333334
 20
71.00656046586198
 30
0.0
 40
2.999999999999954
 50
160.8516688289242
 51
180.0
  0
LINE
  5
101
  8
1
  6
CONTINUOUS
 62
     7
 10
631.8333333333334
 20
49.0414518843275
 30
0.0
 11
631.8333333333334
 21
71.00656046586198
 31
0.0
  0
ARC
  5
102
  8
1
  6
CONTINUOUS
 62
     7
 10
632.3333333333334
 20
49.0414518843275
 30
0.0
 40
0.5000000000000436
 50
180.0
 51
240.0
  0
LINE
  5
103
  8
1
  6
CONTINUOUS
 62
     7
 10
635.3333333333334
 20
46.732050807569
 30
0.0
 11
632.0833333333334
 21
48.60843918243528
 31
0.0
  0
ARC
  5
104
  8
1
  6
CONTINUOUS
 62
     7
 10
634.3333333333334
 20
45.00000000000011
 30
0.0
 40
2.000000000000002
 50
0.0
 51
59.99999999999994
  0
LINE
  5
105
  8
1
  6
CONTINUOUS
 62
     7
 10
636.3333333333334
 20
41.50000000000011
 30
0.0
 11
636.3333333333334
 21
45.00000000000011
 31
0.0
  0
ARC
  5
106
  8
1
  6
CONTINUOUS
 62
     7
 10
636.8333333333334
 20
41.50000000000011
 30
0.0
 40
0.5000000000000004
 50
180.0
 51
270.0
  0
LINE
  5
107
  8
1
  6
CONTINUOUS
 62
     7
 10
644.1191197709602
 20
41.00000000000011
 30
0.0
 11
636.8333333333334
 21
41.00000000000011
 31
0.0
  0
ARC
  5
108
  8
1
  6
CONTINUOUS
 62
     7
 10
644.1191197709602
 20
40.50000000000011
 30
0.0
 40
0.5000000000000004
 50
19.47122063449075
 51
90.0
  0
ARC
  5
109
  8
1
  6
CONTINUOUS
 62
     7
 10
645.5333333333334
 20
41.00000000000011
 30
0.0
 40
0.9999999999999961
 50
199.4712206344907
 51
70.52877936550914
  0
ARC
  5
10A
  8
1
  6
CONTINUOUS
 62
     7
 10
646.0333333333333
 20
42.41421356237321
 30
0.0
 40
0.4999999999999923
 50
180.0
 51
250.5287793655092
  0
LINE
  5
10B
  8
1
  6
CONTINUOUS
 62
     7
 10
645.5333333333334
 20
43.25013513612237
 30
0.0
 11
645.5333333333334
 21
42.41421356237321
 31
0.0
  0
ARC
  5
10C
  8
1
  6
CONTINUOUS
 62
     7
 10
634.8333333333334
 20
43.25013513612237
 30
0.0
 40
10.69999999999998
 50
0.0
 51
52.88273653282095
  0
ARC
  5
10D
  8
1
  6
CONTINUOUS
 62
     7
 10
641.8333333333334
 20
52.50000000000011
 30
0.0
 40
0.9000000000000264
 50
52.88273653282093
 51
232.8827365328208
  0
ARC
  5
10E
  8
1
  6
CONTINUOUS
 62
     7
 10
634.8333333333334
 20
43.25013513612237
 30
0.0
 40
12.50000000000007
 50
0.0
 51
52.88273653282092
  0
LINE
  5
10F
  8
1
  6
CONTINUOUS
 62
     7
 10
647.3333333333334
 20
41.50000000000011
 30
0.0
 11
647.3333333333334
 21
43.25013513612237
 31
0.0
  0
ARC
  5
110
  8
1
  6
CONTINUOUS
 62
     7
 10
647.8333333333334
 20
41.50000000000011
 30
0.0
 40
0.5000000000000004
 50
180.0
 51
270.0
  0
LINE
  5
111
  8
1
  6
CONTINUOUS
 62
     7
 10
629.6333333333333
 20
46.00000000000011
 30
0.0
 11
625.6333333333333
 21
46.00000000000011
 31
0.0
  0
ARC
  5
112
  8
1
  6
CONTINUOUS
 62
     7
 10
635.6333333333333
 20
78.10325409449402
 30
0.0
 40
6.000000000000021
 50
136.5840648866519
 51
179.9999999999999
  0
LINE
  5
113
  8
1
  6
CONTINUOUS
 62
     7
 10
641.7160875517559
 20
93.26194879817125
 30
0.0
 11
631.2750320335695
 21
82.22699145039785
 31
0.0
  0
ARC
  5
114
  8
1
  6
CONTINUOUS
 62
     7
 10
655.8333333333334
 20
-133.9999999999999
 30
0.0
 40
227.7000000000001
 50
86.4454207401396
 51
93.55457925986033
  0
ARC
  5
115
  8
1
  6
CONTINUOUS
 62
     7
 10
676.0333333333334
 20
78.10325409449405
 30
0.0
 40
6.000000000000005
 50
0.0
 51
43.41593511334816
  0
LINE
  5
116
  8
1
  6
CONTINUOUS
 62
     7
 10
682.0333333333334
 20
46.00000000000011
 30
0.0
 11
682.0333333333334
 21
78.10325409449405
 31
0.0
  0
LINE
  5
117
  8
1
  6
CONTINUOUS
 62
     7
 10
686.0333333333334
 20
46.00000000000011
 30
0.0
 11
682.0333333333334
 21
46.00000000000011
 31
0.0
  0
LINE
  5
118
  8
1
  6
CONTINUOUS
 62
     7
 10
686.0333333333334
 20
78.10325409449406
 30
0.0
 11
686.0333333333334
 21
46.00000000000011
 31
0.0
  0
ARC
  5
119
  8
1
  6
CONTINUOUS
 62
     7
 10
676.0333333333334
 20
78.10325409449406
 30
0.0
 40
9.999999999999975
 50
0.0
 51
43.4159351133481
  0
LINE
  5
11A
  8
1
  6
CONTINUOUS
 62
     7
 10
671.7778178755128
 20
97.1507374262177
 30
0.0
 11
683.2971688329397
 21
84.97614968766709
 31
0.0
  0
ARC
  5
11B
  8
1
  6
CONTINUOUS
 62
     7
 10
655.8333333333334
 20
-133.9999999999999
 30
0.0
 40
231.7
 50
86.05406026173046
 51
93.9459397382696
  0
LINE
  5
11C
  8
1
  6
CONTINUOUS
 62
     7
 10
628.369497833727
 20
84.97614968766705
 30
0.0
 11
639.8888487911539
 21
97.15073742621774
 31
0.0
  0
ARC
  5
11D
  8
1
  6
CONTINUOUS
 62
     7
 10
635.6333333333333
 20
78.10325409449402
 30
0.0
 40
10.00000000000001
 50
136.584064886652
 51
180.0
  0
LINE
  5
11E
  8
1
  6
CONTINUOUS
 62
     7
 10
625.6333333333333
 20
46.00000000000011
 30
0.0
 11
625.6333333333333
 21
78.10325409449402
 31
0.0
  0
LINE
  5
11F
  8
1
  6
CONTINUOUS
 62
     7
 10
629.6333333333333
 20
78.10325409449403
 30
0.0
 11
629.6333333333333
 21
46.00000000000011
 31
0.0
  0
LINE
  5
120
  8
1
  6
CONTINUOUS
 62
     7
 10
680.3916346330973
 20
82.22699145039788
 30
0.0
 11
669.9505791149109
 21
93.26194879817125
 31
0.0
  0
ARC
  5
121
  8
1
  6
CONTINUOUS
 62
     7
 10
633.0833333333334
 20
44.52264973081047
 30
0.0
 40
1.000000000000001
 50
0.0
 51
60.00000000000001
  0
ARC
  5
122
  8
1
  6
CONTINUOUS
 62
     7
 10
633.0833333333334
 20
41.36397023426634
 30
0.0
 40
1.00000000000002
 50
320.0000000000001
 51
0.0
  0
ARC
  5
123
  8
1
  6
CONTINUOUS
 62
     7
 10
630.4284470767046
 20
38.20000000000012
 30
0.0
 40
1.000000000000001
 50
270.0
 51
320.0000000000001
  0
LINE
  5
124
  8
1
  6
CONTINUOUS
 62
     7
 10
685.0499359328611
 20
86.47016163326523
 30
0.0
 11
672.8333333333334
 21
99.38166166175105
 31
0.0
  0
ARC
  5
125
  8
1
  6
CONTINUOUS
 62
     7
 10
676.3333333333334
 20
78.22268692145762
 30
0.0
 40
12.00000000000001
 50
359.9999999999999
 51
43.41593511334804
  0
LINE
  5
126
  8
1
  6
CONTINUOUS
 62
     7
 10
688.3333333333334
 20
35.00000000000011
 30
0.0
 11
688.3333333333334
 21
78.22268692145762
 31
0.0
  0
LINE
  5
127
  8
1
  6
CONTINUOUS
 62
     7
 10
686.0333333333334
 20
35.00000000000011
 30
0.0
 11
688.3333333333334
 21
35.00000000000011
 31
0.0
  0
LINE
  5
128
  8
1
  6
CONTINUOUS
 62
     7
 10
686.0333333333334
 20
37.20000000000011
 30
0.0
 11
686.0333333333334
 21
35.00000000000011
 31
0.0
  0
LINE
  5
129
  8
1
  6
CONTINUOUS
 62
     7
 10
681.2382195899621
 20
37.20000000000012
 30
0.0
 11
686.0333333333334
 21
37.20000000000011
 31
0.0
  0
ARC
  5
12A
  8
1
  6
CONTINUOUS
 62
     7
 10
681.2382195899621
 20
38.20000000000011
 30
0.0
 40
0.9999999999999939
 50
219.9999999999999
 51
270.0
  0
LINE
  5
12B
  8
1
  6
CONTINUOUS
 62
     7
 10
677.8172888902144
 20
40.7211826245798
 30
0.0
 11
680.4721751468431
 21
37.55721239031357
 31
0.0
  0
ARC
  5
12C
  8
1
  6
CONTINUOUS
 62
     7
 10
678.5833333333334
 20
41.36397023426634
 30
0.0
 40
1.00000000000002
 50
180.0
 51
220.0
  0
LINE
  5
12D
  8
1
  6
CONTINUOUS
 62
     7
 10
677.5833333333334
 20
44.52264973081046
 30
0.0
 11
677.5833333333334
 21
41.36397023426634
 31
0.0
  0
ARC
  5
12E
  8
1
  6
CONTINUOUS
 62
     7
 10
678.5833333333334
 20
44.52264973081046
 30
0.0
 40
1.000000000000001
 50
120.0
 51
180.0
  0
LINE
  5
12F
  8
1
  6
CONTINUOUS
 62
     7
 10
681.0833333333334
 20
47.12072594216378
 30
0.0
 11
678.0833333333334
 21
45.38867513459491
 31
0.0
  0
ARC
  5
130
  8
1
  6
CONTINUOUS
 62
     7
 10
681.3333333333334
 20
46.68771324027156
 30
0.0
 40
0.499999999999982
 50
0.0
 51
120.0
  0
LINE
  5
131
  8
1
  6
CONTINUOUS
 62
     7
 10
681.8333333333334
 20
44.89792740578374
 30
0.0
 11
681.8333333333334
 21
46.68771324027156
 31
0.0
  0
LINE
  5
132
  8
1
  6
CONTINUOUS
 62
     7
 10
680.1333333333333
 20
43.91643194816137
 30
0.0
 11
681.8333333333334
 21
44.89792740578374
 31
0.0
  0
ARC
  5
133
  8
1
  6
CONTINUOUS
 62
     7
 10
680.3833333333333
 20
43.48341924626914
 30
0.0
 40
0.499999999999988
 50
120.0
 51
180.0
  0
LINE
  5
134
  8
1
  6
CONTINUOUS
 62
     7
 10
679.8833333333333
 20
42.0191166559455
 30
0.0
 11
679.8833333333333
 21
43.48341924626914
 31
0.0
  0
ARC
  5
135
  8
1
  6
CONTINUOUS
 62
     7
 10
680.3833333333333
 20
42.0191166559455
 30
0.0
 40
0.4999999999999449
 50
180.0
 51
220.0
  0
LINE
  5
136
  8
1
  6
CONTINUOUS
 62
     7
 10
681.6945511530815
 20
39.67860619515684
 30
0.0
 11
680.0003111117738
 21
41.69772285110223
 31
0.0
  0
ARC
  5
137
  8
1
  6
CONTINUOUS
 62
     7
 10
682.077573374641
 20
40.00000000000011
 30
0.0
 40
0.5000000000000124
 50
219.9999999999998
 51
270.0
  0
LINE
  5
138
  8
1
  6
CONTINUOUS
 62
     7
 10
686.0333333333334
 20
39.50000000000011
 30
0.0
 11
682.077573374641
 21
39.50000000000011
 31
0.0
  0
LINE
  5
139
  8
1
  6
CONTINUOUS
 62
     7
 10
686.0333333333334
 20
78.10325409449402
 30
0.0
 11
686.0333333333334
 21
46.00000000000011
 31
0.0
  0
LINE
  5
13A
  8
1
  6
CONTINUOUS
 62
     7
 10
686.0333333333334
 20
46.00000000000011
 30
0.0
 11
686.0333333333334
 21
39.50000000000011
 31
0.0
  0
ARC
  5
13B
  8
1
  6
CONTINUOUS
 62
     7
 10
676.0333333333334
 20
78.10325409449403
 30
0.0
 40
9.999999999999964
 50
0.0
 51
43.41593511334804
  0
LINE
  5
13C
  8
1
  6
CONTINUOUS
 62
     7
 10
671.7778178755129
 20
97.15073742621772
 30
0.0
 11
683.2971688329397
 21
84.97614968766706
 31
0.0
  0
ARC
  5
13D
  8
1
  6
CONTINUOUS
 62
     7
 10
629.5890932920257
 20
40.00000000000012
 30
0.0
 40
0.5000000000000124
 50
270.0
 51
320.0000000000002
  0
ARC
  5
13E
  8
1
  6
CONTINUOUS
 62
     7
 10
631.2833333333334
 20
42.01911665594551
 30
0.0
 40
0.4999999999999449
 50
320.0000000000001
 51
0.0
  0
LINE
  5
13F
  8
1
  6
CONTINUOUS
 62
     7
 10
631.7833333333333
 20
42.01911665594551
 30
0.0
 11
631.7833333333333
 21
43.48341924626915
 31
0.0
  0
ARC
  5
140
  8
1
  6
CONTINUOUS
 62
     7
 10
631.2833333333334
 20
43.48341924626915
 30
0.0
 40
0.499999999999988
 50
0.0
 51
60.0
  0
LINE
  5
141
  8
1
  6
CONTINUOUS
 62
     7
 10
631.5333333333334
 20
43.91643194816137
 30
0.0
 11
629.8333333333334
 21
44.89792740578374
 31
0.0
  0
ARC
  5
142
  8
1
  6
CONTINUOUS
 62
     7
 10
630.3333333333334
 20
46.68771324027156
 30
0.0
 40
0.499999999999988
 50
60.00000000000001
 51
180.0
  0
LINE
  5
143
  8
1
  6
CONTINUOUS
 62
     7
 10
629.9721155135852
 20
39.67860619515685
 30
0.0
 11
631.6663555548929
 21
41.69772285110223
 31
0.0
  0
LINE
  5
144
  8
1
  6
CONTINUOUS
 62
     7
 10
625.6333333333333
 20
39.50000000000011
 30
0.0
 11
629.5890932920257
 21
39.50000000000012
 31
0.0
  0
LINE
  5
145
  8
1
  6
CONTINUOUS
 62
     7
 10
625.6333333333333
 20
78.10325409449403
 30
0.0
 11
625.6333333333333
 21
46.00000000000011
 31
0.0
  0
LINE
  5
146
  8
1
  6
CONTINUOUS
 62
     7
 10
625.6333333333333
 20
46.00000000000011
 30
0.0
 11
625.6333333333333
 21
39.50000000000011
 31
0.0
  0
ARC
  5
147
  8
1
  6
CONTINUOUS
 62
     7
 10
635.6333333333333
 20
78.10325409449403
 30
0.0
 40
9.999999999999964
 50
136.5840648866519
 51
180.0
  0
LINE
  5
148
  8
1
  6
CONTINUOUS
 62
     7
 10
639.8888487911538
 20
97.15073742621772
 30
0.0
 11
628.369497833727
 21
84.97614968766706
 31
0.0
  0
ARC
  5
149
  8
1
  6
CONTINUOUS
 62
     7
 10
655.8333333333334
 20
-133.9999999999999
 30
0.0
 40
231.7
 50
86.0540602617304
 51
93.9459397382696
  0
ARC
  5
14A
  8
1
  6
CONTINUOUS
 62
     7
 10
655.8333333333334
 20
-133.9999999999999
 30
0.0
 40
233.9999999999999
 50
85.83381578248009
 51
94.16618421751986
  0
LINE
  5
14B
  8
1
  6
CONTINUOUS
 62
     7
 10
626.6167307338056
 20
86.47016163326525
 30
0.0
 11
638.8333333333334
 21
99.38166166175105
 31
0.0
  0
ARC
  5
14C
  8
1
  6
CONTINUOUS
 62
     7
 10
635.3333333333334
 20
78.22268692145762
 30
0.0
 40
12.00000000000001
 50
136.5840648866519
 51
180.0
  0
LINE
  5
14D
  8
1
  6
CONTINUOUS
 62
     7
 10
623.3333333333334
 20
35.00000000000011
 30
0.0
 11
623.3333333333334
 21
78.22268692145762
 31
0.0
  0
LINE
  5
14E
  8
1
  6
CONTINUOUS
 62
     7
 10
625.6333333333333
 20
35.00000000000011
 30
0.0
 11
623.3333333333334
 21
35.00000000000011
 31
0.0
  0
LINE
  5
14F
  8
1
  6
CONTINUOUS
 62
     7
 10
625.6333333333333
 20
37.20000000000012
 30
0.0
 11
625.6333333333333
 21
35.00000000000011
 31
0.0
  0
LINE
  5
150
  8
1
  6
CONTINUOUS
 62
     7
 10
630.4284470767046
 20
37.20000000000012
 30
0.0
 11
625.6333333333333
 21
37.20000000000012
 31
0.0
  0
LINE
  5
151
  8
1
  6
CONTINUOUS
 62
     7
 10
633.8493777764523
 20
40.7211826245798
 30
0.0
 11
631.1944915198236
 21
37.55721239031358
 31
0.0
  0
LINE
  5
152
  8
1
  6
CONTINUOUS
 62
     7
 10
634.0833333333334
 20
44.52264973081047
 30
0.0
 11
634.0833333333334
 21
41.36397023426634
 31
0.0
  0
LINE
  5
153
  8
1
  6
CONTINUOUS
 62
     7
 10
630.5833333333334
 20
47.12072594216379
 30
0.0
 11
633.5833333333334
 21
45.38867513459491
 31
0.0
  0
LINE
  5
154
  8
1
  6
CONTINUOUS
 62
     7
 10
629.8333333333334
 20
44.89792740578374
 30
0.0
 11
629.8333333333334
 21
46.68771324027156
 31
0.0
  0
ENDBLK
  8
0
  0
BLOCK
  8
0
  2
D_FRAME_VIEW_1821
 70
     0
 10
0.0
 20
0.0
 30
0.0
  0
LINE
  5
159
  8
1
  6
CONTINUOUS
 62
     7
 10
745.8333333333334
 20
78.22268692145762
 30
0.0
 11
745.8333333333334
 21
86.47016163326523
 31
0.0
  0
LINE
  5
15A
  8
1
  6
CONTINUOUS
 62
     7
 10
745.8333333333334
 20
35.00000000000011
 30
0.0
 11
745.8333333333334
 21
78.22268692145762
 31
0.0
  0
LINE
  5
15B
  8
1
  6
CONTINUOUS
 62
     7
 10
745.8333333333334
 20
86.47016163326523
 30
0.0
 11
745.8333333333334
 21
99.38166166175105
 31
0.0
  0
LINE
  5
15C
  8
1
  6
CONTINUOUS
 62
     7
 10
745.8333333333334
 20
99.99999999999967
 30
0.0
 11
745.8333333333334
 21
99.38166166175061
 31
0.0
  0
ENDBLK
  8
0
  0
ENDSEC
  0
SECTION
  2
ENTITIES
  0
TEXT
  5
70
  8
1
  6
CONTINUOUS
 62
     7
 10
755.9060168396483
 20
-13.54920595223206
 30
0.0
 40
10.0
  1
RM-40
  0
INSERT
  5
79
  8
1
  6
CONTINUOUS
 62
     7
  2
D_FRAME_VIEW_1491
 10
0.0
 20
0.0
 30
0.0
  0
LINE
  5
7A
  8
1
  6
CONTINUOUS
 62
     7
 10
623.3333333333334
 20
152.5
 30
0.0
 11
623.3333333333334
 21
2152.5
 31
0.0
  0
LINE
  5
7B
  8
1
  6
CONTINUOUS
 62
     7
 10
672.8333333333334
 20
2152.5
 30
0.0
 11
638.8333333333331
 21
2152.5
 31
0.0
  0
LINE
  5
7C
  8
1
  6
CONTINUOUS
 62
     7
 10
623.3333333333334
 20
2152.5
 30
0.0
 11
626.6167307338056
 21
2152.5
 31
0.0
  0
LINE
  5
7D
  8
1
  6
CONTINUOUS
 62
     7
 10
626.6167307338056
 20
2152.5
 30
0.0
 11
638.8333333333334
 21
2152.5
 31
0.0
  0
LINE
  5
7E
  8
1
  6
CONTINUOUS
 62
     7
 10
638.8333333333334
 20
152.5
 30
0.0
 11
638.8333333333334
 21
2152.5
 31
0.0
  0
LINE
  5
7F
  8
1
  6
CENTER
 62
     1
 10
655.8333333333334
 20
150.5
 30
0.0
 11
655.8333333333334
 21
2152.5
 31
0.0
  0
LINE
  5
81
  8
1
  6
CENTER
 62
     1
 10
655.8333333333334
 20
33.00000000000011
 30
0.0
 11
655.8333333333334
 21
107.5
 31
0.0
  0
LINE
  5
82
  8
1
  6
CONTINUOUS
 62
     7
 10
745.8333333333334
 20
99.38166166175105
 30
0.0
 11
2745.833333333333
 21
99.38166166175105
 31
0.0
  0
LINE
  5
83
  8
1
  6
CONTINUOUS
 62
     7
 10
745.8333333333334
 20
35.00000000000011
 30
0.0
 11
2745.833333333333
 21
35.00000000000011
 31
0.0
  0
LINE
  5
84
  8
1
  6
CONTINUOUS
 62
     9
 10
745.8333333333334
 20
78.22268692145762
 30
0.0
 11
2745.833333333333
 21
78.22268692145762
 31
0.0
  0
LINE
  5
85
  8
1
  6
CONTINUOUS
 62
     7
 10
2745.833333333333
 20
100.0000000000001
 30
0.0
 11
745.8333333333334
 21
100.0000000000001
 31
0.0
  0
LINE
  5
86
  8
1
  6
CONTINUOUS
 62
     9
 10
745.8333333333334
 20
86.47016163326523
 30
0.0
 11
2745.833333333333
 21
86.47016163326523
 31
0.0
  0
LINE
  5
87
  8
1
  6
CONTINUOUS
 62
     7
 10
672.8333333333334
 20
152.5
 30
0.0
 11
672.8333333333334
 21
2152.5
 31
0.0
  0
LINE
  5
88
  8
1
  6
CONTINUOUS
 62
     7
 10
688.3333333333334
 20
152.5
 30
0.0
 11
688.3333333333334
 21
2152.5
 31
0.0
  0
INSERT
  5
155
  8
1
  6
CONTINUOUS
 62
     7
  2
D_FRAME_VIEW_1724
 10
0.0
 20
0.0
 30
0.0
  0
INSERT
  5
15D
  8
1
  6
CONTINUOUS
 62
     7
  2
D_FRAME_VIEW_1821
 10
0.0
 20
0.0
 30
0.0
  0
LINE
  5
15E
  8
1
  6
CONTINUOUS
 62
     7
 10
685.0499359328611
 20
2152.5
 30
0.0
 11
672.8333333333334
 21
2152.5
 31
0.0
  0
LINE
  5
15F
  8
1
  6
CONTINUOUS
 62
     7
 10
688.3333333333334
 20
2152.5
 30
0.0
 11
685.0499359328611
 21
2152.5
 31
0.0
  0
LINE
  5
160
  8
1
  6
CONTINUOUS
 62
     7
 10
2745.833333333333
 20
35.00000000000011
 30
0.0
 11
2745.833333333333
 21
78.22268692145762
 31
0.0
  0
LINE
  5
161
  8
1
  6
CONTINUOUS
 62
     7
 10
2745.833333333333
 20
78.22268692145762
 30
0.0
 11
2745.833333333333
 21
86.47016163326523
 31
0.0
  0
LINE
  5
162
  8
1
  6
CONTINUOUS
 62
     7
 10
2745.833333333333
 20
99.99999999999967
 30
0.0
 11
2745.833333333333
 21
99.38166166175061
 31
0.0
  0
LINE
  5
163
  8
1
  6
CONTINUOUS
 62
     7
 10
2745.833333333333
 20
86.47016163326523
 30
0.0
 11
2745.833333333333
 21
99.38166166175105
 31
0.0
  0
LINE
  5
164
  8
1
  6
CONTINUOUS
 62
     7
 10
638.8333333333334
 20
2152.5
 30
0.0
 11
672.8333333333336
 21
2152.5
 31
0.0
  0
ENDSEC
  0
EOF
