  0
SECTION
  2
HEADER
  9
$ACADVER
  1
AC1006
  9
$DWGCODEPAGE
  3
ansi_932
  9
$INSBASE
 10
0.0
 20
0.0
 30
0.0
  9
$EXTMIN
 10
50.14440341801956
 20
243.6704545454545
  9
$EXTMAX
 10
216.3235560290821
 20
411.3235560290822
  9
$LIMMIN
 10
0.0
 20
0.0
  9
$LIMMAX
 10
12.0
 20
9.0
  9
$ORTHOMODE
 70
     0
  9
$REGENMODE
 70
     1
  9
$FILLMODE
 70
     1
  9
$QTEXTMODE
 70
     0
  9
$MIRRTEXT
 70
     1
  9
$DRAGMODE
 70
     2
  9
$LTSCALE
 40
1.0
  9
$OSMODE
 70
    37
  9
$ATTMODE
 70
     1
  9
$TEXTSIZE
 40
0.2
  9
$TRACEWID
 40
0.05
  9
$TEXTSTYLE
  7
STANDARD
  9
$CLAYER
  8
0
  9
$CELTYPE
  6
BYLAYER
  9
$CECOLOR
 62
   256
  9
$DIMSCALE
 40
1.0
  9
$DIMASZ
 40
3.0
  9
$DIMEXO
 40
0.0625
  9
$DIMDLI
 40
0.38
  9
$DIMRND
 40
0.0
  9
$DIMDLE
 40
0.0
  9
$DIMEXE
 40
1.5
  9
$DIMTP
 40
0.0
  9
$DIMTM
 40
0.0
  9
$DIMTXT
 40
3.0
  9
$DIMCEN
 40
0.09
  9
$DIMTSZ
 40
0.0
  9
$DIMTOL
 70
     0
  9
$DIMLIM
 70
     0
  9
$DIMTIH
 70
     1
  9
$DIMTOH
 70
     1
  9
$DIMSE1
 70
     0
  9
$DIMSE2
 70
     0
  9
$DIMTAD
 70
     1
  9
$DIMZIN
 70
     0
  9
$DIMBLK
  1

  9
$DIMASO
 70
     1
  9
$DIMSHO
 70
     1
  9
$DIMPOST
  1

  9
$DIMAPOST
  1

  9
$DIMALT
 70
     0
  9
$DIMALTD
 70
     2
  9
$DIMALTF
 40
25.4
  9
$DIMLFAC
 40
1.0
  9
$DIMTOFL
 70
     0
  9
$DIMTVP
 40
0.0
  9
$DIMTIX
 70
     0
  9
$DIMSOXD
 70
     0
  9
$DIMSAH
 70
     0
  9
$DIMBLK1
  1

  9
$DIMBLK2
  1

  9
$LUNITS
 70
     2
  9
$LUPREC
 70
     4
  9
$SKETCHINC
 40
0.1
  9
$FILLETRAD
 40
0.5
  9
$AUNITS
 70
     0
  9
$AUPREC
 70
     0
  9
$MENU
  1
.
  9
$ELEVATION
 40
0.0
  9
$THICKNESS
 40
0.0
  9
$LIMCHECK
 70
     0
  9
$CHAMFERA
 40
0.0
  9
$CHAMFERB
 40
0.0
  9
$SKPOLY
 70
     0
  9
$TDCREATE
 40
2459331.408699931
  9
$TDUPDATE
 40
2459331.408700289
  9
$TDINDWG
 40
0.0000000116
  9
$TDUSRTIMER
 40
0.0000000116
  9
$USRTIMER
 70
     1
  9
$ANGBASE
 50
0.0
  9
$ANGDIR
 70
     0
  9
$PDMODE
 70
     0
  9
$PDSIZE
 40
0.0
  9
$PLINEWID
 40
0.0
  9
$COORDS
 70
     1
  9
$SPLFRAME
 70
     0
  9
$SPLINETYPE
 70
     6
  9
$SPLINESEGS
 70
     8
  9
$ATTDIA
 70
     0
  9
$ATTREQ
 70
     1
  9
$HANDLING
 70
     1
  9
$HANDSEED
  5
261
  9
$SURFTAB1
 70
     6
  9
$SURFTAB2
 70
     6
  9
$SURFTYPE
 70
     6
  9
$SURFU
 70
     6
  9
$SURFV
 70
     6
  9
$UCSNAME
  2

  9
$UCSORG
 10
0.0
 20
0.0
 30
0.0
  9
$UCSXDIR
 10
1.0
 20
0.0
 30
0.0
  9
$UCSYDIR
 10
0.0
 20
1.0
 30
0.0
  9
$USERI1
 70
     0
  9
$USERI2
 70
     0
  9
$USERI3
 70
     0
  9
$USERI4
 70
     0
  9
$USERI5
 70
     0
  9
$USERR1
 40
0.0
  9
$USERR2
 40
0.0
  9
$USERR3
 40
0.0
  9
$USERR4
 40
0.0
  9
$USERR5
 40
0.0
  9
$WORLDVIEW
 70
     1
  0
ENDSEC
  0
SECTION
  2
TABLES
  0
TABLE
  2
VPORT
 70
     1
  0
VPORT
  2
*ACTIVE
 70
     0
 10
0.0
 20
0.0
 11
1.0
 21
1.0
 12
133.2339797235508
 22
327.4970052872684
 13
0.0
 23
0.0
 14
0.5
 24
0.5
 15
0.5
 25
0.5
 16
0.0
 26
0.0
 36
1.0
 17
0.0
 27
0.0
 37
0.0
 40
167.6531014836277
 41
1.6
 42
50.0
 43
0.0
 44
0.0
 50
0.0
 51
0.0
 71
     0
 72
   100
 73
     1
 74
     3
 75
     0
 76
     0
 77
     0
 78
     0
  0
ENDTAB
  0
TABLE
  2
LTYPE
 70
     1
  0
LTYPE
  2
CONTINUOUS
 70
     0
  3
Solid line
 72
    65
 73
     0
 40
0.0
  0
ENDTAB
  0
TABLE
  2
LAYER
 70
     2
  0
LAYER
  2
0
 70
     0
 62
     7
  6
CONTINUOUS
  0
LAYER
  2
1
 70
     0
 62
     7
  6
CONTINUOUS
  0
ENDTAB
  0
TABLE
  2
STYLE
 70
     2
  0
STYLE
  2
STANDARD
 70
     0
 40
0.0
 41
1.0
 50
0.0
 71
     0
 42
0.2
  3
txt
  4

  0
STYLE
  2
ＭＳ_ゴシック
 70
     0
 40
0.0
 41
1.0
 50
0.0
 71
     0
 42
0.2
  3
ＭＳ ゴシック.shx
  4

  0
ENDTAB
  0
TABLE
  2
VIEW
 70
     0
  0
ENDTAB
  0
TABLE
  2
UCS
 70
     0
  0
ENDTAB
  0
ENDSEC
  0
SECTION
  2
BLOCKS
  0
BLOCK
  8
0
  2
D_FRAME_VIEW_1553
 70
     0
 10
0.0
 20
0.0
 30
0.0
  0
LINE
  5
71
  8
1
  6
CONTINUOUS
 62
     7
 10
195.5688997025387
 20
307.8039594046638
 30
0.0
 11
195.1707879449212
 21
299.9753395008968
 31
0.0
  0
LINE
  5
72
  8
1
  6
CONTINUOUS
 62
     7
 10
156.7404527684568
 20
295.8436717394214
 30
0.0
 11
194.891163844955
 21
308.1519125841209
 31
0.0
  0
LINE
  5
73
  8
1
  6
CONTINUOUS
 62
     7
 10
195.1707879449212
 20
299.9753395008968
 30
0.0
 11
192.8818798396182
 21
256.3106044455354
 31
0.0
  0
LINE
  5
74
  8
1
  6
CONTINUOUS
 62
     7
 10
196.2811082886874
 20
322.4311157285979
 30
0.0
 11
195.5688997025387
 21
307.8039594046638
 31
0.0
  0
LINE
  5
75
  8
1
  6
CONTINUOUS
 62
     7
 10
192.8818798396182
 20
256.3106044455354
 30
0.0
 11
192.2722475931292
 21
256.3106044455354
 31
0.0
  0
LINE
  5
76
  8
1
  6
CONTINUOUS
 62
     7
 10
154.9364633050087
 20
256.3106044455354
 30
0.0
 11
192.2722475931292
 21
256.3106044455354
 31
0.0
  0
LINE
  5
77
  8
1
  6
CONTINUOUS
 62
     7
 10
215.8235750675501
 20
256.3106044455354
 30
0.0
 11
192.8818798396182
 21
256.3106044455354
 31
0.0
  0
LINE
  5
78
  8
1
  6
CONTINUOUS
 62
     7
 10
215.9470523688094
 20
299.453650644939
 30
0.0
 11
216.3235560290821
 21
256.3106044455354
 31
0.0
  0
LINE
  5
79
  8
1
  6
CONTINUOUS
 62
     7
 10
216.3235560290821
 20
256.3106044455354
 30
0.0
 11
215.8235750675501
 21
256.3106044455354
 31
0.0
  0
LINE
  5
7A
  8
1
  6
CONTINUOUS
 62
     7
 10
215.8799375520995
 20
307.1442468953977
 30
0.0
 11
215.9470523688094
 21
299.453650644939
 31
0.0
  0
POLYLINE
  5
7B
  8
1
  6
CONTINUOUS
 62
     7
 66
     1
 10
0.0
 20
0.0
 30
0.0
  0
VERTEX
  5
115
  8
1
  6
CONTINUOUS
 62
     7
 10
195.611923712331
 20
322.9124136855615
 30
0.0
  0
VERTEX
  5
116
  8
1
  6
CONTINUOUS
 62
     7
 10
195.6301461862532
 20
322.9183699170899
 30
0.0
  0
VERTEX
  5
117
  8
1
  6
CONTINUOUS
 62
     7
 10
195.6486597429938
 20
322.9236608280493
 30
0.0
  0
VERTEX
  5
118
  8
1
  6
CONTINUOUS
 62
     7
 10
195.6676521960998
 20
322.9283189855696
 30
0.0
  0
VERTEX
  5
119
  8
1
  6
CONTINUOUS
 62
     7
 10
195.6868507571847
 20
322.9322593925538
 30
0.0
  0
VERTEX
  5
11A
  8
1
  6
CONTINUOUS
 62
     7
 10
195.7063606061435
 20
322.9354913363018
 30
0.0
  0
VERTEX
  5
11B
  8
1
  6
CONTINUOUS
 62
     7
 10
195.7260123275563
 20
322.9379764337207
 30
0.0
  0
VERTEX
  5
11C
  8
1
  6
CONTINUOUS
 62
     7
 10
195.7460394018482
 20
322.9397254514861
 30
0.0
  0
VERTEX
  5
11D
  8
1
  6
CONTINUOUS
 62
     7
 10
195.7661771340293
 20
322.9406955581509
 30
0.0
  0
VERTEX
  5
11E
  8
1
  6
CONTINUOUS
 62
     7
 10
195.7856174655221
 20
322.9408865517055
 30
0.0
  0
VERTEX
  5
11F
  8
1
  6
CONTINUOUS
 62
     7
 10
195.8050912256055
 20
322.9403446567587
 30
0.0
  0
VERTEX
  5
120
  8
1
  6
CONTINUOUS
 62
     7
 10
195.8247951219379
 20
322.9390468621689
 30
0.0
  0
VERTEX
  5
121
  8
1
  6
CONTINUOUS
 62
     7
 10
195.8444280009401
 20
322.936998582754
 30
0.0
  0
VERTEX
  5
122
  8
1
  6
CONTINUOUS
 62
     7
 10
195.8640961485153
 20
322.9341804047093
 30
0.0
  0
VERTEX
  5
123
  8
1
  6
CONTINUOUS
 62
     7
 10
195.8836210223643
 20
322.9306116488392
 30
0.0
  0
VERTEX
  5
124
  8
1
  6
CONTINUOUS
 62
     7
 10
195.9032338864716
 20
322.9262351481012
 30
0.0
  0
VERTEX
  5
125
  8
1
  6
CONTINUOUS
 62
     7
 10
195.9226634769439
 20
322.9210955163996
 30
0.0
  0
VERTEX
  5
126
  8
1
  6
CONTINUOUS
 62
     7
 10
195.9410065038735
 20
322.9154848225149
 30
0.0
  0
VERTEX
  5
127
  8
1
  6
CONTINUOUS
 62
     7
 10
195.9591169103016
 20
322.909195451938
 30
0.0
  0
VERTEX
  5
128
  8
1
  6
CONTINUOUS
 62
     7
 10
195.9771608339069
 20
322.9021566969512
 30
0.0
  0
VERTEX
  5
129
  8
1
  6
CONTINUOUS
 62
     7
 10
195.9948762833655
 20
322.8944606332892
 30
0.0
  0
VERTEX
  5
12A
  8
1
  6
CONTINUOUS
 62
     7
 10
196.01235105847
 20
322.8860650463385
 30
0.0
  0
VERTEX
  5
12B
  8
1
  6
CONTINUOUS
 62
     7
 10
196.0294381344907
 20
322.8770382694216
 30
0.0
  0
VERTEX
  5
12C
  8
1
  6
CONTINUOUS
 62
     7
 10
196.0463214431465
 20
322.8672722793893
 30
0.0
  0
VERTEX
  5
12D
  8
1
  6
CONTINUOUS
 62
     7
 10
196.0627826841998
 20
322.8568812210778
 30
0.0
  0
VERTEX
  5
12E
  8
1
  6
CONTINUOUS
 62
     7
 10
196.0786945211584
 20
322.8459562983719
 30
0.0
  0
VERTEX
  5
12F
  8
1
  6
CONTINUOUS
 62
     7
 10
196.094139108241
 20
322.834452480026
 30
0.0
  0
VERTEX
  5
130
  8
1
  6
CONTINUOUS
 62
     7
 10
196.1092477131521
 20
322.8222601613812
 30
0.0
  0
VERTEX
  5
131
  8
1
  6
CONTINUOUS
 62
     7
 10
196.1238105404291
 20
322.8095397151779
 30
0.0
  0
VERTEX
  5
132
  8
1
  6
CONTINUOUS
 62
     7
 10
196.1378957752038
 20
322.7962296369288
 30
0.0
  0
VERTEX
  5
133
  8
1
  6
CONTINUOUS
 62
     7
 10
196.1513925090009
 20
322.7824344198251
 30
0.0
  0
VERTEX
  5
134
  8
1
  6
CONTINUOUS
 62
     7
 10
196.16443518764
 20
322.7680057371287
 30
0.0
  0
VERTEX
  5
135
  8
1
  6
CONTINUOUS
 62
     7
 10
196.1768624846806
 20
322.7531088913116
 30
0.0
  0
VERTEX
  5
136
  8
1
  6
CONTINUOUS
 62
     7
 10
196.1889393464133
 20
322.7373861982745
 30
0.0
  0
VERTEX
  5
137
  8
1
  6
CONTINUOUS
 62
     7
 10
196.2003361221093
 20
322.7212242424566
 30
0.0
  0
VERTEX
  5
138
  8
1
  6
CONTINUOUS
 62
     7
 10
196.2110698937936
 20
322.7045970685446
 30
0.0
  0
VERTEX
  5
139
  8
1
  6
CONTINUOUS
 62
     7
 10
196.2210891495331
 20
322.6875823348076
 30
0.0
  0
VERTEX
  5
13A
  8
1
  6
CONTINUOUS
 62
     7
 10
196.2305230443391
 20
322.6699271591103
 30
0.0
  0
VERTEX
  5
13B
  8
1
  6
CONTINUOUS
 62
     7
 10
196.2391931069131
 20
322.6519287066405
 30
0.0
  0
VERTEX
  5
13C
  8
1
  6
CONTINUOUS
 62
     7
 10
196.2471110723756
 20
322.6335581566369
 30
0.0
  0
VERTEX
  5
13D
  8
1
  6
CONTINUOUS
 62
     7
 10
196.2542379482153
 20
322.6149002373305
 30
0.0
  0
VERTEX
  5
13E
  8
1
  6
CONTINUOUS
 62
     7
 10
196.2613055379203
 20
322.5935781039996
 30
0.0
  0
VERTEX
  5
13F
  8
1
  6
CONTINUOUS
 62
     7
 10
196.2673459876664
 20
322.5719651625138
 30
0.0
  0
VERTEX
  5
140
  8
1
  6
CONTINUOUS
 62
     7
 10
196.2723648135597
 20
322.5500181177173
 30
0.0
  0
VERTEX
  5
141
  8
1
  6
CONTINUOUS
 62
     7
 10
196.2763262591375
 20
322.5278613848084
 30
0.0
  0
VERTEX
  5
142
  8
1
  6
CONTINUOUS
 62
     7
 10
196.2787471288459
 20
322.5098451688488
 30
0.0
  0
SEQEND
  5
252
  8
1
  6
CONTINUOUS
 62
     7
  0
LINE
  5
7C
  8
1
  6
CONTINUOUS
 62
     7
 10
157.268120191236
 20
306.4888416568114
 30
0.0
 11
195.5820675912447
 21
322.9008431643688
 31
0.0
  0
LINE
  5
7D
  8
1
  6
CONTINUOUS
 62
     7
 10
195.611923712331
 20
322.9124136855614
 30
0.0
 11
195.5820675912447
 21
322.9008431643688
 31
0.0
  0
LINE
  5
7E
  8
1
  6
CONTINUOUS
 62
     7
 10
215.2663180085877
 20
320.5062304765568
 30
0.0
 11
196.1873840019247
 21
320.5062304765568
 31
0.0
  0
LINE
  5
7F
  8
1
  6
CONTINUOUS
 62
     7
 10
215.2676624031722
 20
320.5062304765568
 30
0.0
 11
215.2663180085877
 21
320.5062304765568
 31
0.0
  0
POLYLINE
  5
80
  8
1
  6
CONTINUOUS
 62
     7
 66
     1
 10
0.0
 20
0.0
 30
0.0
  0
VERTEX
  5
143
  8
1
  6
CONTINUOUS
 62
     7
 10
215.7675228057819
 20
320.0257009305573
 30
0.0
  0
VERTEX
  5
144
  8
1
  6
CONTINUOUS
 62
     7
 10
215.7674539878828
 20
320.0306285617758
 30
0.0
  0
VERTEX
  5
145
  8
1
  6
CONTINUOUS
 62
     7
 10
215.766873487985
 20
320.0466418738624
 30
0.0
  0
VERTEX
  5
146
  8
1
  6
CONTINUOUS
 62
     7
 10
215.7657463042042
 20
320.062645625584
 30
0.0
  0
VERTEX
  5
147
  8
1
  6
CONTINUOUS
 62
     7
 10
215.7640590499919
 20
320.0787260494732
 30
0.0
  0
VERTEX
  5
148
  8
1
  6
CONTINUOUS
 62
     7
 10
215.7618190969937
 20
320.094750187933
 30
0.0
  0
VERTEX
  5
149
  8
1
  6
CONTINUOUS
 62
     7
 10
215.7590154651198
 20
320.1107646654902
 30
0.0
  0
VERTEX
  5
14A
  8
1
  6
CONTINUOUS
 62
     7
 10
215.7556576762194
 20
320.1266907295748
 30
0.0
  0
VERTEX
  5
14B
  8
1
  6
CONTINUOUS
 62
     7
 10
215.7517163167836
 20
320.1426297347153
 30
0.0
  0
VERTEX
  5
14C
  8
1
  6
CONTINUOUS
 62
     7
 10
215.7472118606656
 20
320.1584623405489
 30
0.0
  0
VERTEX
  5
14D
  8
1
  6
CONTINUOUS
 62
     7
 10
215.7411079885825
 20
320.1771733055703
 30
0.0
  0
VERTEX
  5
14E
  8
1
  6
CONTINUOUS
 62
     7
 10
215.7342059816717
 20
320.195684883859
 30
0.0
  0
VERTEX
  5
14F
  8
1
  6
CONTINUOUS
 62
     7
 10
215.726484258448
 20
320.2140220667211
 30
0.0
  0
VERTEX
  5
150
  8
1
  6
CONTINUOUS
 62
     7
 10
215.717965683379
 20
320.2320994429164
 30
0.0
  0
VERTEX
  5
151
  8
1
  6
CONTINUOUS
 62
     7
 10
215.7085009923124
 20
320.2501656519802
 30
0.0
  0
VERTEX
  5
152
  8
1
  6
CONTINUOUS
 62
     7
 10
215.6982241053488
 20
320.2679005077111
 30
0.0
  0
VERTEX
  5
153
  8
1
  6
CONTINUOUS
 62
     7
 10
215.6871040248988
 20
320.285327821099
 30
0.0
  0
VERTEX
  5
154
  8
1
  6
CONTINUOUS
 62
     7
 10
215.6751815367743
 20
320.3023548970376
 30
0.0
  0
VERTEX
  5
155
  8
1
  6
CONTINUOUS
 62
     7
 10
215.6636743707725
 20
320.3174332752888
 30
0.0
  0
VERTEX
  5
156
  8
1
  6
CONTINUOUS
 62
     7
 10
215.6515244122706
 20
320.3321257943167
 30
0.0
  0
VERTEX
  5
157
  8
1
  6
CONTINUOUS
 62
     7
 10
215.6387029259029
 20
320.3464478098504
 30
0.0
  0
VERTEX
  5
158
  8
1
  6
CONTINUOUS
 62
     7
 10
215.625255776989
 20
320.3603290720561
 30
0.0
  0
VERTEX
  5
159
  8
1
  6
CONTINUOUS
 62
     7
 10
215.6109696462108
 20
320.373949784277
 30
0.0
  0
VERTEX
  5
15A
  8
1
  6
CONTINUOUS
 62
     7
 10
215.5960649398615
 20
320.3870605043924
 30
0.0
  0
VERTEX
  5
15B
  8
1
  6
CONTINUOUS
 62
     7
 10
215.5805054294351
 20
320.399673675042
 30
0.0
  0
VERTEX
  5
15C
  8
1
  6
CONTINUOUS
 62
     7
 10
215.5643570558615
 20
320.4117167649202
 30
0.0
  0
VERTEX
  5
15D
  8
1
  6
CONTINUOUS
 62
     7
 10
215.5486927371227
 20
320.4224693612344
 30
0.0
  0
VERTEX
  5
15E
  8
1
  6
CONTINUOUS
 62
     7
 10
215.5325468056131
 20
320.43267134283
 30
0.0
  0
VERTEX
  5
15F
  8
1
  6
CONTINUOUS
 62
     7
 10
215.5157573466882
 20
320.4424002093002
 30
0.0
  0
VERTEX
  5
160
  8
1
  6
CONTINUOUS
 62
     7
 10
215.4985453968068
 20
320.4515062876521
 30
0.0
  0
VERTEX
  5
161
  8
1
  6
CONTINUOUS
 62
     7
 10
215.4808166563657
 20
320.4600239977095
 30
0.0
  0
VERTEX
  5
162
  8
1
  6
CONTINUOUS
 62
     7
 10
215.4627128709745
 20
320.4678717204184
 30
0.0
  0
VERTEX
  5
163
  8
1
  6
CONTINUOUS
 62
     7
 10
215.4440226462624
 20
320.4751187623484
 30
0.0
  0
VERTEX
  5
164
  8
1
  6
CONTINUOUS
 62
     7
 10
215.4249736877515
 20
320.4816534730435
 30
0.0
  0
VERTEX
  5
165
  8
1
  6
CONTINUOUS
 62
     7
 10
215.4063083769065
 20
320.4872575454357
 30
0.0
  0
VERTEX
  5
166
  8
1
  6
CONTINUOUS
 62
     7
 10
215.3873682992793
 20
320.492164946552
 30
0.0
  0
VERTEX
  5
167
  8
1
  6
CONTINUOUS
 62
     7
 10
215.3679549946017
 20
320.4964056010251
 30
0.0
  0
VERTEX
  5
168
  8
1
  6
CONTINUOUS
 62
     7
 10
215.3483589242386
 20
320.49989781912
 30
0.0
  0
VERTEX
  5
169
  8
1
  6
CONTINUOUS
 62
     7
 10
215.3284695662534
 20
320.5026492778496
 30
0.0
  0
VERTEX
  5
16A
  8
1
  6
CONTINUOUS
 62
     7
 10
215.3084663795714
 20
320.5046252724619
 30
0.0
  0
VERTEX
  5
16B
  8
1
  6
CONTINUOUS
 62
     7
 10
215.2881041760782
 20
320.5058311932834
 30
0.0
  0
VERTEX
  5
16C
  8
1
  6
CONTINUOUS
 62
     7
 10
215.2676624031722
 20
320.5062304765568
 30
0.0
  0
SEQEND
  5
253
  8
1
  6
CONTINUOUS
 62
     7
  0
LINE
  5
81
  8
1
  6
CONTINUOUS
 62
     7
 10
215.7675228057819
 20
320.0257009305573
 30
0.0
 11
215.8799375520995
 21
307.1442468953977
 31
0.0
  0
LINE
  5
82
  8
1
  6
CONTINUOUS
 62
     7
 10
154.9364633050087
 20
256.3106044455354
 30
0.0
 11
153.761265565307
 21
256.3106044455354
 31
0.0
  0
LINE
  5
83
  8
1
  6
CONTINUOUS
 62
     7
 10
156.1999600120984
 20
303.8069838397782
 30
0.0
 11
156.200305230458
 21
304.258839110116
 31
0.0
  0
LINE
  5
84
  8
1
  6
CONTINUOUS
 62
     7
 10
156.2748706031306
 20
305.6816311782528
 30
0.0
 11
156.200305230458
 21
304.258839110116
 31
0.0
  0
LINE
  5
85
  8
1
  6
CONTINUOUS
 62
     7
 10
155.7191233609066
 20
293.9463357008532
 30
0.0
 11
156.1999600120984
 21
303.8069838397782
 31
0.0
  0
LINE
  5
86
  8
1
  6
CONTINUOUS
 62
     7
 10
153.7568993021958
 20
256.3106044455354
 30
0.0
 11
155.3740446222671
 21
287.1618176635124
 31
0.0
  0
LINE
  5
87
  8
1
  6
CONTINUOUS
 62
     7
 10
155.3740446222671
 20
287.1618176635124
 30
0.0
 11
155.7191233609066
 21
293.9463357008532
 31
0.0
  0
LINE
  5
88
  8
1
  6
CONTINUOUS
 62
     7
 10
156.2748827973725
 20
305.1969205292046
 30
0.0
 11
156.2908206149511
 21
305.3448887583162
 31
0.0
  0
ARC
  5
89
  8
1
  6
CONTINUOUS
 62
     7
 10
157.6907347208485
 20
305.1174681202256
 30
0.0
 40
1.418266424378754
 50
147.6281258785767
 51
170.7727217723123
  0
ARC
  5
8A
  8
1
  6
CONTINUOUS
 62
     7
 10
157.7414116979788
 20
305.0819061745449
 30
0.0
 40
1.480110882866241
 50
112.5604334717723
 51
147.5157795493199
  0
LINE
  5
8B
  8
1
  6
CONTINUOUS
 62
     7
 10
157.1735557708071
 20
306.4487521320526
 30
0.0
 11
157.268120191236
 21
306.4888416568114
 31
0.0
  0
LINE
  5
8C
  8
1
  6
CONTINUOUS
 62
     7
 10
196.2787471288459
 20
322.5098451688488
 30
0.0
 11
196.2811082886874
 21
322.4311157285978
 31
0.0
  0
LINE
  5
8D
  8
1
  6
CONTINUOUS
 62
     7
 10
196.2813587313205
 20
323.0994064028063
 30
0.0
 11
196.2812079887703
 21
322.6952071143069
 31
0.0
  0
ARC
  5
8E
  8
1
  6
CONTINUOUS
 62
     7
 10
195.7820461037753
 20
323.1316408476418
 30
0.0
 40
0.5000000000000115
 50
357.0000000000006
 51
113.3884824289951
  0
LINE
  5
8F
  8
1
  6
CONTINUOUS
 62
     7
 10
157.177369811258
 20
306.9798789063264
 30
0.0
 11
195.5835644057748
 21
323.5905580684521
 31
0.0
  0
LINE
  5
90
  8
1
  6
CONTINUOUS
 62
     7
 10
215.7623803524756
 20
320.6149677132846
 30
0.0
 11
215.7675228057819
 21
320.0257009305573
 31
0.0
  0
ARC
  5
91
  8
1
  6
CONTINUOUS
 62
     7
 10
157.7728149052624
 20
305.6031272438884
 30
0.0
 40
1.499999999999985
 50
113.388482428995
 51
177.0000000000001
  0
LINE
  5
92
  8
1
  6
CONTINUOUS
 62
     7
 10
196.2743900902499
 20
322.5386175574359
 30
0.0
 11
196.2760321264815
 21
322.7961472450654
 31
0.0
  0
ARC
  5
93
  8
1
  6
CONTINUOUS
 62
     7
 10
215.2623993909435
 20
320.6106044455353
 30
0.0
 40
0.5000000000000018
 50
0.5000000000004787
 51
90.0
  0
LINE
  5
94
  8
1
  6
CONTINUOUS
 62
     7
 10
215.2623993909435
 20
321.1106044455354
 30
0.0
 11
196.2168114803265
 21
321.1106044455354
 31
0.0
  0
ENDBLK
  8
0
  0
BLOCK
  8
0
  2
D_FRAME_VIEW_1619
 70
     0
 10
0.0
 20
0.0
 30
0.0
  0
LINE
  5
99
  8
1
  6
CONTINUOUS
 62
     7
 10
103.0052239713625
 20
390.611923712331
 30
0.0
 11
103.0006989286229
 21
390.5820675912448
 31
0.0
  0
POLYLINE
  5
9A
  8
1
  6
CONTINUOUS
 62
     7
 66
     1
 10
0.0
 20
0.0
 30
0.0
  0
VERTEX
  5
16D
  8
1
  6
CONTINUOUS
 62
     7
 10
103.0052239713625
 20
390.611923712331
 30
0.0
  0
VERTEX
  5
16E
  8
1
  6
CONTINUOUS
 62
     7
 10
103.0085023504722
 20
390.6302114915106
 30
0.0
  0
VERTEX
  5
16F
  8
1
  6
CONTINUOUS
 62
     7
 10
103.0114632097804
 20
390.6487924390088
 30
0.0
  0
VERTEX
  5
170
  8
1
  6
CONTINUOUS
 62
     7
 10
103.0141174651215
 20
390.6677871584741
 30
0.0
  0
VERTEX
  5
171
  8
1
  6
CONTINUOUS
 62
     7
 10
103.0164292443655
 20
390.6869877741302
 30
0.0
  0
VERTEX
  5
172
  8
1
  6
CONTINUOUS
 62
     7
 10
103.0184052718386
 20
390.7064994867278
 30
0.0
  0
VERTEX
  5
173
  8
1
  6
CONTINUOUS
 62
     7
 10
103.0200234018155
 20
390.7261528378295
 30
0.0
  0
VERTEX
  5
174
  8
1
  6
CONTINUOUS
 62
     7
 10
103.0212899545539
 20
390.7461101746709
 30
0.0
  0
VERTEX
  5
175
  8
1
  6
CONTINUOUS
 62
     7
 10
103.0221851133204
 20
390.7661771340294
 30
0.0
  0
VERTEX
  5
176
  8
1
  6
CONTINUOUS
 62
     7
 10
103.0226939562486
 20
390.7856890119783
 30
0.0
  0
VERTEX
  5
177
  8
1
  6
CONTINUOUS
 62
     7
 10
103.0228467782216
 20
390.8052345656591
 30
0.0
  0
VERTEX
  5
178
  8
1
  6
CONTINUOUS
 62
     7
 10
103.0226842783162
 20
390.8224674153373
 30
0.0
  0
VERTEX
  5
179
  8
1
  6
CONTINUOUS
 62
     7
 10
103.0222432105369
 20
390.8396491471175
 30
0.0
  0
VERTEX
  5
17A
  8
1
  6
CONTINUOUS
 62
     7
 10
103.0215194050082
 20
390.8568508193978
 30
0.0
  0
VERTEX
  5
17B
  8
1
  6
CONTINUOUS
 62
     7
 10
103.0205161156154
 20
390.8739532388338
 30
0.0
  0
VERTEX
  5
17C
  8
1
  6
CONTINUOUS
 62
     7
 10
103.0196185286733
 20
390.8862312558421
 30
0.0
  0
VERTEX
  5
17D
  8
1
  6
CONTINUOUS
 62
     7
 10
103.0185769658299
 20
390.898436525654
 30
0.0
  0
VERTEX
  5
17E
  8
1
  6
CONTINUOUS
 62
     7
 10
103.0173887782661
 20
390.9105951748234
 30
0.0
  0
VERTEX
  5
17F
  8
1
  6
CONTINUOUS
 62
     7
 10
103.0160579795694
 20
390.9226634769439
 30
0.0
  0
VERTEX
  5
180
  8
1
  6
CONTINUOUS
 62
     7
 10
103.0137303649824
 20
390.9410689116849
 30
0.0
  0
VERTEX
  5
181
  8
1
  6
CONTINUOUS
 62
     7
 10
103.0110675713947
 20
390.9592401292065
 30
0.0
  0
VERTEX
  5
182
  8
1
  6
CONTINUOUS
 62
     7
 10
103.008049733939
 20
390.9772825387589
 30
0.0
  0
VERTEX
  5
183
  8
1
  6
CONTINUOUS
 62
     7
 10
103.0047073062562
 20
390.9949962597202
 30
0.0
  0
VERTEX
  5
184
  8
1
  6
CONTINUOUS
 62
     7
 10
103.0010217520311
 20
391.0124690820221
 30
0.0
  0
VERTEX
  5
185
  8
1
  6
CONTINUOUS
 62
     7
 10
102.9970229932293
 20
391.0295539999283
 30
0.0
  0
VERTEX
  5
186
  8
1
  6
CONTINUOUS
 62
     7
 10
102.9926781973222
 20
391.0463780395108
 30
0.0
  0
VERTEX
  5
187
  8
1
  6
CONTINUOUS
 62
     7
 10
102.9880246233808
 20
391.0627826841999
 30
0.0
  0
VERTEX
  5
188
  8
1
  6
CONTINUOUS
 62
     7
 10
102.9830697101946
 20
391.0787452265531
 30
0.0
  0
VERTEX
  5
189
  8
1
  6
CONTINUOUS
 62
     7
 10
102.9778233686052
 20
391.0942374951886
 30
0.0
  0
VERTEX
  5
18A
  8
1
  6
CONTINUOUS
 62
     7
 10
102.9729677845912
 20
391.1074765289331
 30
0.0
  0
VERTEX
  5
18B
  8
1
  6
CONTINUOUS
 62
     7
 10
102.9679072276224
 20
391.1202998558351
 30
0.0
  0
VERTEX
  5
18C
  8
1
  6
CONTINUOUS
 62
     7
 10
102.9626231683781
 20
391.1327539144837
 30
0.0
  0
VERTEX
  5
18D
  8
1
  6
CONTINUOUS
 62
     7
 10
102.9571476126863
 20
391.1447639085833
 30
0.0
  0
VERTEX
  5
18E
  8
1
  6
CONTINUOUS
 62
     7
 10
102.9489277989985
 20
391.1612834046156
 30
0.0
  0
VERTEX
  5
18F
  8
1
  6
CONTINUOUS
 62
     7
 10
102.9403286057719
 20
391.1768624846806
 30
0.0
  0
VERTEX
  5
190
  8
1
  6
CONTINUOUS
 62
     7
 10
102.9329859285284
 20
391.1889485984772
 30
0.0
  0
VERTEX
  5
191
  8
1
  6
CONTINUOUS
 62
     7
 10
102.9254164442674
 20
391.2003535550215
 30
0.0
  0
VERTEX
  5
192
  8
1
  6
CONTINUOUS
 62
     7
 10
102.9175889482067
 20
391.211119441244
 30
0.0
  0
VERTEX
  5
193
  8
1
  6
CONTINUOUS
 62
     7
 10
102.9095580117699
 20
391.2211662104983
 30
0.0
  0
VERTEX
  5
194
  8
1
  6
CONTINUOUS
 62
     7
 10
102.9012574772069
 20
391.2305656897
 30
0.0
  0
VERTEX
  5
195
  8
1
  6
CONTINUOUS
 62
     7
 10
102.8927764125069
 20
391.2392060356833
 30
0.0
  0
VERTEX
  5
196
  8
1
  6
CONTINUOUS
 62
     7
 10
102.8840802483322
 20
391.2471169301076
 30
0.0
  0
VERTEX
  5
197
  8
1
  6
CONTINUOUS
 62
     7
 10
102.875229028985
 20
391.2542379482154
 30
0.0
  0
VERTEX
  5
198
  8
1
  6
CONTINUOUS
 62
     7
 10
102.8650737179559
 20
391.2613118393718
 30
0.0
  0
VERTEX
  5
199
  8
1
  6
CONTINUOUS
 62
     7
 10
102.8547562157358
 20
391.2673566134661
 30
0.0
  0
VERTEX
  5
19A
  8
1
  6
CONTINUOUS
 62
     7
 10
102.8512784349804
 20
391.2691437447592
 30
0.0
  0
SEQEND
  5
254
  8
1
  6
CONTINUOUS
 62
     7
  0
LINE
  5
9B
  8
1
  6
CONTINUOUS
 62
     7
 10
98.6650250638272
 20
352.1735557708072
 30
0.0
 11
98.68106740760412
 21
352.2681201912361
 31
0.0
  0
LINE
  5
9C
  8
1
  6
CONTINUOUS
 62
     7
 10
98.68106740760412
 20
352.2681201912361
 30
0.0
 11
103.0006989286229
 21
390.5820675912448
 31
0.0
  0
LINE
  5
9D
  8
1
  6
CONTINUOUS
 62
     7
 10
69.929967866298
 20
391.2811801568299
 30
0.0
 11
83.40806083272408
 21
391.2813589696131
 31
0.0
  0
LINE
  5
9E
  8
1
  6
CONTINUOUS
 62
     7
 10
66.9993010713771
 20
390.5820675912448
 30
0.0
 11
66.99477602863755
 21
390.611923712331
 31
0.0
  0
POLYLINE
  5
9F
  8
1
  6
CONTINUOUS
 62
     7
 66
     1
 10
0.0
 20
0.0
 30
0.0
  0
VERTEX
  5
19B
  8
1
  6
CONTINUOUS
 62
     7
 10
66.99477602863757
 20
390.611923712331
 30
0.0
  0
VERTEX
  5
19C
  8
1
  6
CONTINUOUS
 62
     7
 10
66.99149764952777
 20
390.6302114915105
 30
0.0
  0
VERTEX
  5
19D
  8
1
  6
CONTINUOUS
 62
     7
 10
66.98853679021963
 20
390.6487924390088
 30
0.0
  0
VERTEX
  5
19E
  8
1
  6
CONTINUOUS
 62
     7
 10
66.9858825348785
 20
390.6677871584741
 30
0.0
  0
VERTEX
  5
19F
  8
1
  6
CONTINUOUS
 62
     7
 10
66.98357075563457
 20
390.6869877741302
 30
0.0
  0
VERTEX
  5
1A0
  8
1
  6
CONTINUOUS
 62
     7
 10
66.98159472816144
 20
390.7064994867278
 30
0.0
  0
VERTEX
  5
1A1
  8
1
  6
CONTINUOUS
 62
     7
 10
66.97997659818445
 20
390.7261528378295
 30
0.0
  0
VERTEX
  5
1A2
  8
1
  6
CONTINUOUS
 62
     7
 10
66.97871004544614
 20
390.7461101746709
 30
0.0
  0
VERTEX
  5
1A3
  8
1
  6
CONTINUOUS
 62
     7
 10
66.97781488667964
 20
390.7661771340294
 30
0.0
  0
VERTEX
  5
1A4
  8
1
  6
CONTINUOUS
 62
     7
 10
66.97730604375145
 20
390.7856890119783
 30
0.0
  0
VERTEX
  5
1A5
  8
1
  6
CONTINUOUS
 62
     7
 10
66.97715322177844
 20
390.8052345656591
 30
0.0
  0
VERTEX
  5
1A6
  8
1
  6
CONTINUOUS
 62
     7
 10
66.97731572168387
 20
390.8224674153373
 30
0.0
  0
VERTEX
  5
1A7
  8
1
  6
CONTINUOUS
 62
     7
 10
66.97775678946313
 20
390.8396491471175
 30
0.0
  0
VERTEX
  5
1A8
  8
1
  6
CONTINUOUS
 62
     7
 10
66.97848059499185
 20
390.8568508193978
 30
0.0
  0
VERTEX
  5
1A9
  8
1
  6
CONTINUOUS
 62
     7
 10
66.97948388438463
 20
390.8739532388338
 30
0.0
  0
VERTEX
  5
1AA
  8
1
  6
CONTINUOUS
 62
     7
 10
66.98038147132672
 20
390.8862312558421
 30
0.0
  0
VERTEX
  5
1AB
  8
1
  6
CONTINUOUS
 62
     7
 10
66.98142303417005
 20
390.898436525654
 30
0.0
  0
VERTEX
  5
1AC
  8
1
  6
CONTINUOUS
 62
     7
 10
66.9826112217339
 20
390.9105951748234
 30
0.0
  0
VERTEX
  5
1AD
  8
1
  6
CONTINUOUS
 62
     7
 10
66.98394202043062
 20
390.9226634769439
 30
0.0
  0
VERTEX
  5
1AE
  8
1
  6
CONTINUOUS
 62
     7
 10
66.98626963501763
 20
390.9410689116849
 30
0.0
  0
VERTEX
  5
1AF
  8
1
  6
CONTINUOUS
 62
     7
 10
66.9889324286053
 20
390.9592401292065
 30
0.0
  0
VERTEX
  5
1B0
  8
1
  6
CONTINUOUS
 62
     7
 10
66.99195026606101
 20
390.9772825387589
 30
0.0
  0
VERTEX
  5
1B1
  8
1
  6
CONTINUOUS
 62
     7
 10
66.99529269374375
 20
390.9949962597202
 30
0.0
  0
VERTEX
  5
1B2
  8
1
  6
CONTINUOUS
 62
     7
 10
66.99897824796889
 20
391.012469082022
 30
0.0
  0
VERTEX
  5
1B3
  8
1
  6
CONTINUOUS
 62
     7
 10
67.0029770067707
 20
391.0295539999283
 30
0.0
  0
VERTEX
  5
1B4
  8
1
  6
CONTINUOUS
 62
     7
 10
67.00732180267771
 20
391.0463780395108
 30
0.0
  0
VERTEX
  5
1B5
  8
1
  6
CONTINUOUS
 62
     7
 10
67.01197537661916
 20
391.0627826841999
 30
0.0
  0
VERTEX
  5
1B6
  8
1
  6
CONTINUOUS
 62
     7
 10
67.01693028980523
 20
391.078745226553
 30
0.0
  0
VERTEX
  5
1B7
  8
1
  6
CONTINUOUS
 62
     7
 10
67.0221766313948
 20
391.0942374951886
 30
0.0
  0
VERTEX
  5
1B8
  8
1
  6
CONTINUOUS
 62
     7
 10
67.02703221540881
 20
391.1074765289331
 30
0.0
  0
VERTEX
  5
1B9
  8
1
  6
CONTINUOUS
 62
     7
 10
67.03209277237761
 20
391.120299855835
 30
0.0
  0
VERTEX
  5
1BA
  8
1
  6
CONTINUOUS
 62
     7
 10
67.03737683162184
 20
391.1327539144836
 30
0.0
  0
VERTEX
  5
1BB
  8
1
  6
CONTINUOUS
 62
     7
 10
67.04285238731369
 20
391.1447639085832
 30
0.0
  0
VERTEX
  5
1BC
  8
1
  6
CONTINUOUS
 62
     7
 10
67.05107220100149
 20
391.1612834046155
 30
0.0
  0
VERTEX
  5
1BD
  8
1
  6
CONTINUOUS
 62
     7
 10
67.05967139422799
 20
391.1768624846806
 30
0.0
  0
VERTEX
  5
1BE
  8
1
  6
CONTINUOUS
 62
     7
 10
67.06701407147924
 20
391.1889485984758
 30
0.0
  0
VERTEX
  5
1BF
  8
1
  6
CONTINUOUS
 62
     7
 10
67.07458355573935
 20
391.2003535550203
 30
0.0
  0
VERTEX
  5
1C0
  8
1
  6
CONTINUOUS
 62
     7
 10
67.08241105179934
 20
391.211119441243
 30
0.0
  0
VERTEX
  5
1C1
  8
1
  6
CONTINUOUS
 62
     7
 10
67.09044198823537
 20
391.2211662104975
 30
0.0
  0
VERTEX
  5
1C2
  8
1
  6
CONTINUOUS
 62
     7
 10
67.09874252279769
 20
391.2305656896993
 30
0.0
  0
VERTEX
  5
1C3
  8
1
  6
CONTINUOUS
 62
     7
 10
67.10722358749699
 20
391.2392060356827
 30
0.0
  0
VERTEX
  5
1C4
  8
1
  6
CONTINUOUS
 62
     7
 10
67.11591975167109
 20
391.2471169301072
 30
0.0
  0
VERTEX
  5
1C5
  8
1
  6
CONTINUOUS
 62
     7
 10
67.12477097101501
 20
391.2542379482154
 30
0.0
  0
VERTEX
  5
1C6
  8
1
  6
CONTINUOUS
 62
     7
 10
67.1349262820474
 20
391.2613118393714
 30
0.0
  0
VERTEX
  5
1C7
  8
1
  6
CONTINUOUS
 62
     7
 10
67.14524378426664
 20
391.2673566134659
 30
0.0
  0
VERTEX
  5
1C8
  8
1
  6
CONTINUOUS
 62
     7
 10
67.14872061508106
 20
391.269143273539
 30
0.0
  0
SEQEND
  5
255
  8
1
  6
CONTINUOUS
 62
     7
  0
LINE
  5
A0
  8
1
  6
CONTINUOUS
 62
     7
 10
71.3189325923959
 20
352.2681201912361
 30
0.0
 11
71.33497493617287
 21
352.1735557708072
 31
0.0
  0
LINE
  5
A1
  8
1
  6
CONTINUOUS
 62
     7
 10
71.3189325923959
 20
352.2681201912361
 30
0.0
 11
66.9993010713771
 21
390.5820675912448
 31
0.0
  0
LINE
  5
A2
  8
1
  6
CONTINUOUS
 62
     7
 10
67.14872061508106
 20
391.269143273539
 30
0.0
 11
67.15577637371325
 21
391.2723914197616
 31
0.0
  0
LINE
  5
A3
  8
1
  6
CONTINUOUS
 62
     7
 10
67.15577637371051
 20
391.2723914197618
 30
0.0
 11
67.16225799819414
 21
391.2749378535834
 31
0.0
  0
LINE
  5
A4
  8
1
  6
CONTINUOUS
 62
     7
 10
102.8512784349804
 20
391.2691437447592
 30
0.0
 11
102.8251173428166
 21
391.2787253323935
 31
0.0
  0
LINE
  5
A5
  8
1
  6
CONTINUOUS
 62
     7
 10
61.7421979636396
 20
351.7404527684567
 30
0.0
 11
53.33560834299991
 21
389.891163844955
 31
0.0
  0
LINE
  5
A6
  8
1
  6
CONTINUOUS
 62
     7
 10
108.2578020363604
 20
351.7404527684567
 30
0.0
 11
116.6643916570001
 21
389.891163844955
 31
0.0
  0
POLYLINE
  5
A7
  8
1
  6
CONTINUOUS
 62
     7
 66
     1
 10
0.0
 20
0.0
 30
0.0
  0
VERTEX
  5
1C9
  8
1
  6
CONTINUOUS
 62
     7
 10
101.5711992770385
 20
410.767522805782
 30
0.0
  0
VERTEX
  5
1CA
  8
1
  6
CONTINUOUS
 62
     7
 10
101.5735234448852
 20
410.7674539878829
 30
0.0
  0
VERTEX
  5
1CB
  8
1
  6
CONTINUOUS
 62
     7
 10
101.5810964310475
 20
410.766871340292
 30
0.0
  0
VERTEX
  5
1CC
  8
1
  6
CONTINUOUS
 62
     7
 10
101.5886601925543
 20
410.7657407768171
 30
0.0
  0
VERTEX
  5
1CD
  8
1
  6
CONTINUOUS
 62
     7
 10
101.5987951593524
 20
410.7633594196857
 30
0.0
  0
VERTEX
  5
1CE
  8
1
  6
CONTINUOUS
 62
     7
 10
101.6088871935243
 20
410.7599914956625
 30
0.0
  0
VERTEX
  5
1CF
  8
1
  6
CONTINUOUS
 62
     7
 10
101.618909880613
 20
410.7556433282406
 30
0.0
  0
VERTEX
  5
1D0
  8
1
  6
CONTINUOUS
 62
     7
 10
101.6264336476823
 20
410.7517058510677
 30
0.0
  0
VERTEX
  5
1D1
  8
1
  6
CONTINUOUS
 62
     7
 10
101.6339024207453
 20
410.7472118606656
 30
0.0
  0
VERTEX
  5
1D2
  8
1
  6
CONTINUOUS
 62
     7
 10
101.6427674547163
 20
410.7410982336626
 30
0.0
  0
VERTEX
  5
1D3
  8
1
  6
CONTINUOUS
 62
     7
 10
101.6515290200214
 20
410.734195092831
 30
0.0
  0
VERTEX
  5
1D4
  8
1
  6
CONTINUOUS
 62
     7
 10
101.6602461588276
 20
410.7264397692858
 30
0.0
  0
VERTEX
  5
1D5
  8
1
  6
CONTINUOUS
 62
     7
 10
101.6688303952832
 20
410.7178951591642
 30
0.0
  0
VERTEX
  5
1D6
  8
1
  6
CONTINUOUS
 62
     7
 10
101.6773730904443
 20
410.7084463498168
 30
0.0
  0
VERTEX
  5
1D7
  8
1
  6
CONTINUOUS
 62
     7
 10
101.6857504124068
 20
410.6982064967553
 30
0.0
  0
VERTEX
  5
1D8
  8
1
  6
CONTINUOUS
 62
     7
 10
101.6940193489709
 20
410.6870847062278
 30
0.0
  0
VERTEX
  5
1D9
  8
1
  6
CONTINUOUS
 62
     7
 10
101.7020896391696
 20
410.6751815367743
 30
0.0
  0
VERTEX
  5
1DA
  8
1
  6
CONTINUOUS
 62
     7
 10
101.7074832807825
 20
410.6666032356257
 30
0.0
  0
VERTEX
  5
1DB
  8
1
  6
CONTINUOUS
 62
     7
 10
101.7127720284861
 20
410.6576712389034
 30
0.0
  0
VERTEX
  5
1DC
  8
1
  6
CONTINUOUS
 62
     7
 10
101.7214052702457
 20
410.6418871754715
 30
0.0
  0
VERTEX
  5
1DD
  8
1
  6
CONTINUOUS
 62
     7
 10
101.7297054865534
 20
410.6251477786435
 30
0.0
  0
VERTEX
  5
1DE
  8
1
  6
CONTINUOUS
 62
     7
 10
101.7361766613447
 20
410.6108893432383
 30
0.0
  0
VERTEX
  5
1DF
  8
1
  6
CONTINUOUS
 62
     7
 10
101.7424011247664
 20
410.5960398373396
 30
0.0
  0
VERTEX
  5
1E0
  8
1
  6
CONTINUOUS
 62
     7
 10
101.7484181042691
 20
410.5804788631848
 30
0.0
  0
VERTEX
  5
1E1
  8
1
  6
CONTINUOUS
 62
     7
 10
101.7541591902921
 20
410.5643570558615
 30
0.0
  0
VERTEX
  5
1E2
  8
1
  6
CONTINUOUS
 62
     7
 10
101.7593197749514
 20
410.5486267274161
 30
0.0
  0
VERTEX
  5
1E3
  8
1
  6
CONTINUOUS
 62
     7
 10
101.7642130788004
 20
410.5324365978362
 30
0.0
  0
VERTEX
  5
1E4
  8
1
  6
CONTINUOUS
 62
     7
 10
101.7696300741021
 20
410.5127673575011
 30
0.0
  0
VERTEX
  5
1E5
  8
1
  6
CONTINUOUS
 62
     7
 10
101.7746487300217
 20
410.4925159639078
 30
0.0
  0
VERTEX
  5
1E6
  8
1
  6
CONTINUOUS
 62
     7
 10
101.7792486164672
 20
410.4717464655104
 30
0.0
  0
VERTEX
  5
1E7
  8
1
  6
CONTINUOUS
 62
     7
 10
101.7823132930512
 20
410.4563889676243
 30
0.0
  0
VERTEX
  5
1E8
  8
1
  6
CONTINUOUS
 62
     7
 10
101.7851480612425
 20
410.4407887914489
 30
0.0
  0
VERTEX
  5
1E9
  8
1
  6
CONTINUOUS
 62
     7
 10
101.7877464844052
 20
410.4249736877516
 30
0.0
  0
VERTEX
  5
1EA
  8
1
  6
CONTINUOUS
 62
     7
 10
101.7904805546235
 20
410.406222577763
 30
0.0
  0
VERTEX
  5
1EB
  8
1
  6
CONTINUOUS
 62
     7
 10
101.7928801708037
 20
410.3872275027881
 30
0.0
  0
VERTEX
  5
1EC
  8
1
  6
CONTINUOUS
 62
     7
 10
101.795275629591
 20
410.3645133192323
 30
0.0
  0
VERTEX
  5
1ED
  8
1
  6
CONTINUOUS
 62
     7
 10
101.7971896973004
 20
410.3415437706314
 30
0.0
  0
VERTEX
  5
1EE
  8
1
  6
CONTINUOUS
 62
     7
 10
101.7986135024241
 20
410.3184031195404
 30
0.0
  0
VERTEX
  5
1EF
  8
1
  6
CONTINUOUS
 62
     7
 10
101.799336526352
 20
410.3015294683008
 30
0.0
  0
VERTEX
  5
1F0
  8
1
  6
CONTINUOUS
 62
     7
 10
101.7997981825294
 20
410.2846047590181
 30
0.0
  0
VERTEX
  5
1F1
  8
1
  6
CONTINUOUS
 62
     7
 10
101.8
 20
410.2676624031723
 30
0.0
  0
SEQEND
  5
256
  8
1
  6
CONTINUOUS
 62
     7
  0
POLYLINE
  5
A8
  8
1
  6
CONTINUOUS
 62
     7
 66
     1
 10
0.0
 20
0.0
 30
0.0
  0
VERTEX
  5
1F2
  8
1
  6
CONTINUOUS
 62
     7
 10
68.42880072296151
 20
410.767522805782
 30
0.0
  0
VERTEX
  5
1F3
  8
1
  6
CONTINUOUS
 62
     7
 10
68.42647655511469
 20
410.7674539878829
 30
0.0
  0
VERTEX
  5
1F4
  8
1
  6
CONTINUOUS
 62
     7
 10
68.41890356895252
 20
410.766871340292
 30
0.0
  0
VERTEX
  5
1F5
  8
1
  6
CONTINUOUS
 62
     7
 10
68.41133980744573
 20
410.7657407768171
 30
0.0
  0
VERTEX
  5
1F6
  8
1
  6
CONTINUOUS
 62
     7
 10
68.40120484064758
 20
410.7633594196857
 30
0.0
  0
VERTEX
  5
1F7
  8
1
  6
CONTINUOUS
 62
     7
 10
68.39111280647569
 20
410.7599914956625
 30
0.0
  0
VERTEX
  5
1F8
  8
1
  6
CONTINUOUS
 62
     7
 10
68.38109011938705
 20
410.7556433282406
 30
0.0
  0
VERTEX
  5
1F9
  8
1
  6
CONTINUOUS
 62
     7
 10
68.37356635231775
 20
410.7517058510677
 30
0.0
  0
VERTEX
  5
1FA
  8
1
  6
CONTINUOUS
 62
     7
 10
68.36609757925477
 20
410.7472118606656
 30
0.0
  0
VERTEX
  5
1FB
  8
1
  6
CONTINUOUS
 62
     7
 10
68.3572325452837
 20
410.7410982336626
 30
0.0
  0
VERTEX
  5
1FC
  8
1
  6
CONTINUOUS
 62
     7
 10
68.34847097997864
 20
410.734195092831
 30
0.0
  0
VERTEX
  5
1FD
  8
1
  6
CONTINUOUS
 62
     7
 10
68.33975384117244
 20
410.7264397692858
 30
0.0
  0
VERTEX
  5
1FE
  8
1
  6
CONTINUOUS
 62
     7
 10
68.33116960471682
 20
410.7178951591642
 30
0.0
  0
VERTEX
  5
1FF
  8
1
  6
CONTINUOUS
 62
     7
 10
68.32262690955571
 20
410.7084463498168
 30
0.0
  0
VERTEX
  5
200
  8
1
  6
CONTINUOUS
 62
     7
 10
68.31424958759317
 20
410.6982064967552
 30
0.0
  0
VERTEX
  5
201
  8
1
  6
CONTINUOUS
 62
     7
 10
68.30598065102907
 20
410.6870847062278
 30
0.0
  0
VERTEX
  5
202
  8
1
  6
CONTINUOUS
 62
     7
 10
68.29791036083044
 20
410.6751815367743
 30
0.0
  0
VERTEX
  5
203
  8
1
  6
CONTINUOUS
 62
     7
 10
68.29251671921757
 20
410.6666032356257
 30
0.0
  0
VERTEX
  5
204
  8
1
  6
CONTINUOUS
 62
     7
 10
68.2872279715139
 20
410.6576712389034
 30
0.0
  0
VERTEX
  5
205
  8
1
  6
CONTINUOUS
 62
     7
 10
68.27859472975435
 20
410.6418871754715
 30
0.0
  0
VERTEX
  5
206
  8
1
  6
CONTINUOUS
 62
     7
 10
68.2702945134466
 20
410.6251477786435
 30
0.0
  0
VERTEX
  5
207
  8
1
  6
CONTINUOUS
 62
     7
 10
68.2638233386553
 20
410.6108893432383
 30
0.0
  0
VERTEX
  5
208
  8
1
  6
CONTINUOUS
 62
     7
 10
68.25759887523364
 20
410.5960398373397
 30
0.0
  0
VERTEX
  5
209
  8
1
  6
CONTINUOUS
 62
     7
 10
68.25158189573096
 20
410.5804788631848
 30
0.0
  0
VERTEX
  5
20A
  8
1
  6
CONTINUOUS
 62
     7
 10
68.24584080970794
 20
410.5643570558615
 30
0.0
  0
VERTEX
  5
20B
  8
1
  6
CONTINUOUS
 62
     7
 10
68.24068022504865
 20
410.5486267274161
 30
0.0
  0
VERTEX
  5
20C
  8
1
  6
CONTINUOUS
 62
     7
 10
68.2357869211996
 20
410.5324365978362
 30
0.0
  0
VERTEX
  5
20D
  8
1
  6
CONTINUOUS
 62
     7
 10
68.23036992589793
 20
410.5127673575011
 30
0.0
  0
VERTEX
  5
20E
  8
1
  6
CONTINUOUS
 62
     7
 10
68.22535126997833
 20
410.4925159639078
 30
0.0
  0
VERTEX
  5
20F
  8
1
  6
CONTINUOUS
 62
     7
 10
68.22075138353279
 20
410.4717464655104
 30
0.0
  0
VERTEX
  5
210
  8
1
  6
CONTINUOUS
 62
     7
 10
68.2176867069488
 20
410.4563889676243
 30
0.0
  0
VERTEX
  5
211
  8
1
  6
CONTINUOUS
 62
     7
 10
68.21485193875756
 20
410.4407887914489
 30
0.0
  0
VERTEX
  5
212
  8
1
  6
CONTINUOUS
 62
     7
 10
68.21225351559478
 20
410.4249736877516
 30
0.0
  0
VERTEX
  5
213
  8
1
  6
CONTINUOUS
 62
     7
 10
68.20951944537651
 20
410.406222577763
 30
0.0
  0
VERTEX
  5
214
  8
1
  6
CONTINUOUS
 62
     7
 10
68.20711982919632
 20
410.3872275027881
 30
0.0
  0
VERTEX
  5
215
  8
1
  6
CONTINUOUS
 62
     7
 10
68.20472437040905
 20
410.3645133192323
 30
0.0
  0
VERTEX
  5
216
  8
1
  6
CONTINUOUS
 62
     7
 10
68.20281030269962
 20
410.3415437706314
 30
0.0
  0
VERTEX
  5
217
  8
1
  6
CONTINUOUS
 62
     7
 10
68.20138649757594
 20
410.3184031195404
 30
0.0
  0
VERTEX
  5
218
  8
1
  6
CONTINUOUS
 62
     7
 10
68.20066347364802
 20
410.3015294683007
 30
0.0
  0
VERTEX
  5
219
  8
1
  6
CONTINUOUS
 62
     7
 10
68.20020181747063
 20
410.2846047590181
 30
0.0
  0
VERTEX
  5
21A
  8
1
  6
CONTINUOUS
 62
     7
 10
68.2
 20
410.2676624031723
 30
0.0
  0
SEQEND
  5
257
  8
1
  6
CONTINUOUS
 62
     7
  0
LINE
  5
A9
  8
1
  6
CONTINUOUS
 62
     7
 10
101.8
 20
410.2663180085877
 30
0.0
 11
101.8
 21
391.2744129520897
 31
0.0
  0
LINE
  5
AA
  8
1
  6
CONTINUOUS
 62
     7
 10
68.2
 20
410.2663180085877
 30
0.0
 11
68.2
 21
391.2744098069031
 31
0.0
  0
LINE
  5
AB
  8
1
  6
CONTINUOUS
 62
     7
 10
68.2
 20
410.2676624031723
 30
0.0
 11
68.2
 21
410.2663180085877
 31
0.0
  0
LINE
  5
AC
  8
1
  6
CONTINUOUS
 62
     7
 10
101.8
 20
410.2676624031723
 30
0.0
 11
101.8
 21
410.2663180085877
 31
0.0
  0
LINE
  5
AD
  8
1
  6
CONTINUOUS
 62
     7
 10
101.5711992770385
 20
410.767522805782
 30
0.0
 11
113.8275585382391
 21
410.8799375520995
 31
0.0
  0
LINE
  5
AE
  8
1
  6
CONTINUOUS
 62
     7
 10
56.17244146176096
 20
410.8799375520995
 30
0.0
 11
68.42880072296151
 21
410.767522805782
 31
0.0
  0
LINE
  5
AF
  8
1
  6
CONTINUOUS
 62
     7
 10
54.48294329988893
 20
411.3235560290822
 30
0.0
 11
52.68283668113383
 21
411.3235560290822
 31
0.0
  0
LINE
  5
B0
  8
1
  6
CONTINUOUS
 62
     7
 10
54.85927180292212
 20
410.947227526049
 30
0.0
 11
54.48294329988893
 21
411.3235560290822
 31
0.0
  0
LINE
  5
B1
  8
1
  6
CONTINUOUS
 62
     7
 10
57.47648070941472
 20
410.8908035650983
 30
0.0
 11
54.85927180292212
 21
410.947227526049
 31
0.0
  0
LINE
  5
B2
  8
1
  6
CONTINUOUS
 62
     7
 10
69.25111652341472
 20
410.7828071634096
 30
0.0
 11
57.47648070941472
 21
410.8908035650982
 31
0.0
  0
LINE
  5
B3
  8
1
  6
CONTINUOUS
 62
     7
 10
69.25111652341472
 20
410.7828071634096
 30
0.0
 11
100.7488834765852
 21
410.7828071634096
 31
0.0
  0
LINE
  5
B4
  8
1
  6
CONTINUOUS
 62
     7
 10
100.7488834765853
 20
410.7828071634096
 30
0.0
 11
112.5235192905853
 21
410.8908035650982
 31
0.0
  0
LINE
  5
B5
  8
1
  6
CONTINUOUS
 62
     7
 10
112.5235192905853
 20
410.8908035650983
 30
0.0
 11
115.1407281970779
 21
410.947227526049
 31
0.0
  0
LINE
  5
B6
  8
1
  6
CONTINUOUS
 62
     7
 10
115.1407281970779
 20
410.947227526049
 30
0.0
 11
115.5170567001111
 21
411.3235560290822
 31
0.0
  0
LINE
  5
B7
  8
1
  6
CONTINUOUS
 62
     7
 10
115.5170567001111
 20
411.3235560290822
 30
0.0
 11
117.3171633188662
 21
411.3235560290822
 31
0.0
  0
POLYLINE
  5
B8
  8
1
  6
CONTINUOUS
 62
     7
 66
     1
 10
0.0
 20
0.0
 30
0.0
  0
VERTEX
  5
21B
  8
1
  6
CONTINUOUS
 62
     7
 10
98.03028404565062
 20
351.2748827973725
 30
0.0
  0
VERTEX
  5
21C
  8
1
  6
CONTINUOUS
 62
     7
 10
98.14250425813947
 20
351.3060153245801
 30
0.0
  0
VERTEX
  5
21D
  8
1
  6
CONTINUOUS
 62
     7
 10
98.24936921366668
 20
351.3718518806614
 30
0.0
  0
VERTEX
  5
21E
  8
1
  6
CONTINUOUS
 62
     7
 10
98.33496054394139
 20
351.4528994519563
 30
0.0
  0
VERTEX
  5
21F
  8
1
  6
CONTINUOUS
 62
     7
 10
98.40184790249131
 20
351.5366914996921
 30
0.0
  0
VERTEX
  5
220
  8
1
  6
CONTINUOUS
 62
     7
 10
98.45777101185983
 20
351.6232225480912
 30
0.0
  0
SEQEND
  5
258
  8
1
  6
CONTINUOUS
 62
     7
  0
ARC
  5
B9
  8
1
  6
CONTINUOUS
 62
     7
 10
96.77245550175128
 20
352.5721002385516
 30
0.0
 40
1.934077878490403
 50
330.6193257624217
 51
348.1081888252119
  0
POLYLINE
  5
BA
  8
1
  6
CONTINUOUS
 62
     7
 66
     1
 10
0.0
 20
0.0
 30
0.0
  0
VERTEX
  5
221
  8
1
  6
CONTINUOUS
 62
     7
 10
71.96971595434944
 20
351.2748827973725
 30
0.0
  0
VERTEX
  5
222
  8
1
  6
CONTINUOUS
 62
     7
 10
71.85749574186187
 20
351.3060153245801
 30
0.0
  0
VERTEX
  5
223
  8
1
  6
CONTINUOUS
 62
     7
 10
71.75063078633335
 20
351.3718518806614
 30
0.0
  0
VERTEX
  5
224
  8
1
  6
CONTINUOUS
 62
     7
 10
71.66503945605862
 20
351.4528994519563
 30
0.0
  0
VERTEX
  5
225
  8
1
  6
CONTINUOUS
 62
     7
 10
71.59815209750876
 20
351.5366914996921
 30
0.0
  0
VERTEX
  5
226
  8
1
  6
CONTINUOUS
 62
     7
 10
71.54222898814018
 20
351.6232225480911
 30
0.0
  0
SEQEND
  5
259
  8
1
  6
CONTINUOUS
 62
     7
  0
ARC
  5
BB
  8
1
  6
CONTINUOUS
 62
     7
 10
73.22754449825038
 20
352.572100238552
 30
0.0
 40
1.934077878492033
 50
191.8918111747879
 51
209.3806742375642
  0
LINE
  5
BC
  8
1
  6
CONTINUOUS
 62
     7
 10
61.13430853780668
 20
348.7568993021959
 30
0.0
 11
61.06346930653955
 21
350.3740446222671
 31
0.0
  0
LINE
  5
BD
  8
1
  6
CONTINUOUS
 62
     7
 10
60.06165312420442
 20
348.761265565307
 30
0.0
 11
61.13430853780668
 21
348.7568993021959
 31
0.0
  0
POLYLINE
  5
BE
  8
1
  6
CONTINUOUS
 62
     7
 66
     1
 10
0.0
 20
0.0
 30
0.0
  0
VERTEX
  5
227
  8
1
  6
CONTINUOUS
 62
     7
 10
61.06346930653955
 20
350.3740446222671
 30
0.0
  0
VERTEX
  5
228
  8
1
  6
CONTINUOUS
 62
     7
 10
61.14619127322483
 20
350.4430660149662
 30
0.0
  0
VERTEX
  5
229
  8
1
  6
CONTINUOUS
 62
     7
 10
61.28205485146317
 20
350.4847030900546
 30
0.0
  0
SEQEND
  5
25A
  8
1
  6
CONTINUOUS
 62
     7
  0
ARC
  5
BF
  8
1
  6
CONTINUOUS
 62
     7
 10
64.22429207024592
 20
332.8671751497746
 30
0.0
 40
17.86152430724031
 50
91.87625569696654
 51
99.48125182048467
  0
LINE
  5
C0
  8
1
  6
CONTINUOUS
 62
     7
 10
63.63948813284708
 20
350.7191233609066
 30
0.0
 11
72.51328657182577
 21
351.1999600120985
 31
0.0
  0
LINE
  5
C1
  8
1
  6
CONTINUOUS
 62
     7
 10
72.51328657182577
 20
351.1999600120985
 30
0.0
 11
84.99999644986684
 21
351.200305230458
 31
0.0
  0
LINE
  5
C2
  8
1
  6
CONTINUOUS
 62
     7
 10
108.8656914621933
 20
348.7568993021959
 30
0.0
 11
108.9365306934605
 21
350.3740446222671
 31
0.0
  0
LINE
  5
C3
  8
1
  6
CONTINUOUS
 62
     7
 10
109.9383468757956
 20
348.761265565307
 30
0.0
 11
108.8656914621933
 21
348.7568993021959
 31
0.0
  0
LINE
  5
C4
  8
1
  6
CONTINUOUS
 62
     7
 10
108.9365306934605
 20
350.3740446222671
 30
0.0
 11
108.8317625387164
 21
350.4514685520655
 31
0.0
  0
ARC
  5
C5
  8
1
  6
CONTINUOUS
 62
     7
 10
106.2281005695939
 20
337.9542453002143
 30
0.0
 40
12.76556479972842
 50
78.23138683002878
 51
89.40568673023591
  0
LINE
  5
C6
  8
1
  6
CONTINUOUS
 62
     7
 10
106.3605118671529
 20
350.7191233609066
 30
0.0
 11
97.48671342817423
 21
351.1999600120985
 31
0.0
  0
LINE
  5
C7
  8
1
  6
CONTINUOUS
 62
     7
 10
97.48671342817423
 20
351.1999600120985
 30
0.0
 11
84.99999644986684
 21
351.200305230458
 31
0.0
  0
LINE
  5
C8
  8
1
  6
CONTINUOUS
 62
     7
 10
58.60350603827369
 20
349.9364633050087
 30
0.0
 11
50.28536966981623
 21
387.2722475931293
 31
0.0
  0
LINE
  5
C9
  8
1
  6
CONTINUOUS
 62
     7
 10
50.14577824744966
 20
389.7084027329248
 30
0.0
 11
50.14519098648584
 21
389.6433859759159
 31
0.0
  0
LINE
  5
CA
  8
1
  6
CONTINUOUS
 62
     7
 10
50.28536966981641
 20
387.2722475931294
 30
0.0
 11
50.2741635843096
 21
387.3531072281828
 31
0.0
  0
LINE
  5
CB
  8
1
  6
CONTINUOUS
 62
     7
 10
111.3964939617263
 20
349.9364633050087
 30
0.0
 11
119.7146303301838
 21
387.2722475931293
 31
0.0
  0
LINE
  5
CC
  8
1
  6
CONTINUOUS
 62
     7
 10
119.8548090135142
 20
389.6433859759159
 30
0.0
 11
119.8542217124259
 21
389.708403272143
 31
0.0
  0
LINE
  5
CD
  8
1
  6
CONTINUOUS
 62
     7
 10
119.7258363345704
 20
387.3531057865808
 30
0.0
 11
119.7146303301818
 21
387.2722475931297
 31
0.0
  0
POLYLINE
  5
CE
  8
1
  6
CONTINUOUS
 62
     7
 66
     1
 10
0.0
 20
0.0
 30
0.0
  0
VERTEX
  5
22A
  8
1
  6
CONTINUOUS
 62
     7
 10
52.68283668113383
 20
411.3235560290822
 30
0.0
  0
VERTEX
  5
22B
  8
1
  6
CONTINUOUS
 62
     7
 10
52.58529320588278
 20
411.3139492320017
 30
0.0
  0
VERTEX
  5
22C
  8
1
  6
CONTINUOUS
 62
     7
 10
52.4914993725619
 20
411.2854979889043
 30
0.0
  0
VERTEX
  5
22D
  8
1
  6
CONTINUOUS
 62
     7
 10
52.40505927722948
 20
411.239295559437
 30
0.0
  0
VERTEX
  5
22E
  8
1
  6
CONTINUOUS
 62
     7
 10
52.32929444322917
 20
411.1771173054547
 30
0.0
  0
VERTEX
  5
22F
  8
1
  6
CONTINUOUS
 62
     7
 10
52.26711618924697
 20
411.1013524714544
 30
0.0
  0
VERTEX
  5
230
  8
1
  6
CONTINUOUS
 62
     7
 10
52.2209137597796
 20
411.014912376122
 30
0.0
  0
VERTEX
  5
231
  8
1
  6
CONTINUOUS
 62
     7
 10
52.19246251668221
 20
410.9211185428011
 30
0.0
  0
VERTEX
  5
232
  8
1
  6
CONTINUOUS
 62
     7
 10
52.18285571960173
 20
410.8235750675501
 30
0.0
  0
SEQEND
  5
25B
  8
1
  6
CONTINUOUS
 62
     7
  0
POLYLINE
  5
CF
  8
1
  6
CONTINUOUS
 62
     7
 66
     1
 10
0.0
 20
0.0
 30
0.0
  0
VERTEX
  5
233
  8
1
  6
CONTINUOUS
 62
     7
 10
117.8171442803983
 20
410.8235750675501
 30
0.0
  0
VERTEX
  5
234
  8
1
  6
CONTINUOUS
 62
     7
 10
117.8075374833178
 20
410.9211185428011
 30
0.0
  0
VERTEX
  5
235
  8
1
  6
CONTINUOUS
 62
     7
 10
117.7790862402204
 20
411.014912376122
 30
0.0
  0
VERTEX
  5
236
  8
1
  6
CONTINUOUS
 62
     7
 10
117.732883810753
 20
411.1013524714544
 30
0.0
  0
VERTEX
  5
237
  8
1
  6
CONTINUOUS
 62
     7
 10
117.6707055567708
 20
411.1771173054547
 30
0.0
  0
VERTEX
  5
238
  8
1
  6
CONTINUOUS
 62
     7
 10
117.5949407227705
 20
411.239295559437
 30
0.0
  0
VERTEX
  5
239
  8
1
  6
CONTINUOUS
 62
     7
 10
117.5085006274381
 20
411.2854979889043
 30
0.0
  0
VERTEX
  5
23A
  8
1
  6
CONTINUOUS
 62
     7
 10
117.4147067941172
 20
411.3139492320017
 30
0.0
  0
VERTEX
  5
23B
  8
1
  6
CONTINUOUS
 62
     7
 10
117.3171633188662
 20
411.3235560290822
 30
0.0
  0
SEQEND
  5
25C
  8
1
  6
CONTINUOUS
 62
     7
  0
LINE
  5
D0
  8
1
  6
CONTINUOUS
 62
     7
 10
52.18285571960173
 20
410.8235750675501
 30
0.0
 11
52.18285571960173
 21
390.4627240242978
 31
0.0
  0
LINE
  5
D1
  8
1
  6
CONTINUOUS
 62
     7
 10
117.8171442803983
 20
410.8235750675501
 30
0.0
 11
117.8171442803983
 21
390.4626409177857
 31
0.0
  0
ARC
  5
D2
  8
1
  6
CONTINUOUS
 62
     7
 10
109.931468799773
 20
350.2620092382492
 30
0.0
 40
1.500759434355058
 50
270.2625911240965
 51
347.4717592921011
  0
ARC
  5
D3
  8
1
  6
CONTINUOUS
 62
     7
 10
60.06853376514512
 20
350.2620124207161
 30
0.0
 40
1.500762628545893
 50
192.5283380729009
 51
269.7373115109011
  0
LINE
  5
D4
  8
1
  6
CONTINUOUS
 62
     7
 10
102.853428004704
 20
391.2743827286758
 30
0.0
 11
84.99999999999963
 21
391.2746497874737
 31
0.0
  0
LINE
  5
D5
  8
1
  6
CONTINUOUS
 62
     7
 10
69.95458282442554
 20
391.2744605280912
 30
0.0
 11
67.16713153929052
 21
391.2743833410952
 31
0.0
  0
LINE
  5
D6
  8
1
  6
CONTINUOUS
 62
     7
 10
85.0000000000004
 20
391.2746497874737
 30
0.0
 11
83.43312347742032
 21
391.2746477395007
 31
0.0
  0
LINE
  5
D7
  8
1
  6
CONTINUOUS
 62
     7
 10
67.14871444383326
 20
391.2691433938671
 30
0.0
 11
53.57513646842701
 21
390.5549464387166
 31
0.0
  0
LINE
  5
D8
  8
1
  6
CONTINUOUS
 62
     7
 10
116.4248827355661
 20
390.5549454277766
 30
0.0
 11
102.8512861146497
 21
391.2691433595837
 31
0.0
  0
ARC
  5
D9
  8
1
  6
CONTINUOUS
 62
     7
 10
53.97033155447827
 20
373.209586659947
 30
0.0
 40
17.34981788611597
 50
91.30760422506155
 51
101.239445610037
  0
POLYLINE
  5
DA
  8
1
  6
CONTINUOUS
 62
     7
 66
     1
 10
0.0
 20
0.0
 30
0.0
  0
VERTEX
  5
23C
  8
1
  6
CONTINUOUS
 62
     7
 10
50.58868463360533
 20
390.2266558783506
 30
0.0
  0
VERTEX
  5
23D
  8
1
  6
CONTINUOUS
 62
     7
 10
50.45920572688205
 20
390.1667667771297
 30
0.0
  0
VERTEX
  5
23E
  8
1
  6
CONTINUOUS
 62
     7
 10
50.37171574985591
 20
390.1092684570881
 30
0.0
  0
VERTEX
  5
23F
  8
1
  6
CONTINUOUS
 62
     7
 10
50.28342957163267
 20
390.028133261807
 30
0.0
  0
VERTEX
  5
240
  8
1
  6
CONTINUOUS
 62
     7
 10
50.21353189114116
 20
389.9322722657478
 30
0.0
  0
VERTEX
  5
241
  8
1
  6
CONTINUOUS
 62
     7
 10
50.16783508454808
 20
389.8286784614131
 30
0.0
  0
VERTEX
  5
242
  8
1
  6
CONTINUOUS
 62
     7
 10
50.1457781141198
 20
389.7084009410958
 30
0.0
  0
SEQEND
  5
25D
  8
1
  6
CONTINUOUS
 62
     7
  0
POLYLINE
  5
DB
  8
1
  6
CONTINUOUS
 62
     7
 66
     1
 10
0.0
 20
0.0
 30
0.0
  0
VERTEX
  5
243
  8
1
  6
CONTINUOUS
 62
     7
 10
119.8542218858802
 20
389.7084009410958
 30
0.0
  0
VERTEX
  5
244
  8
1
  6
CONTINUOUS
 62
     7
 10
119.8371776869691
 20
389.8123037397809
 30
0.0
  0
VERTEX
  5
245
  8
1
  6
CONTINUOUS
 62
     7
 10
119.7826195232327
 20
389.9418408481166
 30
0.0
  0
VERTEX
  5
246
  8
1
  6
CONTINUOUS
 62
     7
 10
119.7009738160949
 20
390.0488616029291
 30
0.0
  0
VERTEX
  5
247
  8
1
  6
CONTINUOUS
 62
     7
 10
119.6012386547688
 20
390.1322751977567
 30
0.0
  0
VERTEX
  5
248
  8
1
  6
CONTINUOUS
 62
     7
 10
119.4697121102281
 20
390.2026660411212
 30
0.0
  0
SEQEND
  5
25E
  8
1
  6
CONTINUOUS
 62
     7
  0
ARC
  5
DC
  8
1
  6
CONTINUOUS
 62
     7
 10
116.2411686047432
 20
375.6323363942677
 30
0.0
 40
14.92373945044562
 50
77.50607517288456
 51
89.2946551808247
  0
LINE
  5
DD
  8
1
  6
CONTINUOUS
 62
     7
 10
50.14519095988933
 20
389.6433864485684
 30
0.0
 11
50.2741636153649
 21
387.3531066762817
 31
0.0
  0
LINE
  5
DE
  8
1
  6
CONTINUOUS
 62
     7
 10
119.7258363844116
 20
387.3531066723123
 30
0.0
 11
119.8548090401107
 21
389.6433864485684
 31
0.0
  0
ENDBLK
  8
0
  0
BLOCK
  8
0
  2
D_FRAME_VIEW_1473
 70
     0
 10
0.0
 20
0.0
 30
0.0
  0
LINE
  5
E3
  8
1
  6
CONTINUOUS
 62
     7
 10
111.3964939617263
 20
256.3106044455354
 30
0.0
 11
109.9383468757956
 21
256.3106044455354
 31
0.0
  0
LINE
  5
E4
  8
1
  6
CONTINUOUS
 62
     7
 10
60.06165312420442
 20
256.3106044455354
 30
0.0
 11
58.60350603827369
 21
256.3106044455354
 31
0.0
  0
ARC
  5
E5
  8
1
  6
CONTINUOUS
 62
     7
 10
84.9999658397887
 20
131.5029340958357
 30
0.0
 40
172.755905014283
 50
89.99998984793996
 51
94.14491436065748
  0
LINE
  5
E6
  8
1
  6
CONTINUOUS
 62
     7
 10
63.63948813284708
 20
293.9463357008532
 30
0.0
 11
72.51328657182576
 21
303.8069838397782
 31
0.0
  0
ARC
  5
E7
  8
1
  6
CONTINUOUS
 62
     7
 10
71.16762223399262
 20
287.2066684295598
 30
0.0
 40
10.10425246975615
 50
138.1630604658197
 51
180.2543253990193
  0
LINE
  5
E8
  8
1
  6
CONTINUOUS
 62
     7
 10
61.13430853780668
 20
256.3106044455354
 30
0.0
 11
61.06346930653955
 21
287.1618176635125
 31
0.0
  0
LINE
  5
E9
  8
1
  6
CONTINUOUS
 62
     7
 10
60.06165312420442
 20
256.3106044455354
 30
0.0
 11
61.13430853780668
 21
256.3106044455354
 31
0.0
  0
ARC
  5
EA
  8
1
  6
CONTINUOUS
 62
     7
 10
98.82832557034574
 20
287.2051298482995
 30
0.0
 40
10.10829791588642
 50
359.754497443183
 51
41.82811669197793
  0
LINE
  5
EB
  8
1
  6
CONTINUOUS
 62
     7
 10
106.3605118671529
 20
293.9463357008532
 30
0.0
 11
97.48671342817423
 21
303.8069838397782
 31
0.0
  0
ARC
  5
EC
  8
1
  6
CONTINUOUS
 62
     7
 10
85.00003093805422
 20
131.5028450542305
 30
0.0
 40
172.755994055889
 50
85.85508670798774
 51
90.00001143825766
  0
LINE
  5
ED
  8
1
  6
CONTINUOUS
 62
     7
 10
108.8656914621933
 20
256.3106044455354
 30
0.0
 11
108.9365306934605
 21
287.1618176635125
 31
0.0
  0
LINE
  5
EE
  8
1
  6
CONTINUOUS
 62
     7
 10
109.9383468757956
 20
256.3106044455354
 30
0.0
 11
108.8656914621933
 21
256.3106044455354
 31
0.0
  0
LINE
  5
EF
  8
1
  6
CONTINUOUS
 62
     7
 10
58.60350603827369
 20
256.3106044455354
 30
0.0
 11
50.28536966981623
 21
256.3106044455354
 31
0.0
  0
LINE
  5
F0
  8
1
  6
CONTINUOUS
 62
     7
 10
111.3964939617263
 20
256.3106044455354
 30
0.0
 11
119.7146303301838
 21
256.3106044455354
 31
0.0
  0
LINE
  5
F1
  8
1
  6
CONTINUOUS
 62
     7
 10
98.0302840456506
 20
305.1969205292046
 30
0.0
 11
98.66502506382719
 21
306.4487521320526
 31
0.0
  0
LINE
  5
F2
  8
1
  6
CONTINUOUS
 62
     7
 10
98.66502506382719
 20
306.4487521320526
 30
0.0
 11
98.68106740760412
 21
306.4888416568114
 31
0.0
  0
LINE
  5
F3
  8
1
  6
CONTINUOUS
 62
     7
 10
71.96971595434943
 20
305.1969205292046
 30
0.0
 11
71.33497493617286
 21
306.4487521320527
 31
0.0
  0
LINE
  5
F4
  8
1
  6
CONTINUOUS
 62
     7
 10
71.3189325923959
 20
306.4888416568114
 30
0.0
 11
71.33497493617286
 21
306.4487521320526
 31
0.0
  0
LINE
  5
F5
  8
1
  6
CONTINUOUS
 62
     7
 10
61.7421979636396
 20
295.8436717394214
 30
0.0
 11
53.33560834299991
 21
308.1519125841209
 31
0.0
  0
LINE
  5
F6
  8
1
  6
CONTINUOUS
 62
     7
 10
108.2578020363604
 20
295.8436717394214
 30
0.0
 11
116.6643916570001
 21
308.1519125841209
 31
0.0
  0
LINE
  5
F7
  8
1
  6
CONTINUOUS
 62
     7
 10
98.68106740760412
 20
306.4888416568114
 30
0.0
 11
103.0006989286229
 21
322.9008431643688
 31
0.0
  0
LINE
  5
F8
  8
1
  6
CONTINUOUS
 62
     7
 10
103.0052239713625
 20
322.9124136855614
 30
0.0
 11
103.0006989286229
 21
322.9008431643688
 31
0.0
  0
LINE
  5
F9
  8
1
  6
CONTINUOUS
 62
     7
 10
71.3189325923959
 20
306.4888416568114
 30
0.0
 11
66.9993010713771
 21
322.9008431643688
 31
0.0
  0
LINE
  5
FA
  8
1
  6
CONTINUOUS
 62
     7
 10
66.9993010713771
 20
322.9008431643688
 30
0.0
 11
66.99477602863755
 21
322.9124136855615
 31
0.0
  0
ARC
  5
FB
  8
1
  6
CONTINUOUS
 62
     7
 10
82.4565560529749
 20
306.3106044455354
 30
0.0
 40
5.000000000000001
 50
206.1240672940549
 51
270.0
  0
ARC
  5
FC
  8
1
  6
CONTINUOUS
 62
     7
 10
87.54344394702511
 20
306.3106044455354
 30
0.0
 40
5.000000000000001
 50
269.9999999999999
 51
333.8513665780541
  0
LINE
  5
FD
  8
1
  6
CONTINUOUS
 62
     7
 10
87.54344394702511
 20
301.3106044455354
 30
0.0
 11
82.4565560529749
 21
301.3106044455354
 31
0.0
  0
POLYLINE
  5
FE
  8
1
  6
CONTINUOUS
 62
     7
 66
     1
 10
0.0
 20
0.0
 30
0.0
  0
VERTEX
  5
24B
  8
1
  6
CONTINUOUS
 62
     7
 10
53.33560834300051
 20
308.1519125841203
 30
0.0
  0
VERTEX
  5
24C
  8
1
  6
CONTINUOUS
 62
     7
 10
53.31817991138306
 20
308.1645692299452
 30
0.0
  0
VERTEX
  5
24D
  8
1
  6
CONTINUOUS
 62
     7
 10
53.30869784905473
 20
308.1697580463506
 30
0.0
  0
SEQEND
  5
25F
  8
1
  6
CONTINUOUS
 62
     7
  0
LINE
  5
FF
  8
1
  6
CONTINUOUS
 62
     7
 10
53.30869848658446
 20
308.1697587354075
 30
0.0
 11
53.30695587217954
 21
308.1685675921365
 31
0.0
  0
LINE
  5
100
  8
1
  6
CONTINUOUS
 62
     7
 10
103.0052239713625
 20
322.9124136855615
 30
0.0
 11
103.0212907627945
 21
322.9397305380128
 31
0.0
  0
LINE
  5
101
  8
1
  6
CONTINUOUS
 62
     7
 10
66.99477602863752
 20
322.9124136855614
 30
0.0
 11
66.97720471449169
 21
322.9398267052891
 31
0.0
  0
LINE
  5
102
  8
1
  6
CONTINUOUS
 62
     7
 10
103.0212916268092
 20
322.9397323335994
 30
0.0
 11
103.0227952779189
 21
322.9398266557736
 31
0.0
  0
LINE
  5
103
  8
1
  6
CONTINUOUS
 62
     7
 10
50.14691621211929
 20
299.9974221553286
 30
0.0
 11
50.27587681462072
 21
256.3106033444967
 31
0.0
  0
LINE
  5
104
  8
1
  6
CONTINUOUS
 62
     7
 10
119.724123184155
 20
256.3106029297588
 30
0.0
 11
119.8530837878807
 21
299.9974221553286
 31
0.0
  0
ARC
  5
105
  8
1
  6
CONTINUOUS
 62
     7
 10
107.8923341299067
 20
300.0684427540269
 30
0.0
 40
11.96096050934724
 50
359.6597928342126
 51
42.62611375646117
  0
ARC
  5
106
  8
1
  6
CONTINUOUS
 62
     7
 10
62.10039043381632
 20
300.0712579520383
 30
0.0
 40
11.95370225886738
 50
137.1110428190922
 51
180.3539076294721
  0
LINE
  5
107
  8
1
  6
CONTINUOUS
 62
     7
 10
116.6930714933728
 20
308.1685417377143
 30
0.0
 11
103.0228213583083
 21
322.9397989937611
 31
0.0
  0
LINE
  5
108
  8
1
  6
CONTINUOUS
 62
     7
 10
66.97717864475149
 20
322.9397990014985
 30
0.0
 11
53.3414553164921
 21
308.2058632424714
 31
0.0
  0
LINE
  5
109
  8
1
  6
CONTINUOUS
 62
     7
 10
53.3414553164921
 20
308.2058632424714
 30
0.0
 11
53.30695524185643
 21
308.1685706355896
 31
0.0
  0
ARC
  5
10A
  8
1
  6
CONTINUOUS
 62
     7
 10
85.0000315597177
 20
88.16400607199093
 30
0.0
 40
235.4676346812367
 50
85.60838348885501
 51
90.00000767935113
  0
POLYLINE
  5
10B
  8
1
  6
CONTINUOUS
 62
     7
 66
     1
 10
0.0
 20
0.0
 30
0.0
  0
VERTEX
  5
24E
  8
1
  6
CONTINUOUS
 62
     7
 10
84.99999999999991
 20
323.6316407532256
 30
0.0
  0
VERTEX
  5
24F
  8
1
  6
CONTINUOUS
 62
     7
 10
79.20874088771754
 20
323.5604135575649
 30
0.0
  0
VERTEX
  5
250
  8
1
  6
CONTINUOUS
 62
     7
 10
73.16323681260312
 20
323.3339420095854
 30
0.0
  0
VERTEX
  5
251
  8
1
  6
CONTINUOUS
 62
     7
 10
66.97937344865242
 20
322.9410592480671
 30
0.0
  0
SEQEND
  5
260
  8
1
  6
CONTINUOUS
 62
     7
  0
ENDBLK
  8
0
  0
ENDSEC
  0
SECTION
  2
ENTITIES
  0
INSERT
  5
95
  8
1
  6
CONTINUOUS
 62
     7
  2
D_FRAME_VIEW_1553
 10
0.0
 20
0.0
 30
0.0
  0
INSERT
  5
DF
  8
1
  6
CONTINUOUS
 62
     7
  2
D_FRAME_VIEW_1619
 10
0.0
 20
0.0
 30
0.0
  0
INSERT
  5
10C
  8
1
  6
CONTINUOUS
 62
     7
  2
D_FRAME_VIEW_1473
 10
0.0
 20
0.0
 30
0.0
  0
TEXT
  5
10D
  8
1
  6
CONTINUOUS
 62
     7
 10
177.1877141428035
 20
243.3284200325122
 30
0.0
 40
3.0
  1
RMA-40-25
  0
ENDSEC
  0
EOF
