  0
SECTION
  2
HEADER
  9
$ACADVER
  1
AC1006
  9
$DWGCODEPAGE
  3
ansi_932
  9
$INSBASE
 10
0.0
 20
0.0
 30
0.0
  9
$EXTMIN
 10
0.0000000000000625
 20
238.6704545454545
  9
$EXTMAX
 10
185.7293178464792
 20
405.6918178464794
  9
$LIMMIN
 10
0.0
 20
0.0
  9
$LIMMAX
 10
12.0
 20
9.0
  9
$ORTHOMODE
 70
     0
  9
$REGENMODE
 70
     1
  9
$FILLMODE
 70
     1
  9
$QTEXTMODE
 70
     0
  9
$MIRRTEXT
 70
     1
  9
$DRAGMODE
 70
     2
  9
$LTSCALE
 40
1.0
  9
$OSMODE
 70
    37
  9
$ATTMODE
 70
     1
  9
$TEXTSIZE
 40
0.2
  9
$TRACEWID
 40
0.05
  9
$TEXTSTYLE
  7
STANDARD
  9
$CLAYER
  8
0
  9
$CELTYPE
  6
BYLAYER
  9
$CECOLOR
 62
   256
  9
$DIMSCALE
 40
1.0
  9
$DIMASZ
 40
3.0
  9
$DIMEXO
 40
0.0625
  9
$DIMDLI
 40
0.38
  9
$DIMRND
 40
0.0
  9
$DIMDLE
 40
0.0
  9
$DIMEXE
 40
1.5
  9
$DIMTP
 40
0.0
  9
$DIMTM
 40
0.0
  9
$DIMTXT
 40
3.0
  9
$DIMCEN
 40
0.09
  9
$DIMTSZ
 40
0.0
  9
$DIMTOL
 70
     0
  9
$DIMLIM
 70
     0
  9
$DIMTIH
 70
     1
  9
$DIMTOH
 70
     1
  9
$DIMSE1
 70
     0
  9
$DIMSE2
 70
     0
  9
$DIMTAD
 70
     1
  9
$DIMZIN
 70
     0
  9
$DIMBLK
  1

  9
$DIMASO
 70
     1
  9
$DIMSHO
 70
     1
  9
$DIMPOST
  1

  9
$DIMAPOST
  1

  9
$DIMALT
 70
     0
  9
$DIMALTD
 70
     2
  9
$DIMALTF
 40
25.4
  9
$DIMLFAC
 40
1.0
  9
$DIMTOFL
 70
     0
  9
$DIMTVP
 40
0.0
  9
$DIMTIX
 70
     0
  9
$DIMSOXD
 70
     0
  9
$DIMSAH
 70
     0
  9
$DIMBLK1
  1

  9
$DIMBLK2
  1

  9
$LUNITS
 70
     2
  9
$LUPREC
 70
     4
  9
$SKETCHINC
 40
0.1
  9
$FILLETRAD
 40
0.5
  9
$AUNITS
 70
     0
  9
$AUPREC
 70
     0
  9
$MENU
  1
.
  9
$ELEVATION
 40
0.0
  9
$THICKNESS
 40
0.0
  9
$LIMCHECK
 70
     0
  9
$CHAMFERA
 40
0.0
  9
$CHAMFERB
 40
0.0
  9
$SKPOLY
 70
     0
  9
$TDCREATE
 40
2459331.412166921
  9
$TDUPDATE
 40
2459331.412167095
  9
$TDINDWG
 40
0.0000000116
  9
$TDUSRTIMER
 40
0.0000000116
  9
$USRTIMER
 70
     1
  9
$ANGBASE
 50
0.0
  9
$ANGDIR
 70
     0
  9
$PDMODE
 70
     0
  9
$PDSIZE
 40
0.0
  9
$PLINEWID
 40
0.0
  9
$COORDS
 70
     1
  9
$SPLFRAME
 70
     0
  9
$SPLINETYPE
 70
     6
  9
$SPLINESEGS
 70
     8
  9
$ATTDIA
 70
     0
  9
$ATTREQ
 70
     1
  9
$HANDLING
 70
     1
  9
$HANDSEED
  5
114
  9
$SURFTAB1
 70
     6
  9
$SURFTAB2
 70
     6
  9
$SURFTYPE
 70
     6
  9
$SURFU
 70
     6
  9
$SURFV
 70
     6
  9
$UCSNAME
  2

  9
$UCSORG
 10
0.0
 20
0.0
 30
0.0
  9
$UCSXDIR
 10
1.0
 20
0.0
 30
0.0
  9
$UCSYDIR
 10
0.0
 20
1.0
 30
0.0
  9
$USERI1
 70
     0
  9
$USERI2
 70
     0
  9
$USERI3
 70
     0
  9
$USERI4
 70
     0
  9
$USERI5
 70
     0
  9
$USERR1
 40
0.0
  9
$USERR2
 40
0.0
  9
$USERR3
 40
0.0
  9
$USERR4
 40
0.0
  9
$USERR5
 40
0.0
  9
$WORLDVIEW
 70
     1
  0
ENDSEC
  0
SECTION
  2
TABLES
  0
TABLE
  2
VPORT
 70
     1
  0
VPORT
  2
*ACTIVE
 70
     0
 10
0.0
 20
0.0
 11
1.0
 21
1.0
 12
92.86465892323963
 22
322.181136195967
 13
0.0
 23
0.0
 14
0.5
 24
0.5
 15
0.5
 25
0.5
 16
0.0
 26
0.0
 36
1.0
 17
0.0
 27
0.0
 37
0.0
 40
167.0213633010249
 41
1.6
 42
50.0
 43
0.0
 44
0.0
 50
0.0
 51
0.0
 71
     0
 72
   100
 73
     1
 74
     3
 75
     0
 76
     0
 77
     0
 78
     0
  0
ENDTAB
  0
TABLE
  2
LTYPE
 70
     1
  0
LTYPE
  2
CONTINUOUS
 70
     0
  3
Solid line
 72
    65
 73
     0
 40
0.0
  0
ENDTAB
  0
TABLE
  2
LAYER
 70
     2
  0
LAYER
  2
0
 70
     0
 62
     7
  6
CONTINUOUS
  0
LAYER
  2
1
 70
     0
 62
     7
  6
CONTINUOUS
  0
ENDTAB
  0
TABLE
  2
STYLE
 70
     2
  0
STYLE
  2
STANDARD
 70
     0
 40
0.0
 41
1.0
 50
0.0
 71
     0
 42
0.2
  3
txt
  4

  0
STYLE
  2
ＭＳ_ゴシック
 70
     0
 40
0.0
 41
1.0
 50
0.0
 71
     0
 42
0.2
  3
ＭＳ ゴシック.shx
  4

  0
ENDTAB
  0
TABLE
  2
VIEW
 70
     0
  0
ENDTAB
  0
TABLE
  2
UCS
 70
     0
  0
ENDTAB
  0
ENDSEC
  0
SECTION
  2
BLOCKS
  0
BLOCK
  8
0
  2
D_FRAME_VIEW_1558
 70
     0
 10
0.0
 20
0.0
 30
0.0
  0
LINE
  5
72
  8
1
  6
CONTINUOUS
 62
     7
 10
184.3743647754825
 20
249.9999999999999
 30
0.0
 11
185.3918178464792
 21
250.0000000000001
 31
0.0
  0
LINE
  5
73
  8
1
  6
CONTINUOUS
 62
     7
 10
185.3918178464792
 20
250.0
 30
0.0
 11
185.3918178464792
 21
300.0
 31
0.0
  0
LINE
  5
74
  8
1
  6
CONTINUOUS
 62
     7
 10
184.3743647754825
 20
339.9911208215661
 30
0.0
 11
185.3918178464792
 21
339.9999999999999
 31
0.0
  0
LINE
  5
75
  8
1
  6
CONTINUOUS
 62
     7
 10
185.3918178464792
 20
300.0
 30
0.0
 11
185.3918178464792
 21
339.9999999999997
 31
0.0
  0
LINE
  5
76
  8
1
  6
CONTINUOUS
 62
     7
 10
182.3918178464792
 20
300.0
 30
0.0
 11
182.3918178464792
 21
337.9911969754377
 31
0.0
  0
ARC
  5
77
  8
1
  6
CONTINUOUS
 62
     7
 10
184.3918178464792
 20
337.9911969754377
 30
0.0
 40
2.000000000000002
 50
90.5
 51
179.9999999999992
  0
LINE
  5
78
  8
1
  6
CONTINUOUS
 62
     7
 10
182.3918178464792
 20
250.0
 30
0.0
 11
182.3918178464792
 21
300.0
 31
0.0
  0
LINE
  5
79
  8
1
  6
CONTINUOUS
 62
     7
 10
184.3743647754825
 20
249.9999999999999
 30
0.0
 11
182.3918178464792
 21
249.9999999999999
 31
0.0
  0
LINE
  5
7A
  8
1
  6
CONTINUOUS
 62
     7
 10
179.4441750657911
 20
249.9999999999999
 30
0.0
 11
182.3918178464792
 21
250.0
 31
0.0
  0
LINE
  5
7B
  8
1
  6
CONTINUOUS
 62
     7
 10
155.8656392368233
 20
249.9999999999999
 30
0.0
 11
179.4441750657911
 21
249.9999999999999
 31
0.0
  0
LINE
  5
7C
  8
1
  6
CONTINUOUS
 62
     7
 10
154.3918178464792
 20
293.4003378939004
 30
0.0
 11
154.3918178464792
 21
302.2453529613054
 31
0.0
  0
LINE
  5
7D
  8
1
  6
CONTINUOUS
 62
     7
 10
154.3918178464792
 20
249.9999999999999
 30
0.0
 11
154.3918178464792
 21
293.4003378939004
 31
0.0
  0
LINE
  5
7E
  8
1
  6
CONTINUOUS
 62
     7
 10
155.8656392368233
 20
249.9999999999999
 30
0.0
 11
154.3918178464792
 21
249.9999999999999
 31
0.0
  0
LINE
  5
7F
  8
1
  6
CONTINUOUS
 62
     7
 10
154.3918178464792
 20
302.2453529613055
 30
0.0
 11
154.3918178464792
 21
315.6663068283568
 31
0.0
  0
LINE
  5
80
  8
1
  6
CONTINUOUS
 62
     7
 10
154.3918178464792
 20
315.6663068283567
 30
0.0
 11
154.3918178464792
 21
316.325954105326
 31
0.0
  0
ARC
  5
81
  8
1
  6
CONTINUOUS
 62
     7
 10
179.3918178464792
 20
321.2368336073366
 30
0.0
 40
3.000000000000003
 50
270.9999999999009
 51
359.9999999999925
  0
LINE
  5
82
  8
1
  6
CONTINUOUS
 62
     7
 10
179.4441750657858
 20
318.2372905218677
 30
0.0
 11
155.8656392368233
 21
317.825725648061
 31
0.0
  0
ARC
  5
83
  8
1
  6
CONTINUOUS
 62
     7
 10
155.8918178464792
 20
316.325954105326
 30
0.0
 40
1.499999999999976
 50
91.0000000000001
 51
180.0000000000085
  0
ENDBLK
  8
0
  0
BLOCK
  8
0
  2
D_FRAME_VIEW_1647
 70
     0
 10
0.0
 20
0.0
 30
0.0
  0
LINE
  5
88
  8
1
  6
CONTINUOUS
 62
     7
 10
0.0088791784339515
 20
404.3743647754825
 30
0.0
 11
0.0000000000000625
 21
405.3918178464792
 31
0.0
  0
LINE
  5
89
  8
1
  6
CONTINUOUS
 62
     7
 10
40.00000000000001
 20
405.3918178464792
 30
0.0
 11
0.0000000000001457
 21
405.3918178464792
 31
0.0
  0
LINE
  5
8A
  8
1
  6
CONTINUOUS
 62
     7
 10
119.991120821566
 20
404.3743647754825
 30
0.0
 11
119.9999999999999
 21
405.3918178464792
 31
0.0
  0
LINE
  5
8B
  8
1
  6
CONTINUOUS
 62
     7
 10
119.9999999999998
 20
405.3918178464792
 30
0.0
 11
79.99999999999999
 21
405.3918178464792
 31
0.0
  0
LINE
  5
8C
  8
1
  6
CONTINUOUS
 62
     7
 10
79.99999999999999
 20
405.3918178464792
 30
0.0
 11
40.00000000000001
 21
405.3918178464792
 31
0.0
  0
LINE
  5
8D
  8
1
  6
CONTINUOUS
 62
     7
 10
40.00000000000001
 20
402.3918178464792
 30
0.0
 11
2.00880302456239
 21
402.3918178464792
 31
0.0
  0
ARC
  5
8E
  8
1
  6
CONTINUOUS
 62
     7
 10
2.008803024562293
 20
404.3918178464792
 30
0.0
 40
1.999999999999999
 50
180.5
 51
270.0000000000004
  0
LINE
  5
8F
  8
1
  6
CONTINUOUS
 62
     7
 10
117.9911969754376
 20
402.3918178464792
 30
0.0
 11
79.99999999999999
 21
402.3918178464792
 31
0.0
  0
ARC
  5
90
  8
1
  6
CONTINUOUS
 62
     7
 10
117.9911969754377
 20
404.3918178464792
 30
0.0
 40
2.000000000000002
 50
269.9999999999998
 51
359.5000000000001
  0
LINE
  5
91
  8
1
  6
CONTINUOUS
 62
     7
 10
79.99999999999999
 20
402.3918178464792
 30
0.0
 11
40.00000000000001
 21
402.3918178464792
 31
0.0
  0
ARC
  5
92
  8
1
  6
CONTINUOUS
 62
     7
 10
37.4719841839339
 20
399.6694681206921
 30
0.0
 40
4.048738203563899
 50
356.81011431192
 51
38.04642170187242
  0
POLYLINE
  5
93
  8
1
  6
CONTINUOUS
 62
     7
 66
     1
 10
0.0
 20
0.0
 30
0.0
  0
VERTEX
  5
F6
  8
1
  6
CONTINUOUS
 62
     7
 10
40.66041280439741
 20
402.1647043766821
 30
0.0
  0
VERTEX
  5
F7
  8
1
  6
CONTINUOUS
 62
     7
 10
40.55189030429931
 20
402.2505611706863
 30
0.0
  0
VERTEX
  5
F8
  8
1
  6
CONTINUOUS
 62
     7
 10
40.45257120243405
 20
402.3103400104572
 30
0.0
  0
VERTEX
  5
F9
  8
1
  6
CONTINUOUS
 62
     7
 10
40.31929533237184
 20
402.3642695409801
 30
0.0
  0
VERTEX
  5
FA
  8
1
  6
CONTINUOUS
 62
     7
 10
40.18340104912132
 20
402.389753467569
 30
0.0
  0
VERTEX
  5
FB
  8
1
  6
CONTINUOUS
 62
     7
 10
40.13201976192394
 20
402.3918178464792
 30
0.0
  0
SEQEND
  5
110
  8
1
  6
CONTINUOUS
 62
     7
  0
ARC
  5
94
  8
1
  6
CONTINUOUS
 62
     7
 10
82.52801581606623
 20
399.6694681206922
 30
0.0
 40
4.048738203563749
 50
141.9535782981268
 51
183.1898856880808
  0
POLYLINE
  5
95
  8
1
  6
CONTINUOUS
 62
     7
 66
     1
 10
0.0
 20
0.0
 30
0.0
  0
VERTEX
  5
FC
  8
1
  6
CONTINUOUS
 62
     7
 10
79.33958719560286
 20
402.1647043766821
 30
0.0
  0
VERTEX
  5
FD
  8
1
  6
CONTINUOUS
 62
     7
 10
79.44810969570094
 20
402.2505611706863
 30
0.0
  0
VERTEX
  5
FE
  8
1
  6
CONTINUOUS
 62
     7
 10
79.54742879756621
 20
402.3103400104571
 30
0.0
  0
VERTEX
  5
FF
  8
1
  6
CONTINUOUS
 62
     7
 10
79.68070466762838
 20
402.3642695409801
 30
0.0
  0
VERTEX
  5
100
  8
1
  6
CONTINUOUS
 62
     7
 10
79.81659895087859
 20
402.389753467569
 30
0.0
  0
VERTEX
  5
101
  8
1
  6
CONTINUOUS
 62
     7
 10
79.86798023807633
 20
402.3918178464792
 30
0.0
  0
SEQEND
  5
111
  8
1
  6
CONTINUOUS
 62
     7
  0
LINE
  5
96
  8
1
  6
CONTINUOUS
 62
     7
 10
41.70368577160062
 20
375.8656392368233
 30
0.0
 11
41.5144492834012
 21
399.4441750657911
 31
0.0
  0
LINE
  5
97
  8
1
  6
CONTINUOUS
 62
     7
 10
78.29631422839968
 20
375.8656392368233
 30
0.0
 11
78.48555071659906
 21
399.4441750657911
 31
0.0
  0
ARC
  5
98
  8
1
  6
CONTINUOUS
 62
     7
 10
75.90535840392906
 20
375.8145808507859
 30
0.0
 40
2.391500933170362
 50
330.9371743486053
 51
1.223354036148862
  0
POLYLINE
  5
99
  8
1
  6
CONTINUOUS
 62
     7
 66
     1
 10
0.0
 20
0.0
 30
0.0
  0
VERTEX
  5
102
  8
1
  6
CONTINUOUS
 62
     7
 10
77.99573966880881
 20
374.6528653603174
 30
0.0
  0
VERTEX
  5
103
  8
1
  6
CONTINUOUS
 62
     7
 10
77.92254449464919
 20
374.5579651856465
 30
0.0
  0
VERTEX
  5
104
  8
1
  6
CONTINUOUS
 62
     7
 10
77.84401900744278
 20
374.4830445658821
 30
0.0
  0
VERTEX
  5
105
  8
1
  6
CONTINUOUS
 62
     7
 10
77.74568718393235
 20
374.4223041944385
 30
0.0
  0
VERTEX
  5
106
  8
1
  6
CONTINUOUS
 62
     7
 10
77.63425012077029
 20
374.3929398269798
 30
0.0
  0
VERTEX
  5
107
  8
1
  6
CONTINUOUS
 62
     7
 10
77.60764365613863
 20
374.3918178464793
 30
0.0
  0
SEQEND
  5
112
  8
1
  6
CONTINUOUS
 62
     7
  0
LINE
  5
9A
  8
1
  6
CONTINUOUS
 62
     7
 10
77.60764365613862
 20
374.3918178464792
 30
0.0
 11
42.39235634386161
 21
374.3918178464792
 31
0.0
  0
ARC
  5
9B
  8
1
  6
CONTINUOUS
 62
     7
 10
44.09464159607089
 20
375.8145808507858
 30
0.0
 40
2.391500933170009
 50
178.7766459638497
 51
209.0628256513979
  0
POLYLINE
  5
9C
  8
1
  6
CONTINUOUS
 62
     7
 66
     1
 10
0.0
 20
0.0
 30
0.0
  0
VERTEX
  5
108
  8
1
  6
CONTINUOUS
 62
     7
 10
42.0042603311915
 20
374.6528653603174
 30
0.0
  0
VERTEX
  5
109
  8
1
  6
CONTINUOUS
 62
     7
 10
42.07745550535103
 20
374.5579651856465
 30
0.0
  0
VERTEX
  5
10A
  8
1
  6
CONTINUOUS
 62
     7
 10
42.1559809925575
 20
374.4830445658821
 30
0.0
  0
VERTEX
  5
10B
  8
1
  6
CONTINUOUS
 62
     7
 10
42.25431281606792
 20
374.4223041944385
 30
0.0
  0
VERTEX
  5
10C
  8
1
  6
CONTINUOUS
 62
     7
 10
42.36574987923
 20
374.3929398269798
 30
0.0
  0
VERTEX
  5
10D
  8
1
  6
CONTINUOUS
 62
     7
 10
42.39235634386161
 20
374.3918178464793
 30
0.0
  0
SEQEND
  5
113
  8
1
  6
CONTINUOUS
 62
     7
  0
LINE
  5
9D
  8
1
  6
CONTINUOUS
 62
     7
 10
42.39235634386161
 20
374.3918178464793
 30
0.0
 11
29.61179203671044
 21
374.3918178464793
 31
0.0
  0
LINE
  5
9E
  8
1
  6
CONTINUOUS
 62
     7
 10
90.38820796328983
 20
374.3918178464793
 30
0.0
 11
77.60764365613863
 21
374.3918178464793
 31
0.0
  0
ARC
  5
9F
  8
1
  6
CONTINUOUS
 62
     7
 10
98.8368336073373
 20
399.3918178464792
 30
0.0
 40
3.000000000000006
 50
90.00000000000021
 51
179.0000000000009
  0
ARC
  5
A0
  8
1
  6
CONTINUOUS
 62
     7
 10
21.16316639266298
 20
399.3918178464792
 30
0.0
 40
3.000000000000003
 50
0.9999999999990906
 51
89.99999999999972
  0
LINE
  5
A1
  8
1
  6
CONTINUOUS
 62
     7
 10
95.4257256480612
 20
375.8656392368233
 30
0.0
 11
95.83729052186813
 21
399.4441750657911
 31
0.0
  0
LINE
  5
A2
  8
1
  6
CONTINUOUS
 62
     7
 10
24.57427435193909
 20
375.8656392368233
 30
0.0
 11
24.16270947813216
 21
399.4441750657911
 31
0.0
  0
ARC
  5
A3
  8
1
  6
CONTINUOUS
 62
     7
 10
93.92595410532661
 20
375.8918178464792
 30
0.0
 40
1.499999999999946
 50
269.9999999999997
 51
358.9999999999999
  0
LINE
  5
A4
  8
1
  6
CONTINUOUS
 62
     7
 10
93.92595410532658
 20
374.3918178464793
 30
0.0
 11
90.38820796328983
 21
374.3918178464793
 31
0.0
  0
ARC
  5
A5
  8
1
  6
CONTINUOUS
 62
     7
 10
26.07404589467368
 20
375.8918178464792
 30
0.0
 40
1.500000000000004
 50
180.9999999999999
 51
270.0000000000002
  0
LINE
  5
A6
  8
1
  6
CONTINUOUS
 62
     7
 10
29.61179203671044
 20
374.3918178464793
 30
0.0
 11
26.07404589467368
 21
374.3918178464793
 31
0.0
  0
ENDBLK
  8
0
  0
BLOCK
  8
0
  2
D_FRAME_VIEW_1473
 70
     0
 10
0.0
 20
0.0
 30
0.0
  0
LINE
  5
AB
  8
1
  6
CONTINUOUS
 62
     7
 10
78.29631422839968
 20
317.1179137939058
 30
0.0
 11
77.60764365613863
 21
315.6663068283568
 31
0.0
  0
ARC
  5
AC
  8
1
  6
CONTINUOUS
 62
     7
 10
60.00000000000014
 20
80.9999999999999
 30
0.0
 40
235.3259541053262
 50
85.70898429846063
 51
94.29101570153938
  0
LINE
  5
AD
  8
1
  6
CONTINUOUS
 62
     7
 10
41.70368577160062
 20
317.1179137939058
 30
0.0
 11
42.39235634386161
 21
315.6663068283568
 31
0.0
  0
LINE
  5
AE
  8
1
  6
CONTINUOUS
 62
     7
 10
90.38820796328983
 20
302.2453529613055
 30
0.0
 11
91.47430182203503
 21
303.2796231437976
 31
0.0
  0
LINE
  5
AF
  8
1
  6
CONTINUOUS
 62
     7
 10
90.38820796328983
 20
302.2453529613055
 30
0.0
 11
77.60764365613863
 21
315.6663068283568
 31
0.0
  0
LINE
  5
B0
  8
1
  6
CONTINUOUS
 62
     7
 10
42.39235634386161
 20
315.6663068283568
 30
0.0
 11
29.61179203671044
 21
302.2453529613055
 31
0.0
  0
LINE
  5
B1
  8
1
  6
CONTINUOUS
 62
     7
 10
28.52569817796525
 20
303.2796231437976
 30
0.0
 11
29.61179203671044
 21
302.2453529613055
 31
0.0
  0
LINE
  5
B2
  8
1
  6
CONTINUOUS
 62
     7
 10
93.92595410532661
 20
249.9999999999999
 30
0.0
 11
93.9259541053266
 21
293.4003378939004
 31
0.0
  0
LINE
  5
B3
  8
1
  6
CONTINUOUS
 62
     7
 10
93.9259541053266
 20
293.4003378939004
 30
0.0
 11
95.4257256480612
 21
293.4003378939004
 31
0.0
  0
LINE
  5
B4
  8
1
  6
CONTINUOUS
 62
     7
 10
95.4257256480612
 20
249.9999999999999
 30
0.0
 11
93.92595410532661
 21
249.9999999999999
 31
0.0
  0
LINE
  5
B5
  8
1
  6
CONTINUOUS
 62
     7
 10
24.57427435193909
 20
293.4003378939004
 30
0.0
 11
26.07404589467368
 21
293.4003378939004
 31
0.0
  0
LINE
  5
B6
  8
1
  6
CONTINUOUS
 62
     7
 10
26.07404589467368
 20
293.4003378939004
 30
0.0
 11
26.07404589467368
 21
249.9999999999999
 31
0.0
  0
LINE
  5
B7
  8
1
  6
CONTINUOUS
 62
     7
 10
26.07404589467368
 20
249.9999999999999
 30
0.0
 11
24.57427435193909
 21
249.9999999999999
 31
0.0
  0
ARC
  5
B8
  8
1
  6
CONTINUOUS
 62
     7
 10
38.90000000000014
 20
293.4003378939004
 30
0.0
 40
12.82595410532649
 50
136.4000835896001
 51
180.0
  0
ARC
  5
B9
  8
1
  6
CONTINUOUS
 62
     7
 10
80.60000000000015
 20
293.2003525849395
 30
0.0
 40
12.0
 50
0.0
 51
43.59991641039993
  0
LINE
  5
BA
  8
1
  6
CONTINUOUS
 62
     7
 10
89.29007441038566
 20
301.4757744317074
 30
0.0
 11
77.00000000000016
 21
314.3816616617509
 31
0.0
  0
ARC
  5
BB
  8
1
  6
CONTINUOUS
 62
     7
 10
60.00000000000014
 20
80.9999999999999
 30
0.0
 40
234.0
 50
85.83381578248009
 51
94.16618421751986
  0
ARC
  5
BC
  8
1
  6
CONTINUOUS
 62
     7
 10
39.40000000000013
 20
293.2003525849395
 30
0.0
 40
11.99999999999999
 50
136.4000835896001
 51
180.0
  0
ARC
  5
BD
  8
1
  6
CONTINUOUS
 62
     7
 10
81.10000000000014
 20
293.4003378939004
 30
0.0
 40
12.82595410532646
 50
359.9999999999999
 51
43.59991641039994
  0
LINE
  5
BE
  8
1
  6
CONTINUOUS
 62
     7
 10
92.60000000000015
 20
249.9999999999999
 30
0.0
 11
92.60000000000015
 21
293.2003525849395
 31
0.0
  0
LINE
  5
BF
  8
1
  6
CONTINUOUS
 62
     7
 10
27.40000000000014
 20
249.9999999999999
 30
0.0
 11
27.40000000000014
 21
293.2003525849395
 31
0.0
  0
LINE
  5
C0
  8
1
  6
CONTINUOUS
 62
     7
 10
30.70992558961465
 20
301.4757744317074
 30
0.0
 11
43.00000000000012
 21
314.3816616617509
 31
0.0
  0
LINE
  5
C1
  8
1
  6
CONTINUOUS
 62
     7
 10
93.92595410532661
 20
249.9999999999999
 30
0.0
 11
92.60000000000015
 21
249.9999999999999
 31
0.0
  0
LINE
  5
C2
  8
1
  6
CONTINUOUS
 62
     7
 10
26.07404589467368
 20
249.9999999999999
 30
0.0
 11
27.40000000000014
 21
249.9999999999999
 31
0.0
  0
LINE
  5
C3
  8
1
  6
CONTINUOUS
 62
     7
 10
28.52569817796525
 20
303.2796231437976
 30
0.0
 11
28.22765406312499
 21
303.5634458894696
 31
0.0
  0
LINE
  5
C4
  8
1
  6
CONTINUOUS
 62
     7
 10
41.70368577160062
 20
317.1179137939058
 30
0.0
 11
41.5144492834012
 21
317.5159961373886
 31
0.0
  0
LINE
  5
C5
  8
1
  6
CONTINUOUS
 62
     7
 10
95.4257256480612
 20
293.4003378939004
 30
0.0
 11
95.83729052186813
 21
293.4003378939004
 31
0.0
  0
LINE
  5
C6
  8
1
  6
CONTINUOUS
 62
     7
 10
95.4257256480612
 20
249.9999999999999
 30
0.0
 11
95.83729052186813
 21
249.9999999999999
 31
0.0
  0
LINE
  5
C7
  8
1
  6
CONTINUOUS
 62
     7
 10
24.57427435193909
 20
293.4003378939004
 30
0.0
 11
24.16270947813216
 21
293.4003378939004
 31
0.0
  0
LINE
  5
C8
  8
1
  6
CONTINUOUS
 62
     7
 10
24.57427435193909
 20
249.9999999999999
 30
0.0
 11
24.16270947813216
 21
249.9999999999999
 31
0.0
  0
LINE
  5
C9
  8
1
  6
CONTINUOUS
 62
     7
 10
91.47430182203503
 20
303.2796231437976
 30
0.0
 11
91.77234593687528
 21
303.5634458894696
 31
0.0
  0
LINE
  5
CA
  8
1
  6
CONTINUOUS
 62
     7
 10
78.29631422839968
 20
317.1179137939058
 30
0.0
 11
78.48555071659906
 21
317.5159961373886
 31
0.0
  0
LINE
  5
CB
  8
1
  6
CONTINUOUS
 62
     7
 10
78.48555071659906
 20
317.5159961373886
 30
0.0
 11
79.86798023807633
 21
320.4138667306859
 31
0.0
  0
LINE
  5
CC
  8
1
  6
CONTINUOUS
 62
     7
 10
79.86798023807633
 20
320.4138667306859
 30
0.0
 11
93.94453365436566
 21
305.6319862544541
 31
0.0
  0
LINE
  5
CD
  8
1
  6
CONTINUOUS
 62
     7
 10
93.94453365436566
 20
305.6319862544541
 30
0.0
 11
91.7723459368753
 21
303.5634458894696
 31
0.0
  0
LINE
  5
CE
  8
1
  6
CONTINUOUS
 62
     7
 10
41.5144492834012
 20
317.5159961373886
 30
0.0
 11
40.13201976192394
 21
320.4138667306859
 31
0.0
  0
ARC
  5
CF
  8
1
  6
CONTINUOUS
 62
     7
 10
60.00000000000014
 20
80.9999999999999
 30
0.0
 40
240.2368336073369
 50
85.25612685792947
 51
94.74387314207058
  0
LINE
  5
D0
  8
1
  6
CONTINUOUS
 62
     7
 10
28.22765406312499
 20
303.5634458894696
 30
0.0
 11
26.05546634563462
 21
305.6319862544541
 31
0.0
  0
LINE
  5
D1
  8
1
  6
CONTINUOUS
 62
     7
 10
26.05546634563462
 20
305.6319862544541
 30
0.0
 11
40.13201976192394
 21
320.4138667306859
 31
0.0
  0
LINE
  5
D2
  8
1
  6
CONTINUOUS
 62
     7
 10
98.83683360733728
 20
293.4003378939004
 30
0.0
 11
95.83729052186813
 21
293.4003378939004
 31
0.0
  0
LINE
  5
D3
  8
1
  6
CONTINUOUS
 62
     7
 10
98.83683360733728
 20
293.4003378939004
 30
0.0
 11
98.83683360733735
 21
250.0
 31
0.0
  0
LINE
  5
D4
  8
1
  6
CONTINUOUS
 62
     7
 10
95.83729052186813
 20
249.9999999999999
 30
0.0
 11
98.83683360733735
 21
249.9999999999999
 31
0.0
  0
ARC
  5
D5
  8
1
  6
CONTINUOUS
 62
     7
 10
38.90000000000014
 20
293.4003378939004
 30
0.0
 40
17.73683360733715
 50
136.4000835896001
 51
180.0
  0
LINE
  5
D6
  8
1
  6
CONTINUOUS
 62
     7
 10
24.16270947813216
 20
293.4003378939004
 30
0.0
 11
21.163166392663
 21
293.4003378939004
 31
0.0
  0
ARC
  5
D7
  8
1
  6
CONTINUOUS
 62
     7
 10
81.10000000000014
 20
293.4003378939004
 30
0.0
 40
17.73683360733716
 50
0.0
 51
43.5999164104
  0
LINE
  5
D8
  8
1
  6
CONTINUOUS
 62
     7
 10
21.16316639266299
 20
250.0
 30
0.0
 11
21.163166392663
 21
293.4003378939004
 31
0.0
  0
LINE
  5
D9
  8
1
  6
CONTINUOUS
 62
     7
 10
21.16316639266299
 20
249.9999999999999
 30
0.0
 11
24.16270947813216
 21
249.9999999999999
 31
0.0
  0
ARC
  5
DA
  8
1
  6
CONTINUOUS
 62
     7
 10
40.00000000000002
 20
300.0000000000001
 30
0.0
 40
39.99112082156608
 50
90.0
 51
180.0
  0
LINE
  5
DB
  8
1
  6
CONTINUOUS
 62
     7
 10
119.991120821566
 20
300.0
 30
0.0
 11
119.991120821566
 21
249.9999999999999
 31
0.0
  0
LINE
  5
DC
  8
1
  6
CONTINUOUS
 62
     7
 10
119.991120821566
 20
249.9999999999999
 30
0.0
 11
117.9911969754377
 21
249.9999999999999
 31
0.0
  0
LINE
  5
DD
  8
1
  6
CONTINUOUS
 62
     7
 10
0.0088791784339515
 20
249.9999999999999
 30
0.0
 11
0.0088791784339515
 21
300.0000000000001
 31
0.0
  0
LINE
  5
DE
  8
1
  6
CONTINUOUS
 62
     7
 10
2.008803024562293
 20
249.9999999999999
 30
0.0
 11
0.0088791784339515
 21
249.9999999999999
 31
0.0
  0
LINE
  5
DF
  8
1
  6
CONTINUOUS
 62
     7
 10
40.00000000000001
 20
339.9911208215661
 30
0.0
 11
79.99999999999999
 21
339.9911208215661
 31
0.0
  0
ARC
  5
E0
  8
1
  6
CONTINUOUS
 62
     7
 10
79.99999999999996
 20
300.0000000000001
 30
0.0
 40
39.99112082156603
 50
0.0
 51
90.0
  0
LINE
  5
E1
  8
1
  6
CONTINUOUS
 62
     7
 10
98.83683360733735
 20
250.0
 30
0.0
 11
117.9911969754377
 21
250.0
 31
0.0
  0
LINE
  5
E2
  8
1
  6
CONTINUOUS
 62
     7
 10
2.008803024562293
 20
250.0
 30
0.0
 11
21.16316639266299
 21
250.0
 31
0.0
  0
LINE
  5
E3
  8
1
  6
CONTINUOUS
 62
     7
 10
119.9999999999999
 20
250.0
 30
0.0
 11
119.9999999999999
 21
300.0
 31
0.0
  0
LINE
  5
E4
  8
1
  6
CONTINUOUS
 62
     7
 10
119.991120821566
 20
300.0
 30
0.0
 11
119.9999999999999
 21
300.0
 31
0.0
  0
LINE
  5
E5
  8
1
  6
CONTINUOUS
 62
     7
 10
119.991120821566
 20
249.9999999999999
 30
0.0
 11
119.9999999999999
 21
250.0000000000001
 31
0.0
  0
ARC
  5
E6
  8
1
  6
CONTINUOUS
 62
     7
 10
40.00000000000002
 20
300.0000000000001
 30
0.0
 40
39.99999999999992
 50
90.00000000000001
 51
180.0
  0
LINE
  5
E7
  8
1
  6
CONTINUOUS
 62
     7
 10
40.00000000000001
 20
339.9911208215661
 30
0.0
 11
40.00000000000001
 21
339.9999999999999
 31
0.0
  0
LINE
  5
E8
  8
1
  6
CONTINUOUS
 62
     7
 10
0.0088791784339515
 20
300.0000000000001
 30
0.0
 11
0.0000000000000625
 21
300.0000000000001
 31
0.0
  0
ARC
  5
E9
  8
1
  6
CONTINUOUS
 62
     7
 10
79.99999999999996
 20
300.0000000000001
 30
0.0
 40
39.99999999999995
 50
0.0
 51
90.0
  0
LINE
  5
EA
  8
1
  6
CONTINUOUS
 62
     7
 10
79.99999999999999
 20
339.9911208215661
 30
0.0
 11
79.99999999999999
 21
339.9999999999999
 31
0.0
  0
LINE
  5
EB
  8
1
  6
CONTINUOUS
 62
     7
 10
79.99999999999999
 20
339.9999999999999
 30
0.0
 11
40.00000000000001
 21
339.9999999999999
 31
0.0
  0
LINE
  5
EC
  8
1
  6
CONTINUOUS
 62
     7
 10
0.0000000000000625
 20
300.0000000000001
 30
0.0
 11
0.0000000000000625
 21
250.0
 31
0.0
  0
LINE
  5
ED
  8
1
  6
CONTINUOUS
 62
     7
 10
0.0088791784339515
 20
249.9999999999999
 30
0.0
 11
0.0000000000000625
 21
250.0
 31
0.0
  0
ENDBLK
  8
0
  0
ENDSEC
  0
SECTION
  2
ENTITIES
  0
TEXT
  5
70
  8
1
  6
CONTINUOUS
 62
     7
 10
164.7718050518944
 20
238.3284200325122
 30
0.0
 40
3.0
  1
RMC-40
  0
INSERT
  5
84
  8
1
  6
CONTINUOUS
 62
     7
  2
D_FRAME_VIEW_1558
 10
0.0
 20
0.0
 30
0.0
  0
INSERT
  5
A7
  8
1
  6
CONTINUOUS
 62
     7
  2
D_FRAME_VIEW_1647
 10
0.0
 20
0.0
 30
0.0
  0
INSERT
  5
EE
  8
1
  6
CONTINUOUS
 62
     7
  2
D_FRAME_VIEW_1473
 10
0.0
 20
0.0
 30
0.0
  0
ENDSEC
  0
EOF
