  0
SECTION
  2
HEADER
  9
$ACADVER
  1
AC1004
  9
$INSBASE
 10
0.0
 20
0.0
  9
$EXTMIN
 10
44.99999999999999
 20
-209.5094129167847
  9
$EXTMAX
 10
244.9678710788167
 20
-24.0321289211833
  9
$LIMMIN
 10
0.0
 20
0.0
  9
$LIMMAX
 10
12.0
 20
9.0
  9
$ORTHOMODE
 70
     0
  9
$REGENMODE
 70
     1
  9
$FILLMODE
 70
     1
  9
$QTEXTMODE
 70
     0
  9
$DRAGMODE
 70
     2
  9
$LTSCALE
 40
1.0
  9
$OSMODE
 70
    37
  9
$ATTMODE
 70
     1
  9
$TEXTSIZE
 40
0.2
  9
$TRACEWID
 40
0.05
  9
$TEXTSTYLE
  7
STANDARD
  9
$CLAYER
  8
0
  9
$CELTYPE
  6
BYLAYER
  9
$CECOLOR
 62
   256
  9
$DIMSCALE
 40
1.0
  9
$DIMASZ
 40
3.0
  9
$DIMEXO
 40
0.0625
  9
$DIMDLI
 40
0.38
  9
$DIMRND
 40
0.0
  9
$DIMDLE
 40
0.0
  9
$DIMEXE
 40
1.5
  9
$DIMTP
 40
0.0
  9
$DIMTM
 40
0.0
  9
$DIMTXT
 40
3.0
  9
$DIMCEN
 40
0.09
  9
$DIMTSZ
 40
0.0
  9
$DIMTOL
 70
     0
  9
$DIMLIM
 70
     0
  9
$DIMTIH
 70
     1
  9
$DIMTOH
 70
     1
  9
$DIMSE1
 70
     0
  9
$DIMSE2
 70
     0
  9
$DIMTAD
 70
     1
  9
$DIMZIN
 70
     0
  9
$DIMBLK
  1

  9
$DIMASO
 70
     1
  9
$DIMSHO
 70
     1
  9
$DIMPOST
  1

  9
$DIMAPOST
  1

  9
$DIMALT
 70
     0
  9
$DIMALTD
 70
     2
  9
$DIMALTF
 40
25.4
  9
$DIMLFAC
 40
1.0
  9
$DIMTOFL
 70
     0
  9
$DIMTVP
 40
0.0
  9
$DIMTIX
 70
     0
  9
$DIMSOXD
 70
     0
  9
$DIMSAH
 70
     0
  9
$DIMBLK1
  1

  9
$DIMBLK2
  1

  9
$LUNITS
 70
     2
  9
$LUPREC
 70
     4
  9
$SKETCHINC
 40
0.1
  9
$FILLETRAD
 40
0.5
  9
$AUNITS
 70
     0
  9
$AUPREC
 70
     0
  9
$MENU
  1
.
  9
$ELEVATION
 40
0.0
  9
$THICKNESS
 40
0.0
  9
$LIMCHECK
 70
     0
  9
$CHAMFERA
 40
0.0
  9
$CHAMFERB
 40
0.0
  9
$SKPOLY
 70
     0
  9
$TDCREATE
 40
2459395.383153958
  9
$TDUPDATE
 40
2459395.38315419
  9
$TDINDWG
 40
0.0000000116
  9
$TDUSRTIMER
 40
0.0000000116
  9
$USRTIMER
 70
     1
  9
$ANGBASE
 50
0.0
  9
$ANGDIR
 70
     0
  9
$PDMODE
 70
     0
  9
$PDSIZE
 40
0.0
  9
$PLINEWID
 40
0.0
  9
$COORDS
 70
     1
  9
$SPLFRAME
 70
     0
  9
$SPLINETYPE
 70
     6
  9
$SPLINESEGS
 70
     8
  9
$ATTDIA
 70
     0
  9
$ATTREQ
 70
     1
  9
$SURFTAB1
 70
     6
  9
$SURFTAB2
 70
     6
  9
$SURFTYPE
 70
     6
  9
$SURFU
 70
     6
  9
$SURFV
 70
     6
  9
$UCSNAME
  2

  9
$UCSORG
 10
0.0
 20
0.0
 30
0.0
  9
$UCSXDIR
 10
1.0
 20
0.0
 30
0.0
  9
$UCSYDIR
 10
0.0
 20
1.0
 30
0.0
  9
$USERI1
 70
     0
  9
$USERI2
 70
     0
  9
$USERI3
 70
     0
  9
$USERI4
 70
     0
  9
$USERI5
 70
     0
  9
$USERR1
 40
0.0
  9
$USERR2
 40
0.0
  9
$USERR3
 40
0.0
  9
$USERR4
 40
0.0
  9
$USERR5
 40
0.0
  9
$WORLDVIEW
 70
     1
  0
ENDSEC
  0
SECTION
  2
TABLES
  0
TABLE
  2
LTYPE
 70
     2
  0
LTYPE
  2
CONTINUOUS
 70
     0
  3
Solid line
 72
    65
 73
     0
 40
0.0
  0
LTYPE
  2
CENTER
 70
     0
  3

 72
    65
 73
     0
 40
0.0
  0
ENDTAB
  0
TABLE
  2
LAYER
 70
     2
  0
LAYER
  2
0
 70
     0
 62
     7
  6
CONTINUOUS
  0
LAYER
  2
1
 70
     0
 62
     7
  6
CONTINUOUS
  0
ENDTAB
  0
TABLE
  2
STYLE
 70
     2
  0
STYLE
  2
STANDARD
 70
     0
 40
0.0
 41
1.0
 50
0.0
 71
     0
 42
0.2
  3
txt
  4

  0
STYLE
  2
ＭＳ_ゴシック
 70
     0
 40
0.0
 41
1.0
 50
0.0
 71
     0
 42
0.2
  3
ＭＳ ゴシック.shx
  4

  0
ENDTAB
  0
TABLE
  2
VIEW
 70
     0
  0
ENDTAB
  0
ENDSEC
  0
SECTION
  2
BLOCKS
  0
BLOCK
  8
0
  2
D_FRAME_VIEW_1484
 70
     0
 10
0.0
 20
0.0
  0
LINE
  8
1
  6
CONTINUOUS
 62
     7
 10
95.60062797587764
 20
-207.3785123921641
 11
95.1
 21
-207.3785123921641
  0
LINE
  8
1
  6
CONTINUOUS
 62
     7
 10
95.1
 20
-207.3785123921641
 11
94.87591031458831
 21
-181.7003778329378
  0
ARC
  8
1
  6
CONTINUOUS
 62
     7
 10
86.87621493007494
 20
-181.7701901169249
 40
8.000000000000002
 50
0.5
 51
45.60123825011384
  0
LINE
  8
1
  6
CONTINUOUS
 62
     7
 10
92.47339812602729
 20
-176.054287714771
 11
84.99999999999999
 21
-168.7361119544747
  0
ARC
  8
1
  6
CONTINUOUS
 62
     7
 10
75.00000000000001
 20
-308.3785123921641
 40
140.0
 50
85.90395624184764
 51
94.09604375815223
  0
LINE
  8
1
  6
CONTINUOUS
 62
     7
 10
65.0
 20
-168.7361119544747
 11
57.52660187397269
 21
-176.054287714771
  0
ARC
  8
1
  6
CONTINUOUS
 62
     7
 10
63.12378506992506
 20
-181.7701901169249
 40
8.000000000000002
 50
134.3987617498861
 51
179.5
  0
LINE
  8
1
  6
CONTINUOUS
 62
     7
 10
54.89999999999999
 20
-207.3785123921641
 11
54.39937202412234
 21
-207.3785123921641
  0
LINE
  8
1
  6
CONTINUOUS
 62
     7
 10
55.12408968541167
 20
-181.7003778329378
 11
54.89999999999999
 21
-207.3785123921641
  0
LINE
  8
1
  6
CONTINUOUS
 62
     7
 10
52.89999999999998
 20
-207.3785123921641
 11
53.12451525498205
 21
-181.6516123903318
  0
LINE
  8
1
  6
CONTINUOUS
 62
     7
 10
54.39937202412234
 20
-207.3785123921641
 11
52.89999999999998
 21
-207.3785123921641
  0
LINE
  8
1
  6
CONTINUOUS
 62
     7
 10
96.87548474501794
 20
-181.6516123903318
 11
97.10000000000001
 21
-207.3785123921641
  0
LINE
  8
1
  6
CONTINUOUS
 62
     7
 10
97.1
 20
-207.3785123921641
 11
95.60062797587764
 21
-207.3785123921641
  0
ARC
  8
1
  6
CONTINUOUS
 62
     7
 10
63.12413448562376
 20
-181.7388777453156
 40
10.0
 50
134.1959184798914
 51
179.5
  0
ARC
  8
1
  6
CONTINUOUS
 62
     7
 10
86.87586551437622
 20
-181.7388777453156
 40
10.0
 50
0.5
 51
45.80408152010847
  0
LINE
  8
1
  6
CONTINUOUS
 62
     7
 10
56.15299417295183
 20
-174.5692750547168
 11
64.02005377501266
 21
-166.9199841942857
  0
LINE
  8
1
  6
CONTINUOUS
 62
     7
 10
85.97994622498734
 20
-166.9199841942857
 11
93.84700582704816
 21
-174.5692750547168
  0
ARC
  8
1
  6
CONTINUOUS
 62
     7
 10
75.00000000000001
 20
-308.3785123921641
 40
142.0
 50
85.69117552547971
 51
94.3088244745203
  0
ARC
  8
1
  6
CONTINUOUS
 62
     7
 10
64.36861079064624
 20
-167.2784643288157
 40
0.5000000000000008
 50
94.30889251126662
 51
134.1959184798913
  0
ARC
  8
1
  6
CONTINUOUS
 62
     7
 10
85.63138920935376
 20
-167.2784643288157
 40
0.4999999999999986
 50
45.80408152010943
 51
85.69110748873389
  0
LINE
  8
1
  6
CONTINUOUS
 62
     7
 10
101.1587613225354
 20
-144.7137105989826
 11
101.5266299061058
 21
-145.0751513531256
  0
ARC
  8
1
  6
CONTINUOUS
 62
     7
 10
94.51769363535345
 20
-152.2084597552415
 40
10.00046380960227
 50
0.5011008244463772
 51
45.50386729115904
  0
LINE
  8
1
  6
CONTINUOUS
 62
     7
 10
104.5177749793833
 20
-152.120998221117
 11
104.5340047137619
 21
-153.9807415755269
  0
LINE
  8
1
  6
CONTINUOUS
 62
     7
 10
45.46599528623813
 20
-153.9807415755153
 11
45.4822250206167
 21
-152.120998221117
  0
ARC
  8
1
  6
CONTINUOUS
 62
     7
 10
55.48257316488127
 20
-152.2085730188736
 40
10.00073159082363
 50
134.4967682211264
 51
179.4982636632682
  0
LINE
  8
1
  6
CONTINUOUS
 62
     7
 10
48.47337009389416
 20
-145.0751513531256
 11
48.84123867746457
 21
-144.7137105989826
  0
LINE
  8
1
  6
CONTINUOUS
 62
     7
 10
60.82535952574575
 20
-133.0529082334335
 11
60.59885263347959
 21
-133.1631971262871
  0
LINE
  8
1
  6
CONTINUOUS
 62
     7
 10
89.17464047425426
 20
-133.0529082334335
 11
89.4011473665202
 21
-133.1631971262871
  0
ARC
  8
1
  6
CONTINUOUS
 62
     7
 10
74.99999999999993
 20
-282.2785081130974
 40
149.8999957209333
 50
84.5937267310023
 51
95.40627326899764
  0
LINE
  8
1
  6
CONTINUOUS
 62
     7
 10
89.17464047425426
 20
-133.0529082334335
 11
89.12317527065656
 21
-133.0453193198194
  0
LINE
  8
1
  6
CONTINUOUS
 62
     7
 10
60.87682472934341
 20
-133.0453193198194
 11
60.82535952574575
 21
-133.0529082334335
  0
LINE
  8
1
  6
CONTINUOUS
 62
     7
 10
60.57350969968853
 20
-133.1864395150356
 11
48.84123867746456
 21
-144.7137105989826
  0
LINE
  8
1
  6
CONTINUOUS
 62
     7
 10
60.59885263347959
 20
-133.1631971262871
 11
60.57350969968852
 21
-133.1864395150356
  0
LINE
  8
1
  6
CONTINUOUS
 62
     7
 10
89.42649030031144
 20
-133.1864395150356
 11
89.4011473665202
 21
-133.1631971262871
  0
LINE
  8
1
  6
CONTINUOUS
 62
     7
 10
101.1587613225354
 20
-144.7137105989826
 11
89.42649030031146
 21
-133.1864395150356
  0
LINE
  8
1
  6
CONTINUOUS
 62
     7
 10
45.46599528623813
 20
-153.9807415755153
 11
44.99999999999999
 21
-207.3785123921641
  0
LINE
  8
1
  6
CONTINUOUS
 62
     7
 10
44.99999999999999
 20
-207.3785123921641
 11
52.89999999999998
 21
-207.3785123921641
  0
LINE
  8
1
  6
CONTINUOUS
 62
     7
 10
105.0
 20
-207.3785123921641
 11
104.534004713762
 21
-153.9807415755269
  0
LINE
  8
1
  6
CONTINUOUS
 62
     7
 10
105.0
 20
-207.3785123921641
 11
97.1
 21
-207.3785123921641
  0
LINE
  8
1
  6
CONTINUOUS
 62
     7
 10
54.99999999999999
 20
-195.9196473792328
 11
54.99999999999999
 21
-197.1785123921641
  0
LINE
  8
1
  6
CONTINUOUS
 62
     7
 10
54.99999999999999
 20
-197.1785123921641
 11
54.98901405146573
 21
-197.1785123921641
  0
LINE
  8
1
  6
CONTINUOUS
 62
     7
 10
95.0
 20
-197.1785123921641
 11
95.01098594853427
 21
-197.1785123921641
  0
LINE
  8
1
  6
CONTINUOUS
 62
     7
 10
95.0
 20
-195.9196473792328
 11
95.0
 21
-197.1785123921641
  0
LINE
  8
1
  6
CONTINUOUS
 62
     7
 10
66.49999999999997
 20
-207.3785123921641
 11
66.51745373558148
 21
-205.3785123921641
  0
LINE
  8
1
  6
CONTINUOUS
 62
     7
 10
66.5174537355815
 20
-205.3785123921641
 11
67.99999999999997
 21
-205.3785123921641
  0
LINE
  8
1
  6
CONTINUOUS
 62
     7
 10
67.99999999999997
 20
-207.3785123921641
 11
66.49999999999997
 21
-207.3785123921641
  0
LINE
  8
1
  6
CONTINUOUS
 62
     7
 10
81.99999999999999
 20
-205.3785123921641
 11
75.3
 21
-205.3785123921641
  0
LINE
  8
1
  6
CONTINUOUS
 62
     7
 10
74.69999999999999
 20
-205.3785123921641
 11
67.99999999999999
 21
-205.3785123921641
  0
LINE
  8
1
  6
CONTINUOUS
 62
     7
 10
74.99999999999999
 20
-205.6785123921641
 11
74.69999999999999
 21
-205.3785123921641
  0
LINE
  8
1
  6
CONTINUOUS
 62
     7
 10
75.29999999999998
 20
-205.3785123921641
 11
74.99999999999999
 21
-205.6785123921641
  0
LINE
  8
1
  6
CONTINUOUS
 62
     7
 10
67.99999999999997
 20
-207.3785123921641
 11
81.99999999999997
 21
-207.3785123921641
  0
LINE
  8
1
  6
CONTINUOUS
 62
     7
 10
81.99999999999999
 20
-205.3785123921641
 11
83.48254626441847
 21
-205.3785123921641
  0
LINE
  8
1
  6
CONTINUOUS
 62
     7
 10
83.48254626441846
 20
-205.3785123921641
 11
83.49999999999997
 21
-207.3785123921641
  0
LINE
  8
1
  6
CONTINUOUS
 62
     7
 10
83.49999999999999
 20
-207.3785123921641
 11
81.99999999999999
 21
-207.3785123921641
  0
LINE
  8
1
  6
CONTINUOUS
 62
     7
 10
54.97966328130901
 20
-198.3785123921641
 11
54.99999999999997
 21
-207.3785123921641
  0
LINE
  8
1
  6
CONTINUOUS
 62
     7
 10
54.99999999999997
 20
-207.3785123921641
 11
54.9
 21
-207.3785123921641
  0
POLYLINE
  8
1
  6
CONTINUOUS
 62
     7
 66
     1
  0
VERTEX
  8
1
  6
CONTINUOUS
 62
     7
 10
56.0103818669191
 20
-197.3785123921641
  0
VERTEX
  8
1
  6
CONTINUOUS
 62
     7
 10
55.80890123140542
 20
-197.3977271117609
  0
VERTEX
  8
1
  6
CONTINUOUS
 62
     7
 10
55.61525022024448
 20
-197.4546328596528
  0
VERTEX
  8
1
  6
CONTINUOUS
 62
     7
 10
55.43687073319445
 20
-197.5470427798615
  0
VERTEX
  8
1
  6
CONTINUOUS
 62
     7
 10
55.28061779390632
 20
-197.6714056109775
  0
VERTEX
  8
1
  6
CONTINUOUS
 62
     7
 10
55.15249611520924
 20
-197.8229421591445
  0
VERTEX
  8
1
  6
CONTINUOUS
 62
     7
 10
55.0574293413641
 20
-197.995828959799
  0
VERTEX
  8
1
  6
CONTINUOUS
 62
     7
 10
54.99907083517569
 20
-198.1834220701479
  0
VERTEX
  8
1
  6
CONTINUOUS
 62
     7
 10
54.97966328130901
 20
-198.3785123921641
  0
SEQEND
  8
1
  6
CONTINUOUS
 62
     7
  0
LINE
  8
1
  6
CONTINUOUS
 62
     7
 10
58.8439476504484
 20
-197.3785123921641
 11
56.0103818669191
 21
-197.3785123921641
  0
POLYLINE
  8
1
  6
CONTINUOUS
 62
     7
 66
     1
  0
VERTEX
  8
1
  6
CONTINUOUS
 62
     7
 10
59.35435344759953
 20
-197.7963128985114
  0
VERTEX
  8
1
  6
CONTINUOUS
 62
     7
 10
59.34939506672603
 20
-197.7716675284721
  0
VERTEX
  8
1
  6
CONTINUOUS
 62
     7
 10
59.34316596607086
 20
-197.7472913734715
  0
VERTEX
  8
1
  6
CONTINUOUS
 62
     7
 10
59.33568184098441
 20
-197.7232458536594
  0
VERTEX
  8
1
  6
CONTINUOUS
 62
     7
 10
59.32696154907909
 20
-197.6995915560898
  0
VERTEX
  8
1
  6
CONTINUOUS
 62
     7
 10
59.31702706271408
 20
-197.6763880820617
  0
VERTEX
  8
1
  6
CONTINUOUS
 62
     7
 10
59.30590341363204
 20
-197.6536938969418
  0
VERTEX
  8
1
  6
CONTINUOUS
 62
     7
 10
59.29361862988707
 20
-197.6315661828512
  0
VERTEX
  8
1
  6
CONTINUOUS
 62
     7
 10
59.28020366522293
 20
-197.6100606945844
  0
VERTEX
  8
1
  6
CONTINUOUS
 62
     7
 10
59.26569232107946
 20
-197.5892316191247
  0
VERTEX
  8
1
  6
CONTINUOUS
 62
     7
 10
59.25012116142371
 20
-197.5691314391106
  0
VERTEX
  8
1
  6
CONTINUOUS
 62
     7
 10
59.23352942062041
 20
-197.5498108005962
  0
VERTEX
  8
1
  6
CONTINUOUS
 62
     7
 10
59.21595890457383
 20
-197.5313183854393
  0
VERTEX
  8
1
  6
CONTINUOUS
 62
     7
 10
59.19745388539025
 20
-197.5137007886382
  0
VERTEX
  8
1
  6
CONTINUOUS
 62
     7
 10
59.17806098982629
 20
-197.4970024009277
  0
VERTEX
  8
1
  6
CONTINUOUS
 62
     7
 10
59.15782908180439
 20
-197.4812652969284
  0
VERTEX
  8
1
  6
CONTINUOUS
 62
     7
 10
59.13680913929124
 20
-197.466529129132
  0
VERTEX
  8
1
  6
CONTINUOUS
 62
     7
 10
59.11505412584956
 20
-197.4528310279894
  0
VERTEX
  8
1
  6
CONTINUOUS
 62
     7
 10
59.09261885718678
 20
-197.4402055083544
  0
VERTEX
  8
1
  6
CONTINUOUS
 62
     7
 10
59.06955986303688
 20
-197.4286843825166
  0
VERTEX
  8
1
  6
CONTINUOUS
 62
     7
 10
59.04593524472351
 20
-197.4182966800451
  0
VERTEX
  8
1
  6
CONTINUOUS
 62
     7
 10
59.02180452876312
 20
-197.4090685746426
  0
VERTEX
  8
1
  6
CONTINUOUS
 62
     7
 10
58.99722851687709
 20
-197.4010233181969
  0
VERTEX
  8
1
  6
CONTINUOUS
 62
     7
 10
58.97226913279075
 20
-197.3941811821926
  0
VERTEX
  8
1
  6
CONTINUOUS
 62
     7
 10
58.94698926620534
 20
-197.3885594066341
  0
VERTEX
  8
1
  6
CONTINUOUS
 62
     7
 10
58.92145261433593
 20
-197.3841721566058
  0
VERTEX
  8
1
  6
CONTINUOUS
 62
     7
 10
58.89572352141479
 20
-197.3810304865811
  0
VERTEX
  8
1
  6
CONTINUOUS
 62
     7
 10
58.86986681656432
 20
-197.379142312568
  0
VERTEX
  8
1
  6
CONTINUOUS
 62
     7
 10
58.8439476504484
 20
-197.3785123921641
  0
SEQEND
  8
1
  6
CONTINUOUS
 62
     7
  0
LINE
  8
1
  6
CONTINUOUS
 62
     7
 10
60.3280156002972
 20
-203.3785123921641
 11
59.35435344759953
 21
-197.7963128985114
  0
LINE
  8
1
  6
CONTINUOUS
 62
     7
 10
89.67198439970275
 20
-203.3785123921641
 11
60.3280156002972
 21
-203.3785123921641
  0
LINE
  8
1
  6
CONTINUOUS
 62
     7
 10
90.64564655240042
 20
-197.7963128985114
 11
89.67198439970275
 21
-203.3785123921641
  0
POLYLINE
  8
1
  6
CONTINUOUS
 62
     7
 66
     1
  0
VERTEX
  8
1
  6
CONTINUOUS
 62
     7
 10
91.15605234955154
 20
-197.3785123921641
  0
VERTEX
  8
1
  6
CONTINUOUS
 62
     7
 10
91.13013318343563
 20
-197.379142312568
  0
VERTEX
  8
1
  6
CONTINUOUS
 62
     7
 10
91.10427647858515
 20
-197.3810304865811
  0
VERTEX
  8
1
  6
CONTINUOUS
 62
     7
 10
91.07854738566401
 20
-197.3841721566058
  0
VERTEX
  8
1
  6
CONTINUOUS
 62
     7
 10
91.0530107337946
 20
-197.3885594066341
  0
VERTEX
  8
1
  6
CONTINUOUS
 62
     7
 10
91.02773086720919
 20
-197.3941811821926
  0
VERTEX
  8
1
  6
CONTINUOUS
 62
     7
 10
91.00277148312286
 20
-197.4010233181969
  0
VERTEX
  8
1
  6
CONTINUOUS
 62
     7
 10
90.97819547123682
 20
-197.4090685746426
  0
VERTEX
  8
1
  6
CONTINUOUS
 62
     7
 10
90.95406475527642
 20
-197.4182966800451
  0
VERTEX
  8
1
  6
CONTINUOUS
 62
     7
 10
90.93044013696307
 20
-197.4286843825166
  0
VERTEX
  8
1
  6
CONTINUOUS
 62
     7
 10
90.90738114281316
 20
-197.4402055083544
  0
VERTEX
  8
1
  6
CONTINUOUS
 62
     7
 10
90.88494587415039
 20
-197.4528310279894
  0
VERTEX
  8
1
  6
CONTINUOUS
 62
     7
 10
90.86319086070871
 20
-197.466529129132
  0
VERTEX
  8
1
  6
CONTINUOUS
 62
     7
 10
90.84217091819556
 20
-197.4812652969284
  0
VERTEX
  8
1
  6
CONTINUOUS
 62
     7
 10
90.82193901017365
 20
-197.4970024009277
  0
VERTEX
  8
1
  6
CONTINUOUS
 62
     7
 10
90.8025461146097
 20
-197.5137007886382
  0
VERTEX
  8
1
  6
CONTINUOUS
 62
     7
 10
90.78404109542612
 20
-197.5313183854393
  0
VERTEX
  8
1
  6
CONTINUOUS
 62
     7
 10
90.76647057937953
 20
-197.5498108005962
  0
VERTEX
  8
1
  6
CONTINUOUS
 62
     7
 10
90.74987883857624
 20
-197.5691314391106
  0
VERTEX
  8
1
  6
CONTINUOUS
 62
     7
 10
90.73430767892049
 20
-197.5892316191247
  0
VERTEX
  8
1
  6
CONTINUOUS
 62
     7
 10
90.71979633477702
 20
-197.6100606945844
  0
VERTEX
  8
1
  6
CONTINUOUS
 62
     7
 10
90.70638137011287
 20
-197.6315661828512
  0
VERTEX
  8
1
  6
CONTINUOUS
 62
     7
 10
90.6940965863679
 20
-197.6536938969418
  0
VERTEX
  8
1
  6
CONTINUOUS
 62
     7
 10
90.68297293728585
 20
-197.6763880820617
  0
VERTEX
  8
1
  6
CONTINUOUS
 62
     7
 10
90.67303845092087
 20
-197.6995915560898
  0
VERTEX
  8
1
  6
CONTINUOUS
 62
     7
 10
90.66431815901554
 20
-197.7232458536594
  0
VERTEX
  8
1
  6
CONTINUOUS
 62
     7
 10
90.65683403392909
 20
-197.7472913734715
  0
VERTEX
  8
1
  6
CONTINUOUS
 62
     7
 10
90.65060493327391
 20
-197.7716675284721
  0
VERTEX
  8
1
  6
CONTINUOUS
 62
     7
 10
90.64564655240041
 20
-197.7963128985114
  0
SEQEND
  8
1
  6
CONTINUOUS
 62
     7
  0
LINE
  8
1
  6
CONTINUOUS
 62
     7
 10
93.98961813308087
 20
-197.3785123921641
 11
91.15605234955154
 21
-197.3785123921641
  0
POLYLINE
  8
1
  6
CONTINUOUS
 62
     7
 66
     1
  0
VERTEX
  8
1
  6
CONTINUOUS
 62
     7
 10
95.02033671869094
 20
-198.3785123921641
  0
VERTEX
  8
1
  6
CONTINUOUS
 62
     7
 10
95.00092916482427
 20
-198.1834220701479
  0
VERTEX
  8
1
  6
CONTINUOUS
 62
     7
 10
94.94257065863587
 20
-197.995828959799
  0
VERTEX
  8
1
  6
CONTINUOUS
 62
     7
 10
94.84750388479073
 20
-197.8229421591445
  0
VERTEX
  8
1
  6
CONTINUOUS
 62
     7
 10
94.71938220609366
 20
-197.6714056109775
  0
VERTEX
  8
1
  6
CONTINUOUS
 62
     7
 10
94.56312926680552
 20
-197.5470427798615
  0
VERTEX
  8
1
  6
CONTINUOUS
 62
     7
 10
94.38474977975548
 20
-197.4546328596528
  0
VERTEX
  8
1
  6
CONTINUOUS
 62
     7
 10
94.19109876859454
 20
-197.3977271117609
  0
VERTEX
  8
1
  6
CONTINUOUS
 62
     7
 10
93.98961813308087
 20
-197.3785123921641
  0
SEQEND
  8
1
  6
CONTINUOUS
 62
     7
  0
LINE
  8
1
  6
CONTINUOUS
 62
     7
 10
95.02033671869096
 20
-198.3785123921641
 11
94.99999999999999
 21
-207.3785123921641
  0
LINE
  8
1
  6
CONTINUOUS
 62
     7
 10
66.49999999999999
 20
-207.3785123921641
 11
54.99999999999998
 21
-207.3785123921641
  0
LINE
  8
1
  6
CONTINUOUS
 62
     7
 10
94.99999999999997
 20
-207.3785123921641
 11
83.49999999999997
 21
-207.3785123921641
  0
LINE
  8
1
  6
CONTINUOUS
 62
     7
 10
95.1
 20
-207.3785123921641
 11
94.99999999999997
 21
-207.3785123921641
  0
POLYLINE
  8
1
  6
CONTINUOUS
 62
     7
 66
     1
  0
VERTEX
  8
1
  6
CONTINUOUS
 62
     7
 10
55.64458536387731
 20
-197.3785123921641
  0
VERTEX
  8
1
  6
CONTINUOUS
 62
     7
 10
55.46670481007462
 20
-197.3934506723578
  0
VERTEX
  8
1
  6
CONTINUOUS
 62
     7
 10
55.29413871537938
 20
-197.4378192085088
  0
VERTEX
  8
1
  6
CONTINUOUS
 62
     7
 10
55.13204276114059
 20
-197.5102924213673
  0
VERTEX
  8
1
  6
CONTINUOUS
 62
     7
 10
54.98525981692362
 20
-197.608705060613
  0
SEQEND
  8
1
  6
CONTINUOUS
 62
     7
  0
LINE
  8
1
  6
CONTINUOUS
 62
     7
 10
55.64458536387731
 20
-197.3785123921641
 11
56.0103818669191
 21
-197.3785123921641
  0
LINE
  8
1
  6
CONTINUOUS
 62
     7
 10
93.98961813308087
 20
-197.3785123921641
 11
94.35541463612265
 21
-197.3785123921641
  0
POLYLINE
  8
1
  6
CONTINUOUS
 62
     7
 66
     1
  0
VERTEX
  8
1
  6
CONTINUOUS
 62
     7
 10
95.01474018307636
 20
-197.608705060613
  0
VERTEX
  8
1
  6
CONTINUOUS
 62
     7
 10
94.86795723885939
 20
-197.5102924213673
  0
VERTEX
  8
1
  6
CONTINUOUS
 62
     7
 10
94.70586128462058
 20
-197.4378192085088
  0
VERTEX
  8
1
  6
CONTINUOUS
 62
     7
 10
94.53329518992533
 20
-197.3934506723578
  0
VERTEX
  8
1
  6
CONTINUOUS
 62
     7
 10
94.35541463612263
 20
-197.3785123921641
  0
SEQEND
  8
1
  6
CONTINUOUS
 62
     7
  0
LINE
  8
1
  6
CONTINUOUS
 62
     7
 10
54.98726867790758
 20
-197.3785123921641
 11
55.64458536387731
 21
-197.3785123921641
  0
LINE
  8
1
  6
CONTINUOUS
 62
     7
 10
94.35541463612265
 20
-197.3785123921641
 11
95.01273132209242
 21
-197.3785123921641
  0
ARC
  8
1
  6
CONTINUOUS
 62
     7
 10
74.99999999999999
 20
-179.1285123921641
 40
23.75
 50
212.7899573227016
 51
327.2100426772984
  0
LINE
  8
1
  6
CONTINUOUS
 62
     7
 10
64.49999999999999
 20
-207.6785123921641
 11
85.49999999999999
 21
-207.6785123921641
  0
LINE
  8
1
  6
CONTINUOUS
 62
     7
 10
57.99999999999999
 20
-207.6785123921641
 11
64.49999999999999
 21
-207.6785123921641
  0
LINE
  8
1
  6
CONTINUOUS
 62
     7
 10
85.49999999999997
 20
-207.6785123921641
 11
91.99999999999999
 21
-207.6785123921641
  0
ARC
  8
1
  6
CONTINUOUS
 62
     7
 10
57.99999999999998
 20
-207.3785123921641
 40
0.3000000000000086
 50
180.0
 51
270.0000000000239
  0
ARC
  8
1
  6
CONTINUOUS
 62
     7
 10
91.99999999999999
 20
-207.3785123921641
 40
0.3000000000000086
 50
270.0
 51
0.0
  0
ENDBLK
  8
0
  0
BLOCK
  8
0
  2
D_FRAME_VIEW_1674
 70
     0
 10
0.0
 20
0.0
  0
LINE
  8
1
  6
CONTINUOUS
 62
     7
 10
174.9678710788167
 20
-183.5184634717375
 11
174.9678710788167
 21
-207.3785123921641
  0
LINE
  8
1
  6
CONTINUOUS
 62
     7
 10
204.9678710788167
 20
-207.3785123921641
 11
204.9678710788167
 21
-153.9807415755269
  0
LINE
  8
1
  6
CONTINUOUS
 62
     7
 10
204.9678710788167
 20
-207.3785123921641
 11
174.9678710788167
 21
-207.3785123921641
  0
ARC
  8
1
  6
CONTINUOUS
 62
     7
 10
212.662706364627
 20
-154.1459246134928
 40
7.696608052368514
 50
164.7463099560875
 51
178.7702352043061
  0
LINE
  8
1
  6
CONTINUOUS
 62
     7
 10
243.9678710788167
 20
-207.3785123921641
 11
204.9678710788167
 21
-207.3785123921641
  0
LINE
  8
1
  6
CONTINUOUS
 62
     7
 10
244.9678710788167
 20
-152.1297247566154
 11
244.9678710788167
 21
-177.8679791576081
  0
LINE
  8
1
  6
CONTINUOUS
 62
     7
 10
244.9678710788167
 20
-177.8741491244149
 11
244.9678710788167
 21
-177.8679791576081
  0
LINE
  8
1
  6
CONTINUOUS
 62
     7
 10
244.9678710788167
 20
-207.3785123921641
 11
244.9678710788167
 21
-177.8741491244149
  0
LINE
  8
1
  6
CONTINUOUS
 62
     7
 10
244.9678710780917
 20
-207.3785123921641
 11
243.9678710788167
 21
-207.3785123921641
  0
LINE
  8
1
  6
CONTINUOUS
 62
     7
 10
204.9678710788167
 20
-144.7137105989826
 11
204.9858018059625
 21
-145.0751513531256
  0
ARC
  8
1
  6
CONTINUOUS
 62
     7
 10
183.9365023708193
 20
-149.3537475943915
 40
21.47974377189102
 50
352.5979712850377
 51
11.48972186966625
  0
ARC
  8
1
  6
CONTINUOUS
 62
     7
 10
182.3829241286477
 20
-183.6416548180099
 40
7.416076310260305
 50
164.4343886345396
 51
179.0481936039718
  0
ARC
  8
1
  6
CONTINUOUS
 62
     7
 10
153.6400343077805
 20
-178.8794727252813
 40
21.77597812457222
 50
352.6862497178153
 51
11.41614733576642
  0
LINE
  8
1
  6
CONTINUOUS
 62
     7
 10
174.9851840922751
 20
-174.5692750547169
 11
174.9678710788167
 21
-174.2159746484901
  0
LINE
  8
1
  6
CONTINUOUS
 62
     7
 10
244.9678710788167
 20
-145.7884625754232
 11
244.9678710788167
 21
-152.1297247566154
  0
LINE
  8
1
  6
CONTINUOUS
 62
     7
 10
204.9678710788167
 20
-144.7137105989826
 11
204.9678710788167
 21
-133.1864395150356
  0
LINE
  8
1
  6
CONTINUOUS
 62
     7
 10
244.9678710788167
 20
-134.0242652456956
 11
244.9678710788167
 21
-145.7884625754232
  0
LINE
  8
1
  6
CONTINUOUS
 62
     7
 10
174.9678710788167
 20
-166.9199841942857
 11
174.9678710788167
 21
-174.2159746484901
  0
LINE
  8
1
  6
CONTINUOUS
 62
     7
 10
174.9664081545725
 20
-166.8958286430447
 11
174.9678710788167
 21
-166.9199841942857
  0
LINE
  8
1
  6
CONTINUOUS
 62
     7
 10
204.9678710788167
 20
-133.1864395150356
 11
204.9665313397105
 21
-133.1631971262871
  0
LINE
  8
1
  6
CONTINUOUS
 62
     7
 10
156.4692435902941
 20
-207.3785123921641
 11
174.9678710788167
 21
-207.3785123921641
  0
LINE
  8
1
  6
CONTINUOUS
 62
     7
 10
154.9678710788167
 20
-207.3785123921641
 11
156.3195889850952
 21
-181.586198259215
  0
LINE
  8
1
  6
CONTINUOUS
 62
     7
 10
156.4692435902941
 20
-207.3785123921641
 11
154.9678710788167
 21
-207.3785123921641
  0
LINE
  8
1
  6
CONTINUOUS
 62
     7
 10
156.3195889850952
 20
-181.586198259215
 11
156.6350831212042
 21
-175.5662115239423
  0
LINE
  8
1
  6
CONTINUOUS
 62
     7
 10
156.6350831212042
 20
-175.5662115239423
 11
157.022682271182
 21
-168.1703791631674
  0
LINE
  8
1
  6
CONTINUOUS
 62
     7
 10
204.9654847229253
 20
-133.0529082334335
 11
204.9665313397105
 21
-133.1631971262871
  0
LINE
  8
1
  6
CONTINUOUS
 62
     7
 10
204.9654847229253
 20
-133.0529082334335
 11
204.9678710788167
 21
-133.0453193198195
  0
LINE
  8
1
  6
CONTINUOUS
 62
     7
 10
174.9653289608897
 20
-166.7867801731073
 11
174.9664081545725
 21
-166.8958286430447
  0
LINE
  8
1
  6
CONTINUOUS
 62
     7
 10
244.9678710788167
 20
-133.3785123921641
 11
244.9678710788167
 21
-134.0242652456956
  0
LINE
  8
1
  6
CONTINUOUS
 62
     7
 10
174.9678710788167
 20
-166.3785123921641
 11
174.9678710788167
 21
-166.7798776009142
  0
LINE
  8
1
  6
CONTINUOUS
 62
     7
 10
204.9678710788167
 20
-133.0453193198195
 11
204.9678710788167
 21
-132.3785123921641
  0
LINE
  8
1
  6
CONTINUOUS
 62
     7
 10
174.9678710788167
 20
-166.7798776009142
 11
174.9653289608897
 21
-166.7867801731073
  0
LINE
  8
1
  6
CONTINUOUS
 62
     7
 10
157.022682271182
 20
-168.1703791631674
 11
157.0420925773618
 21
-167.8000084577997
  0
ARC
  8
1
  6
CONTINUOUS
 62
     7
 10
202.9678710788167
 20
-207.3785123921641
 40
0.2999999999999947
 50
270.0
 51
0.0
  0
ARC
  8
1
  6
CONTINUOUS
 62
     7
 10
176.9678710788167
 20
-207.3785123921641
 40
0.2999999999999947
 50
180.0
 51
270.0
  0
ARC
  8
1
  6
CONTINUOUS
 62
     7
 10
243.9678710788167
 20
-133.3785123921641
 40
1.000000000000001
 50
0.0
 51
90.0
  0
LINE
  8
1
  6
CONTINUOUS
 62
     7
 10
204.9678710788167
 20
-132.3785123921637
 11
174.9678710788167
 21
-166.3785123921645
  0
LINE
  8
1
  6
CONTINUOUS
 62
     7
 10
243.9678710788167
 20
-132.3785123921641
 11
204.9678710788167
 21
-132.3785123921641
  0
ARC
  8
1
  6
CONTINUOUS
 62
     7
 10
158.5400368794937
 20
-167.8785123921641
 40
1.500000000000001
 50
90.0
 51
177.0000000000001
  0
LINE
  8
1
  6
CONTINUOUS
 62
     7
 10
174.9678710788167
 20
-166.3785123921641
 11
158.5400368794937
 21
-166.3785123921641
  0
LINE
  8
1
  6
CONTINUOUS
 62
     7
 10
176.9678710788167
 20
-207.6785123921641
 11
202.9678710788167
 21
-207.6785123921641
  0
ENDBLK
  8
0
  0
BLOCK
  8
0
  2
D_FRAME_VIEW_1631
 70
     0
 10
0.0
 20
0.0
  0
LINE
  8
1
  6
CONTINUOUS
 62
     7
 10
89.12317527065657
 20
-65.03212892118331
 11
60.87682472934341
 21
-65.03212892118331
  0
LINE
  8
1
  6
CONTINUOUS
 62
     7
 10
89.17464047425426
 20
-65.03451527707468
 11
89.12317527065657
 21
-65.03212892118331
  0
LINE
  8
1
  6
CONTINUOUS
 62
     7
 10
85.66895597050896
 20
-95.03212892118331
 11
85.72220050284366
 21
-95.03467103911031
  0
LINE
  8
1
  6
CONTINUOUS
 62
     7
 10
64.33104402949105
 20
-95.03212892118331
 11
85.66895597050896
 21
-95.03212892118331
  0
LINE
  8
1
  6
CONTINUOUS
 62
     7
 10
64.27779949715632
 20
-95.03467103911031
 11
64.33104402949105
 21
-95.03212892118331
  0
LINE
  8
1
  6
CONTINUOUS
 62
     7
 10
60.87682472934341
 20
-65.0321289211833
 11
60.82535952574575
 21
-65.03451527707469
  0
LINE
  8
1
  6
CONTINUOUS
 62
     7
 10
61.14762825239486
 20
-25.03212892118331
 11
88.85237174760492
 21
-25.03212892118331
  0
LINE
  8
1
  6
CONTINUOUS
 62
     7
 10
89.17464047425426
 20
-65.03451527707468
 11
89.4011473665202
 21
-65.03346866028947
  0
LINE
  8
1
  6
CONTINUOUS
 62
     7
 10
85.72220050284366
 20
-95.03467103911031
 11
85.95324310784694
 21
-95.03359184542751
  0
LINE
  8
1
  6
CONTINUOUS
 62
     7
 10
60.82535952574575
 20
-65.03451527707469
 11
60.59885263347959
 21
-65.03346866028956
  0
LINE
  8
1
  6
CONTINUOUS
 62
     7
 10
64.27779949715632
 20
-95.03467103911031
 11
64.04675689215304
 21
-95.03359184542754
  0
LINE
  8
1
  6
CONTINUOUS
 62
     7
 10
60.59885263347959
 20
-65.03346866028956
 11
60.57350969968853
 21
-65.03212892118331
  0
LINE
  8
1
  6
CONTINUOUS
 62
     7
 10
89.42649030031144
 20
-65.03212892118331
 11
89.4011473665202
 21
-65.03346866028947
  0
LINE
  8
1
  6
CONTINUOUS
 62
     7
 10
49.17421750963058
 20
-25.03212892118331
 11
61.14762825239487
 21
-25.03212892118331
  0
LINE
  8
1
  6
CONTINUOUS
 62
     7
 10
88.8523717476051
 20
-25.03212892118331
 11
100.8257824903694
 21
-25.03212892118331
  0
LINE
  8
1
  6
CONTINUOUS
 62
     7
 10
56.51635273833146
 20
-95.03212892118331
 11
64.02005377501266
 21
-95.03212892118331
  0
LINE
  8
1
  6
CONTINUOUS
 62
     7
 10
60.57350969968853
 20
-65.03212892118331
 11
48.84123867746457
 21
-65.03212892118331
  0
LINE
  8
1
  6
CONTINUOUS
 62
     7
 10
64.02005377501264
 20
-95.03212892118331
 11
64.04675689215304
 21
-95.03359184542754
  0
LINE
  8
1
  6
CONTINUOUS
 62
     7
 10
85.9799462249873
 20
-95.03212892118331
 11
93.48364726166854
 21
-95.03212892118331
  0
LINE
  8
1
  6
CONTINUOUS
 62
     7
 10
85.95324310784694
 20
-95.03359184542751
 11
85.9799462249873
 21
-95.03212892118331
  0
LINE
  8
1
  6
CONTINUOUS
 62
     7
 10
101.1587613225354
 20
-65.03212892118331
 11
89.42649030031144
 21
-65.03212892118331
  0
LINE
  8
1
  6
CONTINUOUS
 62
     7
 10
101.1587613225354
 20
-65.03212892118331
 11
101.5266299061058
 21
-65.01419819403755
  0
LINE
  8
1
  6
CONTINUOUS
 62
     7
 10
48.47337009389416
 20
-65.01419819403753
 11
48.84123867746457
 21
-65.03212892118331
  0
LINE
  8
1
  6
CONTINUOUS
 62
     7
 10
45.46599528623813
 20
-65.03212892118331
 11
45.4822250206167
 21
-64.76275312400018
  0
ARC
  8
1
  6
CONTINUOUS
 62
     7
 10
52.89204954249953
 20
-30.38572484983296
 40
34.90925227242506
 50
258.0896546000497
 51
262.7282132758656
  0
POLYLINE
  8
1
  6
CONTINUOUS
 62
     7
 66
     1
  0
VERTEX
  8
1
  6
CONTINUOUS
 62
     7
 10
45.68744793600482
 20
-64.54344154623273
  0
VERTEX
  8
1
  6
CONTINUOUS
 62
     7
 10
45.57869498633938
 20
-64.56476677757071
  0
VERTEX
  8
1
  6
CONTINUOUS
 62
     7
 10
45.50023659915091
 20
-64.65404965101685
  0
VERTEX
  8
1
  6
CONTINUOUS
 62
     7
 10
45.4822250206167
 20
-64.76275312400018
  0
SEQEND
  8
1
  6
CONTINUOUS
 62
     7
  0
LINE
  8
1
  6
CONTINUOUS
 62
     7
 10
56.51635273833146
 20
-95.03212892118331
 11
56.15299417295183
 21
-95.01481590772492
  0
ARC
  8
1
  6
CONTINUOUS
 62
     7
 10
60.45497142638921
 20
-60.73413881487318
 40
34.54955615103417
 50
258.0992626637581
 51
262.8471858516784
  0
POLYLINE
  8
1
  6
CONTINUOUS
 62
     7
 66
     1
  0
VERTEX
  8
1
  6
CONTINUOUS
 62
     7
 10
53.33027328395449
 20
-94.54109825538853
  0
VERTEX
  8
1
  6
CONTINUOUS
 62
     7
 10
53.22123556097522
 20
-94.56252427569983
  0
VERTEX
  8
1
  6
CONTINUOUS
 62
     7
 10
53.14256970506848
 20
-94.65211293916458
  0
VERTEX
  8
1
  6
CONTINUOUS
 62
     7
 10
53.12451525498205
 20
-94.76115866592052
  0
SEQEND
  8
1
  6
CONTINUOUS
 62
     7
  0
LINE
  8
1
  6
CONTINUOUS
 62
     7
 10
53.12451525498205
 20
-94.76115866592052
 11
53.10822349240959
 21
-95.03212892118331
  0
POLYLINE
  8
1
  6
CONTINUOUS
 62
     7
 66
     1
  0
VERTEX
  8
1
  6
CONTINUOUS
 62
     7
 10
104.5177749793833
 20
-64.76275312400017
  0
VERTEX
  8
1
  6
CONTINUOUS
 62
     7
 10
104.4986118047788
 20
-64.6504773287924
  0
VERTEX
  8
1
  6
CONTINUOUS
 62
     7
 10
104.4045986682065
 20
-64.5579515667421
  0
VERTEX
  8
1
  6
CONTINUOUS
 62
     7
 10
104.2824891768506
 20
-64.54341018819918
  0
SEQEND
  8
1
  6
CONTINUOUS
 62
     7
  0
ARC
  8
1
  6
CONTINUOUS
 62
     7
 10
97.41548231320748
 20
-32.64730513046225
 40
32.6269413387083
 50
277.238778988054
 51
282.1499229421231
  0
LINE
  8
1
  6
CONTINUOUS
 62
     7
 10
104.5177749793833
 20
-64.76275312400017
 11
104.534004713762
 21
-65.03212892118331
  0
LINE
  8
1
  6
CONTINUOUS
 62
     7
 10
96.8917765075904
 20
-95.03212892118331
 11
96.87548474501793
 21
-94.76115866592052
  0
POLYLINE
  8
1
  6
CONTINUOUS
 62
     7
 66
     1
  0
VERTEX
  8
1
  6
CONTINUOUS
 62
     7
 10
96.87548474501793
 20
-94.76115866592052
  0
VERTEX
  8
1
  6
CONTINUOUS
 62
     7
 10
96.8546327351893
 20
-94.6443408480942
  0
VERTEX
  8
1
  6
CONTINUOUS
 62
     7
 10
96.75400475556134
 20
-94.55306470317495
  0
VERTEX
  8
1
  6
CONTINUOUS
 62
     7
 10
96.62834670701514
 20
-94.54145254478959
  0
SEQEND
  8
1
  6
CONTINUOUS
 62
     7
  0
ARC
  8
1
  6
CONTINUOUS
 62
     7
 10
90.16719616438259
 20
-64.98551676827324
 40
30.25392215829413
 50
276.9862317632666
 51
282.3312976758028
  0
LINE
  8
1
  6
CONTINUOUS
 62
     7
 10
93.84700582704816
 20
-95.01481590772492
 11
93.48364726166854
 21
-95.03212892118331
  0
LINE
  8
1
  6
CONTINUOUS
 62
     7
 10
46.48218694368089
 20
-25.03212892118331
 11
49.17421750963059
 21
-25.03212892118331
  0
LINE
  8
1
  6
CONTINUOUS
 62
     7
 10
100.8257824903694
 20
-25.03212892118331
 11
103.5178130563191
 21
-25.03212892118331
  0
LINE
  8
1
  6
CONTINUOUS
 62
     7
 10
45.46599528623813
 20
-65.03212892118331
 11
45.0
 21
-65.03212892118331
  0
LINE
  8
1
  6
CONTINUOUS
 62
     7
 10
44.99999999999999
 20
-26.03212892118331
 11
45.0
 21
-65.03212892118331
  0
LINE
  8
1
  6
CONTINUOUS
 62
     7
 10
105.0
 20
-65.03212892118331
 11
104.534004713762
 21
-65.03212892118331
  0
LINE
  8
1
  6
CONTINUOUS
 62
     7
 10
105.0
 20
-26.03212892118331
 11
105.0
 21
-65.03212892118331
  0
LINE
  8
1
  6
CONTINUOUS
 62
     7
 10
45.99999999999999
 20
-25.03212892118331
 11
46.25748067748815
 21
-25.03212892118331
  0
POLYLINE
  8
1
  6
CONTINUOUS
 62
     7
 66
     1
  0
VERTEX
  8
1
  6
CONTINUOUS
 62
     7
 10
46.00000000000001
 20
-25.03212892190824
  0
VERTEX
  8
1
  6
CONTINUOUS
 62
     7
 10
45.80490764937316
 20
-25.0513501412109
  0
VERTEX
  8
1
  6
CONTINUOUS
 62
     7
 10
45.61731368932844
 20
-25.10826031760812
  0
VERTEX
  8
1
  6
CONTINUOUS
 62
     7
 10
45.44442690216793
 20
-25.20067253062378
  0
VERTEX
  8
1
  6
CONTINUOUS
 62
     7
 10
45.29289090910018
 20
-25.32503560235467
  0
VERTEX
  8
1
  6
CONTINUOUS
 62
     7
 10
45.16852887194071
 20
-25.47657056065099
  0
VERTEX
  8
1
  6
CONTINUOUS
 62
     7
 10
45.07611972308325
 20
-25.64945428346097
  0
VERTEX
  8
1
  6
CONTINUOUS
 62
     7
 10
45.0192145226828
 20
-25.83704326733166
  0
VERTEX
  8
1
  6
CONTINUOUS
 62
     7
 10
44.99999999999999
 20
-26.03212892118331
  0
SEQEND
  8
1
  6
CONTINUOUS
 62
     7
  0
LINE
  8
1
  6
CONTINUOUS
 62
     7
 10
46.25757260035848
 20
-25.03212892118331
 11
46.48218694368088
 21
-25.03212892118331
  0
POLYLINE
  8
1
  6
CONTINUOUS
 62
     7
 66
     1
  0
VERTEX
  8
1
  6
CONTINUOUS
 62
     7
 10
105.0
 20
-26.03212892118331
  0
VERTEX
  8
1
  6
CONTINUOUS
 62
     7
 10
104.9807854773172
 20
-25.83704326733166
  0
VERTEX
  8
1
  6
CONTINUOUS
 62
     7
 10
104.9238802769167
 20
-25.64945428346097
  0
VERTEX
  8
1
  6
CONTINUOUS
 62
     7
 10
104.8314711280593
 20
-25.47657056065099
  0
VERTEX
  8
1
  6
CONTINUOUS
 62
     7
 10
104.7071090908998
 20
-25.32503560235467
  0
VERTEX
  8
1
  6
CONTINUOUS
 62
     7
 10
104.555573097832
 20
-25.20067253062378
  0
VERTEX
  8
1
  6
CONTINUOUS
 62
     7
 10
104.3826863106715
 20
-25.10826031760812
  0
VERTEX
  8
1
  6
CONTINUOUS
 62
     7
 10
104.1950923506268
 20
-25.0513501412109
  0
VERTEX
  8
1
  6
CONTINUOUS
 62
     7
 10
104.0
 20
-25.03212892190824
  0
SEQEND
  8
1
  6
CONTINUOUS
 62
     7
  0
LINE
  8
1
  6
CONTINUOUS
 62
     7
 10
104.0
 20
-25.03212892118331
 11
103.7425193225118
 21
-25.03212892118331
  0
LINE
  8
1
  6
CONTINUOUS
 62
     7
 10
103.5178130563191
 20
-25.03212892118331
 11
103.7424273996415
 21
-25.03212892118331
  0
LINE
  8
1
  6
CONTINUOUS
 62
     7
 10
45.0
 20
-65.03212892118331
 11
52.89999999999998
 21
-95.03212892118331
  0
LINE
  8
1
  6
CONTINUOUS
 62
     7
 10
52.89999999999998
 20
-95.03212892118331
 11
53.10822349240959
 21
-95.03212892118331
  0
LINE
  8
1
  6
CONTINUOUS
 62
     7
 10
105.0
 20
-65.03212892118331
 11
97.1
 21
-95.03212892118331
  0
LINE
  8
1
  6
CONTINUOUS
 62
     7
 10
96.8917765075904
 20
-95.03212892118331
 11
97.1
 21
-95.03212892118331
  0
LINE
  8
1
  6
CONTINUOUS
 62
     7
 10
95.60062797587764
 20
-115.0321289211833
 11
95.10000000000001
 21
-115.0321289211833
  0
LINE
  8
1
  6
CONTINUOUS
 62
     7
 10
95.10000000000001
 20
-115.0321289211833
 11
94.87591031458832
 21
-113.6863949128032
  0
POLYLINE
  8
1
  6
CONTINUOUS
 62
     7
 66
     1
  0
VERTEX
  8
1
  6
CONTINUOUS
 62
     7
 10
94.87591031458831
 20
-113.6863949128032
  0
VERTEX
  8
1
  6
CONTINUOUS
 62
     7
 10
94.70785829997584
 20
-113.6044930102898
  0
VERTEX
  8
1
  6
CONTINUOUS
 62
     7
 10
94.23748928908353
 20
-113.5258939173116
  0
VERTEX
  8
1
  6
CONTINUOUS
 62
     7
 10
93.48296046039869
 20
-113.4536317150412
  0
VERTEX
  8
1
  6
CONTINUOUS
 62
     7
 10
92.47339812602729
 20
-113.3904958680781
  0
SEQEND
  8
1
  6
CONTINUOUS
 62
     7
  0
LINE
  8
1
  6
CONTINUOUS
 62
     7
 10
92.47339812602729
 20
-113.3904958680781
 11
84.99999999999999
 21
-113.006966528078
  0
LINE
  8
1
  6
CONTINUOUS
 62
     7
 10
85.00000000000004
 20
-113.006966528078
 11
65.00000000000004
 21
-113.006966528078
  0
LINE
  8
1
  6
CONTINUOUS
 62
     7
 10
65.0
 20
-113.006966528078
 11
57.52660187397269
 21
-113.3904958680781
  0
POLYLINE
  8
1
  6
CONTINUOUS
 62
     7
 66
     1
  0
VERTEX
  8
1
  6
CONTINUOUS
 62
     7
 10
57.52660187397269
 20
-113.3904958680781
  0
VERTEX
  8
1
  6
CONTINUOUS
 62
     7
 10
56.5170395396013
 20
-113.4536317150412
  0
VERTEX
  8
1
  6
CONTINUOUS
 62
     7
 10
55.76251071091646
 20
-113.5258939173116
  0
VERTEX
  8
1
  6
CONTINUOUS
 62
     7
 10
55.29214170002416
 20
-113.6044930102898
  0
VERTEX
  8
1
  6
CONTINUOUS
 62
     7
 10
55.12408968541168
 20
-113.6863949128032
  0
SEQEND
  8
1
  6
CONTINUOUS
 62
     7
  0
LINE
  8
1
  6
CONTINUOUS
 62
     7
 10
55.12408968541167
 20
-113.6863949128032
 11
54.89999999999999
 21
-115.0321289211833
  0
LINE
  8
1
  6
CONTINUOUS
 62
     7
 10
54.89999999999999
 20
-115.0321289211833
 11
54.39937202412234
 21
-115.0321289211833
  0
POLYLINE
  8
1
  6
CONTINUOUS
 62
     7
 66
     1
  0
VERTEX
  8
1
  6
CONTINUOUS
 62
     7
 10
52.90000000000001
 20
-113.5307564097059
  0
VERTEX
  8
1
  6
CONTINUOUS
 62
     7
 10
52.92880647240246
 20
-113.8236961817683
  0
VERTEX
  8
1
  6
CONTINUOUS
 62
     7
 10
53.01411951460241
 20
-114.1053586193652
  0
VERTEX
  8
1
  6
CONTINUOUS
 62
     7
 10
53.15266249430783
 20
-114.3649258661091
  0
VERTEX
  8
1
  6
CONTINUOUS
 62
     7
 10
53.33911436810683
 20
-114.5924286793062
  0
VERTEX
  8
1
  6
CONTINUOUS
 62
     7
 10
53.56631404767281
 20
-114.779129320329
  0
VERTEX
  8
1
  6
CONTINUOUS
 62
     7
 10
53.82553543688243
 20
-114.9178571464064
  0
VERTEX
  8
1
  6
CONTINUOUS
 62
     7
 10
54.10682257645
 20
-115.0032840147012
  0
VERTEX
  8
1
  6
CONTINUOUS
 62
     7
 10
54.39937202412235
 20
-115.0321289211833
  0
SEQEND
  8
1
  6
CONTINUOUS
 62
     7
  0
POLYLINE
  8
1
  6
CONTINUOUS
 62
     7
 66
     1
  0
VERTEX
  8
1
  6
CONTINUOUS
 62
     7
 10
95.60062797587764
 20
-115.0321289211833
  0
VERTEX
  8
1
  6
CONTINUOUS
 62
     7
 10
95.89317742354999
 20
-115.0032840147012
  0
VERTEX
  8
1
  6
CONTINUOUS
 62
     7
 10
96.17446456311757
 20
-114.9178571464065
  0
VERTEX
  8
1
  6
CONTINUOUS
 62
     7
 10
96.43368595232718
 20
-114.779129320329
  0
VERTEX
  8
1
  6
CONTINUOUS
 62
     7
 10
96.66088563189318
 20
-114.5924286793062
  0
VERTEX
  8
1
  6
CONTINUOUS
 62
     7
 10
96.84733750569218
 20
-114.3649258661091
  0
VERTEX
  8
1
  6
CONTINUOUS
 62
     7
 10
96.9858804853976
 20
-114.1053586193652
  0
VERTEX
  8
1
  6
CONTINUOUS
 62
     7
 10
97.07119352759756
 20
-113.8236961817683
  0
VERTEX
  8
1
  6
CONTINUOUS
 62
     7
 10
97.10000000000001
 20
-113.5307564097059
  0
SEQEND
  8
1
  6
CONTINUOUS
 62
     7
  0
LINE
  8
1
  6
CONTINUOUS
 62
     7
 10
52.89999999999998
 20
-113.5307564097059
 11
52.89999999999998
 21
-95.03212892118331
  0
LINE
  8
1
  6
CONTINUOUS
 62
     7
 10
97.10000000000001
 20
-113.5307564097059
 11
97.1
 21
-95.03212892118331
  0
ENDBLK
  8
0
  0
ENDSEC
  0
SECTION
  2
ENTITIES
  0
LINE
  8
1
  6
CENTER
 62
     1
 10
74.99999999999999
 20
-24.0321289211833
 11
74.99999999999999
 21
-125.0
  0
LINE
  8
1
  6
CENTER
 62
     1
 10
75.0
 20
-125.0
 11
75.0
 21
-209.5094129167847
  0
TEXT
  8
1
  6
CONTINUOUS
 62
     7
 10
173.8990777791672
 20
-86.67157996748782
 40
3.0
  1
RMCB-20
  0
LINE
  8
1
  6
CONTINUOUS
 62
     2
 10
174.0409090909091
 20
-87.22954545454546
 11
185.9590909090909
 21
-87.22954545454546
  0
INSERT
  8
1
  6
CONTINUOUS
 62
     7
  2
D_FRAME_VIEW_1484
 10
0.0
 20
0.0
 30
0.0
  0
INSERT
  8
1
  6
CONTINUOUS
 62
     7
  2
D_FRAME_VIEW_1674
 10
0.0
 20
0.0
 30
0.0
  0
INSERT
  8
1
  6
CONTINUOUS
 62
     7
  2
D_FRAME_VIEW_1631
 10
0.0
 20
0.0
 30
0.0
  0
ENDSEC
  0
EOF
