  0
SECTION
  2
HEADER
  9
$ACADVER
  1
AC1006
  9
$DWGCODEPAGE
  3
ansi_932
  9
$INSBASE
 10
0.0
 20
0.0
 30
0.0
  9
$EXTMIN
 10
24.49999999999999
 20
418.6704545454545
  9
$EXTMAX
 10
274.9999875
 20
694.9999875
  9
$LIMMIN
 10
0.0
 20
0.0
  9
$LIMMAX
 10
12.0
 20
9.0
  9
$ORTHOMODE
 70
     0
  9
$REGENMODE
 70
     1
  9
$FILLMODE
 70
     1
  9
$QTEXTMODE
 70
     0
  9
$MIRRTEXT
 70
     1
  9
$DRAGMODE
 70
     2
  9
$LTSCALE
 40
1.0
  9
$OSMODE
 70
    37
  9
$ATTMODE
 70
     1
  9
$TEXTSIZE
 40
0.2
  9
$TRACEWID
 40
0.05
  9
$TEXTSTYLE
  7
STANDARD
  9
$CLAYER
  8
0
  9
$CELTYPE
  6
BYLAYER
  9
$CECOLOR
 62
   256
  9
$DIMSCALE
 40
1.0
  9
$DIMASZ
 40
3.0
  9
$DIMEXO
 40
0.0625
  9
$DIMDLI
 40
0.38
  9
$DIMRND
 40
0.0
  9
$DIMDLE
 40
0.0
  9
$DIMEXE
 40
1.5
  9
$DIMTP
 40
0.0
  9
$DIMTM
 40
0.0
  9
$DIMTXT
 40
3.0
  9
$DIMCEN
 40
0.09
  9
$DIMTSZ
 40
0.0
  9
$DIMTOL
 70
     0
  9
$DIMLIM
 70
     0
  9
$DIMTIH
 70
     1
  9
$DIMTOH
 70
     1
  9
$DIMSE1
 70
     0
  9
$DIMSE2
 70
     0
  9
$DIMTAD
 70
     1
  9
$DIMZIN
 70
     0
  9
$DIMBLK
  1

  9
$DIMASO
 70
     1
  9
$DIMSHO
 70
     1
  9
$DIMPOST
  1

  9
$DIMAPOST
  1

  9
$DIMALT
 70
     0
  9
$DIMALTD
 70
     2
  9
$DIMALTF
 40
25.4
  9
$DIMLFAC
 40
1.0
  9
$DIMTOFL
 70
     0
  9
$DIMTVP
 40
0.0
  9
$DIMTIX
 70
     0
  9
$DIMSOXD
 70
     0
  9
$DIMSAH
 70
     0
  9
$DIMBLK1
  1

  9
$DIMBLK2
  1

  9
$LUNITS
 70
     2
  9
$LUPREC
 70
     4
  9
$SKETCHINC
 40
0.1
  9
$FILLETRAD
 40
0.5
  9
$AUNITS
 70
     0
  9
$AUPREC
 70
     0
  9
$MENU
  1
.
  9
$ELEVATION
 40
0.0
  9
$THICKNESS
 40
0.0
  9
$LIMCHECK
 70
     0
  9
$CHAMFERA
 40
0.0
  9
$CHAMFERB
 40
0.0
  9
$SKPOLY
 70
     0
  9
$TDCREATE
 40
2459361.650098299
  9
$TDUPDATE
 40
2459361.650098472
  9
$TDINDWG
 40
0.0000000116
  9
$TDUSRTIMER
 40
0.0000000116
  9
$USRTIMER
 70
     1
  9
$ANGBASE
 50
0.0
  9
$ANGDIR
 70
     0
  9
$PDMODE
 70
     0
  9
$PDSIZE
 40
0.0
  9
$PLINEWID
 40
0.0
  9
$COORDS
 70
     1
  9
$SPLFRAME
 70
     0
  9
$SPLINETYPE
 70
     6
  9
$SPLINESEGS
 70
     8
  9
$ATTDIA
 70
     0
  9
$ATTREQ
 70
     1
  9
$HANDLING
 70
     1
  9
$HANDSEED
  5
15C
  9
$SURFTAB1
 70
     6
  9
$SURFTAB2
 70
     6
  9
$SURFTYPE
 70
     6
  9
$SURFU
 70
     6
  9
$SURFV
 70
     6
  9
$UCSNAME
  2

  9
$UCSORG
 10
0.0
 20
0.0
 30
0.0
  9
$UCSXDIR
 10
1.0
 20
0.0
 30
0.0
  9
$UCSYDIR
 10
0.0
 20
1.0
 30
0.0
  9
$USERI1
 70
     0
  9
$USERI2
 70
     0
  9
$USERI3
 70
     0
  9
$USERI4
 70
     0
  9
$USERI5
 70
     0
  9
$USERR1
 40
0.0
  9
$USERR2
 40
0.0
  9
$USERR3
 40
0.0
  9
$USERR4
 40
0.0
  9
$USERR5
 40
0.0
  9
$WORLDVIEW
 70
     1
  0
ENDSEC
  0
SECTION
  2
TABLES
  0
TABLE
  2
VPORT
 70
     1
  0
VPORT
  2
*ACTIVE
 70
     0
 10
0.0
 20
0.0
 11
1.0
 21
1.0
 12
149.74999375
 22
556.8352210227272
 13
0.0
 23
0.0
 14
0.5
 24
0.5
 15
0.5
 25
0.5
 16
0.0
 26
0.0
 36
1.0
 17
0.0
 27
0.0
 37
0.0
 40
276.3295329545455
 41
1.6
 42
50.0
 43
0.0
 44
0.0
 50
0.0
 51
0.0
 71
     0
 72
   100
 73
     1
 74
     3
 75
     0
 76
     0
 77
     0
 78
     0
  0
ENDTAB
  0
TABLE
  2
LTYPE
 70
     1
  0
LTYPE
  2
CONTINUOUS
 70
     0
  3
Solid line
 72
    65
 73
     0
 40
0.0
  0
ENDTAB
  0
TABLE
  2
LAYER
 70
     1
  0
LAYER
  2
0
 70
     0
 62
     7
  6
CONTINUOUS
  0
ENDTAB
  0
TABLE
  2
STYLE
 70
     2
  0
STYLE
  2
STANDARD
 70
     0
 40
0.0
 41
1.0
 50
0.0
 71
     0
 42
0.2
  3
txt
  4

  0
STYLE
  2
ＭＳ_ゴシック
 70
     0
 40
0.0
 41
1.0
 50
0.0
 71
     0
 42
0.2
  3
ＭＳ ゴシック.shx
  4

  0
ENDTAB
  0
TABLE
  2
VIEW
 70
     0
  0
ENDTAB
  0
TABLE
  2
UCS
 70
     0
  0
ENDTAB
  0
ENDSEC
  0
SECTION
  2
BLOCKS
  0
BLOCK
  8
0
  2
D_FRAME_VIEW_2356
 70
     0
 10
0.0
 20
0.0
 30
0.0
  0
LINE
  5
70
  8
0
  6
CONTINUOUS
 62
     7
 10
274.9999875
 20
432.3
 30
0.0
 11
274.9999875
 21
512.644227373899
 31
0.0
  0
LINE
  5
71
  8
0
  6
CONTINUOUS
 62
     7
 10
274.9999875
 20
432.3
 30
0.0
 11
234.9999875
 21
432.3
 31
0.0
  0
LINE
  5
72
  8
0
  6
CONTINUOUS
 62
     7
 10
234.9999875
 20
512.6442273738991
 30
0.0
 11
234.9999875
 21
432.3
 31
0.0
  0
LINE
  5
73
  8
0
  6
CONTINUOUS
 62
     7
 10
184.9999874999999
 20
432.3
 30
0.0
 11
234.9999875
 21
432.3
 31
0.0
  0
LINE
  5
74
  8
0
  6
CONTINUOUS
 62
     7
 10
184.9999875
 20
475.783049637699
 30
0.0
 11
184.9999874999999
 21
432.3
 31
0.0
  0
LINE
  5
75
  8
0
  6
CONTINUOUS
 62
     7
 10
234.9999875
 20
523.7427661871352
 30
0.0
 11
234.9999875
 21
512.644227373899
 31
0.0
  0
LINE
  5
76
  8
0
  6
CONTINUOUS
 62
     7
 10
274.9999875
 20
512.644227373899
 30
0.0
 11
274.9999875
 21
523.7427661871352
 31
0.0
  0
LINE
  5
77
  8
0
  6
CONTINUOUS
 62
     7
 10
184.9999874999999
 20
485.5198045474708
 30
0.0
 11
184.9999874999999
 21
475.783049637699
 31
0.0
  0
LINE
  5
78
  8
0
  6
CONTINUOUS
 62
     7
 10
234.9999875
 20
536.3331652935174
 30
0.0
 11
234.9999875
 21
523.7427661871352
 31
0.0
  0
LINE
  5
79
  8
0
  6
CONTINUOUS
 62
     7
 10
274.9999875
 20
523.7427661871352
 30
0.0
 11
274.9999875
 21
536.3331652935174
 31
0.0
  0
LINE
  5
7A
  8
0
  6
CONTINUOUS
 62
     7
 10
184.9999875
 20
499.3930271168969
 30
0.0
 11
184.9999875
 21
485.5198045474708
 31
0.0
  0
LINE
  5
7B
  8
0
  6
CONTINUOUS
 62
     7
 10
156.5013600114774
 20
432.3
 30
0.0
 11
184.9999874999999
 21
432.3
 31
0.0
  0
LINE
  5
7C
  8
0
  6
CONTINUOUS
 62
     7
 10
154.9999875
 20
432.3
 30
0.0
 11
157.2822657773116
 21
475.8484637688159
 31
0.0
  0
LINE
  5
7D
  8
0
  6
CONTINUOUS
 62
     7
 10
156.5013600114774
 20
432.3
 30
0.0
 11
154.9999875
 21
432.3
 31
0.0
  0
LINE
  5
7E
  8
0
  6
CONTINUOUS
 62
     7
 10
157.2822657773116
 20
475.8484637688159
 30
0.0
 11
157.739021426873
 21
484.5638807509892
 31
0.0
  0
LINE
  5
7F
  8
0
  6
CONTINUOUS
 62
     7
 10
159.9398667733458
 20
499.3930495728202
 30
0.0
 11
159.9640305153679
 21
499.3930271168969
 31
0.0
  0
LINE
  5
80
  8
0
  6
CONTINUOUS
 62
     7
 10
157.739021426873
 20
484.5638807509892
 30
0.0
 11
158.444209813462
 21
498.019676746092
 31
0.0
  0
LINE
  5
81
  8
0
  6
CONTINUOUS
 62
     7
 10
274.9999875
 20
537.8000000000001
 30
0.0
 11
274.9999875
 21
536.3331652935175
 31
0.0
  0
LINE
  5
82
  8
0
  6
CONTINUOUS
 62
     7
 10
234.9999875
 20
537.8000000000001
 30
0.0
 11
234.9999875
 21
536.3331652935174
 31
0.0
  0
LINE
  5
83
  8
0
  6
CONTINUOUS
 62
     7
 10
234.9999875
 20
537.8
 30
0.0
 11
184.9999875
 21
500.1
 31
0.0
  0
LINE
  5
84
  8
0
  6
CONTINUOUS
 62
     7
 10
184.9999875
 20
500.1
 30
0.0
 11
184.9999875
 21
499.3930271168969
 31
0.0
  0
LINE
  5
85
  8
0
  6
CONTINUOUS
 62
     7
 10
158.444209813462
 20
498.0196767460923
 30
0.0
 11
158.4787374833307
 21
498.6785039343648
 31
0.0
  0
LINE
  5
86
  8
0
  6
CONTINUOUS
 62
     7
 10
225.4999874999999
 20
432.2
 30
0.0
 11
225.5999875
 21
432.3
 31
0.0
  0
LINE
  5
87
  8
0
  6
CONTINUOUS
 62
     7
 10
194.4999874999999
 20
432.2
 30
0.0
 11
194.3999874999999
 21
432.3
 31
0.0
  0
LINE
  5
88
  8
0
  6
CONTINUOUS
 62
     7
 10
274.9999875
 20
537.8
 30
0.0
 11
234.9999875
 21
537.8
 31
0.0
  0
ARC
  5
89
  8
0
  6
CONTINUOUS
 62
     7
 10
159.9766817854625
 20
498.6000000000001
 30
0.0
 40
1.500000000000001
 50
90.00000000000001
 51
177.0000000000002
  0
LINE
  5
8A
  8
0
  6
CONTINUOUS
 62
     7
 10
184.9999874999999
 20
500.1
 30
0.0
 11
159.9766817854625
 21
500.1
 31
0.0
  0
LINE
  5
8B
  8
0
  6
CONTINUOUS
 62
     7
 10
194.4999874999999
 20
432.2
 30
0.0
 11
225.4999875
 21
432.2
 31
0.0
  0
ENDBLK
  8
0
  0
BLOCK
  8
0
  2
D_FRAME_VIEW_2408
 70
     0
 10
0.0
 20
0.0
 30
0.0
  0
LINE
  5
90
  8
0
  6
CONTINUOUS
 62
     7
 10
41.68615506335622
 20
694.9999875
 30
0.0
 11
41.6861550633562
 21
654.9999875000001
 31
0.0
  0
LINE
  5
91
  8
0
  6
CONTINUOUS
 62
     7
 10
98.3138449366439
 20
694.9999875
 30
0.0
 11
98.31384493664389
 21
654.9999875000001
 31
0.0
  0
LINE
  5
92
  8
0
  6
CONTINUOUS
 62
     7
 10
70.00000000000014
 20
654.9999875000001
 30
0.0
 11
98.3138449366439
 21
654.9999875000001
 31
0.0
  0
LINE
  5
93
  8
0
  6
CONTINUOUS
 62
     7
 10
69.99999999999993
 20
654.9999875000001
 30
0.0
 11
41.6861550633562
 21
654.9999875000001
 31
0.0
  0
LINE
  5
94
  8
0
  6
CONTINUOUS
 62
     7
 10
41.6861550633562
 20
694.9999875
 30
0.0
 11
98.3138449366439
 21
694.9999875
 31
0.0
  0
LINE
  5
95
  8
0
  6
CONTINUOUS
 62
     7
 10
98.3138449366439
 20
654.9999875000001
 30
0.0
 11
88.28448924034223
 21
604.9999875000001
 31
0.0
  0
LINE
  5
96
  8
0
  6
CONTINUOUS
 62
     7
 10
70.00000000000001
 20
604.9999875000001
 30
0.0
 11
88.28448924034217
 21
604.9999875000001
 31
0.0
  0
LINE
  5
97
  8
0
  6
CONTINUOUS
 62
     7
 10
41.68615506335619
 20
654.9999875000001
 30
0.0
 11
51.7155107596578
 21
604.9999875000001
 31
0.0
  0
LINE
  5
98
  8
0
  6
CONTINUOUS
 62
     7
 10
70.00000000000001
 20
604.9999875000001
 30
0.0
 11
51.71551075965822
 21
604.9999875000001
 31
0.0
  0
LINE
  5
99
  8
0
  6
CONTINUOUS
 62
     7
 10
41.68615506335621
 20
654.9999875000001
 30
0.0
 11
29.69651505521503
 21
654.9999875000001
 31
0.0
  0
LINE
  5
9A
  8
0
  6
CONTINUOUS
 62
     7
 10
51.71551075965775
 20
604.9999875000001
 30
0.0
 11
38.50425804599897
 21
604.9999875000001
 31
0.0
  0
LINE
  5
9B
  8
0
  6
CONTINUOUS
 62
     7
 10
29.69651505521506
 20
694.9999875
 30
0.0
 11
41.68615506335622
 21
694.9999875
 31
0.0
  0
LINE
  5
9C
  8
0
  6
CONTINUOUS
 62
     7
 10
88.28448924034228
 20
604.9999875000001
 30
0.0
 11
101.495741954001
 21
604.9999875000001
 31
0.0
  0
LINE
  5
9D
  8
0
  6
CONTINUOUS
 62
     7
 10
98.31384493664387
 20
654.9999875000001
 30
0.0
 11
110.303484944785
 21
654.9999875000001
 31
0.0
  0
LINE
  5
9E
  8
0
  6
CONTINUOUS
 62
     7
 10
110.303484944785
 20
694.9999875
 30
0.0
 11
98.3138449366439
 21
694.9999875
 31
0.0
  0
LINE
  5
9F
  8
0
  6
CONTINUOUS
 62
     7
 10
29.69651505521503
 20
654.9999875000001
 30
0.0
 11
25.20115345004269
 21
654.9999875000001
 31
0.0
  0
LINE
  5
A0
  8
0
  6
CONTINUOUS
 62
     7
 10
25.20115345004272
 20
694.9999875
 30
0.0
 11
29.69651505521507
 21
694.9999875
 31
0.0
  0
LINE
  5
A1
  8
0
  6
CONTINUOUS
 62
     7
 10
38.50425804599897
 20
604.9999875000001
 30
0.0
 11
34.56047455189071
 21
604.9999875000001
 31
0.0
  0
LINE
  5
A2
  8
0
  6
CONTINUOUS
 62
     7
 10
110.303484944785
 20
654.9999875000001
 30
0.0
 11
114.7988465499574
 21
654.9999875000001
 31
0.0
  0
LINE
  5
A3
  8
0
  6
CONTINUOUS
 62
     7
 10
101.495741954001
 20
604.9999875000001
 30
0.0
 11
105.4395254481093
 21
604.9999875000001
 31
0.0
  0
LINE
  5
A4
  8
0
  6
CONTINUOUS
 62
     7
 10
114.7988465499574
 20
694.9999875
 30
0.0
 11
110.303484944785
 21
694.9999875
 31
0.0
  0
LINE
  5
A5
  8
0
  6
CONTINUOUS
 62
     7
 10
34.56047455189071
 20
604.9999875000001
 30
0.0
 11
34.18100372656349
 21
604.9999875000001
 31
0.0
  0
LINE
  5
A6
  8
0
  6
CONTINUOUS
 62
     7
 10
34.18100372656348
 20
604.9999875000001
 30
0.0
 11
24.49999999999999
 21
654.9999875000001
 31
0.0
  0
LINE
  5
A7
  8
0
  6
CONTINUOUS
 62
     7
 10
25.2011534500427
 20
654.9999875000001
 30
0.0
 11
24.49999999999999
 21
654.9999875000001
 31
0.0
  0
LINE
  5
A8
  8
0
  6
CONTINUOUS
 62
     7
 10
24.50000000000001
 20
694.9999875
 30
0.0
 11
24.49999999999999
 21
654.9999875000001
 31
0.0
  0
LINE
  5
A9
  8
0
  6
CONTINUOUS
 62
     7
 10
24.50000000000001
 20
694.9999875
 30
0.0
 11
25.20115345004271
 21
694.9999875
 31
0.0
  0
LINE
  5
AA
  8
0
  6
CONTINUOUS
 62
     7
 10
105.8189962734365
 20
604.9999875000001
 30
0.0
 11
115.5
 21
654.9999875
 31
0.0
  0
LINE
  5
AB
  8
0
  6
CONTINUOUS
 62
     7
 10
105.4395254481093
 20
604.9999875000001
 30
0.0
 11
105.8189962734365
 21
604.9999875000001
 31
0.0
  0
LINE
  5
AC
  8
0
  6
CONTINUOUS
 62
     7
 10
114.7988465499574
 20
654.9999875000001
 30
0.0
 11
115.5
 21
654.9999875
 31
0.0
  0
LINE
  5
AD
  8
0
  6
CONTINUOUS
 62
     7
 10
115.5
 20
694.9999875
 30
0.0
 11
115.5
 21
654.9999875
 31
0.0
  0
LINE
  5
AE
  8
0
  6
CONTINUOUS
 62
     7
 10
115.5
 20
694.9999875
 30
0.0
 11
114.7988465499574
 21
694.9999875
 31
0.0
  0
LINE
  5
AF
  8
0
  6
CONTINUOUS
 62
     7
 10
88.28448924034227
 20
579.9640305153679
 30
0.0
 11
88.28448924034223
 21
604.9999875000001
 31
0.0
  0
LINE
  5
B0
  8
0
  6
CONTINUOUS
 62
     7
 10
88.28419928260067
 20
579.9398667733459
 30
0.0
 11
88.28448924034227
 21
579.9640305153679
 31
0.0
  0
LINE
  5
B1
  8
0
  6
CONTINUOUS
 62
     7
 10
51.71551075965774
 20
579.9640305153679
 30
0.0
 11
51.71580071739928
 21
579.9398667733459
 31
0.0
  0
LINE
  5
B2
  8
0
  6
CONTINUOUS
 62
     7
 10
51.71551075965774
 20
579.9640305153679
 30
0.0
 11
51.7155107596578
 21
604.9999875000001
 31
0.0
  0
POLYLINE
  5
B3
  8
0
  6
CONTINUOUS
 62
     7
 66
     1
 10
0.0
 20
0.0
 30
0.0
  0
VERTEX
  5
130
  8
0
  6
CONTINUOUS
 62
     7
 10
52.40426126765401
 20
578.4442098134621
 30
0.0
  0
VERTEX
  5
131
  8
0
  6
CONTINUOUS
 62
     7
 10
52.28636703866776
 20
578.4793258861881
 30
0.0
  0
VERTEX
  5
132
  8
0
  6
CONTINUOUS
 62
     7
 10
52.19418900582005
 20
578.538732651006
 30
0.0
  0
VERTEX
  5
133
  8
0
  6
CONTINUOUS
 62
     7
 10
52.11419894746665
 20
578.615426295282
 30
0.0
  0
SEQEND
  5
156
  8
0
  6
CONTINUOUS
 62
     7
  0
ARC
  5
B4
  8
0
  6
CONTINUOUS
 62
     7
 10
53.93963088804956
 20
579.8866655445727
 30
0.0
 40
2.22446645257634
 50
178.6295605683007
 51
214.8535317068258
  0
POLYLINE
  5
B5
  8
0
  6
CONTINUOUS
 62
     7
 66
     1
 10
0.0
 20
0.0
 30
0.0
  0
VERTEX
  5
134
  8
0
  6
CONTINUOUS
 62
     7
 10
87.59573873234599
 20
578.4442098134621
 30
0.0
  0
VERTEX
  5
135
  8
0
  6
CONTINUOUS
 62
     7
 10
87.71363296133225
 20
578.4793258861881
 30
0.0
  0
VERTEX
  5
136
  8
0
  6
CONTINUOUS
 62
     7
 10
87.80581099417994
 20
578.538732651006
 30
0.0
  0
VERTEX
  5
137
  8
0
  6
CONTINUOUS
 62
     7
 10
87.88580105253337
 20
578.615426295282
 30
0.0
  0
SEQEND
  5
157
  8
0
  6
CONTINUOUS
 62
     7
  0
ARC
  5
B6
  8
0
  6
CONTINUOUS
 62
     7
 10
86.06036911195035
 20
579.8866655445726
 30
0.0
 40
2.224466452576362
 50
325.146468293178
 51
1.370439431702039
  0
LINE
  5
B7
  8
0
  6
CONTINUOUS
 62
     7
 10
104.3196242493141
 20
574.9999875
 30
0.0
 11
103.0188896539564
 21
574.9999875
 31
0.0
  0
LINE
  5
B8
  8
0
  6
CONTINUOUS
 62
     7
 10
103.0188896539564
 20
574.9999875
 30
0.0
 11
102.6413551967265
 21
577.2672090255969
 31
0.0
  0
POLYLINE
  5
B9
  8
0
  6
CONTINUOUS
 62
     7
 66
     1
 10
0.0
 20
0.0
 30
0.0
  0
VERTEX
  5
138
  8
0
  6
CONTINUOUS
 62
     7
 10
102.6413551967266
 20
577.2672090255969
 30
0.0
  0
VERTEX
  5
139
  8
0
  6
CONTINUOUS
 62
     7
 10
102.4102137296562
 20
577.3846808690896
 30
0.0
  0
VERTEX
  5
13A
  8
0
  6
CONTINUOUS
 62
     7
 10
101.7640945538286
 20
577.4978168969994
 30
0.0
  0
VERTEX
  5
13B
  8
0
  6
CONTINUOUS
 62
     7
 10
100.7257811418052
 20
577.6026277035263
 30
0.0
  0
VERTEX
  5
13C
  8
0
  6
CONTINUOUS
 62
     7
 10
99.33188653034202
 20
577.6954174470607
 30
0.0
  0
SEQEND
  5
158
  8
0
  6
CONTINUOUS
 62
     7
  0
LINE
  5
BA
  8
0
  6
CONTINUOUS
 62
     7
 10
99.33188653034202
 20
577.6954174470608
 30
0.0
 11
87.00000000000001
 21
578.3740874142445
 31
0.0
  0
LINE
  5
BB
  8
0
  6
CONTINUOUS
 62
     7
 10
87.00000000000021
 20
578.3740874142445
 30
0.0
 11
53.00000000000011
 21
578.3740874142445
 31
0.0
  0
LINE
  5
BC
  8
0
  6
CONTINUOUS
 62
     7
 10
40.66811346965798
 20
577.6954174470608
 30
0.0
 11
52.99999999999998
 21
578.3740874142445
 31
0.0
  0
POLYLINE
  5
BD
  8
0
  6
CONTINUOUS
 62
     7
 66
     1
 10
0.0
 20
0.0
 30
0.0
  0
VERTEX
  5
13D
  8
0
  6
CONTINUOUS
 62
     7
 10
40.66811346965797
 20
577.6954174470607
 30
0.0
  0
VERTEX
  5
13E
  8
0
  6
CONTINUOUS
 62
     7
 10
39.27421885819474
 20
577.6026277035263
 30
0.0
  0
VERTEX
  5
13F
  8
0
  6
CONTINUOUS
 62
     7
 10
38.23590544617138
 20
577.4978168969994
 30
0.0
  0
VERTEX
  5
140
  8
0
  6
CONTINUOUS
 62
     7
 10
37.58978627034372
 20
577.3846808690896
 30
0.0
  0
VERTEX
  5
141
  8
0
  6
CONTINUOUS
 62
     7
 10
37.35864480327344
 20
577.2672090255969
 30
0.0
  0
SEQEND
  5
159
  8
0
  6
CONTINUOUS
 62
     7
  0
LINE
  5
BE
  8
0
  6
CONTINUOUS
 62
     7
 10
36.98111034604354
 20
574.9999875
 30
0.0
 11
37.35864480327344
 21
577.2672090255969
 31
0.0
  0
LINE
  5
BF
  8
0
  6
CONTINUOUS
 62
     7
 10
35.68037575068585
 20
574.9999875
 30
0.0
 11
36.98111034604354
 21
574.9999875
 31
0.0
  0
POLYLINE
  5
C0
  8
0
  6
CONTINUOUS
 62
     7
 66
     1
 10
0.0
 20
0.0
 30
0.0
  0
VERTEX
  5
142
  8
0
  6
CONTINUOUS
 62
     7
 10
34.18100372656344
 20
576.5013600114775
 30
0.0
  0
VERTEX
  5
143
  8
0
  6
CONTINUOUS
 62
     7
 10
34.20981019896589
 20
576.2084202394151
 30
0.0
  0
VERTEX
  5
144
  8
0
  6
CONTINUOUS
 62
     7
 10
34.29512324116585
 20
575.9267578018182
 30
0.0
  0
VERTEX
  5
145
  8
0
  6
CONTINUOUS
 62
     7
 10
34.43366622087127
 20
575.6671905550743
 30
0.0
  0
VERTEX
  5
146
  8
0
  6
CONTINUOUS
 62
     7
 10
34.62011809467028
 20
575.4396877418772
 30
0.0
  0
VERTEX
  5
147
  8
0
  6
CONTINUOUS
 62
     7
 10
34.84731777423629
 20
575.2529871008543
 30
0.0
  0
VERTEX
  5
148
  8
0
  6
CONTINUOUS
 62
     7
 10
35.10653916344592
 20
575.1142592747769
 30
0.0
  0
VERTEX
  5
149
  8
0
  6
CONTINUOUS
 62
     7
 10
35.3878263030135
 20
575.0288324064821
 30
0.0
  0
VERTEX
  5
14A
  8
0
  6
CONTINUOUS
 62
     7
 10
35.68037575068585
 20
574.9999875000001
 30
0.0
  0
SEQEND
  5
15A
  8
0
  6
CONTINUOUS
 62
     7
  0
POLYLINE
  5
C1
  8
0
  6
CONTINUOUS
 62
     7
 66
     1
 10
0.0
 20
0.0
 30
0.0
  0
VERTEX
  5
14B
  8
0
  6
CONTINUOUS
 62
     7
 10
104.3196242493141
 20
574.9999875000001
 30
0.0
  0
VERTEX
  5
14C
  8
0
  6
CONTINUOUS
 62
     7
 10
104.6121736969865
 20
575.0288324064821
 30
0.0
  0
VERTEX
  5
14D
  8
0
  6
CONTINUOUS
 62
     7
 10
104.8934608365541
 20
575.1142592747769
 30
0.0
  0
VERTEX
  5
14E
  8
0
  6
CONTINUOUS
 62
     7
 10
105.1526822257637
 20
575.2529871008543
 30
0.0
  0
VERTEX
  5
14F
  8
0
  6
CONTINUOUS
 62
     7
 10
105.3798819053297
 20
575.4396877418772
 30
0.0
  0
VERTEX
  5
150
  8
0
  6
CONTINUOUS
 62
     7
 10
105.5663337791287
 20
575.6671905550743
 30
0.0
  0
VERTEX
  5
151
  8
0
  6
CONTINUOUS
 62
     7
 10
105.7048767588341
 20
575.9267578018182
 30
0.0
  0
VERTEX
  5
152
  8
0
  6
CONTINUOUS
 62
     7
 10
105.7901898010341
 20
576.2084202394151
 30
0.0
  0
VERTEX
  5
153
  8
0
  6
CONTINUOUS
 62
     7
 10
105.8189962734366
 20
576.5013600114775
 30
0.0
  0
SEQEND
  5
15B
  8
0
  6
CONTINUOUS
 62
     7
  0
LINE
  5
C2
  8
0
  6
CONTINUOUS
 62
     7
 10
34.18100372656348
 20
576.5013600114775
 30
0.0
 11
34.18100372656349
 21
604.9999875000001
 31
0.0
  0
LINE
  5
C3
  8
0
  6
CONTINUOUS
 62
     7
 10
105.8189962734365
 20
576.5013600114775
 30
0.0
 11
105.8189962734365
 21
604.9999875000001
 31
0.0
  0
ENDBLK
  8
0
  0
BLOCK
  8
0
  2
D_FRAME_VIEW_2005
 70
     0
 10
0.0
 20
0.0
 30
0.0
  0
LINE
  5
C8
  8
0
  6
CONTINUOUS
 62
     7
 10
105.4395254481093
 20
475.783049637699
 30
0.0
 11
105.8189962734365
 21
432.3
 31
0.0
  0
LINE
  5
C9
  8
0
  6
CONTINUOUS
 62
     7
 10
105.8189962734365
 20
432.3
 30
0.0
 11
104.3196242493141
 21
432.3
 31
0.0
  0
ARC
  5
CA
  8
0
  6
CONTINUOUS
 62
     7
 10
90.64181211995648
 20
475.456445405293
 30
0.0
 40
12.0
 50
0.4999999999999498
 51
43.59991641039994
  0
LINE
  5
CB
  8
0
  6
CONTINUOUS
 62
     7
 10
99.33188653034202
 20
483.7318672520608
 30
0.0
 11
87.00000000000001
 21
496.681661661751
 31
0.0
  0
ARC
  5
CC
  8
0
  6
CONTINUOUS
 62
     7
 10
69.99999999999991
 20
263.3000000000001
 30
0.0
 40
234.0000000000001
 50
85.83381578248009
 51
94.16618421751981
  0
LINE
  5
CD
  8
0
  6
CONTINUOUS
 62
     7
 10
40.66811346965798
 20
483.7318672520609
 30
0.0
 11
52.99999999999998
 21
496.681661661751
 31
0.0
  0
ARC
  5
CE
  8
0
  6
CONTINUOUS
 62
     7
 10
49.35818788004349
 20
475.456445405293
 30
0.0
 40
12.0
 50
136.4000835896001
 51
179.4999999999998
  0
LINE
  5
CF
  8
0
  6
CONTINUOUS
 62
     7
 10
36.98111034604354
 20
432.3
 30
0.0
 11
37.35864480327344
 21
475.5611638312735
 31
0.0
  0
LINE
  5
D0
  8
0
  6
CONTINUOUS
 62
     7
 10
35.68037575068585
 20
432.3
 30
0.0
 11
36.98111034604354
 21
432.3
 31
0.0
  0
LINE
  5
D1
  8
0
  6
CONTINUOUS
 62
     7
 10
104.3196242493141
 20
432.3
 30
0.0
 11
103.0188896539564
 21
432.3
 31
0.0
  0
LINE
  5
D2
  8
0
  6
CONTINUOUS
 62
     7
 10
103.0188896539564
 20
432.3
 30
0.0
 11
102.6413551967265
 21
475.5611638312735
 31
0.0
  0
LINE
  5
D3
  8
0
  6
CONTINUOUS
 62
     7
 10
34.18100372656348
 20
432.3
 30
0.0
 11
34.5604745518907
 21
475.7830496376991
 31
0.0
  0
LINE
  5
D4
  8
0
  6
CONTINUOUS
 62
     7
 10
35.68037575068585
 20
432.3
 30
0.0
 11
34.1810037265635
 21
432.3
 31
0.0
  0
ARC
  5
D5
  8
0
  6
CONTINUOUS
 62
     7
 10
91.14006994829164
 20
475.6582601800724
 30
0.0
 40
14.3
 50
0.4999999999997159
 51
43.59991641039994
  0
ARC
  5
D6
  8
0
  6
CONTINUOUS
 62
     7
 10
48.85993005170834
 20
475.6582601800724
 30
0.0
 40
14.3
 50
136.4000835896001
 51
179.5000000000001
  0
LINE
  5
D7
  8
0
  6
CONTINUOUS
 62
     7
 10
88.28419928260067
 20
499.3930495728202
 30
0.0
 11
88.28448924034227
 21
499.3930271168969
 31
0.0
  0
LINE
  5
D8
  8
0
  6
CONTINUOUS
 62
     7
 10
88.28448924034227
 20
499.3930271168969
 30
0.0
 11
101.495741954001
 21
485.5198045474708
 31
0.0
  0
LINE
  5
D9
  8
0
  6
CONTINUOUS
 62
     7
 10
38.50425804599897
 20
485.5198045474708
 30
0.0
 11
51.71551075965774
 21
499.3930271168969
 31
0.0
  0
LINE
  5
DA
  8
0
  6
CONTINUOUS
 62
     7
 10
51.71551075965774
 20
499.3930271168969
 30
0.0
 11
51.71580071739928
 21
499.3930495728202
 31
0.0
  0
ARC
  5
DB
  8
0
  6
CONTINUOUS
 62
     7
 10
69.99999999999991
 20
263.3000000000001
 30
0.0
 40
236.8
 50
85.5715742496878
 51
94.42842575031216
  0
ARC
  5
DC
  8
0
  6
CONTINUOUS
 62
     7
 10
98.49946720401107
 20
512.5019848452754
 30
0.0
 40
16.3000000000003
 50
0.5
 51
43.59991641039944
  0
LINE
  5
DD
  8
0
  6
CONTINUOUS
 62
     7
 10
105.8189962734365
 20
432.3
 30
0.0
 11
115.5
 21
432.3
 31
0.0
  0
LINE
  5
DE
  8
0
  6
CONTINUOUS
 62
     7
 10
114.7988465499574
 20
512.6442273738991
 30
0.0
 11
115.5
 21
432.3
 31
0.0
  0
LINE
  5
DF
  8
0
  6
CONTINUOUS
 62
     7
 10
98.3138449366439
 20
536.3331652935174
 30
0.0
 11
88.28448924034223
 21
499.393027116897
 31
0.0
  0
LINE
  5
E0
  8
0
  6
CONTINUOUS
 62
     7
 10
98.31384493664387
 20
536.3331652935174
 30
0.0
 11
110.303484944785
 21
523.7427661871352
 31
0.0
  0
ARC
  5
E1
  8
0
  6
CONTINUOUS
 62
     7
 10
41.50053279598857
 20
512.5019848452755
 30
0.0
 40
16.29999999999992
 50
136.4000835895998
 51
179.5
  0
LINE
  5
E2
  8
0
  6
CONTINUOUS
 62
     7
 10
41.68615506335621
 20
536.3331652935174
 30
0.0
 11
29.69651505521503
 21
523.7427661871352
 31
0.0
  0
LINE
  5
E3
  8
0
  6
CONTINUOUS
 62
     7
 10
41.68615506335619
 20
536.3331652935174
 30
0.0
 11
51.7155107596578
 21
499.393027116897
 31
0.0
  0
LINE
  5
E4
  8
0
  6
CONTINUOUS
 62
     7
 10
34.18100372656348
 20
432.3
 30
0.0
 11
24.49999999999999
 21
432.3
 31
0.0
  0
LINE
  5
E5
  8
0
  6
CONTINUOUS
 62
     7
 10
25.2011534500427
 20
512.6442273738991
 30
0.0
 11
24.49999999999999
 21
432.3
 31
0.0
  0
ARC
  5
E6
  8
0
  6
CONTINUOUS
 62
     7
 10
69.99999999999682
 20
263.7999999999558
 30
0.0
 40
274.0000000000443
 50
84.06874119800233
 51
89.9999999999993
  0
ARC
  5
E7
  8
0
  6
CONTINUOUS
 62
     7
 10
70.00000000000324
 20
263.7999999999564
 30
0.0
 40
274.0000000000437
 50
90.00000000000068
 51
95.93125880199761
  0
LINE
  5
E8
  8
0
  6
CONTINUOUS
 62
     7
 10
99.28
 20
483.7335033329638
 30
0.0
 11
99.28
 21
483.7864021113924
 31
0.0
  0
LINE
  5
E9
  8
0
  6
CONTINUOUS
 62
     7
 10
40.71999999999999
 20
483.7335033329638
 30
0.0
 11
40.72000000000001
 21
483.7864021113924
 31
0.0
  0
LINE
  5
EA
  8
0
  6
CONTINUOUS
 62
     7
 10
85.98687162065305
 20
433.8043632677492
 30
0.0
 11
85.99999999999997
 21
432.3
 31
0.0
  0
LINE
  5
EB
  8
0
  6
CONTINUOUS
 62
     7
 10
85.99999999999997
 20
432.3
 30
0.0
 11
85.00003807693582
 21
432.3
 31
0.0
  0
LINE
  5
EC
  8
0
  6
CONTINUOUS
 62
     7
 10
85.00003807693581
 20
432.3
 30
0.0
 11
81.99996192306415
 21
432.3
 31
0.0
  0
LINE
  5
ED
  8
0
  6
CONTINUOUS
 62
     7
 10
54.01312837934691
 20
433.8043632677492
 30
0.0
 11
53.99999999999998
 21
432.3
 31
0.0
  0
LINE
  5
EE
  8
0
  6
CONTINUOUS
 62
     7
 10
53.99999999999998
 20
432.3
 30
0.0
 11
54.99996192306415
 21
432.3
 31
0.0
  0
LINE
  5
EF
  8
0
  6
CONTINUOUS
 62
     7
 10
80.99999999999997
 20
432.3
 30
0.0
 11
81.01312837934691
 21
433.8043632677492
 31
0.0
  0
LINE
  5
F0
  8
0
  6
CONTINUOUS
 62
     7
 10
81.99996192306415
 20
432.3
 30
0.0
 11
80.99999999999997
 21
432.3
 31
0.0
  0
LINE
  5
F1
  8
0
  6
CONTINUOUS
 62
     7
 10
58.99999999999998
 20
432.3
 30
0.0
 11
58.98687162065306
 21
433.8043632677492
 31
0.0
  0
LINE
  5
F2
  8
0
  6
CONTINUOUS
 62
     7
 10
58.00003807693581
 20
432.3
 30
0.0
 11
58.99999999999998
 21
432.3
 31
0.0
  0
LINE
  5
F3
  8
0
  6
CONTINUOUS
 62
     7
 10
54.99996192306415
 20
432.3
 30
0.0
 11
58.00003807693581
 21
432.3
 31
0.0
  0
LINE
  5
F4
  8
0
  6
CONTINUOUS
 62
     7
 10
57.98690969758889
 20
434.3
 30
0.0
 11
55.01309030241107
 21
434.3
 31
0.0
  0
LINE
  5
F5
  8
0
  6
CONTINUOUS
 62
     7
 10
84.98690969758889
 20
434.3
 30
0.0
 11
85.48689065912097
 21
434.3
 31
0.0
  0
ARC
  5
F6
  8
0
  6
CONTINUOUS
 62
     7
 10
85.48689065912097
 20
433.8
 30
0.0
 40
0.5000000000000004
 50
0.5
 51
90.00000000000016
  0
ARC
  5
F7
  8
0
  6
CONTINUOUS
 62
     7
 10
54.51310934087899
 20
433.8
 30
0.0
 40
0.5000000000000004
 50
89.99999999999982
 51
179.5
  0
LINE
  5
F8
  8
0
  6
CONTINUOUS
 62
     7
 10
55.01309030241107
 20
434.3
 30
0.0
 11
54.51310934087899
 21
434.3
 31
0.0
  0
LINE
  5
F9
  8
0
  6
CONTINUOUS
 62
     7
 10
82.01309030241107
 20
434.3
 30
0.0
 11
84.98690969758889
 21
434.3
 31
0.0
  0
LINE
  5
FA
  8
0
  6
CONTINUOUS
 62
     7
 10
81.51310934087898
 20
434.3
 30
0.0
 11
82.01309030241107
 21
434.3
 31
0.0
  0
ARC
  5
FB
  8
0
  6
CONTINUOUS
 62
     7
 10
81.51310934087898
 20
433.8
 30
0.0
 40
0.5000000000000004
 50
89.99999999999999
 51
179.5
  0
LINE
  5
FC
  8
0
  6
CONTINUOUS
 62
     7
 10
58.48689065912098
 20
434.3
 30
0.0
 11
57.98690969758889
 21
434.3
 31
0.0
  0
ARC
  5
FD
  8
0
  6
CONTINUOUS
 62
     7
 10
58.48689065912098
 20
433.8
 30
0.0
 40
0.5000000000000004
 50
0.5
 51
90.0
  0
LINE
  5
FE
  8
0
  6
CONTINUOUS
 62
     7
 10
85.99999999999997
 20
432.3
 30
0.0
 11
86.99996192306415
 21
432.3
 31
0.0
  0
LINE
  5
FF
  8
0
  6
CONTINUOUS
 62
     7
 10
80.00003807693581
 20
432.3
 30
0.0
 11
80.99999999999999
 21
432.3
 31
0.0
  0
LINE
  5
100
  8
0
  6
CONTINUOUS
 62
     7
 10
59.99996192306415
 20
432.3
 30
0.0
 11
58.99999999999998
 21
432.3
 31
0.0
  0
LINE
  5
101
  8
0
  6
CONTINUOUS
 62
     7
 10
53.99999999999999
 20
432.3
 30
0.0
 11
53.00003807693581
 21
432.3
 31
0.0
  0
LINE
  5
102
  8
0
  6
CONTINUOUS
 62
     7
 10
86.98683354371722
 20
434.3
 30
0.0
 11
85.48689065912097
 21
434.3
 31
0.0
  0
LINE
  5
103
  8
0
  6
CONTINUOUS
 62
     7
 10
81.51310934087898
 20
434.3
 30
0.0
 11
80.01316645628273
 21
434.3
 31
0.0
  0
LINE
  5
104
  8
0
  6
CONTINUOUS
 62
     7
 10
53.01316645628273
 20
434.3
 30
0.0
 11
54.513109340879
 21
434.3
 31
0.0
  0
LINE
  5
105
  8
0
  6
CONTINUOUS
 62
     7
 10
58.48689065912098
 20
434.3
 30
0.0
 11
59.98683354371723
 21
434.3
 31
0.0
  0
LINE
  5
106
  8
0
  6
CONTINUOUS
 62
     7
 10
86.99996192306415
 20
432.3
 30
0.0
 11
101.590113656451
 21
432.3
 31
0.0
  0
LINE
  5
107
  8
0
  6
CONTINUOUS
 62
     7
 10
102.0803853255427
 20
432.3
 30
0.0
 11
101.590113656451
 21
432.3
 31
0.0
  0
LINE
  5
108
  8
0
  6
CONTINUOUS
 62
     7
 10
59.99996192306416
 20
432.3
 30
0.0
 11
80.00003807693581
 21
432.3
 31
0.0
  0
LINE
  5
109
  8
0
  6
CONTINUOUS
 62
     7
 10
53.00003807693582
 20
432.3
 30
0.0
 11
38.40988634354898
 21
432.3
 31
0.0
  0
LINE
  5
10A
  8
0
  6
CONTINUOUS
 62
     7
 10
37.91961467445725
 20
432.3
 30
0.0
 11
38.40988634354898
 21
432.3
 31
0.0
  0
LINE
  5
10B
  8
0
  6
CONTINUOUS
 62
     7
 10
86.98683354371722
 20
434.3
 30
0.0
 11
92.93459759134919
 21
434.3
 31
0.0
  0
LINE
  5
10C
  8
0
  6
CONTINUOUS
 62
     7
 10
69.99999999999997
 20
434.0
 30
0.0
 11
69.69999999999999
 21
434.3
 31
0.0
  0
LINE
  5
10D
  8
0
  6
CONTINUOUS
 62
     7
 10
69.99999999999997
 20
434.0
 30
0.0
 11
70.29999999999998
 21
434.3
 31
0.0
  0
LINE
  5
10E
  8
0
  6
CONTINUOUS
 62
     7
 10
69.69999999999999
 20
434.3
 30
0.0
 11
59.98683354371723
 21
434.3
 31
0.0
  0
LINE
  5
10F
  8
0
  6
CONTINUOUS
 62
     7
 10
70.29999999999998
 20
434.3
 30
0.0
 11
80.01316645628273
 21
434.3
 31
0.0
  0
LINE
  5
110
  8
0
  6
CONTINUOUS
 62
     7
 10
53.01316645628273
 20
434.3
 30
0.0
 11
47.06540240865078
 21
434.3
 31
0.0
  0
LINE
  5
111
  8
0
  6
CONTINUOUS
 62
     7
 10
97.44066335815533
 20
449.3
 30
0.0
 11
99.72799368951506
 21
449.3
 31
0.0
  0
LINE
  5
112
  8
0
  6
CONTINUOUS
 62
     7
 10
42.55933664184465
 20
449.3
 30
0.0
 11
40.27200631048493
 21
449.3
 31
0.0
  0
LINE
  5
113
  8
0
  6
CONTINUOUS
 62
     7
 10
102.2364646844596
 20
438.268521683761
 30
0.0
 11
102.1425141687003
 21
447.0942540459976
 31
0.0
  0
LINE
  5
114
  8
0
  6
CONTINUOUS
 62
     7
 10
102.3
 20
432.3
 30
0.0
 11
102.2555015308423
 21
437.3
 31
0.0
  0
LINE
  5
115
  8
0
  6
CONTINUOUS
 62
     7
 10
102.0803853255427
 20
432.3
 30
0.0
 11
102.3
 21
432.3
 31
0.0
  0
LINE
  5
116
  8
0
  6
CONTINUOUS
 62
     7
 10
37.7
 20
432.3
 30
0.0
 11
37.74449846915762
 21
437.3
 31
0.0
  0
LINE
  5
117
  8
0
  6
CONTINUOUS
 62
     7
 10
37.76353531554038
 20
438.268521683761
 30
0.0
 11
37.85748583129963
 21
447.0942540459976
 31
0.0
  0
LINE
  5
118
  8
0
  6
CONTINUOUS
 62
     7
 10
37.91961467445725
 20
432.3
 30
0.0
 11
37.7
 21
432.3
 31
0.0
  0
LINE
  5
119
  8
0
  6
CONTINUOUS
 62
     7
 10
101.9909979607749
 20
447.44498346606
 30
0.0
 11
102.1425141687003
 21
447.0942540459976
 31
0.0
  0
LINE
  5
11A
  8
0
  6
CONTINUOUS
 62
     7
 10
38.00900203922511
 20
447.44498346606
 30
0.0
 11
37.85748583129963
 21
447.0942540459976
 31
0.0
  0
LINE
  5
11B
  8
0
  6
CONTINUOUS
 62
     7
 10
100.2287512666552
 20
449.1550926878116
 30
0.0
 11
101.9909979607748
 21
447.44498346606
 31
0.0
  0
LINE
  5
11C
  8
0
  6
CONTINUOUS
 62
     7
 10
39.77124873334474
 20
449.1550926878116
 30
0.0
 11
38.00900203922512
 21
447.44498346606
 31
0.0
  0
LINE
  5
11D
  8
0
  6
CONTINUOUS
 62
     7
 10
99.8695198674784
 20
449.3
 30
0.0
 11
100.2287512666552
 21
449.1550926878116
 31
0.0
  0
LINE
  5
11E
  8
0
  6
CONTINUOUS
 62
     7
 10
99.72799368951506
 20
449.3
 30
0.0
 11
99.8695198674784
 21
449.3
 31
0.0
  0
LINE
  5
11F
  8
0
  6
CONTINUOUS
 62
     7
 10
40.13048013252158
 20
449.3
 30
0.0
 11
39.77124873334474
 21
449.1550926878116
 31
0.0
  0
LINE
  5
120
  8
0
  6
CONTINUOUS
 62
     7
 10
40.27200631048493
 20
449.3
 30
0.0
 11
40.13048013252158
 21
449.3
 31
0.0
  0
LINE
  5
121
  8
0
  6
CONTINUOUS
 62
     7
 10
102.3
 20
432.3
 30
0.0
 11
103.0188896539564
 21
432.3
 31
0.0
  0
LINE
  5
122
  8
0
  6
CONTINUOUS
 62
     7
 10
37.7
 20
432.3
 30
0.0
 11
36.98111034604354
 21
432.3
 31
0.0
  0
LINE
  5
123
  8
0
  6
CONTINUOUS
 62
     7
 10
96.95856078571678
 20
448.9325786922855
 30
0.0
 11
92.93458692891934
 21
434.3
 31
0.0
  0
LINE
  5
124
  8
0
  6
CONTINUOUS
 62
     7
 10
47.06541307108062
 20
434.3
 30
0.0
 11
43.0414392142832
 21
448.9325786922855
 31
0.0
  0
ARC
  5
125
  8
0
  6
CONTINUOUS
 62
     7
 10
97.44066335815533
 20
448.8
 30
0.0
 40
0.5000000000000004
 50
89.99999999999999
 51
164.6236951785513
  0
ARC
  5
126
  8
0
  6
CONTINUOUS
 62
     7
 10
42.55933664184465
 20
448.8
 30
0.0
 40
0.4999999999999958
 50
15.37630482144873
 51
90.00000000000043
  0
ENDBLK
  8
0
  0
ENDSEC
  0
SECTION
  2
ENTITIES
  0
INSERT
  5
8C
  8
0
  6
CONTINUOUS
 62
     7
  2
D_FRAME_VIEW_2356
 10
0.0
 20
0.0
 30
0.0
  0
INSERT
  5
C4
  8
0
  6
CONTINUOUS
 62
     7
  2
D_FRAME_VIEW_2408
 10
0.0
 20
0.0
 30
0.0
  0
INSERT
  5
127
  8
0
  6
CONTINUOUS
 62
     7
  2
D_FRAME_VIEW_2005
 10
0.0
 20
0.0
 30
0.0
  0
TEXT
  5
128
  8
0
  6
CONTINUOUS
 62
     7
 10
193.8990777791672
 20
418.3284200325122
 30
0.0
 40
3.0
  1
RMCB-40
  0
ENDSEC
  0
EOF
