  0
SECTION
  2
HEADER
  9
$ACADVER
  1
AC1006
  9
$DWGCODEPAGE
  3
ansi_932
  9
$INSBASE
 10
0.0
 20
0.0
 30
0.0
  9
$EXTMIN
 10
0.0
 20
0.0
  9
$EXTMAX
 10
210.541732
 20
355.541732
  9
$LIMMIN
 10
0.0
 20
0.0
  9
$LIMMAX
 10
12.0
 20
9.0
  9
$ORTHOMODE
 70
     0
  9
$REGENMODE
 70
     1
  9
$FILLMODE
 70
     1
  9
$QTEXTMODE
 70
     0
  9
$MIRRTEXT
 70
     1
  9
$DRAGMODE
 70
     2
  9
$LTSCALE
 40
1.0
  9
$OSMODE
 70
    37
  9
$ATTMODE
 70
     1
  9
$TEXTSIZE
 40
0.2
  9
$TRACEWID
 40
0.05
  9
$TEXTSTYLE
  7
STANDARD
  9
$CLAYER
  8
0
  9
$CELTYPE
  6
BYLAYER
  9
$CECOLOR
 62
   256
  9
$DIMSCALE
 40
1.0
  9
$DIMASZ
 40
1.4
  9
$DIMEXO
 40
0.0625
  9
$DIMDLI
 40
0.38
  9
$DIMRND
 40
0.0
  9
$DIMDLE
 40
0.0
  9
$DIMEXE
 40
0.7
  9
$DIMTP
 40
0.0
  9
$DIMTM
 40
0.0
  9
$DIMTXT
 40
3.5
  9
$DIMCEN
 40
0.09
  9
$DIMTSZ
 40
0.0
  9
$DIMTOL
 70
     0
  9
$DIMLIM
 70
     0
  9
$DIMTIH
 70
     1
  9
$DIMTOH
 70
     1
  9
$DIMSE1
 70
     0
  9
$DIMSE2
 70
     0
  9
$DIMTAD
 70
     1
  9
$DIMZIN
 70
     0
  9
$DIMBLK
  1

  9
$DIMASO
 70
     1
  9
$DIMSHO
 70
     1
  9
$DIMPOST
  1

  9
$DIMAPOST
  1

  9
$DIMALT
 70
     0
  9
$DIMALTD
 70
     2
  9
$DIMALTF
 40
25.4
  9
$DIMLFAC
 40
1.0
  9
$DIMTOFL
 70
     0
  9
$DIMTVP
 40
0.0
  9
$DIMTIX
 70
     0
  9
$DIMSOXD
 70
     0
  9
$DIMSAH
 70
     0
  9
$DIMBLK1
  1

  9
$DIMBLK2
  1

  9
$LUNITS
 70
     2
  9
$LUPREC
 70
     4
  9
$SKETCHINC
 40
0.1
  9
$FILLETRAD
 40
0.5
  9
$AUNITS
 70
     0
  9
$AUPREC
 70
     0
  9
$MENU
  1
.
  9
$ELEVATION
 40
0.0
  9
$THICKNESS
 40
0.0
  9
$LIMCHECK
 70
     0
  9
$CHAMFERA
 40
0.0
  9
$CHAMFERB
 40
0.0
  9
$SKPOLY
 70
     0
  9
$TDCREATE
 40
2460445.567724745
  9
$TDUPDATE
 40
2460445.567724988
  9
$TDINDWG
 40
0.0000000116
  9
$TDUSRTIMER
 40
0.0000000116
  9
$USRTIMER
 70
     1
  9
$ANGBASE
 50
0.0
  9
$ANGDIR
 70
     0
  9
$PDMODE
 70
     0
  9
$PDSIZE
 40
0.0
  9
$PLINEWID
 40
0.0
  9
$COORDS
 70
     1
  9
$SPLFRAME
 70
     0
  9
$SPLINETYPE
 70
     6
  9
$SPLINESEGS
 70
     8
  9
$ATTDIA
 70
     0
  9
$ATTREQ
 70
     1
  9
$HANDLING
 70
     1
  9
$HANDSEED
  5
19D
  9
$SURFTAB1
 70
     6
  9
$SURFTAB2
 70
     6
  9
$SURFTYPE
 70
     6
  9
$SURFU
 70
     6
  9
$SURFV
 70
     6
  9
$UCSNAME
  2

  9
$UCSORG
 10
0.0
 20
0.0
 30
0.0
  9
$UCSXDIR
 10
1.0
 20
0.0
 30
0.0
  9
$UCSYDIR
 10
0.0
 20
1.0
 30
0.0
  9
$USERI1
 70
     0
  9
$USERI2
 70
     0
  9
$USERI3
 70
     0
  9
$USERI4
 70
     0
  9
$USERI5
 70
     0
  9
$USERR1
 40
0.0
  9
$USERR2
 40
0.0
  9
$USERR3
 40
0.0
  9
$USERR4
 40
0.0
  9
$USERR5
 40
0.0
  9
$WORLDVIEW
 70
     1
  0
ENDSEC
  0
SECTION
  2
TABLES
  0
TABLE
  2
VPORT
 70
     1
  0
VPORT
  2
*ACTIVE
 70
     0
 10
0.0
 20
0.0
 11
1.0
 21
1.0
 12
105.270866
 22
177.770866
 13
0.0
 23
0.0
 14
0.5
 24
0.5
 15
0.5
 25
0.5
 16
0.0
 26
0.0
 36
1.0
 17
0.0
 27
0.0
 37
0.0
 40
355.541732
 41
1.6
 42
50.0
 43
0.0
 44
0.0
 50
0.0
 51
0.0
 71
     0
 72
   100
 73
     1
 74
     3
 75
     0
 76
     0
 77
     0
 78
     0
  0
ENDTAB
  0
TABLE
  2
LTYPE
 70
     1
  0
LTYPE
  2
CONTINUOUS
 70
     0
  3
Solid line
 72
    65
 73
     0
 40
0.0
  0
ENDTAB
  0
TABLE
  2
LAYER
 70
     2
  0
LAYER
  2
0
 70
     0
 62
     7
  6
CONTINUOUS
  0
LAYER
  2
1
 70
     0
 62
     7
  6
CONTINUOUS
  0
ENDTAB
  0
TABLE
  2
STYLE
 70
     2
  0
STYLE
  2
STANDARD
 70
     0
 40
0.0
 41
1.0
 50
0.0
 71
     0
 42
0.2
  3
txt
  4

  0
STYLE
  2
ＭＳ_ゴシック
 70
     0
 40
0.0
 41
1.0
 50
0.0
 71
     0
 42
0.2
  3
ＭＳ ゴシック.shx
  4

  0
ENDTAB
  0
TABLE
  2
VIEW
 70
     0
  0
ENDTAB
  0
TABLE
  2
UCS
 70
     0
  0
ENDTAB
  0
ENDSEC
  0
SECTION
  2
BLOCKS
  0
ENDSEC
  0
SECTION
  2
ENTITIES
  0
TEXT
  5
70
  8
1
  6
CONTINUOUS
 62
     7
 10
110.0297984350381
 20
99.68523821433037
 30
0.0
 40
3.0
  1
RMD-20
 41
1.366584
  0
LINE
  5
71
  8
1
  6
CONTINUOUS
 62
     7
 10
210.122769
 20
116.041732
 30
0.0
 11
210.121627
 21
115.982302
 31
0.0
  0
LINE
  5
72
  8
1
  6
CONTINUOUS
 62
     7
 10
210.121627
 20
115.982302
 30
0.0
 11
210.118204
 21
115.922977
 31
0.0
  0
LINE
  5
73
  8
1
  6
CONTINUOUS
 62
     7
 10
210.118204
 20
115.922977
 30
0.0
 11
210.112457
 21
115.86344
 31
0.0
  0
LINE
  5
74
  8
1
  6
CONTINUOUS
 62
     7
 10
210.112457
 20
115.86344
 30
0.0
 11
210.104419
 21
115.804221
 31
0.0
  0
LINE
  5
75
  8
1
  6
CONTINUOUS
 62
     7
 10
210.104419
 20
115.804221
 30
0.0
 11
210.093852
 21
115.744123
 31
0.0
  0
LINE
  5
76
  8
1
  6
CONTINUOUS
 62
     7
 10
210.093852
 20
115.744123
 30
0.0
 11
210.080935
 21
115.684576
 31
0.0
  0
LINE
  5
77
  8
1
  6
CONTINUOUS
 62
     7
 10
210.080935
 20
115.684576
 30
0.0
 11
210.065577
 21
115.625255
 31
0.0
  0
LINE
  5
78
  8
1
  6
CONTINUOUS
 62
     7
 10
210.065577
 20
115.625255
 30
0.0
 11
210.047905
 21
115.56671
 31
0.0
  0
LINE
  5
79
  8
1
  6
CONTINUOUS
 62
     7
 10
210.047905
 20
115.56671
 30
0.0
 11
210.028714
 21
115.511106
 31
0.0
  0
LINE
  5
7A
  8
1
  6
CONTINUOUS
 62
     7
 10
210.028714
 20
115.511106
 30
0.0
 11
210.007454
 21
115.456412
 31
0.0
  0
LINE
  5
7B
  8
1
  6
CONTINUOUS
 62
     7
 10
210.007454
 20
115.456412
 30
0.0
 11
209.984003
 21
115.402355
 31
0.0
  0
LINE
  5
7C
  8
1
  6
CONTINUOUS
 62
     7
 10
209.984003
 20
115.402355
 30
0.0
 11
209.958552
 21
115.349393
 31
0.0
  0
LINE
  5
7D
  8
1
  6
CONTINUOUS
 62
     7
 10
209.958552
 20
115.349393
 30
0.0
 11
209.930562
 21
115.296545
 31
0.0
  0
LINE
  5
7E
  8
1
  6
CONTINUOUS
 62
     7
 10
209.930562
 20
115.296545
 30
0.0
 11
209.900604
 21
115.245006
 31
0.0
  0
LINE
  5
7F
  8
1
  6
CONTINUOUS
 62
     7
 10
209.900604
 20
115.245006
 30
0.0
 11
209.868514
 21
115.194518
 31
0.0
  0
LINE
  5
80
  8
1
  6
CONTINUOUS
 62
     7
 10
209.868514
 20
115.194518
 30
0.0
 11
209.834561
 21
115.145513
 31
0.0
  0
LINE
  5
81
  8
1
  6
CONTINUOUS
 62
     7
 10
209.834561
 20
115.145513
 30
0.0
 11
209.79914
 21
115.098483
 31
0.0
  0
LINE
  5
82
  8
1
  6
CONTINUOUS
 62
     7
 10
209.79914
 20
115.098483
 30
0.0
 11
209.762026
 21
115.053044
 31
0.0
  0
LINE
  5
83
  8
1
  6
CONTINUOUS
 62
     7
 10
209.762026
 20
115.053044
 30
0.0
 11
209.723033
 21
115.008982
 31
0.0
  0
LINE
  5
84
  8
1
  6
CONTINUOUS
 62
     7
 10
209.723033
 20
115.008982
 30
0.0
 11
209.68247
 21
114.966651
 31
0.0
  0
LINE
  5
85
  8
1
  6
CONTINUOUS
 62
     7
 10
209.68247
 20
114.966651
 30
0.0
 11
209.639571
 21
114.925332
 31
0.0
  0
LINE
  5
86
  8
1
  6
CONTINUOUS
 62
     7
 10
209.639571
 20
114.925332
 30
0.0
 11
209.595198
 21
114.885921
 31
0.0
  0
LINE
  5
87
  8
1
  6
CONTINUOUS
 62
     7
 10
209.595198
 20
114.885921
 30
0.0
 11
209.549131
 21
114.848236
 31
0.0
  0
LINE
  5
88
  8
1
  6
CONTINUOUS
 62
     7
 10
209.549131
 20
114.848236
 30
0.0
 11
209.501734
 21
114.81258
 31
0.0
  0
LINE
  5
89
  8
1
  6
CONTINUOUS
 62
     7
 10
209.501734
 20
114.81258
 30
0.0
 11
209.452012
 21
114.778284
 31
0.0
  0
LINE
  5
8A
  8
1
  6
CONTINUOUS
 62
     7
 10
209.452012
 20
114.778284
 30
0.0
 11
209.401075
 21
114.746191
 31
0.0
  0
LINE
  5
8B
  8
1
  6
CONTINUOUS
 62
     7
 10
209.401075
 20
114.746191
 30
0.0
 11
209.348674
 21
114.716155
 31
0.0
  0
LINE
  5
8C
  8
1
  6
CONTINUOUS
 62
     7
 10
209.348674
 20
114.716155
 30
0.0
 11
209.295222
 21
114.68842
 31
0.0
  0
LINE
  5
8D
  8
1
  6
CONTINUOUS
 62
     7
 10
209.295222
 20
114.68842
 30
0.0
 11
209.239733
 21
114.662544
 31
0.0
  0
LINE
  5
8E
  8
1
  6
CONTINUOUS
 62
     7
 10
209.239733
 20
114.662544
 30
0.0
 11
209.18334
 21
114.639121
 31
0.0
  0
LINE
  5
8F
  8
1
  6
CONTINUOUS
 62
     7
 10
209.18334
 20
114.639121
 30
0.0
 11
209.125765
 21
114.61805
 31
0.0
  0
LINE
  5
90
  8
1
  6
CONTINUOUS
 62
     7
 10
209.125765
 20
114.61805
 30
0.0
 11
209.067465
 21
114.59951
 31
0.0
  0
LINE
  5
91
  8
1
  6
CONTINUOUS
 62
     7
 10
209.067465
 20
114.59951
 30
0.0
 11
209.019959
 21
114.58641
 31
0.0
  0
LINE
  5
92
  8
1
  6
CONTINUOUS
 62
     7
 10
209.019959
 20
114.58641
 30
0.0
 11
208.972094
 21
114.57498
 31
0.0
  0
LINE
  5
93
  8
1
  6
CONTINUOUS
 62
     7
 10
208.972094
 20
114.57498
 30
0.0
 11
208.923719
 21
114.56519
 31
0.0
  0
LINE
  5
94
  8
1
  6
CONTINUOUS
 62
     7
 10
208.923719
 20
114.56519
 30
0.0
 11
208.875082
 21
114.557097
 31
0.0
  0
LINE
  5
95
  8
1
  6
CONTINUOUS
 62
     7
 10
208.875082
 20
114.557097
 30
0.0
 11
208.825618
 21
114.550637
 31
0.0
  0
LINE
  5
96
  8
1
  6
CONTINUOUS
 62
     7
 10
208.825618
 20
114.550637
 30
0.0
 11
208.775987
 21
114.545926
 31
0.0
  0
LINE
  5
97
  8
1
  6
CONTINUOUS
 62
     7
 10
208.775987
 20
114.545926
 30
0.0
 11
208.726033
 21
114.542959
 31
0.0
  0
LINE
  5
98
  8
1
  6
CONTINUOUS
 62
     7
 10
208.726033
 20
114.542959
 30
0.0
 11
208.676017
 21
114.54176
 31
0.0
  0
LINE
  5
99
  8
1
  6
CONTINUOUS
 62
     7
 10
208.676017
 20
114.54176
 30
0.0
 11
208.667134
 21
114.541732
 31
0.0
  0
LINE
  5
9A
  8
1
  6
CONTINUOUS
 62
     7
 10
65.278549
 20
254.542916
 30
0.0
 11
65.300264
 21
254.54577
 31
0.0
  0
LINE
  5
9B
  8
1
  6
CONTINUOUS
 62
     7
 10
65.300264
 20
254.54577
 30
0.0
 11
65.322101
 21
254.550363
 31
0.0
  0
LINE
  5
9C
  8
1
  6
CONTINUOUS
 62
     7
 10
65.322101
 20
254.550363
 30
0.0
 11
65.343871
 21
254.556677
 31
0.0
  0
LINE
  5
9D
  8
1
  6
CONTINUOUS
 62
     7
 10
65.343871
 20
254.556677
 30
0.0
 11
65.365641
 21
254.564744
 31
0.0
  0
LINE
  5
9E
  8
1
  6
CONTINUOUS
 62
     7
 10
65.365641
 20
254.564744
 30
0.0
 11
65.387296
 21
254.574537
 31
0.0
  0
LINE
  5
9F
  8
1
  6
CONTINUOUS
 62
     7
 10
65.387296
 20
254.574537
 30
0.0
 11
65.408984
 21
254.586146
 31
0.0
  0
LINE
  5
A0
  8
1
  6
CONTINUOUS
 62
     7
 10
65.408984
 20
254.586146
 30
0.0
 11
65.430532
 21
254.59951
 31
0.0
  0
LINE
  5
A1
  8
1
  6
CONTINUOUS
 62
     7
 10
65.430532
 20
254.59951
 30
0.0
 11
65.455595
 21
254.617414
 31
0.0
  0
LINE
  5
A2
  8
1
  6
CONTINUOUS
 62
     7
 10
65.455595
 20
254.617414
 30
0.0
 11
65.480399
 21
254.637723
 31
0.0
  0
LINE
  5
A3
  8
1
  6
CONTINUOUS
 62
     7
 10
65.480399
 20
254.637723
 30
0.0
 11
65.504979
 21
254.6605
 31
0.0
  0
LINE
  5
A4
  8
1
  6
CONTINUOUS
 62
     7
 10
65.504979
 20
254.6605
 30
0.0
 11
65.529218
 21
254.685677
 31
0.0
  0
LINE
  5
A5
  8
1
  6
CONTINUOUS
 62
     7
 10
65.529218
 20
254.685677
 30
0.0
 11
65.553456
 21
254.713701
 31
0.0
  0
LINE
  5
A6
  8
1
  6
CONTINUOUS
 62
     7
 10
65.553456
 20
254.713701
 30
0.0
 11
65.577255
 21
254.744168
 31
0.0
  0
LINE
  5
A7
  8
1
  6
CONTINUOUS
 62
     7
 10
65.577255
 20
254.744168
 30
0.0
 11
65.60065
 21
254.777169
 31
0.0
  0
LINE
  5
A8
  8
1
  6
CONTINUOUS
 62
     7
 10
65.60065
 20
254.777169
 30
0.0
 11
65.623513
 21
254.81258
 31
0.0
  0
LINE
  5
A9
  8
1
  6
CONTINUOUS
 62
     7
 10
65.623513
 20
254.81258
 30
0.0
 11
65.643928
 21
254.847063
 31
0.0
  0
LINE
  5
AA
  8
1
  6
CONTINUOUS
 62
     7
 10
65.643928
 20
254.847063
 30
0.0
 11
65.66382
 21
254.883503
 31
0.0
  0
LINE
  5
AB
  8
1
  6
CONTINUOUS
 62
     7
 10
65.66382
 20
254.883503
 30
0.0
 11
65.683214
 21
254.921988
 31
0.0
  0
LINE
  5
AC
  8
1
  6
CONTINUOUS
 62
     7
 10
65.683214
 20
254.921988
 30
0.0
 11
65.70201
 21
254.962375
 31
0.0
  0
LINE
  5
AD
  8
1
  6
CONTINUOUS
 62
     7
 10
65.70201
 20
254.962375
 30
0.0
 11
65.720459
 21
255.005314
 31
0.0
  0
LINE
  5
AE
  8
1
  6
CONTINUOUS
 62
     7
 10
65.720459
 20
255.005314
 30
0.0
 11
65.738217
 21
255.05013
 31
0.0
  0
LINE
  5
AF
  8
1
  6
CONTINUOUS
 62
     7
 10
65.738217
 20
255.05013
 30
0.0
 11
65.755302
 21
255.096931
 31
0.0
  0
LINE
  5
B0
  8
1
  6
CONTINUOUS
 62
     7
 10
65.755302
 20
255.096931
 30
0.0
 11
65.771614
 21
255.145513
 31
0.0
  0
LINE
  5
B1
  8
1
  6
CONTINUOUS
 62
     7
 10
65.771614
 20
255.145513
 30
0.0
 11
65.786232
 21
255.192827
 31
0.0
  0
LINE
  5
B2
  8
1
  6
CONTINUOUS
 62
     7
 10
65.786232
 20
255.192827
 30
0.0
 11
65.800099
 21
255.241606
 31
0.0
  0
LINE
  5
B3
  8
1
  6
CONTINUOUS
 62
     7
 10
65.800099
 20
255.241606
 30
0.0
 11
65.813321
 21
255.292341
 31
0.0
  0
LINE
  5
B4
  8
1
  6
CONTINUOUS
 62
     7
 10
65.813321
 20
255.292341
 30
0.0
 11
65.825694
 21
255.344356
 31
0.0
  0
LINE
  5
B5
  8
1
  6
CONTINUOUS
 62
     7
 10
65.825694
 20
255.344356
 30
0.0
 11
65.837266
 21
255.397937
 31
0.0
  0
LINE
  5
B6
  8
1
  6
CONTINUOUS
 62
     7
 10
65.837266
 20
255.397937
 30
0.0
 11
65.847924
 21
255.452651
 31
0.0
  0
LINE
  5
B7
  8
1
  6
CONTINUOUS
 62
     7
 10
65.847924
 20
255.452651
 30
0.0
 11
65.857766
 21
255.50914
 31
0.0
  0
LINE
  5
B8
  8
1
  6
CONTINUOUS
 62
     7
 10
65.857766
 20
255.50914
 30
0.0
 11
65.866638
 21
255.56671
 31
0.0
  0
LINE
  5
B9
  8
1
  6
CONTINUOUS
 62
     7
 10
65.866638
 20
255.56671
 30
0.0
 11
65.874243
 21
255.623097
 31
0.0
  0
LINE
  5
BA
  8
1
  6
CONTINUOUS
 62
     7
 10
65.874243
 20
255.623097
 30
0.0
 11
65.880902
 21
255.680307
 31
0.0
  0
LINE
  5
BB
  8
1
  6
CONTINUOUS
 62
     7
 10
65.880902
 20
255.680307
 30
0.0
 11
65.886655
 21
255.738939
 31
0.0
  0
LINE
  5
BC
  8
1
  6
CONTINUOUS
 62
     7
 10
65.886655
 20
255.738939
 30
0.0
 11
65.891393
 21
255.798116
 31
0.0
  0
LINE
  5
BD
  8
1
  6
CONTINUOUS
 62
     7
 10
65.891393
 20
255.798116
 30
0.0
 11
65.895127
 21
255.858171
 31
0.0
  0
LINE
  5
BE
  8
1
  6
CONTINUOUS
 62
     7
 10
65.895127
 20
255.858171
 30
0.0
 11
65.897811
 21
255.918564
 31
0.0
  0
LINE
  5
BF
  8
1
  6
CONTINUOUS
 62
     7
 10
65.897811
 20
255.918564
 30
0.0
 11
65.899451
 21
255.980031
 31
0.0
  0
LINE
  5
C0
  8
1
  6
CONTINUOUS
 62
     7
 10
65.899451
 20
255.980031
 30
0.0
 11
65.9
 21
256.041732
 31
0.0
  0
LINE
  5
C1
  8
1
  6
CONTINUOUS
 62
     7
 10
109.541732
 20
213.667134
 30
0.0
 11
109.54176
 21
213.676017
 31
0.0
  0
LINE
  5
C2
  8
1
  6
CONTINUOUS
 62
     7
 10
109.54176
 20
213.676017
 30
0.0
 11
109.542917
 21
213.725009
 31
0.0
  0
LINE
  5
C3
  8
1
  6
CONTINUOUS
 62
     7
 10
109.542917
 20
213.725009
 30
0.0
 11
109.54577
 21
213.773942
 31
0.0
  0
LINE
  5
C4
  8
1
  6
CONTINUOUS
 62
     7
 10
109.54577
 20
213.773942
 30
0.0
 11
109.550341
 21
213.822963
 31
0.0
  0
LINE
  5
C5
  8
1
  6
CONTINUOUS
 62
     7
 10
109.550341
 20
213.822963
 30
0.0
 11
109.556617
 21
213.871825
 31
0.0
  0
LINE
  5
C6
  8
1
  6
CONTINUOUS
 62
     7
 10
109.556617
 20
213.871825
 30
0.0
 11
109.564707
 21
213.921085
 31
0.0
  0
LINE
  5
C7
  8
1
  6
CONTINUOUS
 62
     7
 10
109.564707
 20
213.921085
 30
0.0
 11
109.574537
 21
213.970079
 31
0.0
  0
LINE
  5
C8
  8
1
  6
CONTINUOUS
 62
     7
 10
109.574537
 20
213.970079
 30
0.0
 11
109.586153
 21
214.018959
 31
0.0
  0
LINE
  5
C9
  8
1
  6
CONTINUOUS
 62
     7
 10
109.586153
 20
214.018959
 30
0.0
 11
109.59951
 21
214.067465
 31
0.0
  0
LINE
  5
CA
  8
1
  6
CONTINUOUS
 62
     7
 10
109.59951
 20
214.067465
 30
0.0
 11
109.617429
 21
214.123944
 31
0.0
  0
LINE
  5
CB
  8
1
  6
CONTINUOUS
 62
     7
 10
109.617429
 20
214.123944
 30
0.0
 11
109.637723
 21
214.179746
 31
0.0
  0
LINE
  5
CC
  8
1
  6
CONTINUOUS
 62
     7
 10
109.637723
 20
214.179746
 30
0.0
 11
109.660519
 21
214.235115
 31
0.0
  0
LINE
  5
CD
  8
1
  6
CONTINUOUS
 62
     7
 10
109.660519
 20
214.235115
 30
0.0
 11
109.685677
 21
214.289623
 31
0.0
  0
LINE
  5
CE
  8
1
  6
CONTINUOUS
 62
     7
 10
109.685677
 20
214.289623
 30
0.0
 11
109.713725
 21
214.344203
 31
0.0
  0
LINE
  5
CF
  8
1
  6
CONTINUOUS
 62
     7
 10
109.713725
 20
214.344203
 30
0.0
 11
109.744168
 21
214.3977
 31
0.0
  0
LINE
  5
D0
  8
1
  6
CONTINUOUS
 62
     7
 10
109.744168
 20
214.3977
 30
0.0
 11
109.777199
 21
214.450363
 31
0.0
  0
LINE
  5
D1
  8
1
  6
CONTINUOUS
 62
     7
 10
109.777199
 20
214.450363
 30
0.0
 11
109.81258
 21
214.501734
 31
0.0
  0
LINE
  5
D2
  8
1
  6
CONTINUOUS
 62
     7
 10
109.81258
 20
214.501734
 30
0.0
 11
109.847089
 21
214.547668
 31
0.0
  0
LINE
  5
D3
  8
1
  6
CONTINUOUS
 62
     7
 10
109.847089
 20
214.547668
 30
0.0
 11
109.883503
 21
214.592355
 31
0.0
  0
LINE
  5
D4
  8
1
  6
CONTINUOUS
 62
     7
 10
109.883503
 20
214.592355
 30
0.0
 11
109.922019
 21
214.635978
 31
0.0
  0
LINE
  5
D5
  8
1
  6
CONTINUOUS
 62
     7
 10
109.922019
 20
214.635978
 30
0.0
 11
109.962375
 21
214.678188
 31
0.0
  0
LINE
  5
D6
  8
1
  6
CONTINUOUS
 62
     7
 10
109.962375
 20
214.678188
 30
0.0
 11
110.005351
 21
214.719678
 31
0.0
  0
LINE
  5
D7
  8
1
  6
CONTINUOUS
 62
     7
 10
110.005351
 20
214.719678
 30
0.0
 11
110.05013
 21
214.759542
 31
0.0
  0
LINE
  5
D8
  8
1
  6
CONTINUOUS
 62
     7
 10
110.05013
 20
214.759542
 30
0.0
 11
110.096972
 21
214.797953
 31
0.0
  0
LINE
  5
D9
  8
1
  6
CONTINUOUS
 62
     7
 10
110.096972
 20
214.797953
 30
0.0
 11
110.145513
 21
214.834561
 31
0.0
  0
LINE
  5
DA
  8
1
  6
CONTINUOUS
 62
     7
 10
110.145513
 20
214.834561
 30
0.0
 11
110.192865
 21
214.867416
 31
0.0
  0
LINE
  5
DB
  8
1
  6
CONTINUOUS
 62
     7
 10
110.192865
 20
214.867416
 30
0.0
 11
110.241606
 21
214.89853
 31
0.0
  0
LINE
  5
DC
  8
1
  6
CONTINUOUS
 62
     7
 10
110.241606
 20
214.89853
 30
0.0
 11
110.291992
 21
214.928024
 31
0.0
  0
LINE
  5
DD
  8
1
  6
CONTINUOUS
 62
     7
 10
110.291992
 20
214.928024
 30
0.0
 11
110.343642
 21
214.955635
 31
0.0
  0
LINE
  5
DE
  8
1
  6
CONTINUOUS
 62
     7
 10
110.343642
 20
214.955635
 30
0.0
 11
110.397572
 21
214.981807
 31
0.0
  0
LINE
  5
DF
  8
1
  6
CONTINUOUS
 62
     7
 10
110.397572
 20
214.981807
 30
0.0
 11
110.452651
 21
215.005902
 31
0.0
  0
LINE
  5
E0
  8
1
  6
CONTINUOUS
 62
     7
 10
110.452651
 20
215.005902
 30
0.0
 11
110.509192
 21
215.02801
 31
0.0
  0
LINE
  5
E1
  8
1
  6
CONTINUOUS
 62
     7
 10
110.509192
 20
215.02801
 30
0.0
 11
110.56671
 21
215.047905
 31
0.0
  0
LINE
  5
E2
  8
1
  6
CONTINUOUS
 62
     7
 10
110.56671
 20
215.047905
 30
0.0
 11
110.623146
 21
215.064985
 31
0.0
  0
LINE
  5
E3
  8
1
  6
CONTINUOUS
 62
     7
 10
110.623146
 20
215.064985
 30
0.0
 11
110.680307
 21
215.079914
 31
0.0
  0
LINE
  5
E4
  8
1
  6
CONTINUOUS
 62
     7
 10
110.680307
 20
215.079914
 30
0.0
 11
110.738506
 21
215.092739
 31
0.0
  0
LINE
  5
E5
  8
1
  6
CONTINUOUS
 62
     7
 10
110.738506
 20
215.092739
 30
0.0
 11
110.797244
 21
215.103318
 31
0.0
  0
LINE
  5
E6
  8
1
  6
CONTINUOUS
 62
     7
 10
110.797244
 20
215.103318
 30
0.0
 11
110.857732
 21
215.111784
 31
0.0
  0
LINE
  5
E7
  8
1
  6
CONTINUOUS
 62
     7
 10
110.857732
 20
215.111784
 30
0.0
 11
110.918564
 21
215.117857
 31
0.0
  0
LINE
  5
E8
  8
1
  6
CONTINUOUS
 62
     7
 10
110.918564
 20
215.117857
 30
0.0
 11
110.980089
 21
215.12154
 31
0.0
  0
LINE
  5
E9
  8
1
  6
CONTINUOUS
 62
     7
 10
110.980089
 20
215.12154
 30
0.0
 11
111.041732
 21
215.122769
 31
0.0
  0
LINE
  5
EA
  8
1
  6
CONTINUOUS
 62
     7
 10
44.747105
 20
254.541732
 30
0.0
 11
44.743167
 21
254.54176
 31
0.0
  0
LINE
  5
EB
  8
1
  6
CONTINUOUS
 62
     7
 10
44.743167
 20
254.54176
 30
0.0
 11
44.721451
 21
254.542916
 31
0.0
  0
LINE
  5
EC
  8
1
  6
CONTINUOUS
 62
     7
 10
44.721451
 20
254.542916
 30
0.0
 11
44.699736
 21
254.54577
 31
0.0
  0
LINE
  5
ED
  8
1
  6
CONTINUOUS
 62
     7
 10
44.699736
 20
254.54577
 30
0.0
 11
44.677899
 21
254.550363
 31
0.0
  0
LINE
  5
EE
  8
1
  6
CONTINUOUS
 62
     7
 10
44.677899
 20
254.550363
 30
0.0
 11
44.656129
 21
254.556677
 31
0.0
  0
LINE
  5
EF
  8
1
  6
CONTINUOUS
 62
     7
 10
44.656129
 20
254.556677
 30
0.0
 11
44.634359
 21
254.564744
 31
0.0
  0
LINE
  5
F0
  8
1
  6
CONTINUOUS
 62
     7
 10
44.634359
 20
254.564744
 30
0.0
 11
44.612704
 21
254.574537
 31
0.0
  0
LINE
  5
F1
  8
1
  6
CONTINUOUS
 62
     7
 10
44.612704
 20
254.574537
 30
0.0
 11
44.591016
 21
254.586146
 31
0.0
  0
LINE
  5
F2
  8
1
  6
CONTINUOUS
 62
     7
 10
44.591016
 20
254.586146
 30
0.0
 11
44.569468
 21
254.59951
 31
0.0
  0
LINE
  5
F3
  8
1
  6
CONTINUOUS
 62
     7
 10
44.569468
 20
254.59951
 30
0.0
 11
44.544405
 21
254.617414
 31
0.0
  0
LINE
  5
F4
  8
1
  6
CONTINUOUS
 62
     7
 10
44.544405
 20
254.617414
 30
0.0
 11
44.519601
 21
254.637723
 31
0.0
  0
LINE
  5
F5
  8
1
  6
CONTINUOUS
 62
     7
 10
44.519601
 20
254.637723
 30
0.0
 11
44.495021
 21
254.6605
 31
0.0
  0
LINE
  5
F6
  8
1
  6
CONTINUOUS
 62
     7
 10
44.495021
 20
254.6605
 30
0.0
 11
44.470782
 21
254.685677
 31
0.0
  0
LINE
  5
F7
  8
1
  6
CONTINUOUS
 62
     7
 10
44.470782
 20
254.685677
 30
0.0
 11
44.446544
 21
254.713701
 31
0.0
  0
LINE
  5
F8
  8
1
  6
CONTINUOUS
 62
     7
 10
44.446544
 20
254.713701
 30
0.0
 11
44.422745
 21
254.744168
 31
0.0
  0
LINE
  5
F9
  8
1
  6
CONTINUOUS
 62
     7
 10
44.422745
 20
254.744168
 30
0.0
 11
44.39935
 21
254.777169
 31
0.0
  0
LINE
  5
FA
  8
1
  6
CONTINUOUS
 62
     7
 10
44.39935
 20
254.777169
 30
0.0
 11
44.376487
 21
254.81258
 31
0.0
  0
LINE
  5
FB
  8
1
  6
CONTINUOUS
 62
     7
 10
44.376487
 20
254.81258
 30
0.0
 11
44.356072
 21
254.847063
 31
0.0
  0
LINE
  5
FC
  8
1
  6
CONTINUOUS
 62
     7
 10
44.356072
 20
254.847063
 30
0.0
 11
44.33618
 21
254.883503
 31
0.0
  0
LINE
  5
FD
  8
1
  6
CONTINUOUS
 62
     7
 10
44.33618
 20
254.883503
 30
0.0
 11
44.316786
 21
254.921988
 31
0.0
  0
LINE
  5
FE
  8
1
  6
CONTINUOUS
 62
     7
 10
44.316786
 20
254.921988
 30
0.0
 11
44.29799
 21
254.962375
 31
0.0
  0
LINE
  5
FF
  8
1
  6
CONTINUOUS
 62
     7
 10
44.29799
 20
254.962375
 30
0.0
 11
44.279541
 21
255.005314
 31
0.0
  0
LINE
  5
100
  8
1
  6
CONTINUOUS
 62
     7
 10
44.279541
 20
255.005314
 30
0.0
 11
44.261783
 21
255.05013
 31
0.0
  0
LINE
  5
101
  8
1
  6
CONTINUOUS
 62
     7
 10
44.261783
 20
255.05013
 30
0.0
 11
44.244698
 21
255.096931
 31
0.0
  0
LINE
  5
102
  8
1
  6
CONTINUOUS
 62
     7
 10
44.244698
 20
255.096931
 30
0.0
 11
44.228386
 21
255.145513
 31
0.0
  0
LINE
  5
103
  8
1
  6
CONTINUOUS
 62
     7
 10
44.228386
 20
255.145513
 30
0.0
 11
44.213768
 21
255.192827
 31
0.0
  0
LINE
  5
104
  8
1
  6
CONTINUOUS
 62
     7
 10
44.213768
 20
255.192827
 30
0.0
 11
44.199901
 21
255.241606
 31
0.0
  0
LINE
  5
105
  8
1
  6
CONTINUOUS
 62
     7
 10
44.199901
 20
255.241606
 30
0.0
 11
44.186679
 21
255.292341
 31
0.0
  0
LINE
  5
106
  8
1
  6
CONTINUOUS
 62
     7
 10
44.186679
 20
255.292341
 30
0.0
 11
44.174306
 21
255.344356
 31
0.0
  0
LINE
  5
107
  8
1
  6
CONTINUOUS
 62
     7
 10
44.174306
 20
255.344356
 30
0.0
 11
44.162734
 21
255.397937
 31
0.0
  0
LINE
  5
108
  8
1
  6
CONTINUOUS
 62
     7
 10
44.162734
 20
255.397937
 30
0.0
 11
44.152076
 21
255.452651
 31
0.0
  0
LINE
  5
109
  8
1
  6
CONTINUOUS
 62
     7
 10
44.152076
 20
255.452651
 30
0.0
 11
44.142234
 21
255.50914
 31
0.0
  0
LINE
  5
10A
  8
1
  6
CONTINUOUS
 62
     7
 10
44.142234
 20
255.50914
 30
0.0
 11
44.133362
 21
255.56671
 31
0.0
  0
LINE
  5
10B
  8
1
  6
CONTINUOUS
 62
     7
 10
44.133362
 20
255.56671
 30
0.0
 11
44.125757
 21
255.623097
 31
0.0
  0
LINE
  5
10C
  8
1
  6
CONTINUOUS
 62
     7
 10
44.125757
 20
255.623097
 30
0.0
 11
44.119098
 21
255.680307
 31
0.0
  0
LINE
  5
10D
  8
1
  6
CONTINUOUS
 62
     7
 10
44.119098
 20
255.680307
 30
0.0
 11
44.113345
 21
255.738939
 31
0.0
  0
LINE
  5
10E
  8
1
  6
CONTINUOUS
 62
     7
 10
44.113345
 20
255.738939
 30
0.0
 11
44.108607
 21
255.798116
 31
0.0
  0
LINE
  5
10F
  8
1
  6
CONTINUOUS
 62
     7
 10
44.108607
 20
255.798116
 30
0.0
 11
44.104873
 21
255.858171
 31
0.0
  0
LINE
  5
110
  8
1
  6
CONTINUOUS
 62
     7
 10
44.104873
 20
255.858171
 30
0.0
 11
44.102189
 21
255.918564
 31
0.0
  0
LINE
  5
111
  8
1
  6
CONTINUOUS
 62
     7
 10
44.102189
 20
255.918564
 30
0.0
 11
44.100549
 21
255.980031
 31
0.0
  0
LINE
  5
112
  8
1
  6
CONTINUOUS
 62
     7
 10
44.100549
 20
255.980031
 30
0.0
 11
44.1
 21
256.041732
 31
0.0
  0
LINE
  5
113
  8
1
  6
CONTINUOUS
 62
     7
 10
209.041732
 20
114.541732
 30
0.0
 11
169.541732
 21
114.541732
 31
0.0
  0
LINE
  5
114
  8
1
  6
CONTINUOUS
 62
     7
 10
66.75
 20
176.541732
 30
0.0
 11
66.75
 21
176.841732
 31
0.0
  0
LINE
  5
115
  8
1
  6
CONTINUOUS
 62
     7
 10
66.757606
 20
176.541732
 30
0.0
 11
66.757606
 21
176.841732
 31
0.0
  0
LINE
  5
116
  8
1
  6
CONTINUOUS
 62
     7
 10
62.5
 20
119.541732
 30
0.0
 11
47.5
 21
119.541732
 31
0.0
  0
LINE
  5
117
  8
1
  6
CONTINUOUS
 62
     7
 10
66.773898
 20
176.541732
 30
0.0
 11
66.773898
 21
176.841732
 31
0.0
  0
LINE
  5
118
  8
1
  6
CONTINUOUS
 62
     7
 10
66.777368
 20
176.541732
 30
0.0
 11
66.777368
 21
176.841732
 31
0.0
  0
ARC
  5
119
  8
1
  6
CONTINUOUS
 62
     7
 10
47.5
 20
120.541732
 30
0.0
 40
1.0
 50
180.0
 51
270.0
  0
LINE
  5
11A
  8
1
  6
CONTINUOUS
 62
     7
 10
63.0
 20
176.841732
 30
0.0
 11
63.0
 21
176.541732
 31
0.0
  0
ARC
  5
11B
  8
1
  6
CONTINUOUS
 62
     7
 10
62.5
 20
120.541732
 30
0.0
 40
1.0
 50
270.0
 51
0.0
  0
LINE
  5
11C
  8
1
  6
CONTINUOUS
 62
     7
 10
169.541732
 20
174.541732
 30
0.0
 11
109.541732
 21
174.541732
 31
0.0
  0
LINE
  5
11D
  8
1
  6
CONTINUOUS
 62
     7
 10
46.5
 20
120.541732
 30
0.0
 11
46.5
 21
134.541732
 31
0.0
  0
LINE
  5
11E
  8
1
  6
CONTINUOUS
 62
     7
 10
63.5
 20
134.541732
 30
0.0
 11
63.5
 21
120.541732
 31
0.0
  0
LINE
  5
11F
  8
1
  6
CONTINUOUS
 62
     7
 10
63.004171
 20
176.541732
 30
0.0
 11
63.004171
 21
176.841732
 31
0.0
  0
LINE
  5
120
  8
1
  6
CONTINUOUS
 62
     7
 10
109.541732
 20
174.541732
 30
0.0
 11
109.541732
 21
214.041732
 31
0.0
  0
LINE
  5
121
  8
1
  6
CONTINUOUS
 62
     7
 10
169.541732
 20
114.541732
 30
0.0
 11
169.541732
 21
174.541732
 31
0.0
  0
LINE
  5
122
  8
1
  6
CONTINUOUS
 62
     7
 10
66.728038
 20
176.541732
 30
0.0
 11
66.728038
 21
176.841732
 31
0.0
  0
ARC
  5
123
  8
1
  6
CONTINUOUS
 62
     7
 10
178.541732
 20
183.541732
 30
0.0
 40
31.581037
 50
0.0
 51
90.0
  0
ARC
  5
124
  8
1
  6
CONTINUOUS
 62
     7
 10
209.041732
 20
116.041732
 30
0.0
 40
1.5
 50
270.0
 51
0.0
  0
ARC
  5
125
  8
1
  6
CONTINUOUS
 62
     7
 10
111.041732
 20
214.041732
 30
0.0
 40
1.5
 50
90.0
 51
180.0
  0
ARC
  5
126
  8
1
  6
CONTINUOUS
 62
     7
 10
178.541732
 20
183.541732
 30
0.0
 40
32.0
 50
0.0
 51
90.0
  0
LINE
  5
127
  8
1
  6
CONTINUOUS
 62
     7
 10
178.541732
 20
215.541732
 30
0.0
 11
111.041732
 21
215.541732
 31
0.0
  0
LINE
  5
128
  8
1
  6
CONTINUOUS
 62
     7
 10
210.122769
 20
116.041732
 30
0.0
 11
210.122769
 21
183.541732
 31
0.0
  0
LINE
  5
129
  8
1
  6
CONTINUOUS
 62
     7
 10
65.9
 20
355.122769
 30
0.0
 11
65.9
 21
256.041732
 31
0.0
  0
LINE
  5
12A
  8
1
  6
CONTINUOUS
 62
     7
 10
178.541732
 20
215.122769
 30
0.0
 11
111.041732
 21
215.122769
 31
0.0
  0
LINE
  5
12B
  8
1
  6
CONTINUOUS
 62
     7
 10
44.1
 20
355.122769
 30
0.0
 11
44.1
 21
256.041732
 31
0.0
  0
LINE
  5
12C
  8
1
  6
CONTINUOUS
 62
     7
 10
210.541732
 20
116.041732
 30
0.0
 11
210.541732
 21
183.541732
 31
0.0
  0
LINE
  5
12D
  8
1
  6
CONTINUOUS
 62
     7
 10
75.6
 20
254.541732
 30
0.0
 11
44.176216
 21
254.541732
 31
0.0
  0
ARC
  5
12E
  8
1
  6
CONTINUOUS
 62
     7
 10
55.0
 20
213.541732
 30
0.0
 40
142.0
 50
85.597613
 51
94.402387
  0
LINE
  5
12F
  8
1
  6
CONTINUOUS
 62
     7
 10
72.0
 20
186.541732
 30
0.0
 11
73.102938
 21
186.541732
 31
0.0
  0
LINE
  5
130
  8
1
  6
CONTINUOUS
 62
     7
 10
34.9
 20
179.541732
 30
0.0
 11
37.1
 21
178.271562
 31
0.0
  0
LINE
  5
131
  8
1
  6
CONTINUOUS
 62
     7
 10
65.5
 20
174.541732
 30
0.0
 11
44.5
 21
174.541732
 31
0.0
  0
LINE
  5
132
  8
1
  6
CONTINUOUS
 62
     7
 10
46.5
 20
174.541732
 30
0.0
 11
46.5
 21
176.541732
 31
0.0
  0
LINE
  5
133
  8
1
  6
CONTINUOUS
 62
     7
 10
65.0
 20
213.184133
 30
0.0
 11
72.624253
 21
205.905311
 31
0.0
  0
LINE
  5
134
  8
1
  6
CONTINUOUS
 62
     7
 10
54.7
 20
176.541732
 30
0.0
 11
55.0
 21
176.241732
 31
0.0
  0
ARC
  5
135
  8
1
  6
CONTINUOUS
 62
     7
 10
42.9
 20
200.321238
 30
0.0
 40
8.0
 50
136.144338
 51
180.0
  0
LINE
  5
136
  8
1
  6
CONTINUOUS
 62
     7
 10
75.1
 20
200.118893
 30
0.0
 11
75.1
 21
114.541732
 31
0.0
  0
LINE
  5
137
  8
1
  6
CONTINUOUS
 62
     7
 10
72.9
 20
178.271562
 30
0.0
 11
72.9
 21
176.741732
 31
0.0
  0
LINE
  5
138
  8
1
  6
CONTINUOUS
 62
     7
 10
63.5
 20
134.541732
 30
0.0
 11
75.1
 21
134.541732
 31
0.0
  0
LINE
  5
139
  8
1
  6
CONTINUOUS
 62
     7
 10
65.252895
 20
213.667134
 30
0.0
 11
65.9
 21
215.122769
 31
0.0
  0
LINE
  5
13A
  8
1
  6
CONTINUOUS
 62
     7
 10
44.176216
 20
213.122697
 30
0.0
 11
44.1
 21
213.116766
 31
0.0
  0
ARC
  5
13B
  8
1
  6
CONTINUOUS
 62
     7
 10
42.9
 20
200.321238
 30
0.0
 40
5.0
 50
136.144338
 51
180.0
  0
ARC
  5
13C
  8
1
  6
CONTINUOUS
 62
     7
 10
67.1
 20
200.159997
 30
0.0
 40
10.0
 50
0.0
 51
46.35865700000001
  0
LINE
  5
13D
  8
1
  6
CONTINUOUS
 62
     7
 10
72.1
 20
200.118893
 30
0.0
 11
72.1
 21
186.541732
 31
0.0
  0
LINE
  5
13E
  8
1
  6
CONTINUOUS
 62
     7
 10
77.1
 20
200.159997
 30
0.0
 11
77.1
 21
116.041732
 31
0.0
  0
LINE
  5
13F
  8
1
  6
CONTINUOUS
 62
     7
 10
75.1
 20
179.541732
 30
0.0
 11
72.9
 21
178.271562
 31
0.0
  0
ARC
  5
140
  8
1
  6
CONTINUOUS
 62
     7
 10
42.9
 20
200.159997
 30
0.0
 40
10.0
 50
133.641343
 51
180.0
  0
LINE
  5
141
  8
1
  6
CONTINUOUS
 62
     7
 10
72.9
 20
176.741732
 30
0.0
 11
75.1
 21
174.541732
 31
0.0
  0
LINE
  5
142
  8
1
  6
CONTINUOUS
 62
     7
 10
44.1
 20
114.54251
 30
0.0
 11
44.1
 21
134.541732
 31
0.0
  0
ARC
  5
143
  8
1
  6
CONTINUOUS
 62
     7
 10
43.6916766664
 20
139.2929108099
 30
0.0
 40
24.7537595891
 50
269.1711771491999
 51
270.9451601838
  0
LINE
  5
144
  8
1
  6
CONTINUOUS
 62
     7
 10
63.713891
 20
210.264328
 30
0.0
 11
70.552658
 21
203.735404
 31
0.0
  0
LINE
  5
145
  8
1
  6
CONTINUOUS
 62
     7
 10
65.0
 20
114.541732
 30
0.0
 11
65.0
 21
134.541732
 31
0.0
  0
LINE
  5
146
  8
1
  6
CONTINUOUS
 62
     7
 10
63.5
 20
176.541732
 30
0.0
 11
63.5
 21
174.541732
 31
0.0
  0
LINE
  5
147
  8
1
  6
CONTINUOUS
 62
     7
 10
44.747105
 20
213.667134
 30
0.0
 11
44.1
 21
215.122769
 31
0.0
  0
LINE
  5
148
  8
1
  6
CONTINUOUS
 62
     7
 10
34.9
 20
114.541732
 30
0.0
 11
34.9
 21
200.321238
 31
0.0
  0
ARC
  5
149
  8
1
  6
CONTINUOUS
 62
     7
 10
34.4
 20
116.041732
 30
0.0
 40
1.5
 50
180.0
 51
270.0
  0
LINE
  5
14A
  8
1
  6
CONTINUOUS
 62
     7
 10
34.9
 20
194.541732
 30
0.0
 11
37.9
 21
194.541732
 31
0.0
  0
LINE
  5
14B
  8
1
  6
CONTINUOUS
 62
     7
 10
72.1
 20
194.541732
 30
0.0
 11
75.1
 21
194.541732
 31
0.0
  0
ARC
  5
14C
  8
1
  6
CONTINUOUS
 62
     7
 10
55.0
 20
73.541732
 30
0.0
 40
142.0
 50
85.597613
 51
94.402387
  0
LINE
  5
14D
  8
1
  6
CONTINUOUS
 62
     7
 10
37.1
 20
178.271562
 30
0.0
 11
37.1
 21
176.741732
 31
0.0
  0
LINE
  5
14E
  8
1
  6
CONTINUOUS
 62
     7
 10
34.4
 20
114.541732
 30
0.0
 11
43.333609
 21
114.541732
 31
0.0
  0
ARC
  5
14F
  8
1
  6
CONTINUOUS
 62
     7
 10
55.0
 20
73.541732
 30
0.0
 40
137.0
 50
86.35323799999999
 51
93.990028
  0
ARC
  5
150
  8
1
  6
CONTINUOUS
 62
     7
 10
67.1
 20
200.118893
 30
0.0
 40
8.0
 50
0.0
 51
46.32779299999999
  0
LINE
  5
151
  8
1
  6
CONTINUOUS
 62
     7
 10
77.1
 20
174.541732
 30
0.0
 11
75.1
 21
174.541732
 31
0.0
  0
LINE
  5
152
  8
1
  6
CONTINUOUS
 62
     7
 10
32.9
 20
116.041732
 30
0.0
 11
32.9
 21
200.159997
 31
0.0
  0
LINE
  5
153
  8
1
  6
CONTINUOUS
 62
     7
 10
37.1
 20
176.741732
 30
0.0
 11
34.9
 21
174.541732
 31
0.0
  0
LINE
  5
154
  8
1
  6
CONTINUOUS
 62
     7
 10
46.5
 20
134.541732
 30
0.0
 11
34.9
 21
134.541732
 31
0.0
  0
ARC
  5
155
  8
1
  6
CONTINUOUS
 62
     7
 10
67.1
 20
200.118893
 30
0.0
 40
5.0
 50
0.0
 51
46.32779299999999
  0
LINE
  5
156
  8
1
  6
CONTINUOUS
 62
     7
 10
44.1
 20
213.116766
 30
0.0
 11
37.1313018485
 21
205.8639882239
 31
0.0
  0
LINE
  5
157
  8
1
  6
CONTINUOUS
 62
     7
 10
41.446819
 20
176.541732
 30
0.0
 11
54.7
 21
176.541732
 31
0.0
  0
LINE
  5
158
  8
1
  6
CONTINUOUS
 62
     7
 10
37.9
 20
186.541732
 30
0.0
 11
37.9
 21
200.321238
 31
0.0
  0
LINE
  5
159
  8
1
  6
CONTINUOUS
 62
     7
 10
63.713891
 20
210.264328
 30
0.0
 11
63.713891
 21
176.841732
 31
0.0
  0
ARC
  5
15A
  8
1
  6
CONTINUOUS
 62
     7
 10
75.6
 20
116.041732
 30
0.0
 40
1.5
 50
270.0
 51
0.0
  0
LINE
  5
15B
  8
1
  6
CONTINUOUS
 62
     7
 10
35.998581
 20
207.396737
 30
0.0
 11
44.1
 21
215.122769
 31
0.0
  0
ARC
  5
15C
  8
1
  6
CONTINUOUS
 62
     7
 10
55.0
 20
73.541732
 30
0.0
 40
140.0
 50
85.903956
 51
94.43411899999998
  0
LINE
  5
15D
  8
1
  6
CONTINUOUS
 62
     7
 10
55.3
 20
176.541732
 30
0.0
 11
68.553181
 21
176.541732
 31
0.0
  0
LINE
  5
15E
  8
1
  6
CONTINUOUS
 62
     7
 10
39.294563
 20
203.785458
 30
0.0
 11
45.46715
 21
210.209669
 31
0.0
  0
ARC
  5
15F
  8
1
  6
CONTINUOUS
 62
     7
 10
68.553181
 20
177.541732
 30
0.0
 40
1.0
 50
270.0
 51
345.0
  0
LINE
  5
160
  8
1
  6
CONTINUOUS
 62
     7
 10
69.519107
 20
177.282913
 30
0.0
 11
72.0
 21
186.541732
 31
0.0
  0
LINE
  5
161
  8
1
  6
CONTINUOUS
 62
     7
 10
45.46715
 20
210.209669
 30
0.0
 11
45.46715
 21
176.841732
 31
0.0
  0
LINE
  5
162
  8
1
  6
CONTINUOUS
 62
     7
 10
32.9
 20
174.541732
 30
0.0
 11
34.9
 21
174.541732
 31
0.0
  0
LINE
  5
163
  8
1
  6
CONTINUOUS
 62
     7
 10
44.176216
 20
114.541732
 30
0.0
 11
75.6
 21
114.541732
 31
0.0
  0
LINE
  5
164
  8
1
  6
CONTINUOUS
 62
     7
 10
65.9
 20
215.122769
 30
0.0
 11
74.001419
 21
207.396737
 31
0.0
  0
LINE
  5
165
  8
1
  6
CONTINUOUS
 62
     7
 10
44.1
 20
114.54251
 30
0.0
 11
44.176216
 21
114.541732
 31
0.0
  0
LINE
  5
166
  8
1
  6
CONTINUOUS
 62
     7
 10
55.0
 20
176.241732
 30
0.0
 11
55.3
 21
176.541732
 31
0.0
  0
LINE
  5
167
  8
1
  6
CONTINUOUS
 62
     7
 10
73.0
 20
178.387032
 30
0.0
 11
73.0
 21
134.541732
 31
0.0
  0
LINE
  5
168
  8
1
  6
CONTINUOUS
 62
     7
 10
44.5
 20
134.541732
 30
0.0
 11
44.5
 21
174.941732
 31
0.0
  0
LINE
  5
169
  8
1
  6
CONTINUOUS
 62
     7
 10
35.0
 20
180.541732
 30
0.0
 11
35.912254
 21
185.715381
 31
0.0
  0
LINE
  5
16A
  8
1
  6
CONTINUOUS
 62
     7
 10
36.897062
 20
186.541732
 30
0.0
 11
38.0
 21
186.541732
 31
0.0
  0
ARC
  5
16B
  8
1
  6
CONTINUOUS
 62
     7
 10
43.5
 20
174.941732
 30
0.0
 40
1.0
 50
0.0
 51
180.0
  0
LINE
  5
16C
  8
1
  6
CONTINUOUS
 62
     7
 10
42.5
 20
174.541732
 30
0.0
 11
37.0
 21
174.541732
 31
0.0
  0
ARC
  5
16D
  8
1
  6
CONTINUOUS
 62
     7
 10
41.446819
 20
177.541732
 30
0.0
 40
1.0
 50
195.0
 51
270.0
  0
LINE
  5
16E
  8
1
  6
CONTINUOUS
 62
     7
 10
42.948864
 20
176.541732
 30
0.0
 11
42.948864
 21
176.841732
 31
0.0
  0
LINE
  5
16F
  8
1
  6
CONTINUOUS
 62
     7
 10
65.5
 20
174.941732
 30
0.0
 11
65.5
 21
134.541732
 31
0.0
  0
LINE
  5
170
  8
1
  6
CONTINUOUS
 62
     7
 10
42.5
 20
174.941732
 30
0.0
 11
42.5
 21
134.541732
 31
0.0
  0
LINE
  5
171
  8
1
  6
CONTINUOUS
 62
     7
 10
35.0
 20
179.483997
 30
0.0
 11
35.0
 21
180.541732
 31
0.0
  0
LINE
  5
172
  8
1
  6
CONTINUOUS
 62
     7
 10
68.0
 20
176.841732
 30
0.0
 11
66.75
 21
176.841732
 31
0.0
  0
LINE
  5
173
  8
1
  6
CONTINUOUS
 62
     7
 10
38.0
 20
186.541732
 30
0.0
 11
40.480893
 21
177.282913
 31
0.0
  0
LINE
  5
174
  8
1
  6
CONTINUOUS
 62
     7
 10
68.0
 20
176.541732
 30
0.0
 11
68.0
 21
176.841732
 31
0.0
  0
LINE
  5
175
  8
1
  6
CONTINUOUS
 62
     7
 10
67.130719
 20
176.541732
 30
0.0
 11
67.130719
 21
176.841732
 31
0.0
  0
LINE
  5
176
  8
1
  6
CONTINUOUS
 62
     7
 10
37.0
 20
178.387032
 30
0.0
 11
35.25
 21
179.397395
 31
0.0
  0
LINE
  5
177
  8
1
  6
CONTINUOUS
 62
     7
 10
64.25
 20
176.541732
 30
0.0
 11
64.25
 21
176.841732
 31
0.0
  0
LINE
  5
178
  8
1
  6
CONTINUOUS
 62
     7
 10
67.02572
 20
176.541732
 30
0.0
 11
67.02572
 21
176.841732
 31
0.0
  0
LINE
  5
179
  8
1
  6
CONTINUOUS
 62
     7
 10
37.0
 20
134.541732
 30
0.0
 11
37.0
 21
178.387032
 31
0.0
  0
LINE
  5
17A
  8
1
  6
CONTINUOUS
 62
     7
 10
73.0
 20
174.541732
 30
0.0
 11
67.5
 21
174.541732
 31
0.0
  0
ARC
  5
17B
  8
1
  6
CONTINUOUS
 62
     7
 10
35.5
 20
179.830407
 30
0.0
 40
0.5
 50
180.0
 51
240.0
  0
LINE
  5
17C
  8
1
  6
CONTINUOUS
 62
     7
 10
67.5
 20
134.541732
 30
0.0
 11
67.5
 21
174.941732
 31
0.0
  0
ARC
  5
17D
  8
1
  6
CONTINUOUS
 62
     7
 10
73.102938
 20
185.541732
 30
0.0
 40
1.0
 50
10.0
 51
90.0
  0
ARC
  5
17E
  8
1
  6
CONTINUOUS
 62
     7
 10
36.897062
 20
185.541732
 30
0.0
 40
1.0
 50
90.0
 51
170.0
  0
LINE
  5
17F
  8
1
  6
CONTINUOUS
 62
     7
 10
74.087746
 20
185.715381
 30
0.0
 11
75.0
 21
180.541732
 31
0.0
  0
LINE
  5
180
  8
1
  6
CONTINUOUS
 62
     7
 10
46.051136
 20
176.541732
 30
0.0
 11
46.051136
 21
176.841732
 31
0.0
  0
LINE
  5
181
  8
1
  6
CONTINUOUS
 62
     7
 10
46.051136
 20
176.841732
 30
0.0
 11
42.948864
 21
176.841732
 31
0.0
  0
LINE
  5
182
  8
1
  6
CONTINUOUS
 62
     7
 10
67.252405
 20
176.541732
 30
0.0
 11
67.252405
 21
176.841732
 31
0.0
  0
ARC
  5
183
  8
1
  6
CONTINUOUS
 62
     7
 10
66.5
 20
174.941732
 30
0.0
 40
1.0
 50
0.0
 51
180.0
  0
LINE
  5
184
  8
1
  6
CONTINUOUS
 62
     7
 10
66.728038
 20
176.841732
 30
0.0
 11
63.0
 21
176.841732
 31
0.0
  0
LINE
  5
185
  8
1
  6
CONTINUOUS
 62
     7
 10
66.95232
 20
176.541732
 30
0.0
 11
66.95232
 21
176.841732
 31
0.0
  0
LINE
  5
186
  8
1
  6
CONTINUOUS
 62
     7
 10
74.75
 20
179.397395
 30
0.0
 11
73.0
 21
178.387032
 31
0.0
  0
LINE
  5
187
  8
1
  6
CONTINUOUS
 62
     7
 10
66.807554
 20
176.541732
 30
0.0
 11
66.807554
 21
176.841732
 31
0.0
  0
LINE
  5
188
  8
1
  6
CONTINUOUS
 62
     7
 10
75.0
 20
180.541732
 30
0.0
 11
75.0
 21
179.483997
 31
0.0
  0
ARC
  5
189
  8
1
  6
CONTINUOUS
 62
     7
 10
74.5
 20
179.830407
 30
0.0
 40
0.5
 50
300.0
 51
0.0
  0
LINE
  5
18A
  8
1
  6
CONTINUOUS
 62
     7
 10
32.9
 20
340.159997
 30
0.0
 11
32.9
 21
256.041732
 31
0.0
  0
LINE
  5
18B
  8
1
  6
CONTINUOUS
 62
     7
 10
44.176216
 20
254.541732
 30
0.0
 11
44.1
 21
254.54251
 31
0.0
  0
ARC
  5
18C
  8
1
  6
CONTINUOUS
 62
     7
 10
43.6916766664
 20
279.2929108098
 30
0.0
 40
24.753759589
 50
269.1711771491999
 51
270.9451601838
  0
LINE
  5
18D
  8
1
  6
CONTINUOUS
 62
     7
 10
74.001419
 20
347.396737
 30
0.0
 11
65.9
 21
355.122769
 31
0.0
  0
LINE
  5
18E
  8
1
  6
CONTINUOUS
 62
     7
 10
43.333609
 20
254.541732
 30
0.0
 11
34.4
 21
254.541732
 31
0.0
  0
LINE
  5
18F
  8
1
  6
CONTINUOUS
 62
     7
 10
77.1
 20
340.159997
 30
0.0
 11
77.1
 21
256.041732
 31
0.0
  0
ARC
  5
190
  8
1
  6
CONTINUOUS
 62
     7
 10
42.9
 20
340.159997
 30
0.0
 40
10.0
 50
133.641343
 51
180.0
  0
ARC
  5
191
  8
1
  6
CONTINUOUS
 62
     7
 10
75.6
 20
256.041732
 30
0.0
 40
1.5
 50
270.0
 51
0.0
  0
ARC
  5
192
  8
1
  6
CONTINUOUS
 62
     7
 10
67.1
 20
340.159997
 30
0.0
 40
10.0
 50
0.0
 51
46.35865700000001
  0
LINE
  5
193
  8
1
  6
CONTINUOUS
 62
     7
 10
44.1
 20
355.122769
 30
0.0
 11
35.998581
 21
347.396737
 31
0.0
  0
ARC
  5
194
  8
1
  6
CONTINUOUS
 62
     7
 10
34.4
 20
256.041732
 30
0.0
 40
1.5
 50
180.0
 51
270.0
  0
LINE
  5
195
  8
1
  6
CONTINUOUS
 62
     7
 10
65.252895
 20
254.541732
 30
0.0
 11
65.278549
 21
254.542916
 31
0.0
  0
ENDSEC
  0
EOF
