  0
SECTION
  2
HEADER
  9
$ACADVER
  1
AC1006
  9
$DWGCODEPAGE
  3
ansi_932
  9
$INSBASE
 10
0.0
 20
0.0
 30
0.0
  9
$EXTMIN
 10
30.10080887742559
 20
327.4259380034736
  9
$EXTMAX
 10
336.9851956982462
 20
683.3913285508578
  9
$LIMMIN
 10
0.0
 20
0.0
  9
$LIMMAX
 10
12.0
 20
9.0
  9
$ORTHOMODE
 70
     0
  9
$REGENMODE
 70
     1
  9
$FILLMODE
 70
     1
  9
$QTEXTMODE
 70
     0
  9
$MIRRTEXT
 70
     1
  9
$DRAGMODE
 70
     2
  9
$LTSCALE
 40
1.0
  9
$OSMODE
 70
    37
  9
$ATTMODE
 70
     1
  9
$TEXTSIZE
 40
0.2
  9
$TRACEWID
 40
0.05
  9
$TEXTSTYLE
  7
STANDARD
  9
$CLAYER
  8
0
  9
$CELTYPE
  6
BYLAYER
  9
$CECOLOR
 62
   256
  9
$DIMSCALE
 40
1.0
  9
$DIMASZ
 40
3.0
  9
$DIMEXO
 40
0.0625
  9
$DIMDLI
 40
0.38
  9
$DIMRND
 40
0.0
  9
$DIMDLE
 40
0.0
  9
$DIMEXE
 40
1.5
  9
$DIMTP
 40
0.0
  9
$DIMTM
 40
0.0
  9
$DIMTXT
 40
3.0
  9
$DIMCEN
 40
0.09
  9
$DIMTSZ
 40
0.0
  9
$DIMTOL
 70
     0
  9
$DIMLIM
 70
     0
  9
$DIMTIH
 70
     1
  9
$DIMTOH
 70
     1
  9
$DIMSE1
 70
     0
  9
$DIMSE2
 70
     0
  9
$DIMTAD
 70
     1
  9
$DIMZIN
 70
     0
  9
$DIMBLK
  1

  9
$DIMASO
 70
     1
  9
$DIMSHO
 70
     1
  9
$DIMPOST
  1

  9
$DIMAPOST
  1

  9
$DIMALT
 70
     0
  9
$DIMALTD
 70
     2
  9
$DIMALTF
 40
25.4
  9
$DIMLFAC
 40
1.0
  9
$DIMTOFL
 70
     0
  9
$DIMTVP
 40
0.0
  9
$DIMTIX
 70
     0
  9
$DIMSOXD
 70
     0
  9
$DIMSAH
 70
     0
  9
$DIMBLK1
  1

  9
$DIMBLK2
  1

  9
$LUNITS
 70
     2
  9
$LUPREC
 70
     4
  9
$SKETCHINC
 40
0.1
  9
$FILLETRAD
 40
0.5
  9
$AUNITS
 70
     0
  9
$AUPREC
 70
     0
  9
$MENU
  1
.
  9
$ELEVATION
 40
0.0
  9
$THICKNESS
 40
0.0
  9
$LIMCHECK
 70
     0
  9
$CHAMFERA
 40
0.0
  9
$CHAMFERB
 40
0.0
  9
$SKPOLY
 70
     0
  9
$TDCREATE
 40
2459110.426384421
  9
$TDUPDATE
 40
2459110.426384618
  9
$TDINDWG
 40
0.0000000116
  9
$TDUSRTIMER
 40
0.0000000116
  9
$USRTIMER
 70
     1
  9
$ANGBASE
 50
0.0
  9
$ANGDIR
 70
     0
  9
$PDMODE
 70
     0
  9
$PDSIZE
 40
0.0
  9
$PLINEWID
 40
0.0
  9
$COORDS
 70
     1
  9
$SPLFRAME
 70
     0
  9
$SPLINETYPE
 70
     6
  9
$SPLINESEGS
 70
     8
  9
$ATTDIA
 70
     0
  9
$ATTREQ
 70
     1
  9
$HANDLING
 70
     1
  9
$HANDSEED
  5
495
  9
$SURFTAB1
 70
     6
  9
$SURFTAB2
 70
     6
  9
$SURFTYPE
 70
     6
  9
$SURFU
 70
     6
  9
$SURFV
 70
     6
  9
$UCSNAME
  2

  9
$UCSORG
 10
0.0
 20
0.0
 30
0.0
  9
$UCSXDIR
 10
1.0
 20
0.0
 30
0.0
  9
$UCSYDIR
 10
0.0
 20
1.0
 30
0.0
  9
$USERI1
 70
     0
  9
$USERI2
 70
     0
  9
$USERI3
 70
     0
  9
$USERI4
 70
     0
  9
$USERI5
 70
     0
  9
$USERR1
 40
0.0
  9
$USERR2
 40
0.0
  9
$USERR3
 40
0.0
  9
$USERR4
 40
0.0
  9
$USERR5
 40
0.0
  9
$WORLDVIEW
 70
     1
  0
ENDSEC
  0
SECTION
  2
TABLES
  0
TABLE
  2
VPORT
 70
     1
  0
VPORT
  2
*ACTIVE
 70
     0
 10
0.0
 20
0.0
 11
1.0
 21
1.0
 12
183.5430022878359
 22
505.4086332771657
 13
0.0
 23
0.0
 14
0.5
 24
0.5
 15
0.5
 25
0.5
 16
0.0
 26
0.0
 36
1.0
 17
0.0
 27
0.0
 37
0.0
 40
355.9653905473842
 41
1.6
 42
50.0
 43
0.0
 44
0.0
 50
0.0
 51
0.0
 71
     0
 72
   100
 73
     1
 74
     3
 75
     0
 76
     0
 77
     0
 78
     0
  0
ENDTAB
  0
TABLE
  2
LTYPE
 70
     2
  0
LTYPE
  2
CONTINUOUS
 70
     0
  3
Solid line
 72
    65
 73
     0
 40
0.0
  0
LTYPE
  2
CENTER
 70
     0
  3

 72
    65
 73
     0
 40
0.0
  0
ENDTAB
  0
TABLE
  2
LAYER
 70
     1
  0
LAYER
  2
0
 70
     0
 62
     7
  6
CONTINUOUS
  0
ENDTAB
  0
TABLE
  2
STYLE
 70
     2
  0
STYLE
  2
STANDARD
 70
     0
 40
0.0
 41
1.0
 50
0.0
 71
     0
 42
0.2
  3
txt
  4

  0
STYLE
  2
ＭＳ_ゴシック
 70
     0
 40
0.0
 41
1.0
 50
0.0
 71
     0
 42
0.2
  3
ＭＳ ゴシック.shx
  4

  0
ENDTAB
  0
TABLE
  2
VIEW
 70
     0
  0
ENDTAB
  0
TABLE
  2
UCS
 70
     0
  0
ENDTAB
  0
ENDSEC
  0
SECTION
  2
BLOCKS
  0
BLOCK
  8
0
  2
D_FRAME_VIEW_2242
 70
     0
 10
0.0
 20
0.0
 30
0.0
  0
ARC
  5
75
  8
0
  6
CONTINUOUS
 62
     7
 10
86.5616172708186
 20
463.5823834087665
 30
0.0
 40
7.999999999999948
 50
0.4999999999999432
 51
43.5999164104
  0
LINE
  5
76
  8
0
  6
CONTINUOUS
 62
     7
 10
81.09374168580455
 20
480.9248522711309
 30
0.0
 11
92.35500021107559
 21
469.0993313066118
 31
0.0
  0
ARC
  5
77
  8
0
  6
CONTINUOUS
 62
     7
 10
65.91980515086209
 20
251.4259380034737
 30
0.0
 40
229.9999999999999
 50
86.21724155378462
 51
93.78275844621533
  0
LINE
  5
78
  8
0
  6
CONTINUOUS
 62
     7
 10
50.74586861591966
 20
480.9248522711309
 30
0.0
 11
39.48461009064861
 21
469.0993313066118
 31
0.0
  0
ARC
  5
79
  8
0
  6
CONTINUOUS
 62
     7
 10
45.27799303090561
 20
463.5823834087665
 30
0.0
 40
7.999999999999948
 50
136.4000835896
 51
179.5
  0
LINE
  5
7A
  8
0
  6
CONTINUOUS
 62
     7
 10
37.27829764639223
 20
463.6521956927535
 30
0.0
 11
37.03197082731
 21
435.4259380034736
 31
0.0
  0
LINE
  5
7B
  8
0
  6
CONTINUOUS
 62
     7
 10
37.03197082731
 20
435.4259380034736
 30
0.0
 11
33.03181851376706
 21
435.4259380034736
 31
0.0
  0
LINE
  5
7C
  8
0
  6
CONTINUOUS
 62
     7
 10
94.80763947441422
 20
435.4259380034736
 30
0.0
 11
98.80779178795714
 21
435.4259380034736
 31
0.0
  0
LINE
  5
7D
  8
0
  6
CONTINUOUS
 62
     7
 10
94.56131265533197
 20
463.6521956927535
 30
0.0
 11
94.80763947441422
 21
435.4259380034736
 31
0.0
  0
LINE
  5
7E
  8
0
  6
CONTINUOUS
 62
     7
 10
37.03197082731
 20
435.4259380034736
 30
0.0
 11
37.03197082730999
 21
430.1413045963201
 31
0.0
  0
LINE
  5
7F
  8
0
  6
CONTINUOUS
 62
     7
 10
37.03197082730999
 20
411.940656629235
 30
0.0
 11
37.03197082730999
 21
395.4259380034737
 31
0.0
  0
LINE
  5
80
  8
0
  6
CONTINUOUS
 62
     7
 10
33.03181851376705
 20
435.4259380034736
 30
0.0
 11
33.03181851376706
 21
425.6530492699201
 31
0.0
  0
LINE
  5
81
  8
0
  6
CONTINUOUS
 62
     7
 10
33.03181851376706
 20
414.8587778434785
 30
0.0
 11
33.03181851376706
 21
379.7237198085335
 31
0.0
  0
LINE
  5
82
  8
0
  6
CONTINUOUS
 62
     7
 10
98.80779178795714
 20
435.4259380034736
 30
0.0
 11
98.80779178795713
 21
425.6530492699201
 31
0.0
  0
LINE
  5
83
  8
0
  6
CONTINUOUS
 62
     7
 10
98.80779178795713
 20
414.8587778434785
 30
0.0
 11
98.80779178795711
 21
379.7236023532544
 31
0.0
  0
LINE
  5
84
  8
0
  6
CONTINUOUS
 62
     7
 10
94.80763947441422
 20
435.4259380034736
 30
0.0
 11
94.8076394744142
 21
430.1413045963201
 31
0.0
  0
LINE
  5
85
  8
0
  6
CONTINUOUS
 62
     7
 10
94.8076394744142
 20
411.940656629235
 30
0.0
 11
94.8076394744142
 21
395.4259380034737
 31
0.0
  0
LINE
  5
86
  8
0
  6
CONTINUOUS
 62
     7
 10
94.56131265533196
 20
443.7259380034736
 30
0.0
 11
94.7352064717509
 21
443.7259380034736
 31
0.0
  0
LINE
  5
87
  8
0
  6
CONTINUOUS
 62
     7
 10
37.27829764639224
 20
443.7259380034736
 30
0.0
 11
37.10440382997331
 21
443.7259380034736
 31
0.0
  0
LINE
  5
88
  8
0
  6
CONTINUOUS
 62
     7
 10
81.09374168580455
 20
443.7259380034736
 30
0.0
 11
81.09374168580455
 21
480.9248522711309
 31
0.0
  0
LINE
  5
89
  8
0
  6
CONTINUOUS
 62
     7
 10
50.74586861591966
 20
443.7259380034736
 30
0.0
 11
50.74586861591966
 21
480.9248522711309
 31
0.0
  0
LINE
  5
8A
  8
0
  6
CONTINUOUS
 62
     7
 10
81.09374168580453
 20
443.7259380034736
 30
0.0
 11
81.09374168580453
 21
425.4259380034736
 31
0.0
  0
LINE
  5
8B
  8
0
  6
CONTINUOUS
 62
     7
 10
50.74586861591966
 20
443.7259380034736
 30
0.0
 11
50.74586861591966
 21
425.4259380034736
 31
0.0
  0
LINE
  5
8C
  8
0
  6
CONTINUOUS
 62
     7
 10
30.48027970275281
 20
463.9089876411727
 30
0.0
 11
30.1008088774256
 21
420.4259380034736
 31
0.0
  0
LINE
  5
8D
  8
0
  6
CONTINUOUS
 62
     7
 10
32.10088503419708
 20
420.4259380034736
 30
0.0
 11
32.48020354888116
 21
463.891534570176
 31
0.0
  0
LINE
  5
8E
  8
0
  6
CONTINUOUS
 62
     7
 10
30.1008088774256
 20
420.4259380034736
 30
0.0
 11
32.10088503419708
 21
420.4259380034736
 31
0.0
  0
LINE
  5
8F
  8
0
  6
CONTINUOUS
 62
     7
 10
84.20429439120439
 20
487.5189651203704
 30
0.0
 11
97.41554710486314
 21
473.6457425509444
 31
0.0
  0
LINE
  5
90
  8
0
  6
CONTINUOUS
 62
     7
 10
95.96720136979889
 20
472.2665055764831
 30
0.0
 11
83.28628347704236
 21
485.5828200944049
 31
0.0
  0
LINE
  5
91
  8
0
  6
CONTINUOUS
 62
     7
 10
84.20429439120439
 20
487.5189651203704
 30
0.0
 11
83.28628347704236
 21
485.5828200944049
 31
0.0
  0
ARC
  5
92
  8
0
  6
CONTINUOUS
 62
     7
 10
65.91980515086209
 20
251.4259380034736
 30
0.0
 40
234.8
 50
85.75836725197995
 51
94.24163274801995
  0
LINE
  5
93
  8
0
  6
CONTINUOUS
 62
     7
 10
47.63531591051982
 20
487.5189651203705
 30
0.0
 11
48.55332682468185
 21
485.5828200944049
 31
0.0
  0
ARC
  5
94
  8
0
  6
CONTINUOUS
 62
     7
 10
65.91980515086209
 20
251.4259380034736
 30
0.0
 40
236.8
 50
85.57150388185755
 51
94.42849611814232
  0
LINE
  5
95
  8
0
  6
CONTINUOUS
 62
     7
 10
99.73872526752712
 20
420.4259380034736
 30
0.0
 11
99.35940675284304
 21
463.891534570176
 31
0.0
  0
LINE
  5
96
  8
0
  6
CONTINUOUS
 62
     7
 10
101.3593305989714
 20
463.9089876411727
 30
0.0
 11
101.7388014242986
 21
420.4259380034736
 31
0.0
  0
LINE
  5
97
  8
0
  6
CONTINUOUS
 62
     7
 10
101.7388014242986
 20
420.4259380034736
 30
0.0
 11
99.73872526752712
 21
420.4259380034736
 31
0.0
  0
ARC
  5
98
  8
0
  6
CONTINUOUS
 62
     7
 10
44.77973520257046
 20
463.784198183546
 30
0.0
 40
12.3
 50
136.4000835896
 51
179.5
  0
ARC
  5
99
  8
0
  6
CONTINUOUS
 62
     7
 10
44.77973520257046
 20
463.784198183546
 30
0.0
 40
14.29999999999999
 50
136.4000835896
 51
179.5
  0
ARC
  5
9A
  8
0
  6
CONTINUOUS
 62
     7
 10
87.05987509915374
 20
463.784198183546
 30
0.0
 40
14.3
 50
0.5
 51
43.5999164104
  0
ARC
  5
9B
  8
0
  6
CONTINUOUS
 62
     7
 10
87.05987509915374
 20
463.784198183546
 30
0.0
 40
12.29999999999999
 50
0.4999999999999882
 51
43.59991641039998
  0
LINE
  5
9C
  8
0
  6
CONTINUOUS
 62
     7
 10
35.87240893192532
 20
472.2665055764831
 30
0.0
 11
48.55332682468185
 21
485.5828200944049
 31
0.0
  0
LINE
  5
9D
  8
0
  6
CONTINUOUS
 62
     7
 10
47.63531591051982
 20
487.5189651203705
 30
0.0
 11
34.42406319686108
 21
473.6457425509444
 31
0.0
  0
LINE
  5
9E
  8
0
  6
CONTINUOUS
 62
     7
 10
98.56116034758865
 20
463.687101834747
 30
0.0
 11
98.93869480481854
 21
420.4259380034736
 31
0.0
  0
LINE
  5
9F
  8
0
  6
CONTINUOUS
 62
     7
 10
82.91980515086202
 20
484.8075996652246
 30
0.0
 11
95.2516916812041
 21
471.8578052555345
 31
0.0
  0
LINE
  5
A0
  8
0
  6
CONTINUOUS
 62
     7
 10
32.90091549690565
 20
420.4259380034736
 30
0.0
 11
32.10088503419708
 21
420.4259380034736
 31
0.0
  0
LINE
  5
A1
  8
0
  6
CONTINUOUS
 62
     7
 10
98.93869480481854
 20
420.4259380034736
 30
0.0
 11
99.73872526752712
 21
420.4259380034736
 31
0.0
  0
ARC
  5
A2
  8
0
  6
CONTINUOUS
 62
     7
 10
86.5616172708186
 20
463.5823834087665
 30
0.0
 40
12.0
 50
0.5
 51
43.5999164104
  0
LINE
  5
A3
  8
0
  6
CONTINUOUS
 62
     7
 10
33.27844995413555
 20
463.687101834747
 30
0.0
 11
32.90091549690565
 21
420.4259380034736
 31
0.0
  0
ARC
  5
A4
  8
0
  6
CONTINUOUS
 62
     7
 10
45.27799303090561
 20
463.5823834087665
 30
0.0
 40
12.0
 50
136.4000835896
 51
179.5
  0
LINE
  5
A5
  8
0
  6
CONTINUOUS
 62
     7
 10
48.9198051508622
 20
484.8075996652246
 30
0.0
 11
36.58791862052011
 21
471.8578052555345
 31
0.0
  0
ARC
  5
A6
  8
0
  6
CONTINUOUS
 62
     7
 10
65.91980515086209
 20
251.4259380034736
 30
0.0
 40
234.0
 50
85.83381578248009
 51
94.16618421751981
  0
ARC
  5
A7
  8
0
  6
CONTINUOUS
 62
     7
 10
98.39065369159646
 20
425.9287226428899
 30
0.0
 40
0.5000000000000018
 50
300.0
 51
0.5
  0
ARC
  5
A8
  8
0
  6
CONTINUOUS
 62
     7
 10
33.44895661012774
 20
425.9287226428899
 30
0.0
 40
0.5000000000000018
 50
179.5
 51
240.0
  0
LINE
  5
A9
  8
0
  6
CONTINUOUS
 62
     7
 10
97.11980515086212
 20
422.8289724920133
 30
0.0
 11
98.91772384054043
 21
422.8289724920133
 31
0.0
  0
LINE
  5
AA
  8
0
  6
CONTINUOUS
 62
     7
 10
35.21980515086208
 20
424.0402973574184
 30
0.0
 11
35.21980515086208
 21
423.3289724920133
 31
0.0
  0
LINE
  5
AB
  8
0
  6
CONTINUOUS
 62
     7
 10
98.64065369159646
 20
425.4957099409977
 30
0.0
 11
96.86980515086212
 21
424.4733100593107
 31
0.0
  0
ARC
  5
AC
  8
0
  6
CONTINUOUS
 62
     7
 10
34.71980515086208
 20
423.3289724920133
 30
0.0
 40
0.5000000000000004
 50
270.0
 51
0.0
  0
LINE
  5
AD
  8
0
  6
CONTINUOUS
 62
     7
 10
34.71980515086208
 20
422.8289724920133
 30
0.0
 11
32.92188646118377
 21
422.8289724920133
 31
0.0
  0
ARC
  5
AE
  8
0
  6
CONTINUOUS
 62
     7
 10
34.71980515086208
 20
424.0402973574184
 30
0.0
 40
0.500000000000002
 50
0.0
 51
59.99999999999994
  0
LINE
  5
AF
  8
0
  6
CONTINUOUS
 62
     7
 10
33.19895661012774
 20
425.4957099409977
 30
0.0
 11
34.96980515086208
 21
424.4733100593107
 31
0.0
  0
ARC
  5
B0
  8
0
  6
CONTINUOUS
 62
     7
 10
97.11980515086212
 20
424.0402973574184
 30
0.0
 40
0.500000000000002
 50
120.0
 51
180.0
  0
LINE
  5
B1
  8
0
  6
CONTINUOUS
 62
     7
 10
96.61980515086212
 20
424.0402973574184
 30
0.0
 11
96.61980515086212
 21
423.3289724920133
 31
0.0
  0
ARC
  5
B2
  8
0
  6
CONTINUOUS
 62
     7
 10
97.11980515086212
 20
423.3289724920133
 30
0.0
 40
0.5000000000000004
 50
180.0
 51
270.0
  0
LINE
  5
B3
  8
0
  6
CONTINUOUS
 62
     7
 10
75.91980515086215
 20
485.2121651427129
 30
0.0
 11
75.91553073305626
 21
485.1122351415076
 31
0.0
  0
LINE
  5
B4
  8
0
  6
CONTINUOUS
 62
     7
 10
55.91980515086207
 20
485.2121651427129
 30
0.0
 11
55.92407956866795
 21
485.1122351415076
 31
0.0
  0
ARC
  5
B5
  8
0
  6
CONTINUOUS
 62
     7
 10
75.81562208897967
 20
485.116508645781
 30
0.0
 40
0.0999999999999933
 50
267.5752123582696
 51
357.5507165133497
  0
ARC
  5
B6
  8
0
  6
CONTINUOUS
 62
     7
 10
65.91980515086209
 20
251.4259380034736
 30
0.0
 40
233.8
 50
87.57521235826943
 51
92.42478764173073
  0
ARC
  5
B7
  8
0
  6
CONTINUOUS
 62
     7
 10
56.02398821274455
 20
485.116508645781
 30
0.0
 40
0.0999999999999933
 50
182.4492834866503
 51
272.4247876417303
  0
LINE
  5
B8
  8
0
  6
CONTINUOUS
 62
     7
 10
34.16217946762193
 20
421.2683123202334
 30
0.0
 11
33.31980515086208
 21
420.4259380034736
 31
0.0
  0
LINE
  5
B9
  8
0
  6
CONTINUOUS
 62
     7
 10
33.31980515086207
 20
420.4259380034736
 30
0.0
 11
32.90091549690513
 21
420.4259380034736
 31
0.0
  0
LINE
  5
BA
  8
0
  6
CONTINUOUS
 62
     7
 10
97.67743083410227
 20
421.2683123202334
 30
0.0
 11
98.51980515086211
 21
420.4259380034736
 31
0.0
  0
LINE
  5
BB
  8
0
  6
CONTINUOUS
 62
     7
 10
98.51980515086211
 20
420.4259380034736
 30
0.0
 11
98.93869480481906
 21
420.4259380034736
 31
0.0
  0
LINE
  5
BC
  8
0
  6
CONTINUOUS
 62
     7
 10
35.21980515086208
 20
422.5330447846601
 30
0.0
 11
35.21980515086208
 21
423.3289724920133
 31
0.0
  0
LINE
  5
BD
  8
0
  6
CONTINUOUS
 62
     7
 10
96.61980515086212
 20
422.5330447846601
 30
0.0
 11
96.61980515086212
 21
423.3289724920133
 31
0.0
  0
LINE
  5
BE
  8
0
  6
CONTINUOUS
 62
     7
 10
97.67743083410227
 20
421.2683123202334
 30
0.0
 11
96.76625176026884
 21
422.1794913940669
 31
0.0
  0
LINE
  5
BF
  8
0
  6
CONTINUOUS
 62
     7
 10
34.16217946762192
 20
421.2683123202334
 30
0.0
 11
35.07335854145535
 21
422.1794913940669
 31
0.0
  0
ARC
  5
C0
  8
0
  6
CONTINUOUS
 62
     7
 10
97.11980515086212
 20
422.5330447846601
 30
0.0
 40
0.500000000000008
 50
180.0
 51
225.0
  0
ARC
  5
C1
  8
0
  6
CONTINUOUS
 62
     7
 10
34.71980515086208
 20
422.5330447846601
 30
0.0
 40
0.500000000000008
 50
314.9999999999998
 51
359.9999999999999
  0
LINE
  5
C2
  8
0
  6
CONTINUOUS
 62
     7
 10
33.27844995413555
 20
330.4259380034736
 30
0.0
 11
32.90091549690565
 21
330.4259380034736
 31
0.0
  0
LINE
  5
C3
  8
0
  6
CONTINUOUS
 62
     7
 10
32.90091549690567
 20
373.381071165285
 30
0.0
 11
32.90091549690565
 21
330.4259380034736
 31
0.0
  0
LINE
  5
C4
  8
0
  6
CONTINUOUS
 62
     7
 10
32.92188646118377
 20
373.4000222110947
 30
0.0
 11
32.92188646118377
 21
355.9259380034736
 31
0.0
  0
LINE
  5
C5
  8
0
  6
CONTINUOUS
 62
     7
 10
32.92188646118379
 20
355.9259380034736
 30
0.0
 11
32.92624989507917
 21
355.4259380034736
 31
0.0
  0
LINE
  5
C6
  8
0
  6
CONTINUOUS
 62
     7
 10
32.93280935547855
 20
379.5677880898202
 30
0.0
 11
32.90091549690565
 21
375.9131138885376
 31
0.0
  0
LINE
  5
C7
  8
0
  6
CONTINUOUS
 62
     7
 10
32.90091549690566
 20
418.6538077827581
 30
0.0
 11
32.90091549690565
 21
375.9131138885376
 31
0.0
  0
LINE
  5
C8
  8
0
  6
CONTINUOUS
 62
     7
 10
98.93869480481854
 20
418.6538077827581
 30
0.0
 11
98.93869480481854
 21
375.9131138885376
 31
0.0
  0
LINE
  5
C9
  8
0
  6
CONTINUOUS
 62
     7
 10
98.90680094624562
 20
379.5677880898202
 30
0.0
 11
98.93869480481854
 21
375.9131138885376
 31
0.0
  0
LINE
  5
CA
  8
0
  6
CONTINUOUS
 62
     7
 10
98.9177238405404
 20
355.9259380034736
 30
0.0
 11
98.91336040664501
 21
355.4259380034736
 31
0.0
  0
LINE
  5
CB
  8
0
  6
CONTINUOUS
 62
     7
 10
98.9177238405404
 20
373.4000222110947
 30
0.0
 11
98.9177238405404
 21
355.9259380034736
 31
0.0
  0
LINE
  5
CC
  8
0
  6
CONTINUOUS
 62
     7
 10
98.93869480481851
 20
373.381071165285
 30
0.0
 11
98.93869480481852
 21
330.4259380034736
 31
0.0
  0
LINE
  5
CD
  8
0
  6
CONTINUOUS
 62
     7
 10
98.56116034758863
 20
330.4259380034736
 30
0.0
 11
98.93869480481852
 21
330.4259380034736
 31
0.0
  0
LINE
  5
CE
  8
0
  6
CONTINUOUS
 62
     7
 10
33.4109476108017
 20
420.4259380034736
 30
0.0
 11
33.3198051508621
 21
420.4259380034736
 31
0.0
  0
LINE
  5
CF
  8
0
  6
CONTINUOUS
 62
     7
 10
98.4286626909225
 20
420.4259380034736
 30
0.0
 11
98.51980515086208
 21
420.4259380034736
 31
0.0
  0
POLYLINE
  5
D0
  8
0
  6
CONTINUOUS
 62
     7
 66
     1
 10
0.0
 20
0.0
 30
0.0
  0
VERTEX
  5
27F
  8
0
  6
CONTINUOUS
 62
     7
 10
32.940488217579
 20
418.9298481723181
 30
0.0
  0
VERTEX
  5
280
  8
0
  6
CONTINUOUS
 62
     7
 10
32.91090853406331
 20
418.7945536260397
 30
0.0
  0
VERTEX
  5
281
  8
0
  6
CONTINUOUS
 62
     7
 10
32.90091549690577
 20
418.6538077827581
 30
0.0
  0
SEQEND
  5
47C
  8
0
  6
CONTINUOUS
 62
     7
  0
POLYLINE
  5
D1
  8
0
  6
CONTINUOUS
 62
     7
 66
     1
 10
0.0
 20
0.0
 30
0.0
  0
VERTEX
  5
282
  8
0
  6
CONTINUOUS
 62
     7
 10
98.93869480481854
 20
418.653807782758
 30
0.0
  0
VERTEX
  5
283
  8
0
  6
CONTINUOUS
 62
     7
 10
98.92870176766098
 20
418.7945536260397
 30
0.0
  0
VERTEX
  5
284
  8
0
  6
CONTINUOUS
 62
     7
 10
98.89912208414529
 20
418.9298481723181
 30
0.0
  0
SEQEND
  5
47D
  8
0
  6
CONTINUOUS
 62
     7
  0
LINE
  5
D2
  8
0
  6
CONTINUOUS
 62
     7
 10
33.31980515086206
 20
420.2793939278494
 30
0.0
 11
33.06554442162273
 21
419.3028504748966
 31
0.0
  0
POLYLINE
  5
D3
  8
0
  6
CONTINUOUS
 62
     7
 66
     1
 10
0.0
 20
0.0
 30
0.0
  0
VERTEX
  5
285
  8
0
  6
CONTINUOUS
 62
     7
 10
32.90091549690568
 20
375.9131138885376
 30
0.0
  0
VERTEX
  5
286
  8
0
  6
CONTINUOUS
 62
     7
 10
32.9123628955875
 20
375.7627777547615
 30
0.0
  0
VERTEX
  5
287
  8
0
  6
CONTINUOUS
 62
     7
 10
32.9461809398455
 20
375.6195249741631
 30
0.0
  0
VERTEX
  5
288
  8
0
  6
CONTINUOUS
 62
     7
 10
33.00082117410133
 20
375.4899147837445
 30
0.0
  0
VERTEX
  5
289
  8
0
  6
CONTINUOUS
 62
     7
 10
33.07378173943935
 20
375.3798817556184
 30
0.0
  0
VERTEX
  5
28A
  8
0
  6
CONTINUOUS
 62
     7
 10
33.1617219283504
 20
375.2944640657039
 30
0.0
  0
SEQEND
  5
47E
  8
0
  6
CONTINUOUS
 62
     7
  0
LINE
  5
D4
  8
0
  6
CONTINUOUS
 62
     7
 10
33.1617219283504
 20
375.294464065704
 30
0.0
 11
33.31980515086208
 21
374.9957209517553
 31
0.0
  0
LINE
  5
D5
  8
0
  6
CONTINUOUS
 62
     7
 10
33.31980515086208
 20
374.9957209517553
 30
0.0
 11
33.31980515086208
 21
374.1497102033204
 31
0.0
  0
POLYLINE
  5
D6
  8
0
  6
CONTINUOUS
 62
     7
 66
     1
 10
0.0
 20
0.0
 30
0.0
  0
VERTEX
  5
28B
  8
0
  6
CONTINUOUS
 62
     7
 10
32.9662517602688
 20
373.4426034221338
 30
0.0
  0
VERTEX
  5
28C
  8
0
  6
CONTINUOUS
 62
     7
 10
33.08584515893135
 20
373.5776488005027
 30
0.0
  0
VERTEX
  5
28D
  8
0
  6
CONTINUOUS
 62
     7
 10
33.18475977249322
 20
373.7222440275235
 30
0.0
  0
VERTEX
  5
28E
  8
0
  6
CONTINUOUS
 62
     7
 10
33.25867255769679
 20
373.8700695979307
 30
0.0
  0
VERTEX
  5
28F
  8
0
  6
CONTINUOUS
 62
     7
 10
33.30435317115577
 20
374.0146648249515
 30
0.0
  0
VERTEX
  5
290
  8
0
  6
CONTINUOUS
 62
     7
 10
33.31980515086209
 20
374.1497102033204
 30
0.0
  0
SEQEND
  5
47F
  8
0
  6
CONTINUOUS
 62
     7
  0
LINE
  5
D7
  8
0
  6
CONTINUOUS
 62
     7
 10
32.90091549690565
 20
330.4259380034736
 30
0.0
 11
32.10088503419707
 21
330.4259380034736
 31
0.0
  0
LINE
  5
D8
  8
0
  6
CONTINUOUS
 62
     7
 10
32.10088503419707
 20
330.4259380034736
 30
0.0
 11
30.10080887742559
 21
332.4259380034736
 31
0.0
  0
LINE
  5
D9
  8
0
  6
CONTINUOUS
 62
     7
 10
33.3198051508621
 20
420.4259380034736
 30
0.0
 11
33.3198051508621
 21
420.2793939278494
 31
0.0
  0
LINE
  5
DA
  8
0
  6
CONTINUOUS
 62
     7
 10
30.1008088774256
 20
420.4259380034736
 30
0.0
 11
30.10080887742559
 21
332.4259380034736
 31
0.0
  0
LINE
  5
DB
  8
0
  6
CONTINUOUS
 62
     7
 10
33.06554442162273
 20
419.3028504748966
 30
0.0
 11
32.94048821757895
 21
418.9298481723181
 31
0.0
  0
LINE
  5
DC
  8
0
  6
CONTINUOUS
 62
     7
 10
98.77422977183124
 20
419.3023898878583
 30
0.0
 11
98.89912208414525
 21
418.9298481723181
 31
0.0
  0
LINE
  5
DD
  8
0
  6
CONTINUOUS
 62
     7
 10
98.51980515086214
 20
420.2793939278494
 30
0.0
 11
98.77422977183124
 21
419.3023898878583
 31
0.0
  0
LINE
  5
DE
  8
0
  6
CONTINUOUS
 62
     7
 10
99.7387252675271
 20
330.4259380034736
 30
0.0
 11
101.7388014242986
 21
332.4259380034736
 31
0.0
  0
LINE
  5
DF
  8
0
  6
CONTINUOUS
 62
     7
 10
98.93869480481852
 20
330.4259380034736
 30
0.0
 11
99.7387252675271
 21
330.4259380034736
 31
0.0
  0
POLYLINE
  5
E0
  8
0
  6
CONTINUOUS
 62
     7
 66
     1
 10
0.0
 20
0.0
 30
0.0
  0
VERTEX
  5
291
  8
0
  6
CONTINUOUS
 62
     7
 10
98.51980515086214
 20
374.1497102033203
 30
0.0
  0
VERTEX
  5
292
  8
0
  6
CONTINUOUS
 62
     7
 10
98.53525713056845
 20
374.0146648249514
 30
0.0
  0
VERTEX
  5
293
  8
0
  6
CONTINUOUS
 62
     7
 10
98.58093774402744
 20
373.8700695979306
 30
0.0
  0
VERTEX
  5
294
  8
0
  6
CONTINUOUS
 62
     7
 10
98.65485052923101
 20
373.7222440275235
 30
0.0
  0
VERTEX
  5
295
  8
0
  6
CONTINUOUS
 62
     7
 10
98.75376514279287
 20
373.5776488005027
 30
0.0
  0
VERTEX
  5
296
  8
0
  6
CONTINUOUS
 62
     7
 10
98.87335854145542
 20
373.4426034221337
 30
0.0
  0
SEQEND
  5
480
  8
0
  6
CONTINUOUS
 62
     7
  0
LINE
  5
E1
  8
0
  6
CONTINUOUS
 62
     7
 10
98.5198051508621
 20
374.9957209517553
 30
0.0
 11
98.5198051508621
 21
374.1497102033203
 31
0.0
  0
LINE
  5
E2
  8
0
  6
CONTINUOUS
 62
     7
 10
98.67788837337378
 20
375.294464065704
 30
0.0
 11
98.5198051508621
 21
374.9957209517553
 31
0.0
  0
POLYLINE
  5
E3
  8
0
  6
CONTINUOUS
 62
     7
 66
     1
 10
0.0
 20
0.0
 30
0.0
  0
VERTEX
  5
297
  8
0
  6
CONTINUOUS
 62
     7
 10
98.67788837337378
 20
375.2944640657039
 30
0.0
  0
VERTEX
  5
298
  8
0
  6
CONTINUOUS
 62
     7
 10
98.76582856228482
 20
375.3798817556184
 30
0.0
  0
VERTEX
  5
299
  8
0
  6
CONTINUOUS
 62
     7
 10
98.83878912762285
 20
375.4899147837445
 30
0.0
  0
VERTEX
  5
29A
  8
0
  6
CONTINUOUS
 62
     7
 10
98.89342936187867
 20
375.6195249741631
 30
0.0
  0
VERTEX
  5
29B
  8
0
  6
CONTINUOUS
 62
     7
 10
98.92724740613667
 20
375.7627777547615
 30
0.0
  0
VERTEX
  5
29C
  8
0
  6
CONTINUOUS
 62
     7
 10
98.9386948048185
 20
375.9131138885376
 30
0.0
  0
SEQEND
  5
481
  8
0
  6
CONTINUOUS
 62
     7
  0
LINE
  5
E4
  8
0
  6
CONTINUOUS
 62
     7
 10
98.51980515086208
 20
420.4259380034736
 30
0.0
 11
98.51980515086208
 21
420.2793939278494
 31
0.0
  0
LINE
  5
E5
  8
0
  6
CONTINUOUS
 62
     7
 10
101.7388014242986
 20
420.4259380034736
 30
0.0
 11
101.7388014242986
 21
332.4259380034736
 31
0.0
  0
LINE
  5
E6
  8
0
  6
CONTINUOUS
 62
     7
 10
32.90091549690514
 20
373.3810711652858
 30
0.0
 11
32.9662517602688
 21
373.4426034221338
 31
0.0
  0
LINE
  5
E7
  8
0
  6
CONTINUOUS
 62
     7
 10
98.87335854145542
 20
373.4426034221337
 30
0.0
 11
98.93869480481908
 21
373.3810711652857
 31
0.0
  0
LINE
  5
E8
  8
0
  6
CONTINUOUS
 62
     7
 10
96.6857604261
 20
422.0828641826129
 30
0.0
 11
96.80234183946922
 21
422.1433832843112
 31
0.0
  0
LINE
  5
E9
  8
0
  6
CONTINUOUS
 62
     7
 10
96.6857604261
 20
422.0828641826129
 30
0.0
 11
96.6198051508621
 21
422.2082250167106
 31
0.0
  0
LINE
  5
EA
  8
0
  6
CONTINUOUS
 62
     7
 10
96.6198051508621
 20
422.5330447846601
 30
0.0
 11
96.6198051508621
 21
422.2082250167106
 31
0.0
  0
LINE
  5
EB
  8
0
  6
CONTINUOUS
 62
     7
 10
35.15384987562418
 20
422.0828641826129
 30
0.0
 11
35.03726846225496
 21
422.1433832843112
 31
0.0
  0
LINE
  5
EC
  8
0
  6
CONTINUOUS
 62
     7
 10
35.15384987562418
 20
422.0828641826129
 30
0.0
 11
35.2198051508621
 21
422.2082250167106
 31
0.0
  0
LINE
  5
ED
  8
0
  6
CONTINUOUS
 62
     7
 10
35.2198051508621
 20
422.5330447846601
 30
0.0
 11
35.2198051508621
 21
422.2082250167106
 31
0.0
  0
LINE
  5
EE
  8
0
  6
CONTINUOUS
 62
     7
 10
35.07335854145538
 20
421.9091734346235
 30
0.0
 11
35.15384987562418
 21
422.0828641826129
 31
0.0
  0
LINE
  5
EF
  8
0
  6
CONTINUOUS
 62
     7
 10
96.76625176026882
 20
421.9091734346235
 30
0.0
 11
96.6857604261
 21
422.0828641826129
 31
0.0
  0
LINE
  5
F0
  8
0
  6
CONTINUOUS
 62
     7
 10
35.2198051508621
 20
421.5499273227151
 30
0.0
 11
35.15384987562418
 21
421.2686215452577
 31
0.0
  0
LINE
  5
F1
  8
0
  6
CONTINUOUS
 62
     7
 10
35.15384987562418
 20
421.2686215452577
 30
0.0
 11
35.07335854145538
 21
421.3613321179744
 31
0.0
  0
LINE
  5
F2
  8
0
  6
CONTINUOUS
 62
     7
 10
35.2198051508621
 20
422.2082250167106
 30
0.0
 11
35.2198051508621
 21
421.5499273227151
 31
0.0
  0
LINE
  5
F3
  8
0
  6
CONTINUOUS
 62
     7
 10
96.6857604261
 20
421.2686215452577
 30
0.0
 11
96.76625176026882
 21
421.3613321179744
 31
0.0
  0
LINE
  5
F4
  8
0
  6
CONTINUOUS
 62
     7
 10
96.6198051508621
 20
421.5499273227151
 30
0.0
 11
96.6857604261
 21
421.2686215452577
 31
0.0
  0
LINE
  5
F5
  8
0
  6
CONTINUOUS
 62
     7
 10
96.6198051508621
 20
422.2082250167106
 30
0.0
 11
96.6198051508621
 21
421.5499273227151
 31
0.0
  0
LINE
  5
F6
  8
0
  6
CONTINUOUS
 62
     7
 10
34.67756301661125
 20
421.0500848181172
 30
0.0
 11
34.71980515086209
 21
421.0533172824091
 31
0.0
  0
POLYLINE
  5
F7
  8
0
  6
CONTINUOUS
 62
     7
 66
     1
 10
0.0
 20
0.0
 30
0.0
  0
VERTEX
  5
29D
  8
0
  6
CONTINUOUS
 62
     7
 10
34.71980515086209
 20
421.0533172824091
 30
0.0
  0
VERTEX
  5
29E
  8
0
  6
CONTINUOUS
 62
     7
 10
34.72440377206949
 20
421.0531518415132
 30
0.0
  0
VERTEX
  5
29F
  8
0
  6
CONTINUOUS
 62
     7
 10
34.75119132479716
 20
421.0529269225592
 30
0.0
  0
VERTEX
  5
2A0
  8
0
  6
CONTINUOUS
 62
     7
 10
34.77184340551634
 20
421.0536193756193
 30
0.0
  0
VERTEX
  5
2A1
  8
0
  6
CONTINUOUS
 62
     7
 10
34.79243158305725
 20
421.0550703706429
 30
0.0
  0
VERTEX
  5
2A2
  8
0
  6
CONTINUOUS
 62
     7
 10
34.81307330774728
 20
421.057302919699
 30
0.0
  0
VERTEX
  5
2A3
  8
0
  6
CONTINUOUS
 62
     7
 10
34.83359222338333
 20
421.0603143759218
 30
0.0
  0
VERTEX
  5
2A4
  8
0
  6
CONTINUOUS
 62
     7
 10
34.85417571828245
 20
421.0641557852728
 30
0.0
  0
VERTEX
  5
2A5
  8
0
  6
CONTINUOUS
 62
     7
 10
34.87457002747293
 20
421.0688049277429
 30
0.0
  0
VERTEX
  5
2A6
  8
0
  6
CONTINUOUS
 62
     7
 10
34.89486568313922
 20
421.0743047313043
 30
0.0
  0
VERTEX
  5
2A7
  8
0
  6
CONTINUOUS
 62
     7
 10
34.91495862024284
 20
421.0806547573947
 30
0.0
  0
VERTEX
  5
2A8
  8
0
  6
CONTINUOUS
 62
     7
 10
34.92838660450442
 20
421.0854281186904
 30
0.0
  0
VERTEX
  5
2A9
  8
0
  6
CONTINUOUS
 62
     7
 10
34.94166500230519
 20
421.0905876132578
 30
0.0
  0
VERTEX
  5
2AA
  8
0
  6
CONTINUOUS
 62
     7
 10
34.96358757856594
 20
421.1001214055931
 30
0.0
  0
VERTEX
  5
2AB
  8
0
  6
CONTINUOUS
 62
     7
 10
34.98499460491061
 20
421.1107483411367
 30
0.0
  0
VERTEX
  5
2AC
  8
0
  6
CONTINUOUS
 62
     7
 10
35.00192800200107
 20
421.120165721943
 30
0.0
  0
VERTEX
  5
2AD
  8
0
  6
CONTINUOUS
 62
     7
 10
35.01844951450288
 20
421.1302980769044
 30
0.0
  0
VERTEX
  5
2AE
  8
0
  6
CONTINUOUS
 62
     7
 10
35.03466352110246
 20
421.1412387399308
 30
0.0
  0
VERTEX
  5
2AF
  8
0
  6
CONTINUOUS
 62
     7
 10
35.05039029620896
 20
421.1528942628938
 30
0.0
  0
VERTEX
  5
2B0
  8
0
  6
CONTINUOUS
 62
     7
 10
35.06151774807871
 20
421.1618276539398
 30
0.0
  0
VERTEX
  5
2B1
  8
0
  6
CONTINUOUS
 62
     7
 10
35.07235563968381
 20
421.1711301488377
 30
0.0
  0
VERTEX
  5
2B2
  8
0
  6
CONTINUOUS
 62
     7
 10
35.08414794217842
 20
421.181993990046
 30
0.0
  0
VERTEX
  5
2B3
  8
0
  6
CONTINUOUS
 62
     7
 10
35.09554602275175
 20
421.1933090804158
 30
0.0
  0
VERTEX
  5
2B4
  8
0
  6
CONTINUOUS
 62
     7
 10
35.10652552806989
 20
421.2050579104295
 30
0.0
  0
VERTEX
  5
2B5
  8
0
  6
CONTINUOUS
 62
     7
 10
35.11933517983583
 20
421.2199696089668
 30
0.0
  0
VERTEX
  5
2B6
  8
0
  6
CONTINUOUS
 62
     7
 10
35.13147358290964
 20
421.2354913701552
 30
0.0
  0
VERTEX
  5
2B7
  8
0
  6
CONTINUOUS
 62
     7
 10
35.14303130872997
 20
421.251772990317
 30
0.0
  0
VERTEX
  5
2B8
  8
0
  6
CONTINUOUS
 62
     7
 10
35.15384987562418
 20
421.2686215452577
 30
0.0
  0
SEQEND
  5
482
  8
0
  6
CONTINUOUS
 62
     7
  0
LINE
  5
F8
  8
0
  6
CONTINUOUS
 62
     7
 10
97.16204728511293
 20
421.0500848181172
 30
0.0
 11
97.1198051508621
 21
421.0533172824091
 31
0.0
  0
POLYLINE
  5
F9
  8
0
  6
CONTINUOUS
 62
     7
 66
     1
 10
0.0
 20
0.0
 30
0.0
  0
VERTEX
  5
2B9
  8
0
  6
CONTINUOUS
 62
     7
 10
97.1198051508621
 20
421.0533172824091
 30
0.0
  0
VERTEX
  5
2BA
  8
0
  6
CONTINUOUS
 62
     7
 10
97.1152065296547
 20
421.0531518415132
 30
0.0
  0
VERTEX
  5
2BB
  8
0
  6
CONTINUOUS
 62
     7
 10
97.08841897692703
 20
421.0529269225592
 30
0.0
  0
VERTEX
  5
2BC
  8
0
  6
CONTINUOUS
 62
     7
 10
97.06776689620787
 20
421.0536193756193
 30
0.0
  0
VERTEX
  5
2BD
  8
0
  6
CONTINUOUS
 62
     7
 10
97.04717871866697
 20
421.0550703706429
 30
0.0
  0
VERTEX
  5
2BE
  8
0
  6
CONTINUOUS
 62
     7
 10
97.02653699397692
 20
421.057302919699
 30
0.0
  0
VERTEX
  5
2BF
  8
0
  6
CONTINUOUS
 62
     7
 10
97.00601807834086
 20
421.0603143759218
 30
0.0
  0
VERTEX
  5
2C0
  8
0
  6
CONTINUOUS
 62
     7
 10
96.98543458344174
 20
421.0641557852728
 30
0.0
  0
VERTEX
  5
2C1
  8
0
  6
CONTINUOUS
 62
     7
 10
96.96504027425128
 20
421.0688049277429
 30
0.0
  0
VERTEX
  5
2C2
  8
0
  6
CONTINUOUS
 62
     7
 10
96.94471475883482
 20
421.0743136162729
 30
0.0
  0
VERTEX
  5
2C3
  8
0
  6
CONTINUOUS
 62
     7
 10
96.92465168148135
 20
421.0806547573947
 30
0.0
  0
VERTEX
  5
2C4
  8
0
  6
CONTINUOUS
 62
     7
 10
96.91122369721977
 20
421.0854281186904
 30
0.0
  0
VERTEX
  5
2C5
  8
0
  6
CONTINUOUS
 62
     7
 10
96.897945299419
 20
421.0905876132578
 30
0.0
  0
VERTEX
  5
2C6
  8
0
  6
CONTINUOUS
 62
     7
 10
96.87602272315826
 20
421.1001214055931
 30
0.0
  0
VERTEX
  5
2C7
  8
0
  6
CONTINUOUS
 62
     7
 10
96.85461569681358
 20
421.1107483411367
 30
0.0
  0
VERTEX
  5
2C8
  8
0
  6
CONTINUOUS
 62
     7
 10
96.83768229972311
 20
421.120165721943
 30
0.0
  0
VERTEX
  5
2C9
  8
0
  6
CONTINUOUS
 62
     7
 10
96.82116078722132
 20
421.1302980769044
 30
0.0
  0
VERTEX
  5
2CA
  8
0
  6
CONTINUOUS
 62
     7
 10
96.80494678062173
 20
421.1412387399308
 30
0.0
  0
VERTEX
  5
2CB
  8
0
  6
CONTINUOUS
 62
     7
 10
96.78922000551523
 20
421.1528942628938
 30
0.0
  0
VERTEX
  5
2CC
  8
0
  6
CONTINUOUS
 62
     7
 10
96.77444808409061
 20
421.1648868315762
 30
0.0
  0
VERTEX
  5
2CD
  8
0
  6
CONTINUOUS
 62
     7
 10
96.76011688670606
 20
421.1776085790802
 30
0.0
  0
VERTEX
  5
2CE
  8
0
  6
CONTINUOUS
 62
     7
 10
96.74634463735318
 20
421.1909760751552
 30
0.0
  0
VERTEX
  5
2CF
  8
0
  6
CONTINUOUS
 62
     7
 10
96.73299929238219
 20
421.2051533199385
 30
0.0
  0
VERTEX
  5
2D0
  8
0
  6
CONTINUOUS
 62
     7
 10
96.72028705110067
 20
421.2199546319661
 30
0.0
  0
VERTEX
  5
2D1
  8
0
  6
CONTINUOUS
 62
     7
 10
96.70808568097011
 20
421.2355603108035
 30
0.0
  0
VERTEX
  5
2D2
  8
0
  6
CONTINUOUS
 62
     7
 10
96.69659013183768
 20
421.2517559883525
 30
0.0
  0
VERTEX
  5
2D3
  8
0
  6
CONTINUOUS
 62
     7
 10
96.6857604261
 20
421.2686215452577
 30
0.0
  0
SEQEND
  5
483
  8
0
  6
CONTINUOUS
 62
     7
  0
LINE
  5
FA
  8
0
  6
CONTINUOUS
 62
     7
 10
35.2198051508621
 20
421.550267328701
 30
0.0
 11
35.2198051508621
 21
420.6254234106315
 31
0.0
  0
LINE
  5
FB
  8
0
  6
CONTINUOUS
 62
     7
 10
96.6198051508621
 20
421.550267328701
 30
0.0
 11
96.6198051508621
 21
420.6254234106315
 31
0.0
  0
LINE
  5
FC
  8
0
  6
CONTINUOUS
 62
     7
 10
35.21980515086208
 20
375.2639335598446
 30
0.0
 11
35.21980515086208
 21
376.6103703751002
 31
0.0
  0
LINE
  5
FD
  8
0
  6
CONTINUOUS
 62
     7
 10
96.6198051508621
 20
375.2639335598446
 30
0.0
 11
96.6198051508621
 21
376.6103703751002
 31
0.0
  0
LINE
  5
FE
  8
0
  6
CONTINUOUS
 62
     7
 10
35.21980515086208
 20
376.6103703751002
 30
0.0
 11
35.21980515086208
 21
378.1176229478584
 31
0.0
  0
LINE
  5
FF
  8
0
  6
CONTINUOUS
 62
     7
 10
96.6198051508621
 20
376.6103703751002
 30
0.0
 11
96.6198051508621
 21
378.1176229478584
 31
0.0
  0
LINE
  5
100
  8
0
  6
CONTINUOUS
 62
     7
 10
35.21980515086208
 20
375.2639335598446
 30
0.0
 11
35.21980515086208
 21
374.2849777388937
 31
0.0
  0
LINE
  5
101
  8
0
  6
CONTINUOUS
 62
     7
 10
96.6198051508621
 20
375.2639335598446
 30
0.0
 11
96.6198051508621
 21
374.2849777388937
 31
0.0
  0
LINE
  5
102
  8
0
  6
CONTINUOUS
 62
     7
 10
35.2198051508621
 20
420.6254234106315
 30
0.0
 11
35.2198051508621
 21
420.4259380034736
 31
0.0
  0
LINE
  5
103
  8
0
  6
CONTINUOUS
 62
     7
 10
96.6198051508621
 20
420.6254234106315
 30
0.0
 11
96.6198051508621
 21
420.4259380034736
 31
0.0
  0
LINE
  5
104
  8
0
  6
CONTINUOUS
 62
     7
 10
35.2198051508621
 20
415.5507978989613
 30
0.0
 11
35.2198051508621
 21
420.4259380034736
 31
0.0
  0
LINE
  5
105
  8
0
  6
CONTINUOUS
 62
     7
 10
96.6198051508621
 20
415.5507978989613
 30
0.0
 11
96.6198051508621
 21
420.4259380034736
 31
0.0
  0
LINE
  5
106
  8
0
  6
CONTINUOUS
 62
     7
 10
96.6198051508621
 20
355.9259380034736
 30
0.0
 11
96.6198051508621
 21
374.2849777388937
 31
0.0
  0
LINE
  5
107
  8
0
  6
CONTINUOUS
 62
     7
 10
35.21980515086208
 20
355.9259380034736
 30
0.0
 11
35.21980515086208
 21
374.2849777388937
 31
0.0
  0
ARC
  5
108
  8
0
  6
CONTINUOUS
 62
     7
 10
97.1198051508621
 20
355.9259380034736
 30
0.0
 40
0.5000000000000004
 50
180.0
 51
270.0
  0
ARC
  5
109
  8
0
  6
CONTINUOUS
 62
     7
 10
34.71980515086208
 20
355.9259380034736
 30
0.0
 40
0.5000000000000004
 50
270.0
 51
0.0
  0
LINE
  5
10A
  8
0
  6
CONTINUOUS
 62
     7
 10
32.92624989507916
 20
355.4259380034736
 30
0.0
 11
34.71980515086208
 21
355.4259380034736
 31
0.0
  0
LINE
  5
10B
  8
0
  6
CONTINUOUS
 62
     7
 10
98.91336040664503
 20
355.4259380034736
 30
0.0
 11
97.1198051508621
 21
355.4259380034736
 31
0.0
  0
LINE
  5
10C
  8
0
  6
CONTINUOUS
 62
     7
 10
33.27844995413556
 20
330.4259380034736
 30
0.0
 11
36.58791862052011
 21
330.4259380034736
 31
0.0
  0
LINE
  5
10D
  8
0
  6
CONTINUOUS
 62
     7
 10
98.5611603475886
 20
330.4259380034736
 30
0.0
 11
95.25169168120406
 21
330.4259380034736
 31
0.0
  0
LINE
  5
10E
  8
0
  6
CONTINUOUS
 62
     7
 10
82.919805150862
 20
355.4259380034737
 30
0.0
 11
82.91980515086199
 21
330.4259380034736
 31
0.0
  0
LINE
  5
10F
  8
0
  6
CONTINUOUS
 62
     7
 10
82.91980515086199
 20
330.4259380034736
 30
0.0
 11
95.25169168120408
 21
330.4259380034736
 31
0.0
  0
LINE
  5
110
  8
0
  6
CONTINUOUS
 62
     7
 10
48.91980515086219
 20
355.4259380034737
 30
0.0
 11
48.91980515086218
 21
330.4259380034736
 31
0.0
  0
LINE
  5
111
  8
0
  6
CONTINUOUS
 62
     7
 10
48.91980515086218
 20
330.4259380034736
 30
0.0
 11
36.58791862052011
 21
330.4259380034736
 31
0.0
  0
LINE
  5
112
  8
0
  6
CONTINUOUS
 62
     7
 10
82.91980515086229
 20
330.4259380034736
 30
0.0
 11
48.9198051508622
 21
330.4259380034736
 31
0.0
  0
LINE
  5
113
  8
0
  6
CONTINUOUS
 62
     7
 10
54.25402373991108
 20
420.4259380034736
 30
0.0
 11
53.94463669450566
 21
420.4259380034736
 31
0.0
  0
ARC
  5
114
  8
0
  6
CONTINUOUS
 62
     7
 10
54.44532286750463
 20
420.9259380034736
 30
0.0
 40
0.4999999999999959
 50
302.6548257505594
 51
356.9999999999999
  0
LINE
  5
115
  8
0
  6
CONTINUOUS
 62
     7
 10
54.44532286750463
 20
420.4259380034736
 30
0.0
 11
54.25402373991108
 21
420.4259380034736
 31
0.0
  0
LINE
  5
116
  8
0
  6
CONTINUOUS
 62
     7
 10
49.81498959229599
 20
422.4259380034736
 30
0.0
 11
50.8163619382939
 21
422.4259380034736
 31
0.0
  0
LINE
  5
117
  8
0
  6
CONTINUOUS
 62
     7
 10
49.89497266684223
 20
420.8997700253522
 30
0.0
 11
49.81498959229599
 21
422.4259380034736
 31
0.0
  0
LINE
  5
118
  8
0
  6
CONTINUOUS
 62
     7
 10
50.8163619382939
 20
422.4259380034736
 30
0.0
 11
54.02324836343021
 21
422.4259380034736
 31
0.0
  0
LINE
  5
119
  8
0
  6
CONTINUOUS
 62
     7
 10
77.5115524812977
 20
420.4259380034736
 30
0.0
 11
77.89497360721853
 21
420.4259380034736
 31
0.0
  0
ARC
  5
11A
  8
0
  6
CONTINUOUS
 62
     7
 10
77.39428743421956
 20
420.9259380034736
 30
0.0
 40
0.4999999999999189
 50
228.9879644396035
 51
270.0
  0
LINE
  5
11B
  8
0
  6
CONTINUOUS
 62
     7
 10
77.39428743421956
 20
420.4259380034736
 30
0.0
 11
77.5115524812977
 21
420.4259380034736
 31
0.0
  0
ARC
  5
11C
  8
0
  6
CONTINUOUS
 62
     7
 10
77.39428743421956
 20
420.9259380034736
 30
0.0
 40
0.4999999999999959
 50
182.9999999999999
 51
215.580834926564
  0
LINE
  5
11D
  8
0
  6
CONTINUOUS
 62
     7
 10
81.02324836343028
 20
422.4259380034736
 30
0.0
 11
77.81636193829398
 21
422.4259380034736
 31
0.0
  0
LINE
  5
11E
  8
0
  6
CONTINUOUS
 62
     7
 10
76.81498959229604
 20
422.4259380034736
 30
0.0
 11
76.89497266684228
 21
420.8997700253522
 31
0.0
  0
LINE
  5
11F
  8
0
  6
CONTINUOUS
 62
     7
 10
77.81636193829398
 20
422.4259380034736
 30
0.0
 11
76.81498959229604
 21
422.4259380034736
 31
0.0
  0
LINE
  5
120
  8
0
  6
CONTINUOUS
 62
     7
 10
82.0246207094282
 20
422.4259380034736
 30
0.0
 11
81.02324836343028
 21
422.4259380034736
 31
0.0
  0
LINE
  5
121
  8
0
  6
CONTINUOUS
 62
     7
 10
81.94463763488197
 20
420.8997700253522
 30
0.0
 11
82.0246207094282
 21
422.4259380034736
 31
0.0
  0
LINE
  5
122
  8
0
  6
CONTINUOUS
 62
     7
 10
77.89497360721853
 20
420.4259380034736
 30
0.0
 11
80.94463669450572
 21
420.4259380034736
 31
0.0
  0
LINE
  5
123
  8
0
  6
CONTINUOUS
 62
     7
 10
80.94463669450572
 20
420.4259380034736
 30
0.0
 11
81.44532286750469
 21
420.4259380034736
 31
0.0
  0
ARC
  5
124
  8
0
  6
CONTINUOUS
 62
     7
 10
81.44532286750467
 20
420.9259380034736
 30
0.0
 40
0.4999999999999959
 50
269.9999999999998
 51
356.9999999999998
  0
LINE
  5
125
  8
0
  6
CONTINUOUS
 62
     7
 10
50.89497360721847
 20
420.4259380034736
 30
0.0
 11
50.39428743421951
 21
420.4259380034736
 31
0.0
  0
ARC
  5
126
  8
0
  6
CONTINUOUS
 62
     7
 10
50.39428743421951
 20
420.9259380034736
 30
0.0
 40
0.4999999999999959
 50
183.0000000000002
 51
270.0000000000002
  0
LINE
  5
127
  8
0
  6
CONTINUOUS
 62
     7
 10
53.94463669450566
 20
420.4259380034736
 30
0.0
 11
50.89497360721847
 21
420.4259380034736
 31
0.0
  0
LINE
  5
128
  8
0
  6
CONTINUOUS
 62
     7
 10
55.02462070942815
 20
422.4259380034736
 30
0.0
 11
54.94463763488191
 21
420.8997700253522
 31
0.0
  0
LINE
  5
129
  8
0
  6
CONTINUOUS
 62
     7
 10
54.02324836343021
 20
422.4259380034736
 30
0.0
 11
55.02462070942815
 21
422.4259380034736
 31
0.0
  0
ARC
  5
12A
  8
0
  6
CONTINUOUS
 62
     7
 10
84.91980515086213
 20
423.4259380034736
 30
0.0
 40
3.0
 50
89.99999999999977
 51
138.1896851042215
  0
LINE
  5
12B
  8
0
  6
CONTINUOUS
 62
     7
 10
84.91980515086215
 20
426.4259380034736
 30
0.0
 11
86.91980515086216
 21
426.4259380034736
 31
0.0
  0
ARC
  5
12C
  8
0
  6
CONTINUOUS
 62
     7
 10
86.91980515086212
 20
423.4259380034736
 30
0.0
 40
3.000000000000003
 50
41.81031489577851
 51
89.9999999999992
  0
LINE
  5
12D
  8
0
  6
CONTINUOUS
 62
     7
 10
93.54416080384426
 20
425.4259380034736
 30
0.0
 11
89.15587312836192
 21
425.4259380034736
 31
0.0
  0
LINE
  5
12E
  8
0
  6
CONTINUOUS
 62
     7
 10
86.91980515086212
 20
424.4259380034736
 30
0.0
 11
93.27621161141315
 21
424.4259380034736
 31
0.0
  0
LINE
  5
12F
  8
0
  6
CONTINUOUS
 62
     7
 10
84.91980515086212
 20
424.4259380034736
 30
0.0
 11
86.91980515086212
 21
424.4259380034736
 31
0.0
  0
LINE
  5
130
  8
0
  6
CONTINUOUS
 62
     7
 10
84.91980515086212
 20
424.4259380034736
 30
0.0
 11
82.1294362679943
 21
424.4259380034736
 31
0.0
  0
LINE
  5
131
  8
0
  6
CONTINUOUS
 62
     7
 10
55.12943626799424
 20
424.4259380034736
 30
0.0
 11
76.71017403372997
 21
424.4259380034736
 31
0.0
  0
LINE
  5
132
  8
0
  6
CONTINUOUS
 62
     7
 10
46.91980515086208
 20
424.4259380034736
 30
0.0
 11
49.71017403372991
 21
424.4259380034736
 31
0.0
  0
LINE
  5
133
  8
0
  6
CONTINUOUS
 62
     7
 10
46.91980515086208
 20
424.4259380034736
 30
0.0
 11
44.91980515086208
 21
424.4259380034736
 31
0.0
  0
LINE
  5
134
  8
0
  6
CONTINUOUS
 62
     7
 10
44.91980515086208
 20
424.4259380034736
 30
0.0
 11
38.56339869031104
 21
424.4259380034736
 31
0.0
  0
LINE
  5
135
  8
0
  6
CONTINUOUS
 62
     7
 10
38.29544949787993
 20
425.4259380034736
 30
0.0
 11
42.68373717336228
 21
425.4259380034736
 31
0.0
  0
ARC
  5
136
  8
0
  6
CONTINUOUS
 62
     7
 10
44.91980515086208
 20
423.4259380034736
 30
0.0
 40
3.000000000000003
 50
90.0000000000008
 51
138.1896851042215
  0
LINE
  5
137
  8
0
  6
CONTINUOUS
 62
     7
 10
46.91980515086206
 20
426.4259380034736
 30
0.0
 11
44.91980515086204
 21
426.4259380034736
 31
0.0
  0
ARC
  5
138
  8
0
  6
CONTINUOUS
 62
     7
 10
46.91980515086207
 20
423.4259380034736
 30
0.0
 40
3.0
 50
41.81031489577862
 51
90.00000000000016
  0
LINE
  5
139
  8
0
  6
CONTINUOUS
 62
     7
 10
49.15587312836185
 20
425.4259380034736
 30
0.0
 11
65.6198051508621
 21
425.4259380034736
 31
0.0
  0
LINE
  5
13A
  8
0
  6
CONTINUOUS
 62
     7
 10
65.6198051508621
 20
425.4259380034736
 30
0.0
 11
65.91980515086215
 21
425.1259380034737
 31
0.0
  0
LINE
  5
13B
  8
0
  6
CONTINUOUS
 62
     7
 10
66.2198051508621
 20
425.4259380034736
 30
0.0
 11
65.91980515086215
 21
425.1259380034737
 31
0.0
  0
LINE
  5
13C
  8
0
  6
CONTINUOUS
 62
     7
 10
82.68373717336233
 20
425.4259380034736
 30
0.0
 11
66.2198051508621
 21
425.4259380034736
 31
0.0
  0
LINE
  5
13D
  8
0
  6
CONTINUOUS
 62
     7
 10
76.71017403372997
 20
424.4259380034736
 30
0.0
 11
76.81498959229604
 21
422.4259380034736
 31
0.0
  0
LINE
  5
13E
  8
0
  6
CONTINUOUS
 62
     7
 10
49.81498959229599
 20
422.4259380034736
 30
0.0
 11
49.71017403372991
 21
424.4259380034736
 31
0.0
  0
LINE
  5
13F
  8
0
  6
CONTINUOUS
 62
     7
 10
55.12943626799424
 20
424.4259380034736
 30
0.0
 11
55.02462070942815
 21
422.4259380034736
 31
0.0
  0
LINE
  5
140
  8
0
  6
CONTINUOUS
 62
     7
 10
82.0246207094282
 20
422.4259380034736
 30
0.0
 11
82.1294362679943
 21
424.4259380034736
 31
0.0
  0
LINE
  5
141
  8
0
  6
CONTINUOUS
 62
     7
 10
36.41980515086207
 20
432.4259380034736
 30
0.0
 11
38.56339869031104
 21
424.4259380034736
 31
0.0
  0
ARC
  5
142
  8
0
  6
CONTINUOUS
 62
     7
 10
44.9198051508621
 20
423.4259380034736
 30
0.0
 40
1.000000000000001
 50
90.0000000000004
 51
180.0
  0
LINE
  5
143
  8
0
  6
CONTINUOUS
 62
     7
 10
43.91980515086209
 20
423.4259380034736
 30
0.0
 11
43.91980515086209
 21
420.9259380034736
 31
0.0
  0
LINE
  5
144
  8
0
  6
CONTINUOUS
 62
     7
 10
35.41980515086208
 20
420.9259380034736
 30
0.0
 11
35.41980515086208
 21
424.2712374650943
 31
0.0
  0
LINE
  5
145
  8
0
  6
CONTINUOUS
 62
     7
 10
35.41980515086208
 20
424.2712374650943
 30
0.0
 11
33.41980515086209
 21
425.4259380034736
 31
0.0
  0
LINE
  5
146
  8
0
  6
CONTINUOUS
 62
     7
 10
33.41980515086209
 20
425.4259380034736
 30
0.0
 11
33.41980515086208
 21
426.4259380034736
 31
0.0
  0
LINE
  5
147
  8
0
  6
CONTINUOUS
 62
     7
 10
33.41980515086208
 20
426.4259380034736
 30
0.0
 11
34.33205891327793
 21
431.5995861811406
 31
0.0
  0
ARC
  5
148
  8
0
  6
CONTINUOUS
 62
     7
 10
35.31686666629014
 20
431.4259380034736
 30
0.0
 40
1.000000000000001
 50
90.0
 51
170.0000000000001
  0
LINE
  5
149
  8
0
  6
CONTINUOUS
 62
     7
 10
35.31686666629014
 20
432.4259380034736
 30
0.0
 11
36.41980515086207
 21
432.4259380034736
 31
0.0
  0
ARC
  5
14A
  8
0
  6
CONTINUOUS
 62
     7
 10
96.52274363543405
 20
431.4259380034736
 30
0.0
 40
1.000000000000001
 50
9.999999999999886
 51
90.0
  0
LINE
  5
14B
  8
0
  6
CONTINUOUS
 62
     7
 10
98.41980515086213
 20
426.4259380034736
 30
0.0
 11
97.50755138844627
 21
431.5995861811405
 31
0.0
  0
LINE
  5
14C
  8
0
  6
CONTINUOUS
 62
     7
 10
98.4198051508621
 20
425.4259380034736
 30
0.0
 11
98.41980515086213
 21
426.4259380034736
 31
0.0
  0
LINE
  5
14D
  8
0
  6
CONTINUOUS
 62
     7
 10
96.41980515086212
 20
424.2712374650943
 30
0.0
 11
98.4198051508621
 21
425.4259380034736
 31
0.0
  0
LINE
  5
14E
  8
0
  6
CONTINUOUS
 62
     7
 10
96.41980515086212
 20
420.9259380034736
 30
0.0
 11
96.41980515086212
 21
424.2712374650943
 31
0.0
  0
LINE
  5
14F
  8
0
  6
CONTINUOUS
 62
     7
 10
87.9198051508621
 20
423.4259380034736
 30
0.0
 11
87.9198051508621
 21
420.9259380034736
 31
0.0
  0
ARC
  5
150
  8
0
  6
CONTINUOUS
 62
     7
 10
86.9198051508621
 20
423.4259380034736
 30
0.0
 40
1.000000000000001
 50
0.0
 51
89.99999999999962
  0
LINE
  5
151
  8
0
  6
CONTINUOUS
 62
     7
 10
95.41980515086212
 20
432.4259380034736
 30
0.0
 11
93.27621161141315
 21
424.4259380034736
 31
0.0
  0
LINE
  5
152
  8
0
  6
CONTINUOUS
 62
     7
 10
96.52274363543405
 20
432.4259380034736
 30
0.0
 11
95.41980515086212
 21
432.4259380034736
 31
0.0
  0
ARC
  5
153
  8
0
  6
CONTINUOUS
 62
     7
 10
84.91980515086212
 20
423.4259380034736
 30
0.0
 40
1.000000000000001
 50
90.00000000000016
 51
180.0
  0
LINE
  5
154
  8
0
  6
CONTINUOUS
 62
     7
 10
83.91980515086212
 20
420.9259380034736
 30
0.0
 11
83.91980515086212
 21
423.4259380034736
 31
0.0
  0
LINE
  5
155
  8
0
  6
CONTINUOUS
 62
     7
 10
47.91980515086209
 20
420.9259380034736
 30
0.0
 11
47.91980515086208
 21
423.4259380034736
 31
0.0
  0
ARC
  5
156
  8
0
  6
CONTINUOUS
 62
     7
 10
46.91980515086208
 20
423.4259380034736
 30
0.0
 40
1.000000000000001
 50
0.0
 51
89.99999999999982
  0
LINE
  5
157
  8
0
  6
CONTINUOUS
 62
     7
 10
54.44532286750463
 20
420.4259380034736
 30
0.0
 11
77.39428743421956
 21
420.4259380034736
 31
0.0
  0
POLYLINE
  5
158
  8
0
  6
CONTINUOUS
 62
     7
 66
     1
 10
0.0
 20
0.0
 30
0.0
  0
VERTEX
  5
2D4
  8
0
  6
CONTINUOUS
 62
     7
 10
47.91980515086209
 20
420.9259380034736
 30
0.0
  0
VERTEX
  5
2D5
  8
0
  6
CONTINUOUS
 62
     7
 10
47.9204074227595
 20
420.9014041663099
 30
0.0
  0
VERTEX
  5
2D6
  8
0
  6
CONTINUOUS
 62
     7
 10
47.92221278752599
 20
420.8769294333088
 30
0.0
  0
VERTEX
  5
2D7
  8
0
  6
CONTINUOUS
 62
     7
 10
47.92521689587969
 20
420.8525727662459
 30
0.0
  0
VERTEX
  5
2D8
  8
0
  6
CONTINUOUS
 62
     7
 10
47.92941251066048
 20
420.8283928424655
 30
0.0
  0
VERTEX
  5
2D9
  8
0
  6
CONTINUOUS
 62
     7
 10
47.93478952426481
 20
420.804447913522
 30
0.0
  0
VERTEX
  5
2DA
  8
0
  6
CONTINUOUS
 62
     7
 10
47.94133498299598
 20
420.7807956648464
 30
0.0
  0
VERTEX
  5
2DB
  8
0
  6
CONTINUOUS
 62
     7
 10
47.94903311827058
 20
420.7574930767775
 30
0.0
  0
VERTEX
  5
2DC
  8
0
  6
CONTINUOUS
 62
     7
 10
47.95786538460644
 20
420.734596287291
 30
0.0
  0
VERTEX
  5
2DD
  8
0
  6
CONTINUOUS
 62
     7
 10
47.96781050430037
 20
420.7121604567585
 30
0.0
  0
VERTEX
  5
2DE
  8
0
  6
CONTINUOUS
 62
     7
 10
47.97884451868791
 20
420.6902396350605
 30
0.0
  0
VERTEX
  5
2DF
  8
0
  6
CONTINUOUS
 62
     7
 10
47.99094084586195
 20
420.668886631377
 30
0.0
  0
VERTEX
  5
2E0
  8
0
  6
CONTINUOUS
 62
     7
 10
48.00407034471082
 20
420.6481528869638
 30
0.0
  0
VERTEX
  5
2E1
  8
0
  6
CONTINUOUS
 62
     7
 10
48.01820138512176
 20
420.6280883512273
 30
0.0
  0
VERTEX
  5
2E2
  8
0
  6
CONTINUOUS
 62
     7
 10
48.03329992418072
 20
420.6087413613918
 30
0.0
  0
VERTEX
  5
2E3
  8
0
  6
CONTINUOUS
 62
     7
 10
48.04932958818461
 20
420.5901585260501
 30
0.0
  0
VERTEX
  5
2E4
  8
0
  6
CONTINUOUS
 62
     7
 10
48.06625176026882
 20
420.5723846128804
 30
0.0
  0
VERTEX
  5
2E5
  8
0
  6
CONTINUOUS
 62
     7
 10
48.08402567343858
 20
420.5554624407961
 30
0.0
  0
VERTEX
  5
2E6
  8
0
  6
CONTINUOUS
 62
     7
 10
48.10260850878026
 20
420.5394327767923
 30
0.0
  0
VERTEX
  5
2E7
  8
0
  6
CONTINUOUS
 62
     7
 10
48.12195549861587
 20
420.5243342377333
 30
0.0
  0
VERTEX
  5
2E8
  8
0
  6
CONTINUOUS
 62
     7
 10
48.14202003435229
 20
420.5102031973224
 30
0.0
  0
VERTEX
  5
2E9
  8
0
  6
CONTINUOUS
 62
     7
 10
48.16275377876548
 20
420.4970736984735
 30
0.0
  0
VERTEX
  5
2EA
  8
0
  6
CONTINUOUS
 62
     7
 10
48.18410678244909
 20
420.4849773712994
 30
0.0
  0
VERTEX
  5
2EB
  8
0
  6
CONTINUOUS
 62
     7
 10
48.20602760414695
 20
420.4739433569119
 30
0.0
  0
VERTEX
  5
2EC
  8
0
  6
CONTINUOUS
 62
     7
 10
48.22846343467954
 20
420.4639982372179
 30
0.0
  0
VERTEX
  5
2ED
  8
0
  6
CONTINUOUS
 62
     7
 10
48.25136022416599
 20
420.455165970882
 30
0.0
  0
VERTEX
  5
2EE
  8
0
  6
CONTINUOUS
 62
     7
 10
48.27466281223486
 20
420.4474678356075
 30
0.0
  0
VERTEX
  5
2EF
  8
0
  6
CONTINUOUS
 62
     7
 10
48.29831506091045
 20
420.4409223768764
 30
0.0
  0
VERTEX
  5
2F0
  8
0
  6
CONTINUOUS
 62
     7
 10
48.32225998985403
 20
420.435545363272
 30
0.0
  0
VERTEX
  5
2F1
  8
0
  6
CONTINUOUS
 62
     7
 10
48.34643991363441
 20
420.4313497484912
 30
0.0
  0
VERTEX
  5
2F2
  8
0
  6
CONTINUOUS
 62
     7
 10
48.37079658069731
 20
420.4283456401375
 30
0.0
  0
VERTEX
  5
2F3
  8
0
  6
CONTINUOUS
 62
     7
 10
48.39527131369837
 20
420.4265402753711
 30
0.0
  0
VERTEX
  5
2F4
  8
0
  6
CONTINUOUS
 62
     7
 10
48.41980515086209
 20
420.4259380034736
 30
0.0
  0
SEQEND
  5
484
  8
0
  6
CONTINUOUS
 62
     7
  0
LINE
  5
159
  8
0
  6
CONTINUOUS
 62
     7
 10
50.39428743421951
 20
420.4259380034736
 30
0.0
 11
48.41980515086209
 21
420.4259380034736
 31
0.0
  0
POLYLINE
  5
15A
  8
0
  6
CONTINUOUS
 62
     7
 66
     1
 10
0.0
 20
0.0
 30
0.0
  0
VERTEX
  5
2F5
  8
0
  6
CONTINUOUS
 62
     7
 10
83.41980515086212
 20
420.4259380034736
 30
0.0
  0
VERTEX
  5
2F6
  8
0
  6
CONTINUOUS
 62
     7
 10
83.44433898802582
 20
420.4265402753709
 30
0.0
  0
VERTEX
  5
2F7
  8
0
  6
CONTINUOUS
 62
     7
 10
83.46881372102688
 20
420.4283456401375
 30
0.0
  0
VERTEX
  5
2F8
  8
0
  6
CONTINUOUS
 62
     7
 10
83.49317038808978
 20
420.4313497484912
 30
0.0
  0
VERTEX
  5
2F9
  8
0
  6
CONTINUOUS
 62
     7
 10
83.51735031187017
 20
420.435545363272
 30
0.0
  0
VERTEX
  5
2FA
  8
0
  6
CONTINUOUS
 62
     7
 10
83.54129524081374
 20
420.4409223768764
 30
0.0
  0
VERTEX
  5
2FB
  8
0
  6
CONTINUOUS
 62
     7
 10
83.56494748948934
 20
420.4474678356075
 30
0.0
  0
VERTEX
  5
2FC
  8
0
  6
CONTINUOUS
 62
     7
 10
83.58825007755821
 20
420.455165970882
 30
0.0
  0
VERTEX
  5
2FD
  8
0
  6
CONTINUOUS
 62
     7
 10
83.61114686704465
 20
420.4639982372179
 30
0.0
  0
VERTEX
  5
2FE
  8
0
  6
CONTINUOUS
 62
     7
 10
83.63358269757724
 20
420.4739433569119
 30
0.0
  0
VERTEX
  5
2FF
  8
0
  6
CONTINUOUS
 62
     7
 10
83.6555035192751
 20
420.4849773712994
 30
0.0
  0
VERTEX
  5
300
  8
0
  6
CONTINUOUS
 62
     7
 10
83.67685652295873
 20
420.4970736984735
 30
0.0
  0
VERTEX
  5
301
  8
0
  6
CONTINUOUS
 62
     7
 10
83.69759026737191
 20
420.5102031973224
 30
0.0
  0
VERTEX
  5
302
  8
0
  6
CONTINUOUS
 62
     7
 10
83.71765480310833
 20
420.5243342377333
 30
0.0
  0
VERTEX
  5
303
  8
0
  6
CONTINUOUS
 62
     7
 10
83.73700179294394
 20
420.5394327767923
 30
0.0
  0
VERTEX
  5
304
  8
0
  6
CONTINUOUS
 62
     7
 10
83.7555846282856
 20
420.5554624407961
 30
0.0
  0
VERTEX
  5
305
  8
0
  6
CONTINUOUS
 62
     7
 10
83.77335854145537
 20
420.5723846128804
 30
0.0
  0
VERTEX
  5
306
  8
0
  6
CONTINUOUS
 62
     7
 10
83.79028071353959
 20
420.5901585260501
 30
0.0
  0
VERTEX
  5
307
  8
0
  6
CONTINUOUS
 62
     7
 10
83.80631037754348
 20
420.6087413613918
 30
0.0
  0
VERTEX
  5
308
  8
0
  6
CONTINUOUS
 62
     7
 10
83.82140891660244
 20
420.6280883512273
 30
0.0
  0
VERTEX
  5
309
  8
0
  6
CONTINUOUS
 62
     7
 10
83.83553995701337
 20
420.6481528869638
 30
0.0
  0
VERTEX
  5
30A
  8
0
  6
CONTINUOUS
 62
     7
 10
83.84866945586225
 20
420.668886631377
 30
0.0
  0
VERTEX
  5
30B
  8
0
  6
CONTINUOUS
 62
     7
 10
83.86076578303627
 20
420.6902396350605
 30
0.0
  0
VERTEX
  5
30C
  8
0
  6
CONTINUOUS
 62
     7
 10
83.87179979742383
 20
420.7121604567584
 30
0.0
  0
VERTEX
  5
30D
  8
0
  6
CONTINUOUS
 62
     7
 10
83.88174491711774
 20
420.734596287291
 30
0.0
  0
VERTEX
  5
30E
  8
0
  6
CONTINUOUS
 62
     7
 10
83.89057718345362
 20
420.7574930767775
 30
0.0
  0
VERTEX
  5
30F
  8
0
  6
CONTINUOUS
 62
     7
 10
83.89827531872821
 20
420.7807956648464
 30
0.0
  0
VERTEX
  5
310
  8
0
  6
CONTINUOUS
 62
     7
 10
83.90482077745938
 20
420.804447913522
 30
0.0
  0
VERTEX
  5
311
  8
0
  6
CONTINUOUS
 62
     7
 10
83.91019779106372
 20
420.8283928424655
 30
0.0
  0
VERTEX
  5
312
  8
0
  6
CONTINUOUS
 62
     7
 10
83.91439340584449
 20
420.8525727662459
 30
0.0
  0
VERTEX
  5
313
  8
0
  6
CONTINUOUS
 62
     7
 10
83.9173975141982
 20
420.8769294333088
 30
0.0
  0
VERTEX
  5
314
  8
0
  6
CONTINUOUS
 62
     7
 10
83.91920287896468
 20
420.9014041663099
 30
0.0
  0
VERTEX
  5
315
  8
0
  6
CONTINUOUS
 62
     7
 10
83.91980515086212
 20
420.9259380034736
 30
0.0
  0
SEQEND
  5
485
  8
0
  6
CONTINUOUS
 62
     7
  0
LINE
  5
15B
  8
0
  6
CONTINUOUS
 62
     7
 10
81.44532286750467
 20
420.4259380034736
 30
0.0
 11
83.41980515086212
 21
420.4259380034736
 31
0.0
  0
LINE
  5
15C
  8
0
  6
CONTINUOUS
 62
     7
 10
96.41980515086205
 20
420.4259380034736
 30
0.0
 11
96.41980515086205
 21
420.9259380034736
 31
0.0
  0
LINE
  5
15D
  8
0
  6
CONTINUOUS
 62
     7
 10
88.4198051508621
 20
420.4259380034736
 30
0.0
 11
96.41980515086205
 21
420.4259380034736
 31
0.0
  0
POLYLINE
  5
15E
  8
0
  6
CONTINUOUS
 62
     7
 66
     1
 10
0.0
 20
0.0
 30
0.0
  0
VERTEX
  5
316
  8
0
  6
CONTINUOUS
 62
     7
 10
87.9198051508621
 20
420.9259380034736
 30
0.0
  0
VERTEX
  5
317
  8
0
  6
CONTINUOUS
 62
     7
 10
87.92040742275952
 20
420.9014041663099
 30
0.0
  0
VERTEX
  5
318
  8
0
  6
CONTINUOUS
 62
     7
 10
87.92221278752602
 20
420.8769294333088
 30
0.0
  0
VERTEX
  5
319
  8
0
  6
CONTINUOUS
 62
     7
 10
87.92521689587971
 20
420.8525727662459
 30
0.0
  0
VERTEX
  5
31A
  8
0
  6
CONTINUOUS
 62
     7
 10
87.9294125106605
 20
420.8283928424655
 30
0.0
  0
VERTEX
  5
31B
  8
0
  6
CONTINUOUS
 62
     7
 10
87.93478952426484
 20
420.804447913522
 30
0.0
  0
VERTEX
  5
31C
  8
0
  6
CONTINUOUS
 62
     7
 10
87.941334982996
 20
420.7807956648464
 30
0.0
  0
VERTEX
  5
31D
  8
0
  6
CONTINUOUS
 62
     7
 10
87.94903311827059
 20
420.7574930767775
 30
0.0
  0
VERTEX
  5
31E
  8
0
  6
CONTINUOUS
 62
     7
 10
87.95786538460646
 20
420.734596287291
 30
0.0
  0
VERTEX
  5
31F
  8
0
  6
CONTINUOUS
 62
     7
 10
87.96781050430039
 20
420.7121604567584
 30
0.0
  0
VERTEX
  5
320
  8
0
  6
CONTINUOUS
 62
     7
 10
87.97884451868792
 20
420.6902396350605
 30
0.0
  0
VERTEX
  5
321
  8
0
  6
CONTINUOUS
 62
     7
 10
87.99094084586197
 20
420.668886631377
 30
0.0
  0
VERTEX
  5
322
  8
0
  6
CONTINUOUS
 62
     7
 10
88.00407034471083
 20
420.6481528869638
 30
0.0
  0
VERTEX
  5
323
  8
0
  6
CONTINUOUS
 62
     7
 10
88.01820138512178
 20
420.6280883512273
 30
0.0
  0
VERTEX
  5
324
  8
0
  6
CONTINUOUS
 62
     7
 10
88.03329992418074
 20
420.6087413613918
 30
0.0
  0
VERTEX
  5
325
  8
0
  6
CONTINUOUS
 62
     7
 10
88.04932958818462
 20
420.5901585260501
 30
0.0
  0
VERTEX
  5
326
  8
0
  6
CONTINUOUS
 62
     7
 10
88.06625176026883
 20
420.5723846128804
 30
0.0
  0
VERTEX
  5
327
  8
0
  6
CONTINUOUS
 62
     7
 10
88.08402567343859
 20
420.5554624407961
 30
0.0
  0
VERTEX
  5
328
  8
0
  6
CONTINUOUS
 62
     7
 10
88.10260850878028
 20
420.5394327767923
 30
0.0
  0
VERTEX
  5
329
  8
0
  6
CONTINUOUS
 62
     7
 10
88.12195549861589
 20
420.5243342377333
 30
0.0
  0
VERTEX
  5
32A
  8
0
  6
CONTINUOUS
 62
     7
 10
88.14202003435231
 20
420.5102031973224
 30
0.0
  0
VERTEX
  5
32B
  8
0
  6
CONTINUOUS
 62
     7
 10
88.16275377876549
 20
420.4970736984735
 30
0.0
  0
VERTEX
  5
32C
  8
0
  6
CONTINUOUS
 62
     7
 10
88.18410678244912
 20
420.4849773712994
 30
0.0
  0
VERTEX
  5
32D
  8
0
  6
CONTINUOUS
 62
     7
 10
88.20602760414697
 20
420.4739433569119
 30
0.0
  0
VERTEX
  5
32E
  8
0
  6
CONTINUOUS
 62
     7
 10
88.22846343467957
 20
420.4639982372179
 30
0.0
  0
VERTEX
  5
32F
  8
0
  6
CONTINUOUS
 62
     7
 10
88.25136022416599
 20
420.455165970882
 30
0.0
  0
VERTEX
  5
330
  8
0
  6
CONTINUOUS
 62
     7
 10
88.27466281223488
 20
420.4474678356075
 30
0.0
  0
VERTEX
  5
331
  8
0
  6
CONTINUOUS
 62
     7
 10
88.29831506091047
 20
420.4409223768764
 30
0.0
  0
VERTEX
  5
332
  8
0
  6
CONTINUOUS
 62
     7
 10
88.32225998985405
 20
420.435545363272
 30
0.0
  0
VERTEX
  5
333
  8
0
  6
CONTINUOUS
 62
     7
 10
88.34643991363443
 20
420.4313497484912
 30
0.0
  0
VERTEX
  5
334
  8
0
  6
CONTINUOUS
 62
     7
 10
88.37079658069732
 20
420.4283456401375
 30
0.0
  0
VERTEX
  5
335
  8
0
  6
CONTINUOUS
 62
     7
 10
88.3952713136984
 20
420.4265402753709
 30
0.0
  0
VERTEX
  5
336
  8
0
  6
CONTINUOUS
 62
     7
 10
88.4198051508621
 20
420.4259380034736
 30
0.0
  0
SEQEND
  5
486
  8
0
  6
CONTINUOUS
 62
     7
  0
LINE
  5
15F
  8
0
  6
CONTINUOUS
 62
     7
 10
43.41980515086209
 20
420.4259380034736
 30
0.0
 11
35.41980515086215
 21
420.4259380034736
 31
0.0
  0
LINE
  5
160
  8
0
  6
CONTINUOUS
 62
     7
 10
35.41980515086215
 20
420.4259380034736
 30
0.0
 11
35.41980515086215
 21
420.9259380034736
 31
0.0
  0
POLYLINE
  5
161
  8
0
  6
CONTINUOUS
 62
     7
 66
     1
 10
0.0
 20
0.0
 30
0.0
  0
VERTEX
  5
337
  8
0
  6
CONTINUOUS
 62
     7
 10
43.41980515086209
 20
420.4259380034736
 30
0.0
  0
VERTEX
  5
338
  8
0
  6
CONTINUOUS
 62
     7
 10
43.4443389880258
 20
420.4265402753711
 30
0.0
  0
VERTEX
  5
339
  8
0
  6
CONTINUOUS
 62
     7
 10
43.46881372102687
 20
420.4283456401375
 30
0.0
  0
VERTEX
  5
33A
  8
0
  6
CONTINUOUS
 62
     7
 10
43.49317038808977
 20
420.4313497484912
 30
0.0
  0
VERTEX
  5
33B
  8
0
  6
CONTINUOUS
 62
     7
 10
43.51735031187016
 20
420.435545363272
 30
0.0
  0
VERTEX
  5
33C
  8
0
  6
CONTINUOUS
 62
     7
 10
43.54129524081372
 20
420.4409223768764
 30
0.0
  0
VERTEX
  5
33D
  8
0
  6
CONTINUOUS
 62
     7
 10
43.56494748948932
 20
420.4474678356075
 30
0.0
  0
VERTEX
  5
33E
  8
0
  6
CONTINUOUS
 62
     7
 10
43.58825007755821
 20
420.455165970882
 30
0.0
  0
VERTEX
  5
33F
  8
0
  6
CONTINUOUS
 62
     7
 10
43.61114686704463
 20
420.4639982372179
 30
0.0
  0
VERTEX
  5
340
  8
0
  6
CONTINUOUS
 62
     7
 10
43.63358269757723
 20
420.4739433569119
 30
0.0
  0
VERTEX
  5
341
  8
0
  6
CONTINUOUS
 62
     7
 10
43.65550351927509
 20
420.4849773712994
 30
0.0
  0
VERTEX
  5
342
  8
0
  6
CONTINUOUS
 62
     7
 10
43.6768565229587
 20
420.4970736984735
 30
0.0
  0
VERTEX
  5
343
  8
0
  6
CONTINUOUS
 62
     7
 10
43.69759026737189
 20
420.5102031973224
 30
0.0
  0
VERTEX
  5
344
  8
0
  6
CONTINUOUS
 62
     7
 10
43.71765480310831
 20
420.5243342377333
 30
0.0
  0
VERTEX
  5
345
  8
0
  6
CONTINUOUS
 62
     7
 10
43.73700179294391
 20
420.5394327767923
 30
0.0
  0
VERTEX
  5
346
  8
0
  6
CONTINUOUS
 62
     7
 10
43.7555846282856
 20
420.5554624407961
 30
0.0
  0
VERTEX
  5
347
  8
0
  6
CONTINUOUS
 62
     7
 10
43.77335854145537
 20
420.5723846128804
 30
0.0
  0
VERTEX
  5
348
  8
0
  6
CONTINUOUS
 62
     7
 10
43.79028071353957
 20
420.5901585260501
 30
0.0
  0
VERTEX
  5
349
  8
0
  6
CONTINUOUS
 62
     7
 10
43.80631037754345
 20
420.6087413613918
 30
0.0
  0
VERTEX
  5
34A
  8
0
  6
CONTINUOUS
 62
     7
 10
43.82140891660241
 20
420.6280883512275
 30
0.0
  0
VERTEX
  5
34B
  8
0
  6
CONTINUOUS
 62
     7
 10
43.83553995701336
 20
420.6481528869638
 30
0.0
  0
VERTEX
  5
34C
  8
0
  6
CONTINUOUS
 62
     7
 10
43.84866945586223
 20
420.668886631377
 30
0.0
  0
VERTEX
  5
34D
  8
0
  6
CONTINUOUS
 62
     7
 10
43.86076578303627
 20
420.6902396350605
 30
0.0
  0
VERTEX
  5
34E
  8
0
  6
CONTINUOUS
 62
     7
 10
43.87179979742381
 20
420.7121604567585
 30
0.0
  0
VERTEX
  5
34F
  8
0
  6
CONTINUOUS
 62
     7
 10
43.88174491711773
 20
420.734596287291
 30
0.0
  0
VERTEX
  5
350
  8
0
  6
CONTINUOUS
 62
     7
 10
43.8905771834536
 20
420.7574930767775
 30
0.0
  0
VERTEX
  5
351
  8
0
  6
CONTINUOUS
 62
     7
 10
43.8982753187282
 20
420.7807956648464
 30
0.0
  0
VERTEX
  5
352
  8
0
  6
CONTINUOUS
 62
     7
 10
43.90482077745936
 20
420.804447913522
 30
0.0
  0
VERTEX
  5
353
  8
0
  6
CONTINUOUS
 62
     7
 10
43.9101977910637
 20
420.8283928424655
 30
0.0
  0
VERTEX
  5
354
  8
0
  6
CONTINUOUS
 62
     7
 10
43.91439340584448
 20
420.8525727662459
 30
0.0
  0
VERTEX
  5
355
  8
0
  6
CONTINUOUS
 62
     7
 10
43.91739751419819
 20
420.8769294333088
 30
0.0
  0
VERTEX
  5
356
  8
0
  6
CONTINUOUS
 62
     7
 10
43.91920287896468
 20
420.9014041663099
 30
0.0
  0
VERTEX
  5
357
  8
0
  6
CONTINUOUS
 62
     7
 10
43.91980515086209
 20
420.9259380034737
 30
0.0
  0
SEQEND
  5
487
  8
0
  6
CONTINUOUS
 62
     7
  0
LINE
  5
162
  8
0
  6
CONTINUOUS
 62
     7
 10
83.01980515086208
 20
420.3259380034736
 30
0.0
 11
83.01980515086208
 21
420.4259380034736
 31
0.0
  0
ARC
  5
163
  8
0
  6
CONTINUOUS
 62
     7
 10
48.91980515086208
 20
420.3259380034736
 30
0.0
 40
0.0999999999999959
 50
180.0
 51
270.0
  0
ARC
  5
164
  8
0
  6
CONTINUOUS
 62
     7
 10
82.9198051508621
 20
420.3259380034736
 30
0.0
 40
0.099999999999989
 50
269.999999999998
 51
359.9999999999993
  0
LINE
  5
165
  8
0
  6
CONTINUOUS
 62
     7
 10
48.91980515086208
 20
420.2259380034736
 30
0.0
 11
82.91980515086209
 21
420.2259380034736
 31
0.0
  0
LINE
  5
166
  8
0
  6
CONTINUOUS
 62
     7
 10
48.81980515086208
 20
420.4259380034736
 30
0.0
 11
48.81980515086208
 21
420.3259380034736
 31
0.0
  0
LINE
  5
167
  8
0
  6
CONTINUOUS
 62
     7
 10
93.44598575423441
 20
425.4259380034736
 30
0.0
 11
93.46343948981593
 21
427.4259380034736
 31
0.0
  0
LINE
  5
168
  8
0
  6
CONTINUOUS
 62
     7
 10
93.46343948981593
 20
427.4259380034736
 30
0.0
 11
94.08005918870651
 21
427.4259380034736
 31
0.0
  0
LINE
  5
169
  8
0
  6
CONTINUOUS
 62
     7
 10
98.24347817015367
 20
427.4259380034736
 30
0.0
 11
98.41980515086215
 21
427.4259380034736
 31
0.0
  0
LINE
  5
16A
  8
0
  6
CONTINUOUS
 62
     7
 10
98.41980515086215
 20
427.4259380034736
 30
0.0
 11
98.41980515086215
 21
426.4259380034735
 31
0.0
  0
LINE
  5
16B
  8
0
  6
CONTINUOUS
 62
     7
 10
33.41980515086205
 20
427.4259380034736
 30
0.0
 11
33.41980515086205
 21
426.4259380034735
 31
0.0
  0
LINE
  5
16C
  8
0
  6
CONTINUOUS
 62
     7
 10
38.37617081190826
 20
427.4259380034736
 30
0.0
 11
37.75955111301768
 21
427.4259380034736
 31
0.0
  0
LINE
  5
16D
  8
0
  6
CONTINUOUS
 62
     7
 10
33.59613213157054
 20
427.4259380034736
 30
0.0
 11
33.41980515086205
 21
427.4259380034736
 31
0.0
  0
LINE
  5
16E
  8
0
  6
CONTINUOUS
 62
     7
 10
38.39362454748978
 20
425.4259380034736
 30
0.0
 11
38.37617081190826
 21
427.4259380034736
 31
0.0
  0
LINE
  5
16F
  8
0
  6
CONTINUOUS
 62
     7
 10
48.81980515086208
 20
370.4259380034736
 30
0.0
 11
48.81980515086208
 21
404.4845166472363
 31
0.0
  0
LINE
  5
170
  8
0
  6
CONTINUOUS
 62
     7
 10
83.01980515086207
 20
404.4845166472363
 30
0.0
 11
83.01980515086207
 21
370.4259380034736
 31
0.0
  0
ARC
  5
171
  8
0
  6
CONTINUOUS
 62
     7
 10
48.91980515086208
 20
370.4259380034736
 30
0.0
 40
0.099999999999989
 50
180.0
 51
270.0
  0
ARC
  5
172
  8
0
  6
CONTINUOUS
 62
     7
 10
82.76980515086208
 20
404.2759380034736
 30
0.0
 40
0.0500000000000084
 50
0.0
 51
90.0
  0
LINE
  5
173
  8
0
  6
CONTINUOUS
 62
     7
 10
82.76980515086208
 20
404.3259380034736
 30
0.0
 11
49.06980515086209
 21
404.3259380034736
 31
0.0
  0
LINE
  5
174
  8
0
  6
CONTINUOUS
 62
     7
 10
49.0198051508621
 20
404.2759380034736
 30
0.0
 11
49.01980515086209
 21
370.6966486815923
 31
0.0
  0
ARC
  5
175
  8
0
  6
CONTINUOUS
 62
     7
 10
49.06980515086209
 20
404.2759380034736
 30
0.0
 40
0.0499999999999945
 50
90.0
 51
180.0
  0
LINE
  5
176
  8
0
  6
CONTINUOUS
 62
     7
 10
82.8198051508621
 20
370.6966486815923
 30
0.0
 11
82.8198051508621
 21
404.2759380034736
 31
0.0
  0
ARC
  5
177
  8
0
  6
CONTINUOUS
 62
     7
 10
82.91980515086209
 20
370.4259380034736
 30
0.0
 40
0.099999999999989
 50
270.0
 51
0.0
  0
LINE
  5
178
  8
0
  6
CONTINUOUS
 62
     7
 10
82.91980515086209
 20
370.3259380034736
 30
0.0
 11
48.91980515086208
 21
370.3259380034736
 31
0.0
  0
POLYLINE
  5
179
  8
0
  6
CONTINUOUS
 62
     7
 66
     1
 10
0.0
 20
0.0
 30
0.0
  0
VERTEX
  5
358
  8
0
  6
CONTINUOUS
 62
     7
 10
83.01980515086208
 20
404.5845166472363
 30
0.0
  0
VERTEX
  5
359
  8
0
  6
CONTINUOUS
 62
     7
 10
83.01788367890241
 20
404.6121065851646
 30
0.0
  0
VERTEX
  5
35A
  8
0
  6
CONTINUOUS
 62
     7
 10
83.01219310411321
 20
404.6386362572509
 30
0.0
  0
VERTEX
  5
35B
  8
0
  6
CONTINUOUS
 62
     7
 10
83.00295211209233
 20
404.663086143075
 30
0.0
  0
VERTEX
  5
35C
  8
0
  6
CONTINUOUS
 62
     7
 10
82.99051582898073
 20
404.6845166472363
 30
0.0
  0
VERTEX
  5
35D
  8
0
  6
CONTINUOUS
 62
     7
 10
82.97536217416405
 20
404.7021042074782
 30
0.0
  0
VERTEX
  5
35E
  8
0
  6
CONTINUOUS
 62
     7
 10
82.9580734940986
 20
404.7151729437239
 30
0.0
  0
VERTEX
  5
35F
  8
0
  6
CONTINUOUS
 62
     7
 10
82.9393141830637
 20
404.7232206317685
 30
0.0
  0
VERTEX
  5
360
  8
0
  6
CONTINUOUS
 62
     7
 10
82.91980515086209
 20
404.7259380034736
 30
0.0
  0
SEQEND
  5
488
  8
0
  6
CONTINUOUS
 62
     7
  0
LINE
  5
17A
  8
0
  6
CONTINUOUS
 62
     7
 10
83.01980515086207
 20
404.5845166472363
 30
0.0
 11
83.01980515086207
 21
404.4845166472363
 31
0.0
  0
LINE
  5
17B
  8
0
  6
CONTINUOUS
 62
     7
 10
48.91980515086208
 20
404.7259380034737
 30
0.0
 11
82.91980515086209
 21
404.7259380034737
 31
0.0
  0
POLYLINE
  5
17C
  8
0
  6
CONTINUOUS
 62
     7
 66
     1
 10
0.0
 20
0.0
 30
0.0
  0
VERTEX
  5
361
  8
0
  6
CONTINUOUS
 62
     7
 10
48.91980515086208
 20
404.7259380034736
 30
0.0
  0
VERTEX
  5
362
  8
0
  6
CONTINUOUS
 62
     7
 10
48.90029611866047
 20
404.7232206317685
 30
0.0
  0
VERTEX
  5
363
  8
0
  6
CONTINUOUS
 62
     7
 10
48.88153680762558
 20
404.7151729437239
 30
0.0
  0
VERTEX
  5
364
  8
0
  6
CONTINUOUS
 62
     7
 10
48.86424812756013
 20
404.7021042074782
 30
0.0
  0
VERTEX
  5
365
  8
0
  6
CONTINUOUS
 62
     7
 10
48.84909447274344
 20
404.6845166472363
 30
0.0
  0
VERTEX
  5
366
  8
0
  6
CONTINUOUS
 62
     7
 10
48.83665818963183
 20
404.663086143075
 30
0.0
  0
VERTEX
  5
367
  8
0
  6
CONTINUOUS
 62
     7
 10
48.82741719761096
 20
404.6386362572509
 30
0.0
  0
VERTEX
  5
368
  8
0
  6
CONTINUOUS
 62
     7
 10
48.82172662282177
 20
404.6121065851646
 30
0.0
  0
VERTEX
  5
369
  8
0
  6
CONTINUOUS
 62
     7
 10
48.81980515086209
 20
404.5845166472363
 30
0.0
  0
SEQEND
  5
489
  8
0
  6
CONTINUOUS
 62
     7
  0
LINE
  5
17D
  8
0
  6
CONTINUOUS
 62
     7
 10
48.81980515086208
 20
404.4845166472363
 30
0.0
 11
48.81980515086208
 21
404.5845166472363
 31
0.0
  0
POLYLINE
  5
17E
  8
0
  6
CONTINUOUS
 62
     7
 66
     1
 10
0.0
 20
0.0
 30
0.0
  0
VERTEX
  5
36A
  8
0
  6
CONTINUOUS
 62
     7
 10
82.76980515086208
 20
370.7259380034735
 30
0.0
  0
VERTEX
  5
36B
  8
0
  6
CONTINUOUS
 62
     7
 10
82.7795596669629
 20
370.7272966893261
 30
0.0
  0
VERTEX
  5
36C
  8
0
  6
CONTINUOUS
 62
     7
 10
82.78893932248036
 20
370.7313205333484
 30
0.0
  0
VERTEX
  5
36D
  8
0
  6
CONTINUOUS
 62
     7
 10
82.79758366251309
 20
370.7378549014712
 30
0.0
  0
VERTEX
  5
36E
  8
0
  6
CONTINUOUS
 62
     7
 10
82.80516048992145
 20
370.7466486815922
 30
0.0
  0
VERTEX
  5
36F
  8
0
  6
CONTINUOUS
 62
     7
 10
82.81137863147725
 20
370.7573639336728
 30
0.0
  0
VERTEX
  5
370
  8
0
  6
CONTINUOUS
 62
     7
 10
82.8159991274877
 20
370.7695888765849
 30
0.0
  0
VERTEX
  5
371
  8
0
  6
CONTINUOUS
 62
     7
 10
82.81884441488229
 20
370.7828537126281
 30
0.0
  0
VERTEX
  5
372
  8
0
  6
CONTINUOUS
 62
     7
 10
82.81980515086214
 20
370.7966486815922
 30
0.0
  0
SEQEND
  5
48A
  8
0
  6
CONTINUOUS
 62
     7
  0
LINE
  5
17F
  8
0
  6
CONTINUOUS
 62
     7
 10
49.06980515086209
 20
370.7259380034736
 30
0.0
 11
82.76980515086208
 21
370.7259380034736
 31
0.0
  0
POLYLINE
  5
180
  8
0
  6
CONTINUOUS
 62
     7
 66
     1
 10
0.0
 20
0.0
 30
0.0
  0
VERTEX
  5
373
  8
0
  6
CONTINUOUS
 62
     7
 10
49.0198051508621
 20
370.7966486815922
 30
0.0
  0
VERTEX
  5
374
  8
0
  6
CONTINUOUS
 62
     7
 10
49.02076588684194
 20
370.7828537126281
 30
0.0
  0
VERTEX
  5
375
  8
0
  6
CONTINUOUS
 62
     7
 10
49.02361117423654
 20
370.7695888765849
 30
0.0
  0
VERTEX
  5
376
  8
0
  6
CONTINUOUS
 62
     7
 10
49.02823167024697
 20
370.7573639336729
 30
0.0
  0
VERTEX
  5
377
  8
0
  6
CONTINUOUS
 62
     7
 10
49.03444981180277
 20
370.7466486815922
 30
0.0
  0
VERTEX
  5
378
  8
0
  6
CONTINUOUS
 62
     7
 10
49.04202663921112
 20
370.7378549014713
 30
0.0
  0
VERTEX
  5
379
  8
0
  6
CONTINUOUS
 62
     7
 10
49.05067097924384
 20
370.7313205333484
 30
0.0
  0
VERTEX
  5
37A
  8
0
  6
CONTINUOUS
 62
     7
 10
49.06005063476129
 20
370.7272966893261
 30
0.0
  0
VERTEX
  5
37B
  8
0
  6
CONTINUOUS
 62
     7
 10
49.06980515086209
 20
370.7259380034736
 30
0.0
  0
SEQEND
  5
48B
  8
0
  6
CONTINUOUS
 62
     7
  0
LINE
  5
181
  8
0
  6
CONTINUOUS
 62
     7
 10
35.41980515086217
 20
380.4259380034736
 30
0.0
 11
35.41980515086215
 21
355.9259380034736
 31
0.0
  0
LINE
  5
182
  8
0
  6
CONTINUOUS
 62
     7
 10
35.41980515086216
 20
394.9259380034737
 30
0.0
 11
35.41980515086217
 21
380.4259380034736
 31
0.0
  0
ARC
  5
183
  8
0
  6
CONTINUOUS
 62
     7
 10
35.91980515086217
 20
394.9259380034737
 30
0.0
 40
0.5000000000000004
 50
89.99999999999363
 51
180.0
  0
LINE
  5
184
  8
0
  6
CONTINUOUS
 62
     7
 10
38.40235141528055
 20
395.4259380034737
 30
0.0
 11
35.91980515086222
 21
395.4259380034737
 31
0.0
  0
LINE
  5
185
  8
0
  6
CONTINUOUS
 62
     7
 10
38.40235141528055
 20
395.4259380034737
 30
0.0
 11
38.40235141528055
 21
411.940656629235
 31
0.0
  0
LINE
  5
186
  8
0
  6
CONTINUOUS
 62
     7
 10
35.41980515086207
 20
411.940656629235
 30
0.0
 11
38.40235141528055
 21
411.940656629235
 31
0.0
  0
LINE
  5
187
  8
0
  6
CONTINUOUS
 62
     7
 10
35.41980515086207
 20
411.940656629235
 30
0.0
 11
35.41980515086205
 21
420.4259380034736
 31
0.0
  0
LINE
  5
188
  8
0
  6
CONTINUOUS
 62
     7
 10
96.41980515086212
 20
411.940656629235
 30
0.0
 11
93.43725888644364
 21
411.940656629235
 31
0.0
  0
LINE
  5
189
  8
0
  6
CONTINUOUS
 62
     7
 10
93.43725888644363
 20
395.4259380034737
 30
0.0
 11
93.43725888644364
 21
411.940656629235
 31
0.0
  0
LINE
  5
18A
  8
0
  6
CONTINUOUS
 62
     7
 10
93.43725888644363
 20
395.4259380034737
 30
0.0
 11
95.91980515086198
 21
395.4259380034737
 31
0.0
  0
ARC
  5
18B
  8
0
  6
CONTINUOUS
 62
     7
 10
95.91980515086203
 20
394.9259380034737
 30
0.0
 40
0.5000000000000004
 50
0.0
 51
90.00000000000638
  0
LINE
  5
18C
  8
0
  6
CONTINUOUS
 62
     7
 10
96.41980515086203
 20
394.9259380034737
 30
0.0
 11
96.41980515086203
 21
380.4259380034736
 31
0.0
  0
LINE
  5
18D
  8
0
  6
CONTINUOUS
 62
     7
 10
96.41980515086203
 20
380.4259380034736
 30
0.0
 11
96.41980515086203
 21
355.9259380034736
 31
0.0
  0
LINE
  5
18E
  8
0
  6
CONTINUOUS
 62
     7
 10
96.41980515086212
 20
411.940656629235
 30
0.0
 11
96.41980515086212
 21
420.4259380034736
 31
0.0
  0
LINE
  5
18F
  8
0
  6
CONTINUOUS
 62
     7
 10
96.41980515086209
 20
355.4259380034737
 30
0.0
 11
87.91980515086209
 21
355.4259380034737
 31
0.0
  0
LINE
  5
190
  8
0
  6
CONTINUOUS
 62
     7
 10
88.41980515086209
 20
355.9259380034737
 30
0.0
 11
87.91980515086209
 21
355.4259380034737
 31
0.0
  0
LINE
  5
191
  8
0
  6
CONTINUOUS
 62
     7
 10
96.41980515086202
 20
355.9259380034736
 30
0.0
 11
96.41980515086202
 21
355.4259380034737
 31
0.0
  0
LINE
  5
192
  8
0
  6
CONTINUOUS
 62
     7
 10
43.91980515086209
 20
355.4259380034737
 30
0.0
 11
43.41980515086209
 21
355.9259380034737
 31
0.0
  0
LINE
  5
193
  8
0
  6
CONTINUOUS
 62
     7
 10
35.41980515086208
 20
355.4259380034737
 30
0.0
 11
43.91980515086209
 21
355.4259380034737
 31
0.0
  0
LINE
  5
194
  8
0
  6
CONTINUOUS
 62
     7
 10
35.41980515086216
 20
355.9259380034736
 30
0.0
 11
35.41980515086216
 21
355.4259380034737
 31
0.0
  0
LINE
  5
195
  8
0
  6
CONTINUOUS
 62
     7
 10
43.91980515086209
 20
363.4259380034736
 30
0.0
 11
43.4198051508621
 21
363.9259380034736
 31
0.0
  0
LINE
  5
196
  8
0
  6
CONTINUOUS
 62
     7
 10
43.9198051508621
 20
420.9259380034737
 30
0.0
 11
43.91980515086209
 21
363.4259380034736
 31
0.0
  0
LINE
  5
197
  8
0
  6
CONTINUOUS
 62
     7
 10
48.41980515086208
 20
363.9259380034736
 30
0.0
 11
47.91980515086209
 21
363.4259380034736
 31
0.0
  0
LINE
  5
198
  8
0
  6
CONTINUOUS
 62
     7
 10
47.91980515086209
 20
363.4259380034736
 30
0.0
 11
47.9198051508621
 21
420.9259380034737
 31
0.0
  0
LINE
  5
199
  8
0
  6
CONTINUOUS
 62
     7
 10
83.91980515086209
 20
363.4259380034736
 30
0.0
 11
83.41980515086209
 21
363.9259380034736
 31
0.0
  0
LINE
  5
19A
  8
0
  6
CONTINUOUS
 62
     7
 10
83.9198051508621
 20
420.9259380034736
 30
0.0
 11
83.91980515086209
 21
363.4259380034736
 31
0.0
  0
LINE
  5
19B
  8
0
  6
CONTINUOUS
 62
     7
 10
88.41980515086209
 20
363.9259380034736
 30
0.0
 11
87.91980515086209
 21
363.4259380034736
 31
0.0
  0
LINE
  5
19C
  8
0
  6
CONTINUOUS
 62
     7
 10
87.91980515086209
 20
363.4259380034736
 30
0.0
 11
87.91980515086209
 21
420.9259380034736
 31
0.0
  0
CIRCLE
  5
19D
  8
0
  6
CONTINUOUS
 62
     7
 10
65.91980515086209
 20
365.4259380034736
 30
0.0
 40
2.500000000000002
  0
LINE
  5
19E
  8
0
  6
CONTINUOUS
 62
     7
 10
60.91982418933001
 20
359.1753848445302
 30
0.0
 11
61.4198051508621
 21
359.4205083940033
 31
0.0
  0
LINE
  5
19F
  8
0
  6
CONTINUOUS
 62
     7
 10
58.16936641734711
 20
363.4259570419415
 30
0.0
 11
58.5669019967125
 21
363.9259380034736
 31
0.0
  0
LINE
  5
1A0
  8
0
  6
CONTINUOUS
 62
     7
 10
47.91980515086209
 20
363.4259380034736
 30
0.0
 11
58.16933200518373
 21
363.4259380034736
 31
0.0
  0
LINE
  5
1A1
  8
0
  6
CONTINUOUS
 62
     7
 10
70.91978611239418
 20
359.1753848445302
 30
0.0
 11
70.41980515086209
 21
359.4205083940033
 31
0.0
  0
LINE
  5
1A2
  8
0
  6
CONTINUOUS
 62
     7
 10
73.67024388437707
 20
363.4259570419415
 30
0.0
 11
73.27270830501169
 21
363.9259380034736
 31
0.0
  0
LINE
  5
1A3
  8
0
  6
CONTINUOUS
 62
     7
 10
83.91980515086209
 20
363.4259380034736
 30
0.0
 11
73.67027829654045
 21
363.4259380034736
 31
0.0
  0
LINE
  5
1A4
  8
0
  6
CONTINUOUS
 62
     7
 10
37.41980515086209
 20
363.4259380034736
 30
0.0
 11
36.91980515086209
 21
363.9259380034736
 31
0.0
  0
LINE
  5
1A5
  8
0
  6
CONTINUOUS
 62
     7
 10
37.41980515086209
 20
357.9259380034736
 30
0.0
 11
37.41980515086209
 21
363.4259380034736
 31
0.0
  0
LINE
  5
1A6
  8
0
  6
CONTINUOUS
 62
     7
 10
37.27335854145537
 20
357.5723846128803
 30
0.0
 11
37.41980515086209
 21
357.9259380034736
 31
0.0
  0
LINE
  5
1A7
  8
0
  6
CONTINUOUS
 62
     7
 10
37.27335854145536
 20
357.5723846128803
 30
0.0
 11
36.91980515086209
 21
357.218831222287
 31
0.0
  0
LINE
  5
1A8
  8
0
  6
CONTINUOUS
 62
     7
 10
94.41980515086209
 20
363.4259380034736
 30
0.0
 11
94.91980515086209
 21
363.9259380034736
 31
0.0
  0
LINE
  5
1A9
  8
0
  6
CONTINUOUS
 62
     7
 10
94.41980515086209
 20
363.4259380034736
 30
0.0
 11
87.91980515086209
 21
363.4259380034736
 31
0.0
  0
LINE
  5
1AA
  8
0
  6
CONTINUOUS
 62
     7
 10
37.41980515086209
 20
363.4259380034736
 30
0.0
 11
43.91980515086209
 21
363.4259380034736
 31
0.0
  0
LINE
  5
1AB
  8
0
  6
CONTINUOUS
 62
     7
 10
94.56625176026881
 20
357.5723846128803
 30
0.0
 11
94.41980515086209
 21
357.9259380034736
 31
0.0
  0
LINE
  5
1AC
  8
0
  6
CONTINUOUS
 62
     7
 10
94.41980515086209
 20
357.9259380034736
 30
0.0
 11
94.41980515086209
 21
363.4259380034736
 31
0.0
  0
LINE
  5
1AD
  8
0
  6
CONTINUOUS
 62
     7
 10
94.56625176026883
 20
357.5723846128803
 30
0.0
 11
94.91980515086209
 21
357.218831222287
 31
0.0
  0
LINE
  5
1AE
  8
0
  6
CONTINUOUS
 62
     7
 10
54.94463763488191
 20
355.4266232360964
 30
0.0
 11
54.44532286750463
 21
355.9259380034737
 31
0.0
  0
LINE
  5
1AF
  8
0
  6
CONTINUOUS
 62
     7
 10
70.91980515086209
 20
359.1753513124596
 30
0.0
 11
70.91980515086209
 21
357.9259380034736
 31
0.0
  0
LINE
  5
1B0
  8
0
  6
CONTINUOUS
 62
     7
 10
70.91980515086209
 20
357.9259380034736
 30
0.0
 11
70.77335854145537
 21
357.5723846128803
 31
0.0
  0
LINE
  5
1B1
  8
0
  6
CONTINUOUS
 62
     7
 10
70.77335854145537
 20
357.5723846128803
 30
0.0
 11
70.41980515086209
 21
357.218831222287
 31
0.0
  0
LINE
  5
1B2
  8
0
  6
CONTINUOUS
 62
     7
 10
61.06625176026882
 20
357.5723846128803
 30
0.0
 11
61.4198051508621
 21
357.218831222287
 31
0.0
  0
LINE
  5
1B3
  8
0
  6
CONTINUOUS
 62
     7
 10
60.9198051508621
 20
357.9259380034736
 30
0.0
 11
61.06625176026882
 21
357.5723846128803
 31
0.0
  0
LINE
  5
1B4
  8
0
  6
CONTINUOUS
 62
     7
 10
60.9198051508621
 20
359.1753513124596
 30
0.0
 11
60.9198051508621
 21
357.9259380034736
 31
0.0
  0
LINE
  5
1B5
  8
0
  6
CONTINUOUS
 62
     7
 10
76.89497266684226
 20
355.4266232360964
 30
0.0
 11
77.39428743421955
 21
355.9259380034737
 31
0.0
  0
LINE
  5
1B6
  8
0
  6
CONTINUOUS
 62
     7
 10
83.41980515086209
 20
357.218831222287
 30
0.0
 11
83.77335854145537
 21
357.5723846128803
 31
0.0
  0
LINE
  5
1B7
  8
0
  6
CONTINUOUS
 62
     7
 10
83.77335854145537
 20
357.5723846128803
 30
0.0
 11
83.91980515086209
 21
357.9259380034736
 31
0.0
  0
LINE
  5
1B8
  8
0
  6
CONTINUOUS
 62
     7
 10
83.91980515086209
 20
357.9259380034736
 30
0.0
 11
83.91980515086209
 21
355.4259380034737
 31
0.0
  0
LINE
  5
1B9
  8
0
  6
CONTINUOUS
 62
     7
 10
83.91980515086209
 20
355.4259380034737
 30
0.0
 11
83.41980515086209
 21
355.9259380034737
 31
0.0
  0
LINE
  5
1BA
  8
0
  6
CONTINUOUS
 62
     7
 10
88.06625176026881
 20
357.5723846128803
 30
0.0
 11
88.41980515086209
 21
357.218831222287
 31
0.0
  0
LINE
  5
1BB
  8
0
  6
CONTINUOUS
 62
     7
 10
87.91980515086209
 20
355.4259380034737
 30
0.0
 11
87.91980515086209
 21
357.9259380034736
 31
0.0
  0
LINE
  5
1BC
  8
0
  6
CONTINUOUS
 62
     7
 10
87.91980515086209
 20
357.9259380034736
 30
0.0
 11
88.06625176026881
 21
357.5723846128803
 31
0.0
  0
LINE
  5
1BD
  8
0
  6
CONTINUOUS
 62
     7
 10
47.91980515086209
 20
355.4259380034737
 30
0.0
 11
47.91980515086209
 21
357.9259380034736
 31
0.0
  0
LINE
  5
1BE
  8
0
  6
CONTINUOUS
 62
     7
 10
47.91980515086209
 20
357.9259380034736
 30
0.0
 11
48.06625176026882
 21
357.5723846128803
 31
0.0
  0
LINE
  5
1BF
  8
0
  6
CONTINUOUS
 62
     7
 10
48.06625176026882
 20
357.5723846128803
 30
0.0
 11
48.41980515086209
 21
357.218831222287
 31
0.0
  0
LINE
  5
1C0
  8
0
  6
CONTINUOUS
 62
     7
 10
48.41980515086209
 20
355.9259380034737
 30
0.0
 11
47.91980515086209
 21
355.4259380034737
 31
0.0
  0
LINE
  5
1C1
  8
0
  6
CONTINUOUS
 62
     7
 10
43.77335854145537
 20
357.5723846128803
 30
0.0
 11
43.91980515086209
 21
357.9259380034736
 31
0.0
  0
LINE
  5
1C2
  8
0
  6
CONTINUOUS
 62
     7
 10
43.91980515086209
 20
357.9259380034736
 30
0.0
 11
43.91980515086209
 21
355.4259380034737
 31
0.0
  0
LINE
  5
1C3
  8
0
  6
CONTINUOUS
 62
     7
 10
43.41980515086209
 20
357.218831222287
 30
0.0
 11
43.77335854145537
 21
357.5723846128803
 31
0.0
  0
LINE
  5
1C4
  8
0
  6
CONTINUOUS
 62
     7
 10
81.94600904050363
 20
355.4259380034737
 30
0.0
 11
81.94463763488196
 21
355.4266232360964
 31
0.0
  0
LINE
  5
1C5
  8
0
  6
CONTINUOUS
 62
     7
 10
81.94463763488196
 20
355.4266232360964
 30
0.0
 11
81.44532286750466
 21
355.9259380034737
 31
0.0
  0
LINE
  5
1C6
  8
0
  6
CONTINUOUS
 62
     7
 10
83.91980515086209
 20
355.4259380034737
 30
0.0
 11
81.94600904050363
 21
355.4259380034737
 31
0.0
  0
LINE
  5
1C7
  8
0
  6
CONTINUOUS
 62
     7
 10
49.89497266684223
 20
355.4266232360964
 30
0.0
 11
50.39428743421951
 21
355.9259380034737
 31
0.0
  0
LINE
  5
1C8
  8
0
  6
CONTINUOUS
 62
     7
 10
76.89497266684226
 20
355.4266232360964
 30
0.0
 11
76.8936012612206
 21
355.4259380034737
 31
0.0
  0
LINE
  5
1C9
  8
0
  6
CONTINUOUS
 62
     7
 10
76.8936012612206
 20
355.4259380034737
 30
0.0
 11
54.94600904050358
 21
355.4259380034737
 31
0.0
  0
LINE
  5
1CA
  8
0
  6
CONTINUOUS
 62
     7
 10
54.94463763488191
 20
355.4266232360964
 30
0.0
 11
54.94600904050358
 21
355.4259380034737
 31
0.0
  0
LINE
  5
1CB
  8
0
  6
CONTINUOUS
 62
     7
 10
49.89360126122055
 20
355.4259380034737
 30
0.0
 11
49.89497266684223
 21
355.4266232360964
 31
0.0
  0
LINE
  5
1CC
  8
0
  6
CONTINUOUS
 62
     7
 10
47.91980515086209
 20
355.4259380034737
 30
0.0
 11
49.89360126122055
 21
355.4259380034737
 31
0.0
  0
LINE
  5
1CD
  8
0
  6
CONTINUOUS
 62
     7
 10
50.89497360721847
 20
340.4259380034736
 30
0.0
 11
53.94463669450566
 21
340.4259380034736
 31
0.0
  0
LINE
  5
1CE
  8
0
  6
CONTINUOUS
 62
     7
 10
80.9446366945057
 20
340.4259380034736
 30
0.0
 11
77.89497360721852
 21
340.4259380034736
 31
0.0
  0
LINE
  5
1CF
  8
0
  6
CONTINUOUS
 62
     7
 10
33.41980515086204
 20
425.3682029765546
 30
0.0
 11
33.41980515086204
 21
425.4259380034736
 31
0.0
  0
LINE
  5
1D0
  8
0
  6
CONTINUOUS
 62
     7
 10
98.41980515086213
 20
425.3682029765546
 30
0.0
 11
98.41980515086213
 21
425.4259380034736
 31
0.0
  0
LINE
  5
1D1
  8
0
  6
CONTINUOUS
 62
     7
 10
47.91980515086208
 20
360.4259380034736
 30
0.0
 11
59.64130412928463
 21
360.4259380034736
 31
0.0
  0
LINE
  5
1D2
  8
0
  6
CONTINUOUS
 62
     7
 10
59.64130412928463
 20
360.4259380034736
 30
0.0
 11
60.9198051508621
 21
359.1615487638834
 31
0.0
  0
LINE
  5
1D3
  8
0
  6
CONTINUOUS
 62
     7
 10
47.91980515086209
 20
357.9259380034736
 30
0.0
 11
47.91980515086208
 21
360.4259380034736
 31
0.0
  0
LINE
  5
1D4
  8
0
  6
CONTINUOUS
 62
     7
 10
70.91980515086209
 20
359.1615487638834
 30
0.0
 11
72.19830617243956
 21
360.4259380034736
 31
0.0
  0
LINE
  5
1D5
  8
0
  6
CONTINUOUS
 62
     7
 10
83.91980515086212
 20
360.4259380034736
 30
0.0
 11
72.19830617243954
 21
360.4259380034736
 31
0.0
  0
LINE
  5
1D6
  8
0
  6
CONTINUOUS
 62
     7
 10
83.91980515086209
 20
357.9259380034736
 30
0.0
 11
83.91980515086212
 21
360.4259380034736
 31
0.0
  0
LINE
  5
1D7
  8
0
  6
CONTINUOUS
 62
     7
 10
37.41980515086209
 20
360.4259380034736
 30
0.0
 11
43.91980515086209
 21
360.4259380034736
 31
0.0
  0
LINE
  5
1D8
  8
0
  6
CONTINUOUS
 62
     7
 10
43.91980515086209
 20
360.4259380034736
 30
0.0
 11
43.91980515086209
 21
357.9259380034736
 31
0.0
  0
LINE
  5
1D9
  8
0
  6
CONTINUOUS
 62
     7
 10
94.41980515086209
 20
360.4259380034736
 30
0.0
 11
87.91980515086209
 21
360.4259380034736
 31
0.0
  0
LINE
  5
1DA
  8
0
  6
CONTINUOUS
 62
     7
 10
87.91980515086209
 20
360.4259380034736
 30
0.0
 11
87.91980515086209
 21
357.9259380034736
 31
0.0
  0
LINE
  5
1DB
  8
0
  6
CONTINUOUS
 62
     7
 10
76.81498959229603
 20
353.4259380034737
 30
0.0
 11
76.81498959229603
 21
341.4259380034736
 31
0.0
  0
LINE
  5
1DC
  8
0
  6
CONTINUOUS
 62
     7
 10
76.71017403372996
 20
355.4259380034737
 30
0.0
 11
76.81498959229603
 21
353.4259380034737
 31
0.0
  0
LINE
  5
1DD
  8
0
  6
CONTINUOUS
 62
     7
 10
55.12943626799423
 20
355.4259380034737
 30
0.0
 11
55.02462070942814
 21
353.4259380034737
 31
0.0
  0
LINE
  5
1DE
  8
0
  6
CONTINUOUS
 62
     7
 10
55.02462070942814
 20
353.4259380034737
 30
0.0
 11
55.02462070942814
 21
341.4259380034736
 31
0.0
  0
LINE
  5
1DF
  8
0
  6
CONTINUOUS
 62
     7
 10
49.81498959229599
 20
353.4259380034737
 30
0.0
 11
49.81498959229599
 21
341.4259380034736
 31
0.0
  0
LINE
  5
1E0
  8
0
  6
CONTINUOUS
 62
     7
 10
49.81498959229599
 20
353.4259380034737
 30
0.0
 11
49.71017403372991
 21
355.4259380034737
 31
0.0
  0
LINE
  5
1E1
  8
0
  6
CONTINUOUS
 62
     7
 10
82.02462070942819
 20
353.4259380034737
 30
0.0
 11
82.12943626799427
 21
355.4259380034737
 31
0.0
  0
LINE
  5
1E2
  8
0
  6
CONTINUOUS
 62
     7
 10
82.02462070942819
 20
353.4259380034737
 30
0.0
 11
82.02462070942819
 21
341.4259380034736
 31
0.0
  0
LINE
  5
1E3
  8
0
  6
CONTINUOUS
 62
     7
 10
50.8163619382939
 20
340.4259380034736
 30
0.0
 11
50.89497360721847
 21
340.4259380034736
 31
0.0
  0
POLYLINE
  5
1E4
  8
0
  6
CONTINUOUS
 62
     7
 66
     1
 10
0.0
 20
0.0
 30
0.0
  0
VERTEX
  5
37C
  8
0
  6
CONTINUOUS
 62
     7
 10
49.81498959229598
 20
341.4259380034736
 30
0.0
  0
VERTEX
  5
37D
  8
0
  6
CONTINUOUS
 62
     7
 10
49.83423068113628
 20
341.2308476814575
 30
0.0
  0
VERTEX
  5
37E
  8
0
  6
CONTINUOUS
 62
     7
 10
49.8912145234036
 20
341.0432545711085
 30
0.0
  0
VERTEX
  5
37F
  8
0
  6
CONTINUOUS
 62
     7
 10
49.98375126199651
 20
340.870367770454
 30
0.0
  0
VERTEX
  5
380
  8
0
  6
CONTINUOUS
 62
     7
 10
50.10828476194607
 20
340.718831222287
 30
0.0
  0
VERTEX
  5
381
  8
0
  6
CONTINUOUS
 62
     7
 10
50.26002927068843
 20
340.594468391171
 30
0.0
  0
VERTEX
  5
382
  8
0
  6
CONTINUOUS
 62
     7
 10
50.43315333185193
 20
340.5020584709623
 30
0.0
  0
VERTEX
  5
383
  8
0
  6
CONTINUOUS
 62
     7
 10
50.62100388485511
 20
340.4451527230704
 30
0.0
  0
VERTEX
  5
384
  8
0
  6
CONTINUOUS
 62
     7
 10
50.81636193829389
 20
340.4259380034736
 30
0.0
  0
SEQEND
  5
48C
  8
0
  6
CONTINUOUS
 62
     7
  0
POLYLINE
  5
1E5
  8
0
  6
CONTINUOUS
 62
     7
 66
     1
 10
0.0
 20
0.0
 30
0.0
  0
VERTEX
  5
385
  8
0
  6
CONTINUOUS
 62
     7
 10
81.02324836343026
 20
340.4259380034736
 30
0.0
  0
VERTEX
  5
386
  8
0
  6
CONTINUOUS
 62
     7
 10
81.21860641686904
 20
340.4451527230704
 30
0.0
  0
VERTEX
  5
387
  8
0
  6
CONTINUOUS
 62
     7
 10
81.40645696987222
 20
340.5020584709623
 30
0.0
  0
VERTEX
  5
388
  8
0
  6
CONTINUOUS
 62
     7
 10
81.57958103103572
 20
340.594468391171
 30
0.0
  0
VERTEX
  5
389
  8
0
  6
CONTINUOUS
 62
     7
 10
81.73132553977807
 20
340.718831222287
 30
0.0
  0
VERTEX
  5
38A
  8
0
  6
CONTINUOUS
 62
     7
 10
81.85585903972763
 20
340.870367770454
 30
0.0
  0
VERTEX
  5
38B
  8
0
  6
CONTINUOUS
 62
     7
 10
81.94839577832055
 20
341.0432545711085
 30
0.0
  0
VERTEX
  5
38C
  8
0
  6
CONTINUOUS
 62
     7
 10
82.00537962058786
 20
341.2308476814575
 30
0.0
  0
VERTEX
  5
38D
  8
0
  6
CONTINUOUS
 62
     7
 10
82.02462070942816
 20
341.4259380034736
 30
0.0
  0
SEQEND
  5
48D
  8
0
  6
CONTINUOUS
 62
     7
  0
LINE
  5
1E6
  8
0
  6
CONTINUOUS
 62
     7
 10
81.02324836343027
 20
340.4259380034736
 30
0.0
 11
80.9446366945057
 21
340.4259380034736
 31
0.0
  0
POLYLINE
  5
1E7
  8
0
  6
CONTINUOUS
 62
     7
 66
     1
 10
0.0
 20
0.0
 30
0.0
  0
VERTEX
  5
38E
  8
0
  6
CONTINUOUS
 62
     7
 10
54.02324836343021
 20
340.4259380034736
 30
0.0
  0
VERTEX
  5
38F
  8
0
  6
CONTINUOUS
 62
     7
 10
54.21860641686899
 20
340.4451527230704
 30
0.0
  0
VERTEX
  5
390
  8
0
  6
CONTINUOUS
 62
     7
 10
54.40645696987218
 20
340.5020584709623
 30
0.0
  0
VERTEX
  5
391
  8
0
  6
CONTINUOUS
 62
     7
 10
54.57958103103567
 20
340.594468391171
 30
0.0
  0
VERTEX
  5
392
  8
0
  6
CONTINUOUS
 62
     7
 10
54.73132553977803
 20
340.718831222287
 30
0.0
  0
VERTEX
  5
393
  8
0
  6
CONTINUOUS
 62
     7
 10
54.8558590397276
 20
340.8703677704539
 30
0.0
  0
VERTEX
  5
394
  8
0
  6
CONTINUOUS
 62
     7
 10
54.94839577832051
 20
341.0432545711085
 30
0.0
  0
VERTEX
  5
395
  8
0
  6
CONTINUOUS
 62
     7
 10
55.00537962058784
 20
341.2308476814574
 30
0.0
  0
VERTEX
  5
396
  8
0
  6
CONTINUOUS
 62
     7
 10
55.02462070942815
 20
341.4259380034736
 30
0.0
  0
SEQEND
  5
48E
  8
0
  6
CONTINUOUS
 62
     7
  0
LINE
  5
1E8
  8
0
  6
CONTINUOUS
 62
     7
 10
53.94463669450566
 20
340.4259380034736
 30
0.0
 11
54.02324836343021
 21
340.4259380034736
 31
0.0
  0
POLYLINE
  5
1E9
  8
0
  6
CONTINUOUS
 62
     7
 66
     1
 10
0.0
 20
0.0
 30
0.0
  0
VERTEX
  5
397
  8
0
  6
CONTINUOUS
 62
     7
 10
76.81498959229603
 20
341.4259380034736
 30
0.0
  0
VERTEX
  5
398
  8
0
  6
CONTINUOUS
 62
     7
 10
76.83423068113633
 20
341.2308476814574
 30
0.0
  0
VERTEX
  5
399
  8
0
  6
CONTINUOUS
 62
     7
 10
76.89121452340366
 20
341.0432545711085
 30
0.0
  0
VERTEX
  5
39A
  8
0
  6
CONTINUOUS
 62
     7
 10
76.98375126199657
 20
340.870367770454
 30
0.0
  0
VERTEX
  5
39B
  8
0
  6
CONTINUOUS
 62
     7
 10
77.10828476194614
 20
340.718831222287
 30
0.0
  0
VERTEX
  5
39C
  8
0
  6
CONTINUOUS
 62
     7
 10
77.2600292706885
 20
340.594468391171
 30
0.0
  0
VERTEX
  5
39D
  8
0
  6
CONTINUOUS
 62
     7
 10
77.433153331852
 20
340.5020584709623
 30
0.0
  0
VERTEX
  5
39E
  8
0
  6
CONTINUOUS
 62
     7
 10
77.62100388485518
 20
340.4451527230704
 30
0.0
  0
VERTEX
  5
39F
  8
0
  6
CONTINUOUS
 62
     7
 10
77.81636193829397
 20
340.4259380034736
 30
0.0
  0
SEQEND
  5
48F
  8
0
  6
CONTINUOUS
 62
     7
  0
LINE
  5
1EA
  8
0
  6
CONTINUOUS
 62
     7
 10
77.89497360721852
 20
340.4259380034736
 30
0.0
 11
77.81636193829397
 21
340.4259380034736
 31
0.0
  0
ARC
  5
1EB
  8
0
  6
CONTINUOUS
 62
     7
 10
65.91980515086209
 20
365.4259380034736
 30
0.0
 40
8.026180603372287
 50
321.4672908679479
 51
345.5707381747881
  0
ARC
  5
1EC
  8
0
  6
CONTINUOUS
 62
     7
 10
65.9198051508621
 20
365.4259380034736
 30
0.0
 40
8.026180603372287
 50
194.4292618252118
 51
218.5327091320521
  0
LINE
  5
1ED
  8
0
  6
CONTINUOUS
 62
     7
 10
87.91980515086209
 20
360.4259380034736
 30
0.0
 11
87.91980515086209
 21
363.4259380034736
 31
0.0
  0
LINE
  5
1EE
  8
0
  6
CONTINUOUS
 62
     7
 10
87.91980515086209
 20
355.4259380034737
 30
0.0
 11
86.91980515086209
 21
355.4259380034737
 31
0.0
  0
LINE
  5
1EF
  8
0
  6
CONTINUOUS
 62
     7
 10
47.91980515086208
 20
360.4259380034736
 30
0.0
 11
47.91980515086208
 21
363.4259380034736
 31
0.0
  0
LINE
  5
1F0
  8
0
  6
CONTINUOUS
 62
     7
 10
46.91980515086208
 20
355.4259380034737
 30
0.0
 11
47.91980515086208
 21
355.4259380034737
 31
0.0
  0
LINE
  5
1F1
  8
0
  6
CONTINUOUS
 62
     7
 10
43.91980515086209
 20
360.4259380034736
 30
0.0
 11
43.91980515086209
 21
363.4259380034736
 31
0.0
  0
LINE
  5
1F2
  8
0
  6
CONTINUOUS
 62
     7
 10
43.91980515086209
 20
355.4259380034737
 30
0.0
 11
44.91980515086209
 21
355.4259380034737
 31
0.0
  0
LINE
  5
1F3
  8
0
  6
CONTINUOUS
 62
     7
 10
83.91980515086212
 20
360.4259380034736
 30
0.0
 11
83.91980515086212
 21
363.4259380034736
 31
0.0
  0
LINE
  5
1F4
  8
0
  6
CONTINUOUS
 62
     7
 10
84.9198051508621
 20
355.4259380034737
 30
0.0
 11
83.91980515086212
 21
355.4259380034737
 31
0.0
  0
LINE
  5
1F5
  8
0
  6
CONTINUOUS
 62
     7
 10
35.2198051508621
 20
416.3395368214574
 30
0.0
 11
35.41980515086207
 21
416.211294334577
 31
0.0
  0
LINE
  5
1F6
  8
0
  6
CONTINUOUS
 62
     7
 10
96.6198051508621
 20
416.3395368214574
 30
0.0
 11
96.41980515086212
 21
416.211294334577
 31
0.0
  0
POLYLINE
  5
1F7
  8
0
  6
CONTINUOUS
 62
     7
 66
     1
 10
0.0
 20
0.0
 30
0.0
  0
VERTEX
  5
3A0
  8
0
  6
CONTINUOUS
 62
     7
 10
33.41980515086208
 20
379.9259380034737
 30
0.0
  0
VERTEX
  5
3A1
  8
0
  6
CONTINUOUS
 62
     7
 10
33.4204074227595
 20
379.9504718406374
 30
0.0
  0
VERTEX
  5
3A2
  8
0
  6
CONTINUOUS
 62
     7
 10
33.42221278752599
 20
379.9749465736384
 30
0.0
  0
VERTEX
  5
3A3
  8
0
  6
CONTINUOUS
 62
     7
 10
33.42521689587969
 20
379.9993032407014
 30
0.0
  0
VERTEX
  5
3A4
  8
0
  6
CONTINUOUS
 62
     7
 10
33.42941251066047
 20
380.0234831644818
 30
0.0
  0
VERTEX
  5
3A5
  8
0
  6
CONTINUOUS
 62
     7
 10
33.43478952426481
 20
380.0474280934253
 30
0.0
  0
VERTEX
  5
3A6
  8
0
  6
CONTINUOUS
 62
     7
 10
33.44133498299598
 20
380.0710803421009
 30
0.0
  0
VERTEX
  5
3A7
  8
0
  6
CONTINUOUS
 62
     7
 10
33.44903311827058
 20
380.0943829301698
 30
0.0
  0
VERTEX
  5
3A8
  8
0
  6
CONTINUOUS
 62
     7
 10
33.45786538460644
 20
380.1172797196562
 30
0.0
  0
VERTEX
  5
3A9
  8
0
  6
CONTINUOUS
 62
     7
 10
33.46781050430036
 20
380.1397155501888
 30
0.0
  0
VERTEX
  5
3AA
  8
0
  6
CONTINUOUS
 62
     7
 10
33.47884451868791
 20
380.1616363718866
 30
0.0
  0
VERTEX
  5
3AB
  8
0
  6
CONTINUOUS
 62
     7
 10
33.49094084586195
 20
380.1829893755703
 30
0.0
  0
VERTEX
  5
3AC
  8
0
  6
CONTINUOUS
 62
     7
 10
33.50407034471081
 20
380.2037231199835
 30
0.0
  0
VERTEX
  5
3AD
  8
0
  6
CONTINUOUS
 62
     7
 10
33.51820138512176
 20
380.2237876557199
 30
0.0
  0
VERTEX
  5
3AE
  8
0
  6
CONTINUOUS
 62
     7
 10
33.53329992418071
 20
380.2431346455555
 30
0.0
  0
VERTEX
  5
3AF
  8
0
  6
CONTINUOUS
 62
     7
 10
33.54932958818461
 20
380.2617174808972
 30
0.0
  0
VERTEX
  5
3B0
  8
0
  6
CONTINUOUS
 62
     7
 10
33.56625176026881
 20
380.279491394067
 30
0.0
  0
VERTEX
  5
3B1
  8
0
  6
CONTINUOUS
 62
     7
 10
33.58402567343857
 20
380.2964135661512
 30
0.0
  0
VERTEX
  5
3B2
  8
0
  6
CONTINUOUS
 62
     7
 10
33.60260850878026
 20
380.3124432301551
 30
0.0
  0
VERTEX
  5
3B3
  8
0
  6
CONTINUOUS
 62
     7
 10
33.62195549861587
 20
380.327541769214
 30
0.0
  0
VERTEX
  5
3B4
  8
0
  6
CONTINUOUS
 62
     7
 10
33.64202003435228
 20
380.3416728096249
 30
0.0
  0
VERTEX
  5
3B5
  8
0
  6
CONTINUOUS
 62
     7
 10
33.66275377876547
 20
380.3548023084738
 30
0.0
  0
VERTEX
  5
3B6
  8
0
  6
CONTINUOUS
 62
     7
 10
33.68410678244908
 20
380.3668986356479
 30
0.0
  0
VERTEX
  5
3B7
  8
0
  6
CONTINUOUS
 62
     7
 10
33.70602760414694
 20
380.3779326500354
 30
0.0
  0
VERTEX
  5
3B8
  8
0
  6
CONTINUOUS
 62
     7
 10
33.72846343467954
 20
380.3878777697293
 30
0.0
  0
VERTEX
  5
3B9
  8
0
  6
CONTINUOUS
 62
     7
 10
33.75136022416597
 20
380.3967100360651
 30
0.0
  0
VERTEX
  5
3BA
  8
0
  6
CONTINUOUS
 62
     7
 10
33.77466281223485
 20
380.4044081713398
 30
0.0
  0
VERTEX
  5
3BB
  8
0
  6
CONTINUOUS
 62
     7
 10
33.79831506091045
 20
380.4109536300709
 30
0.0
  0
VERTEX
  5
3BC
  8
0
  6
CONTINUOUS
 62
     7
 10
33.82225998985402
 20
380.4163306436753
 30
0.0
  0
VERTEX
  5
3BD
  8
0
  6
CONTINUOUS
 62
     7
 10
33.84643991363441
 20
380.4205262584561
 30
0.0
  0
VERTEX
  5
3BE
  8
0
  6
CONTINUOUS
 62
     7
 10
33.8707965806973
 20
380.4235303668098
 30
0.0
  0
VERTEX
  5
3BF
  8
0
  6
CONTINUOUS
 62
     7
 10
33.89527131369837
 20
380.4253357315762
 30
0.0
  0
VERTEX
  5
3C0
  8
0
  6
CONTINUOUS
 62
     7
 10
33.91980515086208
 20
380.4259380034737
 30
0.0
  0
SEQEND
  5
490
  8
0
  6
CONTINUOUS
 62
     7
  0
LINE
  5
1F8
  8
0
  6
CONTINUOUS
 62
     7
 10
33.4198051508621
 20
379.9259380034737
 30
0.0
 11
33.4198051508621
 21
379.4455285669946
 31
0.0
  0
LINE
  5
1F9
  8
0
  6
CONTINUOUS
 62
     7
 10
35.41980515086208
 20
380.4259380034737
 30
0.0
 11
33.91980515086208
 21
380.4259380034737
 31
0.0
  0
LINE
  5
1FA
  8
0
  6
CONTINUOUS
 62
     7
 10
35.41980515086208
 20
355.4259380034737
 30
0.0
 11
34.71980515086208
 21
355.4259380034737
 31
0.0
  0
POLYLINE
  5
1FB
  8
0
  6
CONTINUOUS
 62
     7
 66
     1
 10
0.0
 20
0.0
 30
0.0
  0
VERTEX
  5
3C1
  8
0
  6
CONTINUOUS
 62
     7
 10
98.4198051508621
 20
379.9259380034737
 30
0.0
  0
VERTEX
  5
3C2
  8
0
  6
CONTINUOUS
 62
     7
 10
98.41920287896468
 20
379.9504718406374
 30
0.0
  0
VERTEX
  5
3C3
  8
0
  6
CONTINUOUS
 62
     7
 10
98.4173975141982
 20
379.9749465736384
 30
0.0
  0
VERTEX
  5
3C4
  8
0
  6
CONTINUOUS
 62
     7
 10
98.41439340584448
 20
379.9993032407014
 30
0.0
  0
VERTEX
  5
3C5
  8
0
  6
CONTINUOUS
 62
     7
 10
98.41019779106372
 20
380.0234831644818
 30
0.0
  0
VERTEX
  5
3C6
  8
0
  6
CONTINUOUS
 62
     7
 10
98.40482077745938
 20
380.0474280934253
 30
0.0
  0
VERTEX
  5
3C7
  8
0
  6
CONTINUOUS
 62
     7
 10
98.3982753187282
 20
380.0710803421009
 30
0.0
  0
VERTEX
  5
3C8
  8
0
  6
CONTINUOUS
 62
     7
 10
98.3905771834536
 20
380.0943829301698
 30
0.0
  0
VERTEX
  5
3C9
  8
0
  6
CONTINUOUS
 62
     7
 10
98.38174491711773
 20
380.1172797196562
 30
0.0
  0
VERTEX
  5
3CA
  8
0
  6
CONTINUOUS
 62
     7
 10
98.37179979742383
 20
380.1397155501888
 30
0.0
  0
VERTEX
  5
3CB
  8
0
  6
CONTINUOUS
 62
     7
 10
98.36076578303627
 20
380.1616363718866
 30
0.0
  0
VERTEX
  5
3CC
  8
0
  6
CONTINUOUS
 62
     7
 10
98.34866945586224
 20
380.1829893755703
 30
0.0
  0
VERTEX
  5
3CD
  8
0
  6
CONTINUOUS
 62
     7
 10
98.33553995701337
 20
380.2037231199835
 30
0.0
  0
VERTEX
  5
3CE
  8
0
  6
CONTINUOUS
 62
     7
 10
98.32140891660244
 20
380.2237876557199
 30
0.0
  0
VERTEX
  5
3CF
  8
0
  6
CONTINUOUS
 62
     7
 10
98.30631037754347
 20
380.2431346455555
 30
0.0
  0
VERTEX
  5
3D0
  8
0
  6
CONTINUOUS
 62
     7
 10
98.29028071353957
 20
380.2617174808971
 30
0.0
  0
VERTEX
  5
3D1
  8
0
  6
CONTINUOUS
 62
     7
 10
98.27335854145537
 20
380.2794913940669
 30
0.0
  0
VERTEX
  5
3D2
  8
0
  6
CONTINUOUS
 62
     7
 10
98.2555846282856
 20
380.2964135661511
 30
0.0
  0
VERTEX
  5
3D3
  8
0
  6
CONTINUOUS
 62
     7
 10
98.23700179294391
 20
380.312443230155
 30
0.0
  0
VERTEX
  5
3D4
  8
0
  6
CONTINUOUS
 62
     7
 10
98.21765480310832
 20
380.327541769214
 30
0.0
  0
VERTEX
  5
3D5
  8
0
  6
CONTINUOUS
 62
     7
 10
98.19759026737191
 20
380.3416728096249
 30
0.0
  0
VERTEX
  5
3D6
  8
0
  6
CONTINUOUS
 62
     7
 10
98.17685652295872
 20
380.3548023084738
 30
0.0
  0
VERTEX
  5
3D7
  8
0
  6
CONTINUOUS
 62
     7
 10
98.1555035192751
 20
380.3668986356478
 30
0.0
  0
VERTEX
  5
3D8
  8
0
  6
CONTINUOUS
 62
     7
 10
98.13358269757724
 20
380.3779326500354
 30
0.0
  0
VERTEX
  5
3D9
  8
0
  6
CONTINUOUS
 62
     7
 10
98.11114686704464
 20
380.3878777697293
 30
0.0
  0
VERTEX
  5
3DA
  8
0
  6
CONTINUOUS
 62
     7
 10
98.08825007755821
 20
380.3967100360651
 30
0.0
  0
VERTEX
  5
3DB
  8
0
  6
CONTINUOUS
 62
     7
 10
98.06494748948933
 20
380.4044081713398
 30
0.0
  0
VERTEX
  5
3DC
  8
0
  6
CONTINUOUS
 62
     7
 10
98.04129524081372
 20
380.4109536300709
 30
0.0
  0
VERTEX
  5
3DD
  8
0
  6
CONTINUOUS
 62
     7
 10
98.01735031187017
 20
380.4163306436753
 30
0.0
  0
VERTEX
  5
3DE
  8
0
  6
CONTINUOUS
 62
     7
 10
97.99317038808977
 20
380.4205262584561
 30
0.0
  0
VERTEX
  5
3DF
  8
0
  6
CONTINUOUS
 62
     7
 10
97.96881372102688
 20
380.4235303668098
 30
0.0
  0
VERTEX
  5
3E0
  8
0
  6
CONTINUOUS
 62
     7
 10
97.9443389880258
 20
380.4253357315762
 30
0.0
  0
VERTEX
  5
3E1
  8
0
  6
CONTINUOUS
 62
     7
 10
97.9198051508621
 20
380.4259380034737
 30
0.0
  0
SEQEND
  5
491
  8
0
  6
CONTINUOUS
 62
     7
  0
LINE
  5
1FC
  8
0
  6
CONTINUOUS
 62
     7
 10
98.41980515086209
 20
379.9259380034737
 30
0.0
 11
98.41980515086209
 21
379.4455285669945
 31
0.0
  0
LINE
  5
1FD
  8
0
  6
CONTINUOUS
 62
     7
 10
96.41980515086209
 20
380.4259380034737
 30
0.0
 11
97.9198051508621
 21
380.4259380034737
 31
0.0
  0
LINE
  5
1FE
  8
0
  6
CONTINUOUS
 62
     7
 10
96.41980515086209
 20
355.4259380034737
 30
0.0
 11
97.1198051508621
 21
355.4259380034737
 31
0.0
  0
LINE
  5
1FF
  8
0
  6
CONTINUOUS
 62
     7
 10
84.9198051508621
 20
355.4259380034736
 30
0.0
 11
86.91980515086209
 21
355.4259380034736
 31
0.0
  0
LINE
  5
200
  8
0
  6
CONTINUOUS
 62
     7
 10
46.91980515086208
 20
355.4259380034736
 30
0.0
 11
44.91980515086209
 21
355.4259380034736
 31
0.0
  0
LINE
  5
201
  8
0
  6
CONTINUOUS
 62
     7
 10
33.09857934617534
 20
419.3961222510407
 30
0.0
 11
33.47571693173636
 21
420.1520656135771
 31
0.0
  0
LINE
  5
202
  8
0
  6
CONTINUOUS
 62
     7
 10
98.36389336998782
 20
420.1520656135771
 30
0.0
 11
98.74863505979376
 21
419.3753035868385
 31
0.0
  0
LINE
  5
203
  8
0
  6
CONTINUOUS
 62
     7
 10
98.74863505979376
 20
419.3753035868385
 30
0.0
 11
98.77439536789583
 21
419.301861305095
 31
0.0
  0
LINE
  5
204
  8
0
  6
CONTINUOUS
 62
     7
 10
32.9662517602688
 20
373.4426034221338
 30
0.0
 11
34.16217946762192
 21
374.6385311294869
 31
0.0
  0
LINE
  5
205
  8
0
  6
CONTINUOUS
 62
     7
 10
97.67743083410227
 20
374.6385311294869
 30
0.0
 11
98.87335854145539
 21
373.4426034221338
 31
0.0
  0
LINE
  5
206
  8
0
  6
CONTINUOUS
 62
     7
 10
33.47571693173645
 20
420.1520656135772
 30
0.0
 11
33.71199243394382
 21
420.3859864689906
 31
0.0
  0
LINE
  5
207
  8
0
  6
CONTINUOUS
 62
     7
 10
98.12761786778037
 20
420.3859864689905
 30
0.0
 11
98.36389336998774
 21
420.1520656135772
 31
0.0
  0
LINE
  5
208
  8
0
  6
CONTINUOUS
 62
     7
 10
97.47868625090142
 20
420.8577035665393
 30
0.0
 11
98.12761786778034
 21
420.3859864689906
 31
0.0
  0
LINE
  5
209
  8
0
  6
CONTINUOUS
 62
     7
 10
33.71199243394385
 20
420.3859864689906
 30
0.0
 11
34.36092405082277
 21
420.8577035665394
 31
0.0
  0
LINE
  5
20A
  8
0
  6
CONTINUOUS
 62
     7
 10
97.32387031466129
 20
374.784977738881
 30
0.0
 11
97.67743083410225
 21
374.6385311294869
 31
0.0
  0
LINE
  5
20B
  8
0
  6
CONTINUOUS
 62
     7
 10
34.16217946762193
 20
374.6385311294869
 30
0.0
 11
34.51573998706289
 21
374.784977738881
 31
0.0
  0
LINE
  5
20C
  8
0
  6
CONTINUOUS
 62
     7
 10
34.36092405082276
 20
420.8577035665393
 30
0.0
 11
34.68756610293717
 21
421.0509413159868
 31
0.0
  0
LINE
  5
20D
  8
0
  6
CONTINUOUS
 62
     7
 10
97.15204419878704
 20
421.0509413159868
 30
0.0
 11
97.47868625090143
 21
420.8577035665393
 31
0.0
  0
POLYLINE
  5
20E
  8
0
  6
CONTINUOUS
 62
     7
 66
     1
 10
0.0
 20
0.0
 30
0.0
  0
VERTEX
  5
3E2
  8
0
  6
CONTINUOUS
 62
     7
 10
32.94138308588927
 20
414.6965869513451
 30
0.0
  0
VERTEX
  5
3E3
  8
0
  6
CONTINUOUS
 62
     7
 10
32.94161486151969
 20
414.696583131545
 30
0.0
  0
VERTEX
  5
3E4
  8
0
  6
CONTINUOUS
 62
     7
 10
32.94218229839661
 20
414.6968921952011
 30
0.0
  0
VERTEX
  5
3E5
  8
0
  6
CONTINUOUS
 62
     7
 10
32.94284031339718
 20
414.6976321140831
 30
0.0
  0
VERTEX
  5
3E6
  8
0
  6
CONTINUOUS
 62
     7
 10
32.9435945555481
 20
414.6987976311934
 30
0.0
  0
VERTEX
  5
3E7
  8
0
  6
CONTINUOUS
 62
     7
 10
32.94445120563235
 20
414.7003831456876
 30
0.0
  0
VERTEX
  5
3E8
  8
0
  6
CONTINUOUS
 62
     7
 10
32.94541697024849
 20
414.7023827114099
 30
0.0
  0
VERTEX
  5
3E9
  8
0
  6
CONTINUOUS
 62
     7
 10
32.94649907502989
 20
414.7047900333668
 30
0.0
  0
VERTEX
  5
3EA
  8
0
  6
CONTINUOUS
 62
     7
 10
32.94770525693703
 20
414.7075984621528
 30
0.0
  0
VERTEX
  5
3EB
  8
0
  6
CONTINUOUS
 62
     7
 10
32.94904375552934
 20
414.7108009863553
 30
0.0
  0
VERTEX
  5
3EC
  8
0
  6
CONTINUOUS
 62
     7
 10
32.95052330311659
 20
414.714390222969
 30
0.0
  0
VERTEX
  5
3ED
  8
0
  6
CONTINUOUS
 62
     7
 10
32.9521531136844
 20
414.7183584058607
 30
0.0
  0
VERTEX
  5
3EE
  8
0
  6
CONTINUOUS
 62
     7
 10
32.9539428704824
 20
414.7226973723306
 30
0.0
  0
VERTEX
  5
3EF
  8
0
  6
CONTINUOUS
 62
     7
 10
32.95590271215838
 20
414.7273985478253
 30
0.0
  0
VERTEX
  5
3F0
  8
0
  6
CONTINUOUS
 62
     7
 10
32.95804321731686
 20
414.7324529288667
 30
0.0
  0
VERTEX
  5
3F1
  8
0
  6
CONTINUOUS
 62
     7
 10
32.95970197826975
 20
414.7363088161389
 30
0.0
  0
VERTEX
  5
3F2
  8
0
  6
CONTINUOUS
 62
     7
 10
32.96151781051184
 20
414.7404753379226
 30
0.0
  0
VERTEX
  5
3F3
  8
0
  6
CONTINUOUS
 62
     7
 10
32.96350236201464
 20
414.7449543697081
 30
0.0
  0
VERTEX
  5
3F4
  8
0
  6
CONTINUOUS
 62
     7
 10
32.9656650821797
 20
414.7497401206003
 30
0.0
  0
VERTEX
  5
3F5
  8
0
  6
CONTINUOUS
 62
     7
 10
32.96801587317658
 20
414.7548263371086
 30
0.0
  0
VERTEX
  5
3F6
  8
0
  6
CONTINUOUS
 62
     7
 10
32.97056507215348
 20
414.7602062773689
 30
0.0
  0
VERTEX
  5
3F7
  8
0
  6
CONTINUOUS
 62
     7
 10
32.97332343159437
 20
414.7658726840867
 30
0.0
  0
VERTEX
  5
3F8
  8
0
  6
CONTINUOUS
 62
     7
 10
32.97682076418489
 20
414.7728351148182
 30
0.0
  0
VERTEX
  5
3F9
  8
0
  6
CONTINUOUS
 62
     7
 10
32.98063630626641
 20
414.780163439108
 30
0.0
  0
VERTEX
  5
3FA
  8
0
  6
CONTINUOUS
 62
     7
 10
32.98478901882913
 20
414.787843152072
 30
0.0
  0
VERTEX
  5
3FB
  8
0
  6
CONTINUOUS
 62
     7
 10
32.98929842861062
 20
414.7958585540076
 30
0.0
  0
VERTEX
  5
3FC
  8
0
  6
CONTINUOUS
 62
     7
 10
32.99418455882941
 20
414.8041926811805
 30
0.0
  0
VERTEX
  5
3FD
  8
0
  6
CONTINUOUS
 62
     7
 10
32.99946785298993
 20
414.8128272354731
 30
0.0
  0
VERTEX
  5
3FE
  8
0
  6
CONTINUOUS
 62
     7
 10
33.00636133936397
 20
414.823557418797
 30
0.0
  0
VERTEX
  5
3FF
  8
0
  6
CONTINUOUS
 62
     7
 10
33.01389303456617
 20
414.834654898933
 30
0.0
  0
VERTEX
  5
400
  8
0
  6
CONTINUOUS
 62
     7
 10
33.02209955312913
 20
414.846079572386
 30
0.0
  0
VERTEX
  5
401
  8
0
  6
CONTINUOUS
 62
     7
 10
33.03101749294736
 20
414.8577879287402
 30
0.0
  0
VERTEX
  5
402
  8
0
  6
CONTINUOUS
 62
     7
 10
33.04068313357652
 20
414.8697328868244
 30
0.0
  0
VERTEX
  5
403
  8
0
  6
CONTINUOUS
 62
     7
 10
33.05113210679477
 20
414.8818636407146
 30
0.0
  0
VERTEX
  5
404
  8
0
  6
CONTINUOUS
 62
     7
 10
33.06239903858704
 20
414.8941255187926
 30
0.0
  0
VERTEX
  5
405
  8
0
  6
CONTINUOUS
 62
     7
 10
33.07451716194144
 20
414.9064598593534
 30
0.0
  0
VERTEX
  5
406
  8
0
  6
CONTINUOUS
 62
     7
 10
33.08751790011885
 20
414.9188039065239
 30
0.0
  0
VERTEX
  5
407
  8
0
  6
CONTINUOUS
 62
     7
 10
33.10143042037444
 20
414.9310907305164
 30
0.0
  0
VERTEX
  5
408
  8
0
  6
CONTINUOUS
 62
     7
 10
33.11628115847675
 20
414.9432491765091
 30
0.0
  0
VERTEX
  5
409
  8
0
  6
CONTINUOUS
 62
     7
 10
33.13209331478745
 20
414.9552038466832
 30
0.0
  0
VERTEX
  5
40A
  8
0
  6
CONTINUOUS
 62
     7
 10
33.14888632313586
 20
414.9668751201746
 30
0.0
  0
VERTEX
  5
40B
  8
0
  6
CONTINUOUS
 62
     7
 10
33.16667529424706
 20
414.9781792159019
 30
0.0
  0
VERTEX
  5
40C
  8
0
  6
CONTINUOUS
 62
     7
 10
33.18547043606284
 20
414.9890283033902
 30
0.0
  0
VERTEX
  5
40D
  8
0
  6
CONTINUOUS
 62
     7
 10
33.20190523109189
 20
414.997655577414
 30
0.0
  0
VERTEX
  5
40E
  8
0
  6
CONTINUOUS
 62
     7
 10
33.21904163631581
 20
415.0058482155983
 30
0.0
  0
VERTEX
  5
40F
  8
0
  6
CONTINUOUS
 62
     7
 10
33.23687595362763
 20
415.0135495315519
 30
0.0
  0
VERTEX
  5
410
  8
0
  6
CONTINUOUS
 62
     7
 10
33.25540102709692
 20
415.0207013193991
 30
0.0
  0
VERTEX
  5
411
  8
0
  6
CONTINUOUS
 62
     7
 10
33.27460598700637
 20
415.0272440137364
 30
0.0
  0
VERTEX
  5
412
  8
0
  6
CONTINUOUS
 62
     7
 10
33.29447599469963
 20
415.0331168752851
 30
0.0
  0
VERTEX
  5
413
  8
0
  6
CONTINUOUS
 62
     7
 10
33.31499199026815
 20
415.0382582035598
 30
0.0
  0
VERTEX
  5
414
  8
0
  6
CONTINUOUS
 62
     7
 10
33.33613044531605
 20
415.0426055777836
 30
0.0
  0
VERTEX
  5
415
  8
0
  6
CONTINUOUS
 62
     7
 10
33.35786312325699
 20
415.046096127159
 30
0.0
  0
VERTEX
  5
416
  8
0
  6
CONTINUOUS
 62
     7
 10
33.38015684981202
 20
415.0486668314702
 30
0.0
  0
VERTEX
  5
417
  8
0
  6
CONTINUOUS
 62
     7
 10
33.40297329659344
 20
415.0502548528104
 30
0.0
  0
VERTEX
  5
418
  8
0
  6
CONTINUOUS
 62
     7
 10
33.42626878087
 20
415.0507978990386
 30
0.0
  0
SEQEND
  5
492
  8
0
  6
CONTINUOUS
 62
     7
  0
POLYLINE
  5
20F
  8
0
  6
CONTINUOUS
 62
     7
 66
     1
 10
0.0
 20
0.0
 30
0.0
  0
VERTEX
  5
419
  8
0
  6
CONTINUOUS
 62
     7
 10
98.41334152085419
 20
415.0507978990386
 30
0.0
  0
VERTEX
  5
41A
  8
0
  6
CONTINUOUS
 62
     7
 10
98.43663700513075
 20
415.0502548528104
 30
0.0
  0
VERTEX
  5
41B
  8
0
  6
CONTINUOUS
 62
     7
 10
98.45945345191217
 20
415.0486668314702
 30
0.0
  0
VERTEX
  5
41C
  8
0
  6
CONTINUOUS
 62
     7
 10
98.4817471784672
 20
415.046096127159
 30
0.0
  0
VERTEX
  5
41D
  8
0
  6
CONTINUOUS
 62
     7
 10
98.50347985640815
 20
415.0426055777836
 30
0.0
  0
VERTEX
  5
41E
  8
0
  6
CONTINUOUS
 62
     7
 10
98.52461831145605
 20
415.0382582035598
 30
0.0
  0
VERTEX
  5
41F
  8
0
  6
CONTINUOUS
 62
     7
 10
98.54513430702457
 20
415.0331168752851
 30
0.0
  0
VERTEX
  5
420
  8
0
  6
CONTINUOUS
 62
     7
 10
98.56500431471781
 20
415.0272440137364
 30
0.0
  0
VERTEX
  5
421
  8
0
  6
CONTINUOUS
 62
     7
 10
98.58420927462727
 20
415.0207013193991
 30
0.0
  0
VERTEX
  5
422
  8
0
  6
CONTINUOUS
 62
     7
 10
98.60273434809656
 20
415.0135495315519
 30
0.0
  0
VERTEX
  5
423
  8
0
  6
CONTINUOUS
 62
     7
 10
98.62056866540838
 20
415.0058482155983
 30
0.0
  0
VERTEX
  5
424
  8
0
  6
CONTINUOUS
 62
     7
 10
98.63770507063231
 20
414.997655577414
 30
0.0
  0
VERTEX
  5
425
  8
0
  6
CONTINUOUS
 62
     7
 10
98.65413986566135
 20
414.9890283033902
 30
0.0
  0
VERTEX
  5
426
  8
0
  6
CONTINUOUS
 62
     7
 10
98.67293500747715
 20
414.9781792159019
 30
0.0
  0
VERTEX
  5
427
  8
0
  6
CONTINUOUS
 62
     7
 10
98.69072397858832
 20
414.9668751201746
 30
0.0
  0
VERTEX
  5
428
  8
0
  6
CONTINUOUS
 62
     7
 10
98.70751698693675
 20
414.9552038466832
 30
0.0
  0
VERTEX
  5
429
  8
0
  6
CONTINUOUS
 62
     7
 10
98.72332914324744
 20
414.9432491765091
 30
0.0
  0
VERTEX
  5
42A
  8
0
  6
CONTINUOUS
 62
     7
 10
98.73817988134975
 20
414.9310907305164
 30
0.0
  0
VERTEX
  5
42B
  8
0
  6
CONTINUOUS
 62
     7
 10
98.75209240160534
 20
414.9188039065239
 30
0.0
  0
VERTEX
  5
42C
  8
0
  6
CONTINUOUS
 62
     7
 10
98.76509313978275
 20
414.9064598593534
 30
0.0
  0
VERTEX
  5
42D
  8
0
  6
CONTINUOUS
 62
     7
 10
98.77721126313715
 20
414.8941255187926
 30
0.0
  0
VERTEX
  5
42E
  8
0
  6
CONTINUOUS
 62
     7
 10
98.78847819492941
 20
414.8818636407146
 30
0.0
  0
VERTEX
  5
42F
  8
0
  6
CONTINUOUS
 62
     7
 10
98.79892716814767
 20
414.8697328868244
 30
0.0
  0
VERTEX
  5
430
  8
0
  6
CONTINUOUS
 62
     7
 10
98.80859280877682
 20
414.85778792874
 30
0.0
  0
VERTEX
  5
431
  8
0
  6
CONTINUOUS
 62
     7
 10
98.81751074859507
 20
414.846079572386
 30
0.0
  0
VERTEX
  5
432
  8
0
  6
CONTINUOUS
 62
     7
 10
98.82571726715803
 20
414.834654898933
 30
0.0
  0
VERTEX
  5
433
  8
0
  6
CONTINUOUS
 62
     7
 10
98.83324896236023
 20
414.823557418797
 30
0.0
  0
VERTEX
  5
434
  8
0
  6
CONTINUOUS
 62
     7
 10
98.84014244873426
 20
414.8128272354731
 30
0.0
  0
VERTEX
  5
435
  8
0
  6
CONTINUOUS
 62
     7
 10
98.84542574289479
 20
414.8041926811805
 30
0.0
  0
VERTEX
  5
436
  8
0
  6
CONTINUOUS
 62
     7
 10
98.85031187311357
 20
414.7958585540076
 30
0.0
  0
VERTEX
  5
437
  8
0
  6
CONTINUOUS
 62
     7
 10
98.85482128289507
 20
414.7878431520718
 30
0.0
  0
VERTEX
  5
438
  8
0
  6
CONTINUOUS
 62
     7
 10
98.85897399545779
 20
414.780163439108
 30
0.0
  0
VERTEX
  5
439
  8
0
  6
CONTINUOUS
 62
     7
 10
98.86278953753931
 20
414.7728351148182
 30
0.0
  0
VERTEX
  5
43A
  8
0
  6
CONTINUOUS
 62
     7
 10
98.86628687012983
 20
414.7658726840867
 30
0.0
  0
VERTEX
  5
43B
  8
0
  6
CONTINUOUS
 62
     7
 10
98.86904522957072
 20
414.7602062773689
 30
0.0
  0
VERTEX
  5
43C
  8
0
  6
CONTINUOUS
 62
     7
 10
98.87159442854762
 20
414.7548263371086
 30
0.0
  0
VERTEX
  5
43D
  8
0
  6
CONTINUOUS
 62
     7
 10
98.8739452195445
 20
414.7497401206003
 30
0.0
  0
VERTEX
  5
43E
  8
0
  6
CONTINUOUS
 62
     7
 10
98.87610793970956
 20
414.7449543697081
 30
0.0
  0
VERTEX
  5
43F
  8
0
  6
CONTINUOUS
 62
     7
 10
98.87809249121236
 20
414.7404753379226
 30
0.0
  0
VERTEX
  5
440
  8
0
  6
CONTINUOUS
 62
     7
 10
98.87990832345444
 20
414.7363088161389
 30
0.0
  0
VERTEX
  5
441
  8
0
  6
CONTINUOUS
 62
     7
 10
98.88156708440734
 20
414.7324529288667
 30
0.0
  0
VERTEX
  5
442
  8
0
  6
CONTINUOUS
 62
     7
 10
98.88370758956582
 20
414.7273985478253
 30
0.0
  0
VERTEX
  5
443
  8
0
  6
CONTINUOUS
 62
     7
 10
98.8856674312418
 20
414.7226973723306
 30
0.0
  0
VERTEX
  5
444
  8
0
  6
CONTINUOUS
 62
     7
 10
98.88745718803979
 20
414.7183584058607
 30
0.0
  0
VERTEX
  5
445
  8
0
  6
CONTINUOUS
 62
     7
 10
98.8890869986076
 20
414.714390222969
 30
0.0
  0
VERTEX
  5
446
  8
0
  6
CONTINUOUS
 62
     7
 10
98.89056654619485
 20
414.7108009863553
 30
0.0
  0
VERTEX
  5
447
  8
0
  6
CONTINUOUS
 62
     7
 10
98.89190504478718
 20
414.7075984621528
 30
0.0
  0
VERTEX
  5
448
  8
0
  6
CONTINUOUS
 62
     7
 10
98.8931112266943
 20
414.7047900333668
 30
0.0
  0
VERTEX
  5
449
  8
0
  6
CONTINUOUS
 62
     7
 10
98.89419333147569
 20
414.7023827114099
 30
0.0
  0
VERTEX
  5
44A
  8
0
  6
CONTINUOUS
 62
     7
 10
98.89515909609183
 20
414.7003831456876
 30
0.0
  0
VERTEX
  5
44B
  8
0
  6
CONTINUOUS
 62
     7
 10
98.89601574617609
 20
414.6987976311934
 30
0.0
  0
VERTEX
  5
44C
  8
0
  6
CONTINUOUS
 62
     7
 10
98.89676998832701
 20
414.6976321140831
 30
0.0
  0
VERTEX
  5
44D
  8
0
  6
CONTINUOUS
 62
     7
 10
98.89742800332758
 20
414.6968921952011
 30
0.0
  0
VERTEX
  5
44E
  8
0
  6
CONTINUOUS
 62
     7
 10
98.8979954402045
 20
414.696583131545
 30
0.0
  0
VERTEX
  5
44F
  8
0
  6
CONTINUOUS
 62
     7
 10
98.89822721583492
 20
414.6965869513451
 30
0.0
  0
SEQEND
  5
493
  8
0
  6
CONTINUOUS
 62
     7
  0
ARC
  5
210
  8
0
  6
CONTINUOUS
 62
     7
 10
34.7198051508621
 20
415.5507978989613
 30
0.0
 40
0.500000000000056
 50
270.0
 51
0.0
  0
LINE
  5
211
  8
0
  6
CONTINUOUS
 62
     7
 10
33.42626893427203
 20
415.0507978989614
 30
0.0
 11
34.71980515086209
 21
415.0507978989614
 31
0.0
  0
ARC
  5
212
  8
0
  6
CONTINUOUS
 62
     7
 10
97.1198051508621
 20
415.5507978989613
 30
0.0
 40
0.5000000000000004
 50
180.0000000000032
 51
270.0
  0
LINE
  5
213
  8
0
  6
CONTINUOUS
 62
     7
 10
97.1198051508621
 20
415.0507978989614
 30
0.0
 11
98.41334136745216
 21
415.0507978989614
 31
0.0
  0
LINE
  5
214
  8
0
  6
CONTINUOUS
 62
     7
 10
98.64817349258622
 20
379.5773770905634
 30
0.0
 11
96.86980515086219
 21
378.5506356497506
 31
0.0
  0
LINE
  5
215
  8
0
  6
CONTINUOUS
 62
     7
 10
34.96980515086201
 20
378.5506356497507
 30
0.0
 11
33.19143680913796
 21
379.5773770905634
 31
0.0
  0
ARC
  5
216
  8
0
  6
CONTINUOUS
 62
     7
 10
97.1198051508621
 20
378.1176229478584
 30
0.0
 40
0.4999999999999746
 50
120.0000000000045
 51
180.0
  0
ARC
  5
217
  8
0
  6
CONTINUOUS
 62
     7
 10
34.71980515086209
 20
378.1176229478584
 30
0.0
 40
0.5000000000000004
 50
0.0000000000015833
 51
59.99999999999544
  0
LINE
  5
218
  8
0
  6
CONTINUOUS
 62
     7
 10
98.89037742226026
 20
379.9080614325092
 30
0.0
 11
98.64817548768272
 21
379.5773782423989
 31
0.0
  0
LINE
  5
219
  8
0
  6
CONTINUOUS
 62
     7
 10
33.19143481404146
 20
379.5773782423989
 30
0.0
 11
32.94923287946393
 21
379.9080614325092
 31
0.0
  0
LINE
  5
21A
  8
0
  6
CONTINUOUS
 62
     7
 10
54.25416143246882
 20
420.4259380333086
 30
0.0
 11
54.71508529053935
 21
420.5049531685175
 31
0.0
  0
POLYLINE
  5
21B
  8
0
  6
CONTINUOUS
 62
     7
 66
     1
 10
0.0
 20
0.0
 30
0.0
  0
VERTEX
  5
450
  8
0
  6
CONTINUOUS
 62
     7
 10
76.98762151787851
 20
420.6350379663295
 30
0.0
  0
VERTEX
  5
451
  8
0
  6
CONTINUOUS
 62
     7
 10
76.99509917345402
 20
420.6248600839571
 30
0.0
  0
VERTEX
  5
452
  8
0
  6
CONTINUOUS
 62
     7
 10
77.00762419618826
 20
420.6089442994193
 30
0.0
  0
VERTEX
  5
453
  8
0
  6
CONTINUOUS
 62
     7
 10
77.0209253391662
 20
420.5934001389128
 30
0.0
  0
VERTEX
  5
454
  8
0
  6
CONTINUOUS
 62
     7
 10
77.03496460182042
 20
420.5783086856669
 30
0.0
  0
VERTEX
  5
455
  8
0
  6
CONTINUOUS
 62
     7
 10
77.0496957959521
 20
420.5637452858918
 30
0.0
  0
VERTEX
  5
456
  8
0
  6
CONTINUOUS
 62
     7
 10
77.06506501205509
 20
420.5497786990642
 30
0.0
  0
VERTEX
  5
457
  8
0
  6
CONTINUOUS
 62
     7
 10
77.08101119937513
 20
420.5364703239928
 30
0.0
  0
VERTEX
  5
458
  8
0
  6
CONTINUOUS
 62
     7
 10
77.0974668476912
 20
420.5238735185359
 30
0.0
  0
VERTEX
  5
459
  8
0
  6
CONTINUOUS
 62
     7
 10
77.11435875676138
 20
420.5120330286822
 30
0.0
  0
VERTEX
  5
45A
  8
0
  6
CONTINUOUS
 62
     7
 10
77.13509473029174
 20
420.498872365347
 30
0.0
  0
VERTEX
  5
45B
  8
0
  6
CONTINUOUS
 62
     7
 10
77.1562041155747
 20
420.4868954954513
 30
0.0
  0
VERTEX
  5
45C
  8
0
  6
CONTINUOUS
 62
     7
 10
77.17753884227186
 20
420.4761264055138
 30
0.0
  0
VERTEX
  5
45D
  8
0
  6
CONTINUOUS
 62
     7
 10
77.1989473432633
 20
420.4665692919478
 30
0.0
  0
VERTEX
  5
45E
  8
0
  6
CONTINUOUS
 62
     7
 10
77.22027690417396
 20
420.4582090228738
 30
0.0
  0
VERTEX
  5
45F
  8
0
  6
CONTINUOUS
 62
     7
 10
77.24137593256904
 20
420.4510120190741
 30
0.0
  0
VERTEX
  5
460
  8
0
  6
CONTINUOUS
 62
     7
 10
77.2620960922228
 20
420.4449275310221
 30
0.0
  0
VERTEX
  5
461
  8
0
  6
CONTINUOUS
 62
     7
 10
77.2822942563838
 20
420.4398892799219
 30
0.0
  0
VERTEX
  5
462
  8
0
  6
CONTINUOUS
 62
     7
 10
77.30183424462777
 20
420.4358174240935
 30
0.0
  0
VERTEX
  5
463
  8
0
  6
CONTINUOUS
 62
     7
 10
77.32058832043579
 20
420.4326208081406
 30
0.0
  0
VERTEX
  5
464
  8
0
  6
CONTINUOUS
 62
     7
 10
77.33343711509704
 20
420.4308182605637
 30
0.0
  0
VERTEX
  5
465
  8
0
  6
CONTINUOUS
 62
     7
 10
77.34578477134797
 20
420.4293729021561
 30
0.0
  0
VERTEX
  5
466
  8
0
  6
CONTINUOUS
 62
     7
 10
77.35759451794533
 20
420.4282451776841
 30
0.0
  0
VERTEX
  5
467
  8
0
  6
CONTINUOUS
 62
     7
 10
77.3688326514948
 20
420.4273949999857
 30
0.0
  0
VERTEX
  5
468
  8
0
  6
CONTINUOUS
 62
     7
 10
77.37946864132046
 20
420.4267823094582
 30
0.0
  0
VERTEX
  5
469
  8
0
  6
CONTINUOUS
 62
     7
 10
77.38947521926829
 20
420.4263676473232
 30
0.0
  0
VERTEX
  5
46A
  8
0
  6
CONTINUOUS
 62
     7
 10
77.39882846154369
 20
420.4261127415448
 30
0.0
  0
VERTEX
  5
46B
  8
0
  6
CONTINUOUS
 62
     7
 10
77.40497587986845
 20
420.4260097339335
 30
0.0
  0
VERTEX
  5
46C
  8
0
  6
CONTINUOUS
 62
     7
 10
77.41078703743959
 20
420.42595523467
 30
0.0
  0
VERTEX
  5
46D
  8
0
  6
CONTINUOUS
 62
     7
 10
77.41625678721722
 20
420.425938079554
 30
0.0
  0
VERTEX
  5
46E
  8
0
  6
CONTINUOUS
 62
     7
 10
77.42138465958944
 20
420.4259479175031
 30
0.0
  0
VERTEX
  5
46F
  8
0
  6
CONTINUOUS
 62
     7
 10
77.42618991473253
 20
420.425975660947
 30
0.0
  0
VERTEX
  5
470
  8
0
  6
CONTINUOUS
 62
     7
 10
77.43178145639362
 20
420.4260242992178
 30
0.0
  0
VERTEX
  5
471
  8
0
  6
CONTINUOUS
 62
     7
 10
77.4369580386242
 20
420.4260780539324
 30
0.0
  0
VERTEX
  5
472
  8
0
  6
CONTINUOUS
 62
     7
 10
77.44176887469727
 20
420.4261287708718
 30
0.0
  0
VERTEX
  5
473
  8
0
  6
CONTINUOUS
 62
     7
 10
77.44626270900596
 20
420.4261709718759
 30
0.0
  0
VERTEX
  5
474
  8
0
  6
CONTINUOUS
 62
     7
 10
77.45906729382148
 20
420.4262219393927
 30
0.0
  0
VERTEX
  5
475
  8
0
  6
CONTINUOUS
 62
     7
 10
77.47061698731116
 20
420.4261574789889
 30
0.0
  0
VERTEX
  5
476
  8
0
  6
CONTINUOUS
 62
     7
 10
77.48227062932888
 20
420.4260482907115
 30
0.0
  0
VERTEX
  5
477
  8
0
  6
CONTINUOUS
 62
     7
 10
77.49518132510241
 20
420.4259656809231
 30
0.0
  0
VERTEX
  5
478
  8
0
  6
CONTINUOUS
 62
     7
 10
77.51024190726767
 20
420.4259382038102
 30
0.0
  0
VERTEX
  5
479
  8
0
  6
CONTINUOUS
 62
     7
 10
77.51163318411369
 20
420.4259380142946
 30
0.0
  0
SEQEND
  5
494
  8
0
  6
CONTINUOUS
 62
     7
  0
ENDBLK
  8
0
  0
BLOCK
  8
0
  2
D_FRAME_VIEW_1817
 70
     0
 10
0.0
 20
0.0
 30
0.0
  0
LINE
  5
220
  8
0
  6
CONTINUOUS
 62
     7
 10
223.6851956982463
 20
635.8913285508578
 30
0.0
 11
203.5021460605471
 21
635.8913285508578
 31
0.0
  0
LINE
  5
221
  8
0
  6
CONTINUOUS
 62
     7
 10
246.9851956982463
 20
612.5913285508578
 30
0.0
 11
223.6851956982463
 21
635.8913285508578
 31
0.0
  0
LINE
  5
222
  8
0
  6
CONTINUOUS
 62
     7
 10
246.9851956982463
 20
612.5913285508578
 30
0.0
 11
246.9851956982463
 21
524.5913285508578
 31
0.0
  0
LINE
  5
223
  8
0
  6
CONTINUOUS
 62
     7
 10
203.5021460605471
 20
524.5913285508578
 30
0.0
 11
246.9851956982463
 21
524.5913285508578
 31
0.0
  0
LINE
  5
224
  8
0
  6
CONTINUOUS
 62
     7
 10
223.6851956982463
 20
635.8913285508578
 30
0.0
 11
223.6851956982463
 21
656.0743781885569
 31
0.0
  0
LINE
  5
225
  8
0
  6
CONTINUOUS
 62
     7
 10
334.9851956982462
 20
612.5913285508578
 30
0.0
 11
334.9851956982462
 21
656.0743781885569
 31
0.0
  0
LINE
  5
226
  8
0
  6
CONTINUOUS
 62
     7
 10
246.9851956982463
 20
612.5913285508578
 30
0.0
 11
334.9851956982462
 21
612.5913285508578
 31
0.0
  0
LINE
  5
227
  8
0
  6
CONTINUOUS
 62
     7
 10
246.9851956982463
 20
522.5913285508578
 30
0.0
 11
203.5195991315439
 21
522.5913285508578
 31
0.0
  0
LINE
  5
228
  8
0
  6
CONTINUOUS
 62
     7
 10
246.9851956982463
 20
524.5913285508578
 30
0.0
 11
246.9851956982463
 21
522.5913285508578
 31
0.0
  0
LINE
  5
229
  8
0
  6
CONTINUOUS
 62
     7
 10
336.9851956982462
 20
656.0569251175602
 30
0.0
 11
336.9851956982462
 21
612.5913285508578
 31
0.0
  0
LINE
  5
22A
  8
0
  6
CONTINUOUS
 62
     7
 10
336.9851956982462
 20
612.5913285508578
 30
0.0
 11
334.9851956982462
 21
612.5913285508578
 31
0.0
  0
LINE
  5
22B
  8
0
  6
CONTINUOUS
 62
     7
 10
193.7653911507755
 20
524.5913285508578
 30
0.0
 11
203.5021460605471
 21
524.5913285508578
 31
0.0
  0
LINE
  5
22C
  8
0
  6
CONTINUOUS
 62
     7
 10
203.5195991315439
 20
522.5913285508578
 30
0.0
 11
195.1446281252368
 21
522.5913285508578
 31
0.0
  0
LINE
  5
22D
  8
0
  6
CONTINUOUS
 62
     7
 10
334.9851956982462
 20
656.0743781885569
 30
0.0
 11
334.9851956982462
 21
665.8111330983286
 31
0.0
  0
LINE
  5
22E
  8
0
  6
CONTINUOUS
 62
     7
 10
336.9851956982462
 20
664.4318961238673
 30
0.0
 11
336.9851956982462
 21
656.0569251175602
 31
0.0
  0
LINE
  5
22F
  8
0
  6
CONTINUOUS
 62
     7
 10
179.8921685813494
 20
524.5913285508578
 30
0.0
 11
193.7653911507755
 21
524.5913285508578
 31
0.0
  0
LINE
  5
230
  8
0
  6
CONTINUOUS
 62
     7
 10
179.8921685813494
 20
524.5913285508578
 30
0.0
 11
181.8283136073149
 21
522.5913285508578
 31
0.0
  0
LINE
  5
231
  8
0
  6
CONTINUOUS
 62
     7
 10
195.1446281252368
 20
522.5913285508578
 30
0.0
 11
181.8283136073149
 21
522.5913285508578
 31
0.0
  0
LINE
  5
232
  8
0
  6
CONTINUOUS
 62
     7
 10
179.8921685813494
 20
635.8913285508578
 30
0.0
 11
179.8921685813494
 21
524.5913285508578
 31
0.0
  0
ARC
  5
233
  8
0
  6
CONTINUOUS
 62
     7
 10
223.6851956982463
 20
635.8913285508578
 30
0.0
 40
43.79302711689684
 50
90.0
 51
180.0
  0
LINE
  5
234
  8
0
  6
CONTINUOUS
 62
     7
 10
223.6851956982463
 20
679.6843556677547
 30
0.0
 11
334.9851956982462
 21
679.6843556677547
 31
0.0
  0
LINE
  5
235
  8
0
  6
CONTINUOUS
 62
     7
 10
334.9851956982462
 20
665.8111330983286
 30
0.0
 11
334.9851956982462
 21
679.6843556677547
 31
0.0
  0
LINE
  5
236
  8
0
  6
CONTINUOUS
 62
     7
 10
336.9851956982462
 20
677.7482106417891
 30
0.0
 11
334.9851956982462
 21
679.6843556677547
 31
0.0
  0
LINE
  5
237
  8
0
  6
CONTINUOUS
 62
     7
 10
336.9851956982462
 20
677.7482106417891
 30
0.0
 11
336.9851956982462
 21
664.4318961238673
 31
0.0
  0
LINE
  5
238
  8
0
  6
CONTINUOUS
 62
     7
 10
179.1851956982465
 20
524.5913285508578
 30
0.0
 11
179.8921685813496
 21
524.5913285508578
 31
0.0
  0
LINE
  5
239
  8
0
  6
CONTINUOUS
 62
     7
 10
181.8283136073151
 20
522.5913285508578
 30
0.0
 11
181.1851956982464
 21
522.5913285508578
 31
0.0
  0
LINE
  5
23A
  8
0
  6
CONTINUOUS
 62
     7
 10
334.9851956982462
 20
679.6843556677547
 30
0.0
 11
334.9851956982462
 21
680.3913285508578
 31
0.0
  0
LINE
  5
23B
  8
0
  6
CONTINUOUS
 62
     7
 10
336.9851956982462
 20
678.3913285508576
 30
0.0
 11
336.9851956982462
 21
677.7482106417889
 31
0.0
  0
ARC
  5
23C
  8
0
  6
CONTINUOUS
 62
     7
 10
247.0851956982463
 20
562.5913285508578
 30
0.0
 40
0.099999999999989
 50
270.0000000000015
 51
0.0
  0
LINE
  5
23D
  8
0
  6
CONTINUOUS
 62
     7
 10
246.9851956982463
 20
562.4913285508578
 30
0.0
 11
247.0851956982463
 21
562.4913285508578
 31
0.0
  0
LINE
  5
23E
  8
0
  6
CONTINUOUS
 62
     7
 10
247.1851956982463
 20
596.4413285508579
 30
0.0
 11
247.1851956982463
 21
596.6499071946205
 31
0.0
  0
LINE
  5
23F
  8
0
  6
CONTINUOUS
 62
     7
 10
247.1851956982463
 20
562.8620392289765
 30
0.0
 11
247.1851956982463
 21
596.4413285508579
 31
0.0
  0
LINE
  5
240
  8
0
  6
CONTINUOUS
 62
     7
 10
247.1851956982463
 20
562.5913285508578
 30
0.0
 11
247.1851956982463
 21
562.8620392289765
 31
0.0
  0
LINE
  5
241
  8
0
  6
CONTINUOUS
 62
     7
 10
247.155906376365
 20
596.7206178727392
 30
0.0
 11
246.9851956982463
 21
596.8913285508579
 31
0.0
  0
ARC
  5
242
  8
0
  6
CONTINUOUS
 62
     7
 10
247.0851956982463
 20
596.6499071946205
 30
0.0
 40
0.1000000000000271
 50
359.999999999996
 51
44.999999999998
  0
LINE
  5
243
  8
0
  6
CONTINUOUS
 62
     7
 10
296.9851956982463
 20
612.3913285508579
 30
0.0
 11
296.7144850201277
 21
612.3913285508579
 31
0.0
  0
LINE
  5
244
  8
0
  6
CONTINUOUS
 62
     7
 10
296.7144850201277
 20
612.3913285508579
 30
0.0
 11
263.1351956982463
 21
612.3913285508579
 31
0.0
  0
LINE
  5
245
  8
0
  6
CONTINUOUS
 62
     7
 10
263.1351956982463
 20
612.3913285508579
 30
0.0
 11
262.9266170544836
 21
612.3913285508579
 31
0.0
  0
ARC
  5
246
  8
0
  6
CONTINUOUS
 62
     7
 10
262.9266170544835
 20
612.4913285508578
 30
0.0
 40
0.1000000000000271
 50
225.000000000002
 51
270.000000000004
  0
LINE
  5
247
  8
0
  6
CONTINUOUS
 62
     7
 10
262.8559063763649
 20
612.4206178727392
 30
0.0
 11
262.6851956982463
 21
612.5913285508578
 31
0.0
  0
ARC
  5
248
  8
0
  6
CONTINUOUS
 62
     7
 10
296.9851956982463
 20
612.4913285508578
 30
0.0
 40
0.099999999999989
 50
270.0
 51
359.9999999999985
  0
LINE
  5
249
  8
0
  6
CONTINUOUS
 62
     7
 10
297.0851956982463
 20
612.5913285508578
 30
0.0
 11
297.0851956982463
 21
612.4913285508578
 31
0.0
  0
LINE
  5
24A
  8
0
  6
CONTINUOUS
 62
     7
 10
179.1851956982462
 20
635.8913285508578
 30
0.0
 11
179.1851956982462
 21
524.591328550858
 31
0.0
  0
ARC
  5
24B
  8
0
  6
CONTINUOUS
 62
     7
 10
223.6851956982463
 20
635.8913285508578
 30
0.0
 40
44.49999999999999
 50
89.99999999999996
 51
180.0
  0
LINE
  5
24C
  8
0
  6
CONTINUOUS
 62
     7
 10
179.1851956982462
 20
524.5913285508578
 30
0.0
 11
181.1851956982462
 21
522.5913285508578
 31
0.0
  0
LINE
  5
24D
  8
0
  6
CONTINUOUS
 62
     7
 10
334.9851956982462
 20
680.3913285508578
 30
0.0
 11
223.6851956982463
 21
680.3913285508578
 31
0.0
  0
LINE
  5
24E
  8
0
  6
CONTINUOUS
 62
     7
 10
336.9851956982462
 20
678.3913285508578
 30
0.0
 11
334.9851956982462
 21
680.3913285508578
 31
0.0
  0
ENDBLK
  8
0
  0
BLOCK
  8
0
  2
D_FRAME_VIEW_1713
 70
     0
 10
0.0
 20
0.0
 30
0.0
  0
LINE
  5
254
  8
0
  6
CONTINUOUS
 62
     7
 10
84.20429439120439
 20
524.5913285508578
 30
0.0
 11
83.28628347704236
 21
522.5913285508578
 31
0.0
  0
LINE
  5
255
  8
0
  6
CONTINUOUS
 62
     7
 10
83.28628347704235
 20
522.5913285508578
 30
0.0
 11
48.55332682468212
 21
522.5913285508578
 31
0.0
  0
LINE
  5
256
  8
0
  6
CONTINUOUS
 62
     7
 10
47.63531591051982
 20
524.5913285508578
 30
0.0
 11
48.55332682468185
 21
522.5913285508578
 31
0.0
  0
LINE
  5
257
  8
0
  6
CONTINUOUS
 62
     7
 10
47.63531591051984
 20
524.5913285508578
 30
0.0
 11
84.20429439120463
 21
524.5913285508578
 31
0.0
  0
LINE
  5
258
  8
0
  6
CONTINUOUS
 62
     7
 10
84.20429439120439
 20
635.8913285508578
 30
0.0
 11
84.20429439120439
 21
524.5913285508578
 31
0.0
  0
LINE
  5
259
  8
0
  6
CONTINUOUS
 62
     7
 10
47.63531591051982
 20
635.8913285508578
 30
0.0
 11
47.63531591051982
 21
524.5913285508578
 31
0.0
  0
LINE
  5
25A
  8
0
  6
CONTINUOUS
 62
     7
 10
84.20429439120439
 20
635.8913285508578
 30
0.0
 11
84.20429439120439
 21
679.6843556677546
 31
0.0
  0
LINE
  5
25B
  8
0
  6
CONTINUOUS
 62
     7
 10
47.63531591051982
 20
635.8913285508578
 30
0.0
 11
47.63531591051982
 21
679.6843556677546
 31
0.0
  0
ARC
  5
25C
  8
0
  6
CONTINUOUS
 62
     7
 10
65.9198051508621
 20
443.5913285508578
 30
0.0
 40
236.8
 50
85.57150388185767
 51
94.42849611814236
  0
LINE
  5
25D
  8
0
  6
CONTINUOUS
 62
     7
 10
97.41554710486311
 20
665.8111330983286
 30
0.0
 11
84.20429439120437
 21
679.6843556677546
 31
0.0
  0
LINE
  5
25E
  8
0
  6
CONTINUOUS
 62
     7
 10
34.42406319686108
 20
665.8111330983286
 30
0.0
 11
47.63531591051983
 21
679.6843556677546
 31
0.0
  0
LINE
  5
25F
  8
0
  6
CONTINUOUS
 62
     7
 10
84.20429439120439
 20
524.5913285508578
 30
0.0
 11
97.41554710486314
 21
524.5913285508578
 31
0.0
  0
LINE
  5
260
  8
0
  6
CONTINUOUS
 62
     7
 10
47.63531591051982
 20
524.5913285508578
 30
0.0
 11
34.42406319686107
 21
524.5913285508578
 31
0.0
  0
LINE
  5
261
  8
0
  6
CONTINUOUS
 62
     7
 10
95.96720136979889
 20
522.5913285508578
 30
0.0
 11
83.28628347704236
 21
522.5913285508578
 31
0.0
  0
LINE
  5
262
  8
0
  6
CONTINUOUS
 62
     7
 10
35.87240893192532
 20
522.5913285508578
 30
0.0
 11
48.55332682468185
 21
522.5913285508578
 31
0.0
  0
LINE
  5
263
  8
0
  6
CONTINUOUS
 62
     7
 10
34.42406319686108
 20
524.5913285508578
 30
0.0
 11
30.48027970275283
 21
524.5913285508578
 31
0.0
  0
LINE
  5
264
  8
0
  6
CONTINUOUS
 62
     7
 10
32.48020354888117
 20
522.5913285508578
 30
0.0
 11
35.87240893192534
 21
522.5913285508578
 31
0.0
  0
ARC
  5
265
  8
0
  6
CONTINUOUS
 62
     7
 10
44.77973520257046
 20
655.9495887309303
 30
0.0
 40
14.3
 50
136.4000835896
 51
179.5
  0
LINE
  5
266
  8
0
  6
CONTINUOUS
 62
     7
 10
97.41554710486312
 20
524.5913285508578
 30
0.0
 11
101.3593305989714
 21
524.5913285508578
 31
0.0
  0
LINE
  5
267
  8
0
  6
CONTINUOUS
 62
     7
 10
99.35940675284304
 20
522.5913285508578
 30
0.0
 11
95.96720136979889
 21
522.5913285508578
 31
0.0
  0
ARC
  5
268
  8
0
  6
CONTINUOUS
 62
     7
 10
87.05987509915373
 20
655.9495887309303
 30
0.0
 40
14.3
 50
0.5000000000000075
 51
43.5999164104
  0
LINE
  5
269
  8
0
  6
CONTINUOUS
 62
     7
 10
30.48027970275281
 20
524.5913285508578
 30
0.0
 11
30.1008088774256
 21
524.5913285508578
 31
0.0
  0
LINE
  5
26A
  8
0
  6
CONTINUOUS
 62
     7
 10
30.1008088774256
 20
612.5913285508578
 30
0.0
 11
30.1008088774256
 21
524.5913285508578
 31
0.0
  0
LINE
  5
26B
  8
0
  6
CONTINUOUS
 62
     7
 10
30.1008088774256
 20
612.5913285508578
 30
0.0
 11
30.30414489695029
 21
635.8913285508578
 31
0.0
  0
LINE
  5
26C
  8
0
  6
CONTINUOUS
 62
     7
 10
30.30414489695029
 20
635.8913285508578
 30
0.0
 11
30.48027970275281
 21
635.8913285508578
 31
0.0
  0
LINE
  5
26D
  8
0
  6
CONTINUOUS
 62
     7
 10
30.1008088774256
 20
524.5913285508578
 30
0.0
 11
32.10088503419708
 21
522.5913285508578
 31
0.0
  0
LINE
  5
26E
  8
0
  6
CONTINUOUS
 62
     7
 10
32.10088503419708
 20
522.5913285508578
 30
0.0
 11
32.48020354888116
 21
522.5913285508578
 31
0.0
  0
LINE
  5
26F
  8
0
  6
CONTINUOUS
 62
     7
 10
30.30414489695029
 20
635.8913285508578
 30
0.0
 11
30.48027970275281
 21
656.0743781885569
 31
0.0
  0
LINE
  5
270
  8
0
  6
CONTINUOUS
 62
     7
 10
101.5354654047739
 20
635.8913285508578
 30
0.0
 11
101.3593305989714
 21
635.8913285508578
 31
0.0
  0
LINE
  5
271
  8
0
  6
CONTINUOUS
 62
     7
 10
101.7388014242986
 20
612.5913285508578
 30
0.0
 11
101.5354654047739
 21
635.8913285508578
 31
0.0
  0
LINE
  5
272
  8
0
  6
CONTINUOUS
 62
     7
 10
101.7388014242986
 20
612.5913285508578
 30
0.0
 11
101.7388014242986
 21
524.5913285508578
 31
0.0
  0
LINE
  5
273
  8
0
  6
CONTINUOUS
 62
     7
 10
101.3593305989714
 20
524.5913285508578
 30
0.0
 11
101.7388014242986
 21
524.5913285508578
 31
0.0
  0
LINE
  5
274
  8
0
  6
CONTINUOUS
 62
     7
 10
101.7388014242986
 20
524.5913285508578
 30
0.0
 11
99.73872526752712
 21
522.5913285508578
 31
0.0
  0
LINE
  5
275
  8
0
  6
CONTINUOUS
 62
     7
 10
99.73872526752712
 20
522.5913285508578
 30
0.0
 11
99.35940675284304
 21
522.5913285508578
 31
0.0
  0
LINE
  5
276
  8
0
  6
CONTINUOUS
 62
     7
 10
101.5354654047739
 20
635.8913285508578
 30
0.0
 11
101.3593305989714
 21
656.0743781885569
 31
0.0
  0
ENDBLK
  8
0
  0
ENDSEC
  0
SECTION
  2
ENTITIES
  0
POINT
  5
6F
  8
0
 62
     7
 10
65.9198051508621
 20
409.3259380034736
 30
0.0
  0
POINT
  5
70
  8
0
 62
     7
 10
65.9198051508621
 20
601.4913285508578
 30
0.0
  0
LINE
  5
71
  8
0
  6
CENTER
 62
     7
 10
65.9198051508621
 20
327.4259380034736
 30
0.0
 11
65.9198051508621
 21
491.2259380034736
 31
0.0
  0
LINE
  5
73
  8
0
  6
CENTER
 62
     7
 10
65.9198051508621
 20
519.5913285508578
 30
0.0
 11
65.9198051508621
 21
683.3913285508578
 31
0.0
  0
INSERT
  5
21C
  8
0
  6
CENTER
 62
     7
  2
D_FRAME_VIEW_2242
 10
0.0
 20
0.0
 30
0.0
  0
INSERT
  5
24F
  8
0
  6
CENTER
 62
     7
  2
D_FRAME_VIEW_1817
 10
0.0
 20
0.0
 30
0.0
  0
TEXT
  5
250
  8
0
  6
CONTINUOUS
 62
     7
 10
258.1070007501407
 20
496.1765667651882
 30
0.0
 40
3.0
  1
RMD-40
  0
INSERT
  5
277
  8
0
  6
CENTER
 62
     7
  2
D_FRAME_VIEW_1713
 10
0.0
 20
0.0
 30
0.0
  0
ENDSEC
  0
EOF
