  0
SECTION
  2
HEADER
  9
$ACADVER
  1
AC1006
  9
$DWGCODEPAGE
  3
ansi_932
  9
$INSBASE
 10
0.0
 20
0.0
 30
0.0
  9
$EXTMIN
 10
35.93144292838399
 20
54.12500000000003
  9
$EXTMAX
 10
112.931442928384
 20
267.5000000000001
  9
$LIMMIN
 10
0.0
 20
0.0
  9
$LIMMAX
 10
12.0
 20
9.0
  9
$ORTHOMODE
 70
     0
  9
$REGENMODE
 70
     1
  9
$FILLMODE
 70
     1
  9
$QTEXTMODE
 70
     0
  9
$MIRRTEXT
 70
     1
  9
$DRAGMODE
 70
     2
  9
$LTSCALE
 40
1.0
  9
$OSMODE
 70
    37
  9
$ATTMODE
 70
     1
  9
$TEXTSIZE
 40
0.2
  9
$TRACEWID
 40
0.05
  9
$TEXTSTYLE
  7
STANDARD
  9
$CLAYER
  8
0
  9
$CELTYPE
  6
BYLAYER
  9
$CECOLOR
 62
   256
  9
$DIMSCALE
 40
1.0
  9
$DIMASZ
 40
3.0
  9
$DIMEXO
 40
0.0625
  9
$DIMDLI
 40
0.38
  9
$DIMRND
 40
0.0
  9
$DIMDLE
 40
0.0
  9
$DIMEXE
 40
1.5
  9
$DIMTP
 40
0.0
  9
$DIMTM
 40
0.0
  9
$DIMTXT
 40
3.0
  9
$DIMCEN
 40
0.09
  9
$DIMTSZ
 40
0.0
  9
$DIMTOL
 70
     0
  9
$DIMLIM
 70
     0
  9
$DIMTIH
 70
     1
  9
$DIMTOH
 70
     1
  9
$DIMSE1
 70
     0
  9
$DIMSE2
 70
     0
  9
$DIMTAD
 70
     1
  9
$DIMZIN
 70
     0
  9
$DIMBLK
  1

  9
$DIMASO
 70
     1
  9
$DIMSHO
 70
     1
  9
$DIMPOST
  1

  9
$DIMAPOST
  1

  9
$DIMALT
 70
     0
  9
$DIMALTD
 70
     2
  9
$DIMALTF
 40
25.4
  9
$DIMLFAC
 40
1.0
  9
$DIMTOFL
 70
     0
  9
$DIMTVP
 40
0.0
  9
$DIMTIX
 70
     0
  9
$DIMSOXD
 70
     0
  9
$DIMSAH
 70
     0
  9
$DIMBLK1
  1

  9
$DIMBLK2
  1

  9
$LUNITS
 70
     2
  9
$LUPREC
 70
     4
  9
$SKETCHINC
 40
0.1
  9
$FILLETRAD
 40
0.5
  9
$AUNITS
 70
     0
  9
$AUPREC
 70
     0
  9
$MENU
  1
.
  9
$ELEVATION
 40
0.0
  9
$THICKNESS
 40
0.0
  9
$LIMCHECK
 70
     0
  9
$CHAMFERA
 40
0.0
  9
$CHAMFERB
 40
0.0
  9
$SKPOLY
 70
     0
  9
$TDCREATE
 40
2458887.457756042
  9
$TDUPDATE
 40
2458887.457756574
  9
$TDINDWG
 40
0.0000000116
  9
$TDUSRTIMER
 40
0.0000000116
  9
$USRTIMER
 70
     1
  9
$ANGBASE
 50
0.0
  9
$ANGDIR
 70
     0
  9
$PDMODE
 70
     0
  9
$PDSIZE
 40
0.0
  9
$PLINEWID
 40
0.0
  9
$COORDS
 70
     1
  9
$SPLFRAME
 70
     0
  9
$SPLINETYPE
 70
     6
  9
$SPLINESEGS
 70
     8
  9
$ATTDIA
 70
     0
  9
$ATTREQ
 70
     1
  9
$HANDLING
 70
     1
  9
$HANDSEED
  5
24E
  9
$SURFTAB1
 70
     6
  9
$SURFTAB2
 70
     6
  9
$SURFTYPE
 70
     6
  9
$SURFU
 70
     6
  9
$SURFV
 70
     6
  9
$UCSNAME
  2

  9
$UCSORG
 10
0.0
 20
0.0
 30
0.0
  9
$UCSXDIR
 10
1.0
 20
0.0
 30
0.0
  9
$UCSYDIR
 10
0.0
 20
1.0
 30
0.0
  9
$USERI1
 70
     0
  9
$USERI2
 70
     0
  9
$USERI3
 70
     0
  9
$USERI4
 70
     0
  9
$USERI5
 70
     0
  9
$USERR1
 40
0.0
  9
$USERR2
 40
0.0
  9
$USERR3
 40
0.0
  9
$USERR4
 40
0.0
  9
$USERR5
 40
0.0
  9
$WORLDVIEW
 70
     1
  0
ENDSEC
  0
SECTION
  2
TABLES
  0
TABLE
  2
VPORT
 70
     1
  0
VPORT
  2
*ACTIVE
 70
     0
 10
0.0
 20
0.0
 11
1.0
 21
1.0
 12
74.43144292838399
 22
160.8125000000001
 13
0.0
 23
0.0
 14
0.5
 24
0.5
 15
0.5
 25
0.5
 16
0.0
 26
0.0
 36
1.0
 17
0.0
 27
0.0
 37
0.0
 40
213.375
 41
1.6
 42
50.0
 43
0.0
 44
0.0
 50
0.0
 51
0.0
 71
     0
 72
   100
 73
     1
 74
     3
 75
     0
 76
     0
 77
     0
 78
     0
  0
ENDTAB
  0
TABLE
  2
LTYPE
 70
     1
  0
LTYPE
  2
CONTINUOUS
 70
     0
  3
Solid line
 72
    65
 73
     0
 40
0.0
  0
ENDTAB
  0
TABLE
  2
LAYER
 70
     2
  0
LAYER
  2
0
 70
     0
 62
     7
  6
CONTINUOUS
  0
LAYER
  2
2
 70
     0
 62
     7
  6
CONTINUOUS
  0
ENDTAB
  0
TABLE
  2
STYLE
 70
     2
  0
STYLE
  2
STANDARD
 70
     0
 40
0.0
 41
1.0
 50
0.0
 71
     0
 42
0.2
  3
txt
  4

  0
STYLE
  2
ＭＳ_ゴシック
 70
     0
 40
0.0
 41
1.0
 50
0.0
 71
     0
 42
0.2
  3
ＭＳ ゴシック.shx
  4

  0
ENDTAB
  0
TABLE
  2
VIEW
 70
     0
  0
ENDTAB
  0
TABLE
  2
UCS
 70
     0
  0
ENDTAB
  0
ENDSEC
  0
SECTION
  2
BLOCKS
  0
BLOCK
  8
0
  2
D_FRAME_VIEW_2979
 70
     0
 10
0.0
 20
0.0
 30
0.0
  0
LINE
  5
71
  8
2
  6
CONTINUOUS
 62
     7
 10
74.43362456225859
 20
75.75436326774918
 30
0.0
 11
74.43144292838399
 21
75.75000000000001
 31
0.0
  0
LINE
  5
72
  8
2
  6
CONTINUOUS
 62
     7
 10
74.43144292838397
 20
75.75000000000001
 30
0.0
 11
74.42926129450939
 21
75.7543632677492
 31
0.0
  0
LINE
  5
73
  8
2
  6
CONTINUOUS
 62
     7
 10
74.68144292838397
 20
76.25000000000001
 30
0.0
 11
95.71198696565162
 21
76.25000000000001
 31
0.0
  0
LINE
  5
74
  8
2
  6
CONTINUOUS
 62
     7
 10
74.43362456225859
 20
75.75436326774918
 30
0.0
 11
74.68144292838399
 21
76.25
 31
0.0
  0
LINE
  5
75
  8
2
  6
CONTINUOUS
 62
     7
 10
53.15089889111633
 20
76.25000000000001
 30
0.0
 11
74.18144292838399
 21
76.25000000000001
 31
0.0
  0
LINE
  5
76
  8
2
  6
CONTINUOUS
 62
     7
 10
74.18144292838397
 20
76.25000000000001
 30
0.0
 11
74.42926129450939
 21
75.7543632677492
 31
0.0
  0
LINE
  5
77
  8
2
  6
CONTINUOUS
 62
     7
 10
100.831442928384
 20
101.8293760596905
 30
0.0
 11
100.831442928384
 21
70.75
 31
0.0
  0
LINE
  5
78
  8
2
  6
CONTINUOUS
 62
     7
 10
100.831442928384
 20
70.75
 30
0.0
 11
99.33144292838394
 21
70.75
 31
0.0
  0
LINE
  5
79
  8
2
  6
CONTINUOUS
 62
     7
 10
48.03144292838397
 20
70.75000000000001
 30
0.0
 11
48.03144292838397
 21
101.8293760596905
 31
0.0
  0
LINE
  5
7A
  8
2
  6
CONTINUOUS
 62
     7
 10
49.53144292838397
 20
70.75
 30
0.0
 11
48.03144292838397
 21
70.75
 31
0.0
  0
LINE
  5
7B
  8
2
  6
CONTINUOUS
 62
     7
 10
96.0885580399543
 20
108.8279481419424
 30
0.0
 11
87.04788148355658
 21
118.5901442899871
 31
0.0
  0
ARC
  5
7C
  8
2
  6
CONTINUOUS
 62
     7
 10
74.43144292838397
 20
-54.24999999999999
 30
0.0
 40
173.3000000000001
 50
85.82510822705919
 51
94.17489177294078
  0
LINE
  5
7D
  8
2
  6
CONTINUOUS
 62
     7
 10
61.81500437321137
 20
118.5901442899871
 30
0.0
 11
52.77432781681366
 21
108.8279481419424
 31
0.0
  0
ARC
  5
7E
  8
2
  6
CONTINUOUS
 62
     7
 10
60.33144292838398
 20
101.8293760596905
 30
0.0
 40
10.3
 50
137.1975234997122
 51
180.0
  0
ARC
  5
7F
  8
2
  6
CONTINUOUS
 62
     7
 10
88.53144292838398
 20
101.8293760596905
 30
0.0
 40
10.3
 50
0.0
 51
42.80247650028785
  0
LINE
  5
80
  8
2
  6
CONTINUOUS
 62
     7
 10
50.03144292838397
 20
101.8293760596905
 30
0.0
 11
50.03144292838397
 21
70.75
 31
0.0
  0
LINE
  5
81
  8
2
  6
CONTINUOUS
 62
     7
 10
98.83144292838398
 20
101.8293760596905
 30
0.0
 11
98.83144292838398
 21
70.75
 31
0.0
  0
LINE
  5
82
  8
2
  6
CONTINUOUS
 62
     7
 10
98.83144292838395
 20
70.75
 30
0.0
 11
99.33144292838394
 21
70.75
 31
0.0
  0
LINE
  5
83
  8
2
  6
CONTINUOUS
 62
     7
 10
49.53144292838397
 20
70.75
 30
0.0
 11
50.03144292838397
 21
70.75
 31
0.0
  0
ARC
  5
84
  8
2
  6
CONTINUOUS
 62
     7
 10
60.33144292838398
 20
101.8293760596905
 30
0.0
 40
12.3
 50
137.1975234997122
 51
180.0
  0
ARC
  5
85
  8
2
  6
CONTINUOUS
 62
     7
 10
88.53144292838398
 20
101.8293760596905
 30
0.0
 40
12.3
 50
0.0
 51
42.80247650028787
  0
LINE
  5
86
  8
2
  6
CONTINUOUS
 62
     7
 10
51.30692682427572
 20
110.1868941773311
 30
0.0
 11
60.881442928384
 21
120.5255346151171
 31
0.0
  0
LINE
  5
87
  8
2
  6
CONTINUOUS
 62
     7
 10
60.881442928384
 20
120.5255346151171
 30
0.0
 11
60.8817476621675
 21
120.5255582402547
 31
0.0
  0
LINE
  5
88
  8
2
  6
CONTINUOUS
 62
     7
 10
87.98113819460039
 20
120.5255582402547
 30
0.0
 11
87.98144292838397
 21
120.5255346151171
 31
0.0
  0
LINE
  5
89
  8
2
  6
CONTINUOUS
 62
     7
 10
87.98144292838398
 20
120.5255346151171
 30
0.0
 11
97.55595903249221
 21
110.1868941773311
 31
0.0
  0
ARC
  5
8A
  8
2
  6
CONTINUOUS
 62
     7
 10
74.43144292838397
 20
-54.24999999999999
 30
0.0
 40
175.3
 50
85.56693971614044
 51
94.4330602838596
  0
LINE
  5
8B
  8
2
  6
CONTINUOUS
 62
     7
 10
111.98796035763
 20
124.8020802777833
 30
0.0
 11
112.931442928384
 21
70.75000000000001
 31
0.0
  0
LINE
  5
8C
  8
2
  6
CONTINUOUS
 62
     7
 10
101.4076948795377
 20
70.75
 30
0.0
 11
112.931442928384
 21
70.75
 31
0.0
  0
LINE
  5
8D
  8
2
  6
CONTINUOUS
 62
     7
 10
36.87492549913794
 20
124.8020802777833
 30
0.0
 11
35.931442928384
 21
70.75000000000001
 31
0.0
  0
LINE
  5
8E
  8
2
  6
CONTINUOUS
 62
     7
 10
35.931442928384
 20
70.75
 30
0.0
 11
47.45519097723027
 21
70.75
 31
0.0
  0
LINE
  5
8F
  8
2
  6
CONTINUOUS
 62
     7
 10
101.4076948795377
 20
70.75
 30
0.0
 11
100.8365344407459
 21
70.75
 31
0.0
  0
LINE
  5
90
  8
2
  6
CONTINUOUS
 62
     7
 10
100.8365344407459
 20
70.75
 30
0.0
 11
100.831442928384
 21
70.75
 31
0.0
  0
LINE
  5
91
  8
2
  6
CONTINUOUS
 62
     7
 10
48.03144292838397
 20
70.75
 30
0.0
 11
48.01724543958264
 21
70.75
 31
0.0
  0
LINE
  5
92
  8
2
  6
CONTINUOUS
 62
     7
 10
48.01724543958264
 20
70.75
 30
0.0
 11
47.45519097723027
 21
70.75
 31
0.0
  0
LINE
  5
93
  8
2
  6
CONTINUOUS
 62
     7
 10
40.37454958266143
 20
128.25
 30
0.0
 11
108.4883362741066
 21
128.25
 31
0.0
  0
ARC
  5
94
  8
2
  6
CONTINUOUS
 62
     7
 10
40.37454958266143
 20
124.75
 30
0.0
 40
3.499999999999999
 50
90.0
 51
179.0
  0
ARC
  5
95
  8
2
  6
CONTINUOUS
 62
     7
 10
108.4883362741065
 20
124.75
 30
0.0
 40
3.500000000000003
 50
1.0
 51
90.0
  0
LINE
  5
96
  8
2
  6
CONTINUOUS
 62
     7
 10
64.43142388991609
 20
70.75
 30
0.0
 11
63.931442928384
 21
70.75
 31
0.0
  0
LINE
  5
97
  8
2
  6
CONTINUOUS
 62
     7
 10
63.931442928384
 20
70.75
 30
0.0
 11
63.94457130773092
 21
72.2543632677492
 31
0.0
  0
LINE
  5
98
  8
2
  6
CONTINUOUS
 62
     7
 10
74.43144292838397
 20
72.25000000000001
 30
0.0
 11
74.42926129450939
 21
72.25436326774918
 31
0.0
  0
LINE
  5
99
  8
2
  6
CONTINUOUS
 62
     7
 10
74.43362456225859
 20
72.2543632677492
 30
0.0
 11
74.43144292838399
 21
72.25000000000001
 31
0.0
  0
LINE
  5
9A
  8
2
  6
CONTINUOUS
 62
     7
 10
64.43142388991609
 20
70.75
 30
0.0
 11
84.43146196685191
 21
70.75
 31
0.0
  0
LINE
  5
9B
  8
2
  6
CONTINUOUS
 62
     7
 10
84.91831454903708
 20
72.25436326774918
 30
0.0
 11
84.93144292838399
 21
70.75
 31
0.0
  0
LINE
  5
9C
  8
2
  6
CONTINUOUS
 62
     7
 10
84.93144292838399
 20
70.75
 30
0.0
 11
84.4314619668519
 21
70.75
 31
0.0
  0
LINE
  5
9D
  8
2
  6
CONTINUOUS
 62
     7
 10
64.444552269263
 20
72.75000000000001
 30
0.0
 11
74.18144292838399
 21
72.75000000000001
 31
0.0
  0
LINE
  5
9E
  8
2
  6
CONTINUOUS
 62
     7
 10
74.18144292838397
 20
72.75000000000001
 30
0.0
 11
74.42926129450939
 21
72.2543632677492
 31
0.0
  0
LINE
  5
9F
  8
2
  6
CONTINUOUS
 62
     7
 10
74.68144292838397
 20
72.75000000000001
 30
0.0
 11
84.41833358750497
 21
72.75000000000001
 31
0.0
  0
LINE
  5
A0
  8
2
  6
CONTINUOUS
 62
     7
 10
74.43362456225859
 20
72.2543632677492
 30
0.0
 11
74.68144292838399
 21
72.75000000000001
 31
0.0
  0
ARC
  5
A1
  8
2
  6
CONTINUOUS
 62
     7
 10
64.444552269263
 20
72.25000000000001
 30
0.0
 40
0.5000000000000004
 50
90.0
 51
179.5
  0
ARC
  5
A2
  8
2
  6
CONTINUOUS
 62
     7
 10
84.41833358750499
 20
72.25000000000001
 30
0.0
 40
0.4999999999999998
 50
0.5000000000000081
 51
90.0
  0
LINE
  5
A3
  8
2
  6
CONTINUOUS
 62
     7
 10
98.10722647450174
 20
79.25436326774918
 30
0.0
 11
98.18144292838399
 21
70.75
 31
0.0
  0
LINE
  5
A4
  8
2
  6
CONTINUOUS
 62
     7
 10
50.75565938226621
 20
79.25436326774918
 30
0.0
 11
50.68144292838398
 21
70.75
 31
0.0
  0
LINE
  5
A5
  8
2
  6
CONTINUOUS
 62
     7
 10
84.93144292838399
 20
70.75
 30
0.0
 11
98.18144292838399
 21
70.75
 31
0.0
  0
LINE
  5
A6
  8
2
  6
CONTINUOUS
 62
     7
 10
50.68144292838399
 20
70.75
 30
0.0
 11
63.93144292838399
 21
70.75
 31
0.0
  0
LINE
  5
A7
  8
2
  6
CONTINUOUS
 62
     7
 10
53.16397048444586
 20
74.75000000000001
 30
0.0
 11
95.6989153723221
 21
74.75000000000001
 31
0.0
  0
LINE
  5
A8
  8
2
  6
CONTINUOUS
 62
     7
 10
95.69891537232212
 20
74.75000000000001
 30
0.0
 11
96.194552269263
 21
74.2543632677492
 31
0.0
  0
LINE
  5
A9
  8
2
  6
CONTINUOUS
 62
     7
 10
52.66833358750499
 20
74.25436326774918
 30
0.0
 11
53.16397048444587
 21
74.75000000000001
 31
0.0
  0
LINE
  5
AA
  8
2
  6
CONTINUOUS
 62
     7
 10
53.12468021008328
 20
79.25436326774918
 30
0.0
 11
53.16398919280248
 21
74.75000000000001
 31
0.0
  0
LINE
  5
AB
  8
2
  6
CONTINUOUS
 62
     7
 10
95.69889666396551
 20
74.75000000000001
 30
0.0
 11
95.7382056466847
 21
79.2543632677492
 31
0.0
  0
LINE
  5
AC
  8
2
  6
CONTINUOUS
 62
     7
 10
96.2381866082168
 20
79.75
 30
0.0
 11
97.60724551296967
 21
79.75
 31
0.0
  0
POLYLINE
  5
AD
  8
2
  6
CONTINUOUS
 62
     7
 66
     1
 10
0.0
 20
0.0
 30
0.0
  0
VERTEX
  5
126
  8
2
  6
CONTINUOUS
 62
     7
 10
97.60724551296966
 20
79.75
 30
0.0
  0
VERTEX
  5
127
  8
2
  6
CONTINUOUS
 62
     7
 10
97.63164315961916
 20
79.74940440009873
 30
0.0
  0
VERTEX
  5
128
  8
2
  6
CONTINUOUS
 62
     7
 10
97.6559826813249
 20
79.74761901935187
 30
0.0
  0
VERTEX
  5
129
  8
2
  6
CONTINUOUS
 62
     7
 10
97.68020609162
 20
79.74464811124982
 30
0.0
  0
VERTEX
  5
12A
  8
2
  6
CONTINUOUS
 62
     7
 10
97.7042556806613
 20
79.74049875368286
 30
0.0
  0
VERTEX
  5
12B
  8
2
  6
CONTINUOUS
 62
     7
 10
97.72807415271745
 20
79.73518083207884
 30
0.0
  0
VERTEX
  5
12C
  8
2
  6
CONTINUOUS
 62
     7
 10
97.75160476266996
 20
79.72870701585205
 30
0.0
  0
VERTEX
  5
12D
  8
2
  6
CONTINUOUS
 62
     7
 10
97.774791451203
 20
79.72109272821974
 30
0.0
  0
VERTEX
  5
12E
  8
2
  6
CONTINUOUS
 62
     7
 10
97.79757897835896
 20
79.71235610945776
 30
0.0
  0
VERTEX
  5
12F
  8
2
  6
CONTINUOUS
 62
     7
 10
97.81991305514211
 20
79.70251797368319
 30
0.0
  0
VERTEX
  5
130
  8
2
  6
CONTINUOUS
 62
     7
 10
97.84174047285677
 20
79.69160175926682
 30
0.0
  0
VERTEX
  5
131
  8
2
  6
CONTINUOUS
 62
     7
 10
97.86300922987164
 20
79.67963347299354
 30
0.0
  0
VERTEX
  5
132
  8
2
  6
CONTINUOUS
 62
     7
 10
97.88366865550833
 20
79.66664162810389
 30
0.0
  0
VERTEX
  5
133
  8
2
  6
CONTINUOUS
 62
     7
 10
97.90366953075942
 20
79.65265717636395
 30
0.0
  0
VERTEX
  5
134
  8
2
  6
CONTINUOUS
 62
     7
 10
97.92296420554756
 20
79.63771343432607
 30
0.0
  0
VERTEX
  5
135
  8
2
  6
CONTINUOUS
 62
     7
 10
97.94150671224718
 20
79.62184600395534
 30
0.0
  0
VERTEX
  5
136
  8
2
  6
CONTINUOUS
 62
     7
 10
97.95925287519765
 20
79.60509268781165
 30
0.0
  0
VERTEX
  5
137
  8
2
  6
CONTINUOUS
 62
     7
 10
97.97616041594735
 20
79.58749339898873
 30
0.0
  0
VERTEX
  5
138
  8
2
  6
CONTINUOUS
 62
     7
 10
97.9921890539779
 20
79.56909006602532
 30
0.0
  0
VERTEX
  5
139
  8
2
  6
CONTINUOUS
 62
     7
 10
98.00730060266834
 20
79.54992653301466
 30
0.0
  0
VERTEX
  5
13A
  8
2
  6
CONTINUOUS
 62
     7
 10
98.02145906027108
 20
79.53004845515015
 30
0.0
  0
VERTEX
  5
13B
  8
2
  6
CONTINUOUS
 62
     7
 10
98.03463069568228
 20
79.5095031899567
 30
0.0
  0
VERTEX
  5
13C
  8
2
  6
CONTINUOUS
 62
     7
 10
98.04678412880298
 20
79.48833968446597
 30
0.0
  0
VERTEX
  5
13D
  8
2
  6
CONTINUOUS
 62
     7
 10
98.05789040529889
 20
79.46660835860509
 30
0.0
  0
VERTEX
  5
13E
  8
2
  6
CONTINUOUS
 62
     7
 10
98.06792306558127
 20
79.4443609850762
 30
0.0
  0
VERTEX
  5
13F
  8
2
  6
CONTINUOUS
 62
     7
 10
98.07685820784421
 20
79.42165056601321
 30
0.0
  0
VERTEX
  5
140
  8
2
  6
CONTINUOUS
 62
     7
 10
98.08467454500837
 20
79.39853120670956
 30
0.0
  0
VERTEX
  5
141
  8
2
  6
CONTINUOUS
 62
     7
 10
98.09135345543511
 20
79.37505798671768
 30
0.0
  0
VERTEX
  5
142
  8
2
  6
CONTINUOUS
 62
     7
 10
98.0968790272909
 20
79.35128682862765
 30
0.0
  0
VERTEX
  5
143
  8
2
  6
CONTINUOUS
 62
     7
 10
98.10123809645553
 20
79.32727436483708
 30
0.0
  0
VERTEX
  5
144
  8
2
  6
CONTINUOUS
 62
     7
 10
98.10442027788433
 20
79.30307780263024
 30
0.0
  0
VERTEX
  5
145
  8
2
  6
CONTINUOUS
 62
     7
 10
98.10641799034954
 20
79.27875478788737
 30
0.0
  0
VERTEX
  5
146
  8
2
  6
CONTINUOUS
 62
     7
 10
98.10722647450174
 20
79.25436326774918
 30
0.0
  0
SEQEND
  5
23C
  8
2
  6
CONTINUOUS
 62
     7
  0
ARC
  5
AE
  8
2
  6
CONTINUOUS
 62
     7
 10
52.62469924855119
 20
79.25
 30
0.0
 40
0.5000000000000014
 50
0.5000000000000812
 51
89.99999999999962
  0
ARC
  5
AF
  8
2
  6
CONTINUOUS
 62
     7
 10
96.2381866082168
 20
79.25
 30
0.0
 40
0.5000000000000004
 50
90.0
 51
179.4999999999999
  0
LINE
  5
B0
  8
2
  6
CONTINUOUS
 62
     7
 10
51.2556403437983
 20
79.75
 30
0.0
 11
52.62469924855117
 21
79.75
 31
0.0
  0
POLYLINE
  5
B1
  8
2
  6
CONTINUOUS
 62
     7
 66
     1
 10
0.0
 20
0.0
 30
0.0
  0
VERTEX
  5
147
  8
2
  6
CONTINUOUS
 62
     7
 10
50.75565938226621
 20
79.25436326774918
 30
0.0
  0
VERTEX
  5
148
  8
2
  6
CONTINUOUS
 62
     7
 10
50.75646786641845
 20
79.27875478788737
 30
0.0
  0
VERTEX
  5
149
  8
2
  6
CONTINUOUS
 62
     7
 10
50.75846557888365
 20
79.30307780263024
 30
0.0
  0
VERTEX
  5
14A
  8
2
  6
CONTINUOUS
 62
     7
 10
50.76164776031246
 20
79.32727436483708
 30
0.0
  0
VERTEX
  5
14B
  8
2
  6
CONTINUOUS
 62
     7
 10
50.76600682947709
 20
79.35128682862765
 30
0.0
  0
VERTEX
  5
14C
  8
2
  6
CONTINUOUS
 62
     7
 10
50.77153240133288
 20
79.37505798671769
 30
0.0
  0
VERTEX
  5
14D
  8
2
  6
CONTINUOUS
 62
     7
 10
50.77821131175962
 20
79.39853120670956
 30
0.0
  0
VERTEX
  5
14E
  8
2
  6
CONTINUOUS
 62
     7
 10
50.78602764892374
 20
79.42165056601321
 30
0.0
  0
VERTEX
  5
14F
  8
2
  6
CONTINUOUS
 62
     7
 10
50.79496279118671
 20
79.4443609850762
 30
0.0
  0
VERTEX
  5
150
  8
2
  6
CONTINUOUS
 62
     7
 10
50.80499545146909
 20
79.46660835860509
 30
0.0
  0
VERTEX
  5
151
  8
2
  6
CONTINUOUS
 62
     7
 10
50.81610172796501
 20
79.48833968446597
 30
0.0
  0
VERTEX
  5
152
  8
2
  6
CONTINUOUS
 62
     7
 10
50.8282551610857
 20
79.5095031899567
 30
0.0
  0
VERTEX
  5
153
  8
2
  6
CONTINUOUS
 62
     7
 10
50.8414267964969
 20
79.53004845515015
 30
0.0
  0
VERTEX
  5
154
  8
2
  6
CONTINUOUS
 62
     7
 10
50.85558525409962
 20
79.54992653301466
 30
0.0
  0
VERTEX
  5
155
  8
2
  6
CONTINUOUS
 62
     7
 10
50.87069680279009
 20
79.56909006602532
 30
0.0
  0
VERTEX
  5
156
  8
2
  6
CONTINUOUS
 62
     7
 10
50.88672544082063
 20
79.58749339898873
 30
0.0
  0
VERTEX
  5
157
  8
2
  6
CONTINUOUS
 62
     7
 10
50.90363298157031
 20
79.60509268781165
 30
0.0
  0
VERTEX
  5
158
  8
2
  6
CONTINUOUS
 62
     7
 10
50.92137914452078
 20
79.62184600395534
 30
0.0
  0
VERTEX
  5
159
  8
2
  6
CONTINUOUS
 62
     7
 10
50.93992165122042
 20
79.63771343432607
 30
0.0
  0
VERTEX
  5
15A
  8
2
  6
CONTINUOUS
 62
     7
 10
50.95921632600857
 20
79.65265717636395
 30
0.0
  0
VERTEX
  5
15B
  8
2
  6
CONTINUOUS
 62
     7
 10
50.97921720125965
 20
79.66664162810389
 30
0.0
  0
VERTEX
  5
15C
  8
2
  6
CONTINUOUS
 62
     7
 10
50.99987662689635
 20
79.67963347299354
 30
0.0
  0
VERTEX
  5
15D
  8
2
  6
CONTINUOUS
 62
     7
 10
51.02114538391118
 20
79.69160175926682
 30
0.0
  0
VERTEX
  5
15E
  8
2
  6
CONTINUOUS
 62
     7
 10
51.04297280162588
 20
79.70251797368319
 30
0.0
  0
VERTEX
  5
15F
  8
2
  6
CONTINUOUS
 62
     7
 10
51.06530687840903
 20
79.71235610945776
 30
0.0
  0
VERTEX
  5
160
  8
2
  6
CONTINUOUS
 62
     7
 10
51.08809440556498
 20
79.72109272821974
 30
0.0
  0
VERTEX
  5
161
  8
2
  6
CONTINUOUS
 62
     7
 10
51.11128109409803
 20
79.72870701585205
 30
0.0
  0
VERTEX
  5
162
  8
2
  6
CONTINUOUS
 62
     7
 10
51.13481170405053
 20
79.73518083207884
 30
0.0
  0
VERTEX
  5
163
  8
2
  6
CONTINUOUS
 62
     7
 10
51.15863017610666
 20
79.74049875368286
 30
0.0
  0
VERTEX
  5
164
  8
2
  6
CONTINUOUS
 62
     7
 10
51.18267976514799
 20
79.74464811124982
 30
0.0
  0
VERTEX
  5
165
  8
2
  6
CONTINUOUS
 62
     7
 10
51.20690317544309
 20
79.74761901935187
 30
0.0
  0
VERTEX
  5
166
  8
2
  6
CONTINUOUS
 62
     7
 10
51.23124269714884
 20
79.74940440009873
 30
0.0
  0
VERTEX
  5
167
  8
2
  6
CONTINUOUS
 62
     7
 10
51.2556403437983
 20
79.75
 30
0.0
  0
SEQEND
  5
23D
  8
2
  6
CONTINUOUS
 62
     7
  0
LINE
  5
B2
  8
2
  6
CONTINUOUS
 62
     7
 10
50.68144292838399
 20
70.75
 30
0.0
 11
50.03144292838397
 21
70.75
 31
0.0
  0
LINE
  5
B3
  8
2
  6
CONTINUOUS
 62
     7
 10
98.83144292838395
 20
70.75
 30
0.0
 11
98.18144292838399
 21
70.75
 31
0.0
  0
LINE
  5
B4
  8
2
  6
CONTINUOUS
 62
     7
 10
50.03144292838397
 20
79.75000000000001
 30
0.0
 11
51.25564034379831
 21
79.75000000000001
 31
0.0
  0
LINE
  5
B5
  8
2
  6
CONTINUOUS
 62
     7
 10
97.60724551296966
 20
79.75000000000001
 30
0.0
 11
98.83144292838396
 21
79.75000000000001
 31
0.0
  0
LINE
  5
B6
  8
2
  6
CONTINUOUS
 62
     7
 10
56.87407097911
 20
79.75000000000001
 30
0.0
 11
52.62469924855117
 21
79.75000000000001
 31
0.0
  0
LINE
  5
B7
  8
2
  6
CONTINUOUS
 62
     7
 10
96.2381866082168
 20
79.75000000000001
 30
0.0
 11
91.98881487765797
 21
79.75000000000001
 31
0.0
  0
LINE
  5
B8
  8
2
  6
CONTINUOUS
 62
     7
 10
66.85286304060638
 20
81.7543632677492
 30
0.0
 11
66.90089889111633
 21
76.25000000000001
 31
0.0
  0
LINE
  5
B9
  8
2
  6
CONTINUOUS
 62
     7
 10
81.96198696565165
 20
76.25000000000001
 30
0.0
 11
82.0100228161616
 21
81.7543632677492
 31
0.0
  0
LINE
  5
BA
  8
2
  6
CONTINUOUS
 62
     7
 10
56.96198696565165
 20
76.25000000000001
 30
0.0
 11
57.0100228161616
 21
81.7543632677492
 31
0.0
  0
LINE
  5
BB
  8
2
  6
CONTINUOUS
 62
     7
 10
91.85286304060637
 20
81.7543632677492
 30
0.0
 11
91.90089889111633
 21
76.25000000000001
 31
0.0
  0
ARC
  5
BC
  8
2
  6
CONTINUOUS
 62
     7
 10
66.35288207907429
 20
81.75000000000001
 30
0.0
 40
0.5000000000000004
 50
0.5000000000001136
 51
89.99999999999982
  0
ARC
  5
BD
  8
2
  6
CONTINUOUS
 62
     7
 10
82.5100037776937
 20
81.75000000000001
 30
0.0
 40
0.5000000000000004
 50
90.0
 51
179.4999999999999
  0
LINE
  5
BE
  8
2
  6
CONTINUOUS
 62
     7
 10
57.51000377769368
 20
82.25000000000001
 30
0.0
 11
66.35288207907429
 21
82.25000000000001
 31
0.0
  0
ARC
  5
BF
  8
2
  6
CONTINUOUS
 62
     7
 10
57.51000377769368
 20
81.75000000000001
 30
0.0
 40
0.5000000000000014
 50
90.0
 51
179.4999999999999
  0
LINE
  5
C0
  8
2
  6
CONTINUOUS
 62
     7
 10
82.5100037776937
 20
82.25000000000001
 30
0.0
 11
91.35288207907429
 21
82.25000000000001
 31
0.0
  0
ARC
  5
C1
  8
2
  6
CONTINUOUS
 62
     7
 10
91.35288207907428
 20
81.75000000000001
 30
0.0
 40
0.5000000000000004
 50
0.5000000000001136
 51
90.0
  0
LINE
  5
C2
  8
2
  6
CONTINUOUS
 62
     7
 10
81.43144292838399
 20
76.25000000000001
 30
0.0
 11
81.43144292838399
 21
79.25000000000001
 31
0.0
  0
LINE
  5
C3
  8
2
  6
CONTINUOUS
 62
     7
 10
67.431442928384
 20
79.25000000000001
 30
0.0
 11
67.431442928384
 21
76.25000000000001
 31
0.0
  0
ARC
  5
C4
  8
2
  6
CONTINUOUS
 62
     7
 10
81.93144292838399
 20
79.25000000000001
 30
0.0
 40
0.5000000000000004
 50
90.0
 51
180.0
  0
LINE
  5
C5
  8
2
  6
CONTINUOUS
 62
     7
 10
56.87407097911003
 20
79.75000000000001
 30
0.0
 11
56.99253100291931
 21
79.75000000000001
 31
0.0
  0
LINE
  5
C6
  8
2
  6
CONTINUOUS
 62
     7
 10
66.8703548538487
 20
79.75000000000001
 30
0.0
 11
66.931442928384
 21
79.75000000000001
 31
0.0
  0
ARC
  5
C7
  8
2
  6
CONTINUOUS
 62
     7
 10
66.931442928384
 20
79.25000000000001
 30
0.0
 40
0.5000000000000004
 50
0.0
 51
90.0
  0
LINE
  5
C8
  8
2
  6
CONTINUOUS
 62
     7
 10
81.93144292838399
 20
79.75000000000001
 30
0.0
 11
81.99253100291929
 21
79.75000000000001
 31
0.0
  0
LINE
  5
C9
  8
2
  6
CONTINUOUS
 62
     7
 10
91.87035485384868
 20
79.75000000000001
 30
0.0
 11
91.98881487765797
 21
79.75000000000001
 31
0.0
  0
ENDBLK
  8
0
  0
BLOCK
  8
0
  2
D_FRAME_VIEW_3150
 70
     0
 10
0.0
 20
0.0
 30
0.0
  0
LINE
  5
CF
  8
2
  6
CONTINUOUS
 62
     7
 10
74.43362456225856
 20
207.4196735301901
 30
0.0
 11
74.43144292838397
 21
207.4196354525293
 31
0.0
  0
LINE
  5
D0
  8
2
  6
CONTINUOUS
 62
     7
 10
69.53731379236784
 20
207.4000000000001
 30
0.0
 11
79.32557206440012
 21
207.4000000000001
 31
0.0
  0
LINE
  5
D1
  8
2
  6
CONTINUOUS
 62
     7
 10
74.43144292838397
 20
207.4196354525293
 30
0.0
 11
74.4292612945094
 21
207.4196735301901
 31
0.0
  0
LINE
  5
D2
  8
2
  6
CONTINUOUS
 62
     7
 10
74.43144292838397
 20
225.5
 30
0.0
 11
74.68144292838397
 21
225.75
 31
0.0
  0
LINE
  5
D3
  8
2
  6
CONTINUOUS
 62
     7
 10
74.43144292838397
 20
244.25
 30
0.0
 11
74.43144292838397
 21
225.5
 31
0.0
  0
LINE
  5
D4
  8
2
  6
CONTINUOUS
 62
     7
 10
74.68144292838397
 20
244.2483332592527
 30
0.0
 11
74.68144292838397
 21
225.7500000000001
 31
0.0
  0
LINE
  5
D5
  8
2
  6
CONTINUOUS
 62
     7
 10
93.17977618763666
 20
225.7500000000001
 30
0.0
 11
74.68144292838397
 21
225.75
 31
0.0
  0
LINE
  5
D6
  8
2
  6
CONTINUOUS
 62
     7
 10
90.94889666396551
 20
234.3733433435726
 30
0.0
 11
90.94889666396551
 21
231.5174156586457
 31
0.0
  0
POLYLINE
  5
D7
  8
2
  6
CONTINUOUS
 62
     7
 66
     1
 10
0.0
 20
0.0
 30
0.0
  0
VERTEX
  5
16A
  8
2
  6
CONTINUOUS
 62
     7
 10
90.94889666396551
 20
231.5174156586457
 30
0.0
  0
VERTEX
  5
16B
  8
2
  6
CONTINUOUS
 62
     7
 10
90.96811025812646
 20
231.3223287081436
 30
0.0
  0
VERTEX
  5
16C
  8
2
  6
CONTINUOUS
 62
     7
 10
91.02501274432123
 20
231.1347410415019
 30
0.0
  0
VERTEX
  5
16D
  8
2
  6
CONTINUOUS
 62
     7
 10
91.11741760325596
 20
230.961860850837
 30
0.0
  0
VERTEX
  5
16E
  8
2
  6
CONTINUOUS
 62
     7
 10
91.24177411122037
 20
230.8103311828364
 30
0.0
  0
VERTEX
  5
16F
  8
2
  6
CONTINUOUS
 62
     7
 10
91.39330377922097
 20
230.685974674872
 30
0.0
  0
VERTEX
  5
170
  8
2
  6
CONTINUOUS
 62
     7
 10
91.5661839698858
 20
230.5935698159373
 30
0.0
  0
VERTEX
  5
171
  8
2
  6
CONTINUOUS
 62
     7
 10
91.75377163652756
 20
230.5366673297425
 30
0.0
  0
VERTEX
  5
172
  8
2
  6
CONTINUOUS
 62
     7
 10
91.94885858702966
 20
230.5174537355816
 30
0.0
  0
SEQEND
  5
23E
  8
2
  6
CONTINUOUS
 62
     7
  0
LINE
  5
D8
  8
2
  6
CONTINUOUS
 62
     7
 10
91.94885858702968
 20
230.5174537355816
 30
0.0
 11
92.4976450198945
 21
230.5174537355816
 31
0.0
  0
LINE
  5
D9
  8
2
  6
CONTINUOUS
 62
     7
 10
93.181442928384
 20
225.5
 30
0.0
 11
74.43144292838397
 21
225.5
 31
0.0
  0
LINE
  5
DA
  8
2
  6
CONTINUOUS
 62
     7
 10
74.68144292838397
 20
225.25
 30
0.0
 11
74.43144292838397
 21
225.5
 31
0.0
  0
LINE
  5
DB
  8
2
  6
CONTINUOUS
 62
     7
 10
93.17977618763666
 20
225.2500000000001
 30
0.0
 11
74.68144292838397
 21
225.25
 31
0.0
  0
LINE
  5
DC
  8
2
  6
CONTINUOUS
 62
     7
 10
92.4976450198945
 20
220.4825462644185
 30
0.0
 11
91.94885858702968
 21
220.4825462644185
 31
0.0
  0
POLYLINE
  5
DD
  8
2
  6
CONTINUOUS
 62
     7
 66
     1
 10
0.0
 20
0.0
 30
0.0
  0
VERTEX
  5
173
  8
2
  6
CONTINUOUS
 62
     7
 10
91.94885858702966
 20
220.4825462644185
 30
0.0
  0
VERTEX
  5
174
  8
2
  6
CONTINUOUS
 62
     7
 10
91.75377163652755
 20
220.4633326702576
 30
0.0
  0
VERTEX
  5
175
  8
2
  6
CONTINUOUS
 62
     7
 10
91.56618396988578
 20
220.4064301840628
 30
0.0
  0
VERTEX
  5
176
  8
2
  6
CONTINUOUS
 62
     7
 10
91.39330377922094
 20
220.3140253251281
 30
0.0
  0
VERTEX
  5
177
  8
2
  6
CONTINUOUS
 62
     7
 10
91.24177411122034
 20
220.1896688171637
 30
0.0
  0
VERTEX
  5
178
  8
2
  6
CONTINUOUS
 62
     7
 10
91.11741760325593
 20
220.038139149163
 30
0.0
  0
VERTEX
  5
179
  8
2
  6
CONTINUOUS
 62
     7
 10
91.02501274432119
 20
219.8652589584982
 30
0.0
  0
VERTEX
  5
17A
  8
2
  6
CONTINUOUS
 62
     7
 10
90.9681102581264
 20
219.6776712918564
 30
0.0
  0
VERTEX
  5
17B
  8
2
  6
CONTINUOUS
 62
     7
 10
90.94889666396548
 20
219.4825843413543
 30
0.0
  0
SEQEND
  5
23F
  8
2
  6
CONTINUOUS
 62
     7
  0
LINE
  5
DE
  8
2
  6
CONTINUOUS
 62
     7
 10
90.94889666396551
 20
219.4825843413544
 30
0.0
 11
90.94889666396551
 21
216.6266566564274
 31
0.0
  0
LINE
  5
DF
  8
2
  6
CONTINUOUS
 62
     7
 10
74.68144292838397
 20
225.25
 30
0.0
 11
74.68144292838397
 21
207.9196544917222
 31
0.0
  0
LINE
  5
E0
  8
2
  6
CONTINUOUS
 62
     7
 10
74.43144292838397
 20
225.5
 30
0.0
 11
74.43144292838397
 21
207.4196354525293
 31
0.0
  0
POLYLINE
  5
E1
  8
2
  6
CONTINUOUS
 62
     7
 66
     1
 10
0.0
 20
0.0
 30
0.0
  0
VERTEX
  5
17C
  8
2
  6
CONTINUOUS
 62
     7
 10
74.43362456225856
 20
207.4196735301901
 30
0.0
  0
VERTEX
  5
17D
  8
2
  6
CONTINUOUS
 62
     7
 10
74.44582032232768
 20
207.4204820143423
 30
0.0
  0
VERTEX
  5
17E
  8
2
  6
CONTINUOUS
 62
     7
 10
74.45798182969911
 20
207.4224797268075
 30
0.0
  0
VERTEX
  5
17F
  8
2
  6
CONTINUOUS
 62
     7
 10
74.47008011080251
 20
207.4256619082363
 30
0.0
  0
VERTEX
  5
180
  8
2
  6
CONTINUOUS
 62
     7
 10
74.4820863426978
 20
207.4300209774009
 30
0.0
  0
VERTEX
  5
181
  8
2
  6
CONTINUOUS
 62
     7
 10
74.49397192174283
 20
207.4355465492567
 30
0.0
  0
VERTEX
  5
182
  8
2
  6
CONTINUOUS
 62
     7
 10
74.50570853173875
 20
207.4422254596835
 30
0.0
  0
VERTEX
  5
183
  8
2
  6
CONTINUOUS
 62
     7
 10
74.51726821139059
 20
207.4500417968476
 30
0.0
  0
VERTEX
  5
184
  8
2
  6
CONTINUOUS
 62
     7
 10
74.52862342092207
 20
207.4589769391106
 30
0.0
  0
VERTEX
  5
185
  8
2
  6
CONTINUOUS
 62
     7
 10
74.53974710768652
 20
207.469009599393
 30
0.0
  0
VERTEX
  5
186
  8
2
  6
CONTINUOUS
 62
     7
 10
74.55061277061697
 20
207.4801158758889
 30
0.0
  0
VERTEX
  5
187
  8
2
  6
CONTINUOUS
 62
     7
 10
74.56119452336233
 20
207.4922693090095
 30
0.0
  0
VERTEX
  5
188
  8
2
  6
CONTINUOUS
 62
     7
 10
74.57146715595907
 20
207.5054409444207
 30
0.0
  0
VERTEX
  5
189
  8
2
  6
CONTINUOUS
 62
     7
 10
74.5814061948913
 20
207.5195994020235
 30
0.0
  0
VERTEX
  5
18A
  8
2
  6
CONTINUOUS
 62
     7
 10
74.59098796139664
 20
207.534710950714
 30
0.0
  0
VERTEX
  5
18B
  8
2
  6
CONTINUOUS
 62
     7
 10
74.60018962787835
 20
207.5507395887445
 30
0.0
  0
VERTEX
  5
18C
  8
2
  6
CONTINUOUS
 62
     7
 10
74.6089892722898
 20
207.5676471294942
 30
0.0
  0
VERTEX
  5
18D
  8
2
  6
CONTINUOUS
 62
     7
 10
74.61736593036166
 20
207.5853932924446
 30
0.0
  0
VERTEX
  5
18E
  8
2
  6
CONTINUOUS
 62
     7
 10
74.62529964554702
 20
207.6039357991443
 30
0.0
  0
VERTEX
  5
18F
  8
2
  6
CONTINUOUS
 62
     7
 10
74.63277151656595
 20
207.6232304739324
 30
0.0
  0
VERTEX
  5
190
  8
2
  6
CONTINUOUS
 62
     7
 10
74.63976374243593
 20
207.6432313491835
 30
0.0
  0
VERTEX
  5
191
  8
2
  6
CONTINUOUS
 62
     7
 10
74.64625966488074
 20
207.6638907748202
 30
0.0
  0
VERTEX
  5
192
  8
2
  6
CONTINUOUS
 62
     7
 10
74.65224380801739
 20
207.685159531835
 30
0.0
  0
VERTEX
  5
193
  8
2
  6
CONTINUOUS
 62
     7
 10
74.65770191522557
 20
207.7069869495498
 30
0.0
  0
VERTEX
  5
194
  8
2
  6
CONTINUOUS
 62
     7
 10
74.66262098311287
 20
207.7293210263329
 30
0.0
  0
VERTEX
  5
195
  8
2
  6
CONTINUOUS
 62
     7
 10
74.66698929249384
 20
207.7521085534889
 30
0.0
  0
VERTEX
  5
196
  8
2
  6
CONTINUOUS
 62
     7
 10
74.67079643631001
 20
207.7752952420219
 30
0.0
  0
VERTEX
  5
197
  8
2
  6
CONTINUOUS
 62
     7
 10
74.67403334442339
 20
207.7988258519744
 30
0.0
  0
VERTEX
  5
198
  8
2
  6
CONTINUOUS
 62
     7
 10
74.6766923052254
 20
207.8226443240305
 30
0.0
  0
VERTEX
  5
199
  8
2
  6
CONTINUOUS
 62
     7
 10
74.67876698400889
 20
207.8466939130719
 30
0.0
  0
VERTEX
  5
19A
  8
2
  6
CONTINUOUS
 62
     7
 10
74.68025243805991
 20
207.8709173233669
 30
0.0
  0
VERTEX
  5
19B
  8
2
  6
CONTINUOUS
 62
     7
 10
74.68114512843334
 20
207.8952568450727
 30
0.0
  0
VERTEX
  5
19C
  8
2
  6
CONTINUOUS
 62
     7
 10
74.68144292838397
 20
207.9196544917222
 30
0.0
  0
SEQEND
  5
240
  8
2
  6
CONTINUOUS
 62
     7
  0
LINE
  5
E2
  8
2
  6
CONTINUOUS
 62
     7
 10
74.18144292838397
 20
225.2500000000001
 30
0.0
 11
55.68310966913133
 21
225.2500000000001
 31
0.0
  0
LINE
  5
E3
  8
2
  6
CONTINUOUS
 62
     7
 10
74.18144292838397
 20
225.2500000000001
 30
0.0
 11
74.18144292838397
 21
207.9196544917222
 31
0.0
  0
LINE
  5
E4
  8
2
  6
CONTINUOUS
 62
     7
 10
57.91398919280245
 20
216.6266566564274
 30
0.0
 11
57.91398919280245
 21
219.4825843413544
 31
0.0
  0
POLYLINE
  5
E5
  8
2
  6
CONTINUOUS
 62
     7
 66
     1
 10
0.0
 20
0.0
 30
0.0
  0
VERTEX
  5
19D
  8
2
  6
CONTINUOUS
 62
     7
 10
57.91398919280248
 20
219.4825843413543
 30
0.0
  0
VERTEX
  5
19E
  8
2
  6
CONTINUOUS
 62
     7
 10
57.89477559864154
 20
219.6776712918564
 30
0.0
  0
VERTEX
  5
19F
  8
2
  6
CONTINUOUS
 62
     7
 10
57.83787311244676
 20
219.8652589584982
 30
0.0
  0
VERTEX
  5
1A0
  8
2
  6
CONTINUOUS
 62
     7
 10
57.74546825351202
 20
220.038139149163
 30
0.0
  0
VERTEX
  5
1A1
  8
2
  6
CONTINUOUS
 62
     7
 10
57.62111174554762
 20
220.1896688171637
 30
0.0
  0
VERTEX
  5
1A2
  8
2
  6
CONTINUOUS
 62
     7
 10
57.46958207754701
 20
220.3140253251281
 30
0.0
  0
VERTEX
  5
1A3
  8
2
  6
CONTINUOUS
 62
     7
 10
57.29670188688217
 20
220.4064301840628
 30
0.0
  0
VERTEX
  5
1A4
  8
2
  6
CONTINUOUS
 62
     7
 10
57.10911422024041
 20
220.4633326702576
 30
0.0
  0
VERTEX
  5
1A5
  8
2
  6
CONTINUOUS
 62
     7
 10
56.9140272697383
 20
220.4825462644185
 30
0.0
  0
SEQEND
  5
241
  8
2
  6
CONTINUOUS
 62
     7
  0
LINE
  5
E6
  8
2
  6
CONTINUOUS
 62
     7
 10
56.91402726973831
 20
220.4825462644185
 30
0.0
 11
56.36524083687345
 21
220.4825462644185
 31
0.0
  0
LINE
  5
E7
  8
2
  6
CONTINUOUS
 62
     7
 10
74.18144292838397
 20
225.75
 30
0.0
 11
55.68310966913133
 21
225.7500000000001
 31
0.0
  0
LINE
  5
E8
  8
2
  6
CONTINUOUS
 62
     7
 10
74.18144292838397
 20
244.2483332592527
 30
0.0
 11
74.18144292838397
 21
225.75
 31
0.0
  0
LINE
  5
E9
  8
2
  6
CONTINUOUS
 62
     7
 10
56.36524083687345
 20
230.5174537355816
 30
0.0
 11
56.91402726973831
 21
230.5174537355816
 31
0.0
  0
POLYLINE
  5
EA
  8
2
  6
CONTINUOUS
 62
     7
 66
     1
 10
0.0
 20
0.0
 30
0.0
  0
VERTEX
  5
1A6
  8
2
  6
CONTINUOUS
 62
     7
 10
56.91402726973829
 20
230.5174537355816
 30
0.0
  0
VERTEX
  5
1A7
  8
2
  6
CONTINUOUS
 62
     7
 10
57.1091142202404
 20
230.5366673297425
 30
0.0
  0
VERTEX
  5
1A8
  8
2
  6
CONTINUOUS
 62
     7
 10
57.29670188688215
 20
230.5935698159373
 30
0.0
  0
VERTEX
  5
1A9
  8
2
  6
CONTINUOUS
 62
     7
 10
57.46958207754699
 20
230.685974674872
 30
0.0
  0
VERTEX
  5
1AA
  8
2
  6
CONTINUOUS
 62
     7
 10
57.62111174554759
 20
230.8103311828364
 30
0.0
  0
VERTEX
  5
1AB
  8
2
  6
CONTINUOUS
 62
     7
 10
57.74546825351199
 20
230.961860850837
 30
0.0
  0
VERTEX
  5
1AC
  8
2
  6
CONTINUOUS
 62
     7
 10
57.83787311244674
 20
231.1347410415019
 30
0.0
  0
VERTEX
  5
1AD
  8
2
  6
CONTINUOUS
 62
     7
 10
57.8947755986415
 20
231.3223287081436
 30
0.0
  0
VERTEX
  5
1AE
  8
2
  6
CONTINUOUS
 62
     7
 10
57.91398919280243
 20
231.5174156586457
 30
0.0
  0
SEQEND
  5
242
  8
2
  6
CONTINUOUS
 62
     7
  0
LINE
  5
EB
  8
2
  6
CONTINUOUS
 62
     7
 10
57.91398919280245
 20
231.5174156586457
 30
0.0
 11
57.91398919280245
 21
234.3733433435726
 31
0.0
  0
LINE
  5
EC
  8
2
  6
CONTINUOUS
 62
     7
 10
74.43144292838397
 20
225.5
 30
0.0
 11
74.18144292838397
 21
225.2500000000001
 31
0.0
  0
LINE
  5
ED
  8
2
  6
CONTINUOUS
 62
     7
 10
74.43144292838397
 20
225.5
 30
0.0
 11
55.68144292838399
 21
225.5
 31
0.0
  0
LINE
  5
EE
  8
2
  6
CONTINUOUS
 62
     7
 10
74.18144292838397
 20
225.75
 30
0.0
 11
74.43144292838397
 21
225.5
 31
0.0
  0
POLYLINE
  5
EF
  8
2
  6
CONTINUOUS
 62
     7
 66
     1
 10
0.0
 20
0.0
 30
0.0
  0
VERTEX
  5
1AF
  8
2
  6
CONTINUOUS
 62
     7
 10
74.18144292838397
 20
207.9196544917222
 30
0.0
  0
VERTEX
  5
1B0
  8
2
  6
CONTINUOUS
 62
     7
 10
74.18174072833462
 20
207.8952568450727
 30
0.0
  0
VERTEX
  5
1B1
  8
2
  6
CONTINUOUS
 62
     7
 10
74.18263341870805
 20
207.8709173233669
 30
0.0
  0
VERTEX
  5
1B2
  8
2
  6
CONTINUOUS
 62
     7
 10
74.18411887275907
 20
207.8466939130719
 30
0.0
  0
VERTEX
  5
1B3
  8
2
  6
CONTINUOUS
 62
     7
 10
74.18619355154256
 20
207.8226443240305
 30
0.0
  0
VERTEX
  5
1B4
  8
2
  6
CONTINUOUS
 62
     7
 10
74.18885251234457
 20
207.7988258519744
 30
0.0
  0
VERTEX
  5
1B5
  8
2
  6
CONTINUOUS
 62
     7
 10
74.19208942045795
 20
207.7752952420219
 30
0.0
  0
VERTEX
  5
1B6
  8
2
  6
CONTINUOUS
 62
     7
 10
74.19589656427412
 20
207.7521085534889
 30
0.0
  0
VERTEX
  5
1B7
  8
2
  6
CONTINUOUS
 62
     7
 10
74.20026487365509
 20
207.7293210263329
 30
0.0
  0
VERTEX
  5
1B8
  8
2
  6
CONTINUOUS
 62
     7
 10
74.20518394154239
 20
207.7069869495498
 30
0.0
  0
VERTEX
  5
1B9
  8
2
  6
CONTINUOUS
 62
     7
 10
74.21064204875057
 20
207.685159531835
 30
0.0
  0
VERTEX
  5
1BA
  8
2
  6
CONTINUOUS
 62
     7
 10
74.21662619188722
 20
207.6638907748202
 30
0.0
  0
VERTEX
  5
1BB
  8
2
  6
CONTINUOUS
 62
     7
 10
74.22312211433203
 20
207.6432313491835
 30
0.0
  0
VERTEX
  5
1BC
  8
2
  6
CONTINUOUS
 62
     7
 10
74.23011434020201
 20
207.6232304739324
 30
0.0
  0
VERTEX
  5
1BD
  8
2
  6
CONTINUOUS
 62
     7
 10
74.23758621122094
 20
207.6039357991443
 30
0.0
  0
VERTEX
  5
1BE
  8
2
  6
CONTINUOUS
 62
     7
 10
74.2455199264063
 20
207.5853932924446
 30
0.0
  0
VERTEX
  5
1BF
  8
2
  6
CONTINUOUS
 62
     7
 10
74.25389658447816
 20
207.5676471294942
 30
0.0
  0
VERTEX
  5
1C0
  8
2
  6
CONTINUOUS
 62
     7
 10
74.26269622888961
 20
207.5507395887445
 30
0.0
  0
VERTEX
  5
1C1
  8
2
  6
CONTINUOUS
 62
     7
 10
74.27189789537132
 20
207.534710950714
 30
0.0
  0
VERTEX
  5
1C2
  8
2
  6
CONTINUOUS
 62
     7
 10
74.28147966187666
 20
207.5195994020235
 30
0.0
  0
VERTEX
  5
1C3
  8
2
  6
CONTINUOUS
 62
     7
 10
74.29141870080889
 20
207.5054409444207
 30
0.0
  0
VERTEX
  5
1C4
  8
2
  6
CONTINUOUS
 62
     7
 10
74.30169133340563
 20
207.4922693090095
 30
0.0
  0
VERTEX
  5
1C5
  8
2
  6
CONTINUOUS
 62
     7
 10
74.312273086151
 20
207.4801158758889
 30
0.0
  0
VERTEX
  5
1C6
  8
2
  6
CONTINUOUS
 62
     7
 10
74.32313874908144
 20
207.469009599393
 30
0.0
  0
VERTEX
  5
1C7
  8
2
  6
CONTINUOUS
 62
     7
 10
74.33426243584589
 20
207.4589769391106
 30
0.0
  0
VERTEX
  5
1C8
  8
2
  6
CONTINUOUS
 62
     7
 10
74.34561764537737
 20
207.4500417968476
 30
0.0
  0
VERTEX
  5
1C9
  8
2
  6
CONTINUOUS
 62
     7
 10
74.35717732502921
 20
207.4422254596835
 30
0.0
  0
VERTEX
  5
1CA
  8
2
  6
CONTINUOUS
 62
     7
 10
74.36891393502513
 20
207.4355465492567
 30
0.0
  0
VERTEX
  5
1CB
  8
2
  6
CONTINUOUS
 62
     7
 10
74.38079951407016
 20
207.4300209774009
 30
0.0
  0
VERTEX
  5
1CC
  8
2
  6
CONTINUOUS
 62
     7
 10
74.39280574596545
 20
207.4256619082363
 30
0.0
  0
VERTEX
  5
1CD
  8
2
  6
CONTINUOUS
 62
     7
 10
74.40490402706885
 20
207.4224797268075
 30
0.0
  0
VERTEX
  5
1CE
  8
2
  6
CONTINUOUS
 62
     7
 10
74.41706553444028
 20
207.4204820143423
 30
0.0
  0
VERTEX
  5
1CF
  8
2
  6
CONTINUOUS
 62
     7
 10
74.4292612945094
 20
207.4196735301901
 30
0.0
  0
SEQEND
  5
243
  8
2
  6
CONTINUOUS
 62
     7
  0
CIRCLE
  5
F0
  8
2
  6
CONTINUOUS
 62
     7
 10
74.43144292838397
 20
225.5
 30
0.0
 40
18.74999999999999
  0
ARC
  5
F1
  8
2
  6
CONTINUOUS
 62
     7
 10
92.93144292838397
 20
181.5000000000001
 30
0.0
 40
20.00000000000002
 50
295.0755278291616
 51
0.0
  0
ARC
  5
F2
  8
2
  6
CONTINUOUS
 62
     7
 10
55.93144292838399
 20
181.5000000000001
 30
0.0
 40
20.0
 50
180.0
 51
244.9244721708383
  0
LINE
  5
F3
  8
2
  6
CONTINUOUS
 62
     7
 10
112.931442928384
 20
181.5000000000001
 30
0.0
 11
112.931442928384
 21
247.5
 31
0.0
  0
LINE
  5
F4
  8
2
  6
CONTINUOUS
 62
     7
 10
35.93144292838399
 20
247.5000000000001
 30
0.0
 11
35.93144292838399
 21
181.5000000000001
 31
0.0
  0
LINE
  5
F5
  8
2
  6
CONTINUOUS
 62
     7
 10
92.93144292838397
 20
267.5
 30
0.0
 11
55.93144292838402
 21
267.5
 31
0.0
  0
ARC
  5
F6
  8
2
  6
CONTINUOUS
 62
     7
 10
55.93144292838399
 20
247.5000000000001
 30
0.0
 40
19.99999999999996
 50
89.99999999999996
 51
180.0
  0
ARC
  5
F7
  8
2
  6
CONTINUOUS
 62
     7
 10
92.93144292838397
 20
247.5000000000001
 30
0.0
 40
20.00000000000002
 50
359.9999999999999
 51
90.0
  0
POLYLINE
  5
F8
  8
2
  6
CONTINUOUS
 62
     7
 66
     1
 10
0.0
 20
0.0
 30
0.0
  0
VERTEX
  5
1D0
  8
2
  6
CONTINUOUS
 62
     7
 10
60.41334512915348
 20
162.3920899596191
 30
0.0
  0
VERTEX
  5
1D1
  8
2
  6
CONTINUOUS
 62
     7
 10
60.51319962717848
 20
162.3537816445345
 30
0.0
  0
VERTEX
  5
1D2
  8
2
  6
CONTINUOUS
 62
     7
 10
60.60702509324596
 20
162.2754575397292
 30
0.0
  0
VERTEX
  5
1D3
  8
2
  6
CONTINUOUS
 62
     7
 10
60.68168082365057
 20
162.1768640005009
 30
0.0
  0
VERTEX
  5
1D4
  8
2
  6
CONTINUOUS
 62
     7
 10
60.74004771104126
 20
162.0687568440158
 30
0.0
  0
SEQEND
  5
244
  8
2
  6
CONTINUOUS
 62
     7
  0
ARC
  5
F9
  8
2
  6
CONTINUOUS
 62
     7
 10
59.13146306079982
 20
161.3799834601218
 30
0.0
 40
1.749843807702061
 50
0.6018519065852956
 51
23.17992992018514
  0
POLYLINE
  5
FA
  8
2
  6
CONTINUOUS
 62
     7
 66
     1
 10
0.0
 20
0.0
 30
0.0
  0
VERTEX
  5
1D5
  8
2
  6
CONTINUOUS
 62
     7
 10
88.44954072761442
 20
162.3920899596166
 30
0.0
  0
VERTEX
  5
1D6
  8
2
  6
CONTINUOUS
 62
     7
 10
88.35208735163853
 20
162.3552206719162
 30
0.0
  0
VERTEX
  5
1D7
  8
2
  6
CONTINUOUS
 62
     7
 10
88.2580152910973
 20
162.2777767489894
 30
0.0
  0
VERTEX
  5
1D8
  8
2
  6
CONTINUOUS
 62
     7
 10
88.18309223756064
 20
162.1798421310017
 30
0.0
  0
VERTEX
  5
1D9
  8
2
  6
CONTINUOUS
 62
     7
 10
88.12446562535527
 20
162.072250693764
 30
0.0
  0
SEQEND
  5
245
  8
2
  6
CONTINUOUS
 62
     7
  0
ARC
  5
FB
  8
2
  6
CONTINUOUS
 62
     7
 10
89.72699349206808
 20
161.3806192057888
 30
0.0
 40
1.745408169669738
 50
156.6555611142851
 51
179.4174890127691
  0
LINE
  5
FC
  8
2
  6
CONTINUOUS
 62
     7
 10
87.98144292838396
 20
161.3805661348262
 30
0.0
 11
87.9816755264917
 21
161.3983640018219
 31
0.0
  0
LINE
  5
FD
  8
2
  6
CONTINUOUS
 62
     7
 10
60.8812103302762
 20
161.3983640018219
 30
0.0
 11
60.881442928384
 21
161.3805661348262
 31
0.0
  0
ARC
  5
FE
  8
2
  6
CONTINUOUS
 62
     7
 10
85.54083954830247
 20
145.5272484114548
 30
0.0
 40
2.440303892475362
 50
330.0500966932972
 51
0.1188056900281822
  0
POLYLINE
  5
FF
  8
2
  6
CONTINUOUS
 62
     7
 66
     1
 10
0.0
 20
0.0
 30
0.0
  0
VERTEX
  5
1DA
  8
2
  6
CONTINUOUS
 62
     7
 10
87.65527074676936
 20
144.3089447569497
 30
0.0
  0
VERTEX
  5
1DB
  8
2
  6
CONTINUOUS
 62
     7
 10
87.57897909784161
 20
144.2113193096143
 30
0.0
  0
VERTEX
  5
1DC
  8
2
  6
CONTINUOUS
 62
     7
 10
87.49727510913407
 20
144.1333908205474
 30
0.0
  0
VERTEX
  5
1DD
  8
2
  6
CONTINUOUS
 62
     7
 10
87.40230401135977
 20
144.072520134551
 30
0.0
  0
VERTEX
  5
1DE
  8
2
  6
CONTINUOUS
 62
     7
 10
87.28501385467068
 20
144.0371536752163
 30
0.0
  0
VERTEX
  5
1DF
  8
2
  6
CONTINUOUS
 62
     7
 10
87.28093984862177
 20
144.0366861047068
 30
0.0
  0
SEQEND
  5
246
  8
2
  6
CONTINUOUS
 62
     7
  0
ARC
  5
100
  8
2
  6
CONTINUOUS
 62
     7
 10
63.3220463084667
 20
145.5272484114552
 30
0.0
 40
2.440303892476693
 50
179.8811943099836
 51
209.9499033066982
  0
POLYLINE
  5
101
  8
2
  6
CONTINUOUS
 62
     7
 66
     1
 10
0.0
 20
0.0
 30
0.0
  0
VERTEX
  5
1E0
  8
2
  6
CONTINUOUS
 62
     7
 10
61.20761510999857
 20
144.3089447569497
 30
0.0
  0
VERTEX
  5
1E1
  8
2
  6
CONTINUOUS
 62
     7
 10
61.28390675892632
 20
144.2113193096143
 30
0.0
  0
VERTEX
  5
1E2
  8
2
  6
CONTINUOUS
 62
     7
 10
61.36561074763387
 20
144.1333908205474
 30
0.0
  0
VERTEX
  5
1E3
  8
2
  6
CONTINUOUS
 62
     7
 10
61.46058184540816
 20
144.072520134551
 30
0.0
  0
VERTEX
  5
1E4
  8
2
  6
CONTINUOUS
 62
     7
 10
61.57787200209656
 20
144.0371536752162
 30
0.0
  0
VERTEX
  5
1E5
  8
2
  6
CONTINUOUS
 62
     7
 10
61.58194600814616
 20
144.0366861047068
 30
0.0
  0
SEQEND
  5
247
  8
2
  6
CONTINUOUS
 62
     7
  0
LINE
  5
102
  8
2
  6
CONTINUOUS
 62
     7
 10
87.98144292838396
 20
161.3805661348262
 30
0.0
 11
87.98144292838396
 21
145.5572692428912
 31
0.0
  0
LINE
  5
103
  8
2
  6
CONTINUOUS
 62
     7
 10
87.98113819460036
 20
145.5323085010901
 30
0.0
 11
87.98144292838396
 21
145.5572692428912
 31
0.0
  0
LINE
  5
104
  8
2
  6
CONTINUOUS
 62
     7
 10
60.881442928384
 20
145.5572692428912
 30
0.0
 11
60.88174766216748
 21
145.5323085010901
 31
0.0
  0
LINE
  5
105
  8
2
  6
CONTINUOUS
 62
     7
 10
60.881442928384
 20
161.3805661348262
 30
0.0
 11
60.881442928384
 21
145.5572692428912
 31
0.0
  0
LINE
  5
106
  8
2
  6
CONTINUOUS
 62
     7
 10
96.08855803995426
 20
143.495580701774
 30
0.0
 11
87.04788148355657
 21
144.0071957228185
 31
0.0
  0
LINE
  5
107
  8
2
  6
CONTINUOUS
 62
     7
 10
87.04788148355655
 20
144.0071957228186
 30
0.0
 11
61.81500437321139
 21
144.0071957228186
 31
0.0
  0
LINE
  5
108
  8
2
  6
CONTINUOUS
 62
     7
 10
61.81500437321134
 20
144.0071957228185
 30
0.0
 11
52.77432781681364
 21
143.495580701774
 31
0.0
  0
POLYLINE
  5
109
  8
2
  6
CONTINUOUS
 62
     7
 66
     1
 10
0.0
 20
0.0
 30
0.0
  0
VERTEX
  5
1E6
  8
2
  6
CONTINUOUS
 62
     7
 10
52.77432781681364
 20
143.4955807017741
 30
0.0
  0
VERTEX
  5
1E7
  8
2
  6
CONTINUOUS
 62
     7
 10
51.6062645758274
 20
143.4156649248234
 30
0.0
  0
VERTEX
  5
1E8
  8
2
  6
CONTINUOUS
 62
     7
 10
50.74164924840381
 20
143.3257724767456
 30
0.0
  0
VERTEX
  5
1E9
  8
2
  6
CONTINUOUS
 62
     7
 10
50.21055178916613
 20
143.2290296748162
 30
0.0
  0
VERTEX
  5
1EA
  8
2
  6
CONTINUOUS
 62
     7
 10
50.03144292838395
 20
143.128801080791
 30
0.0
  0
SEQEND
  5
248
  8
2
  6
CONTINUOUS
 62
     7
  0
LINE
  5
10A
  8
2
  6
CONTINUOUS
 62
     7
 10
50.03144292838395
 20
143.128801080791
 30
0.0
 11
50.03144292838395
 21
141.5
 31
0.0
  0
LINE
  5
10B
  8
2
  6
CONTINUOUS
 62
     7
 10
49.53144292838397
 20
141.5
 30
0.0
 11
50.03144292838395
 21
141.5
 31
0.0
  0
LINE
  5
10C
  8
2
  6
CONTINUOUS
 62
     7
 10
98.83144292838395
 20
141.5
 30
0.0
 11
99.33144292838394
 21
141.5
 31
0.0
  0
LINE
  5
10D
  8
2
  6
CONTINUOUS
 62
     7
 10
98.83144292838395
 20
143.128801080791
 30
0.0
 11
98.83144292838395
 21
141.5
 31
0.0
  0
POLYLINE
  5
10E
  8
2
  6
CONTINUOUS
 62
     7
 66
     1
 10
0.0
 20
0.0
 30
0.0
  0
VERTEX
  5
1EB
  8
2
  6
CONTINUOUS
 62
     7
 10
98.83144292838395
 20
143.128801080791
 30
0.0
  0
VERTEX
  5
1EC
  8
2
  6
CONTINUOUS
 62
     7
 10
98.65233406760177
 20
143.2290296748162
 30
0.0
  0
VERTEX
  5
1ED
  8
2
  6
CONTINUOUS
 62
     7
 10
98.1212366083641
 20
143.3257724767456
 30
0.0
  0
VERTEX
  5
1EE
  8
2
  6
CONTINUOUS
 62
     7
 10
97.25662128094052
 20
143.4156649248234
 30
0.0
  0
VERTEX
  5
1EF
  8
2
  6
CONTINUOUS
 62
     7
 10
96.08855803995426
 20
143.4955807017741
 30
0.0
  0
SEQEND
  5
249
  8
2
  6
CONTINUOUS
 62
     7
  0
LINE
  5
10F
  8
2
  6
CONTINUOUS
 62
     7
 10
100.831442928384
 20
163.0797436355195
 30
0.0
 11
100.831442928384
 21
144.6308595997878
 31
0.0
  0
LINE
  5
110
  8
2
  6
CONTINUOUS
 62
     7
 10
48.03144292838397
 20
144.6308595997878
 30
0.0
 11
48.03144292838397
 21
163.0797436355195
 31
0.0
  0
LINE
  5
111
  8
2
  6
CONTINUOUS
 62
     7
 10
100.831442928384
 20
144.6308595997878
 30
0.0
 11
100.831442928384
 21
143.0020585189969
 31
0.0
  0
POLYLINE
  5
112
  8
2
  6
CONTINUOUS
 62
     7
 66
     1
 10
0.0
 20
0.0
 30
0.0
  0
VERTEX
  5
1F0
  8
2
  6
CONTINUOUS
 62
     7
 10
99.33144292838394
 20
141.5
 30
0.0
  0
VERTEX
  5
1F1
  8
2
  6
CONTINUOUS
 62
     7
 10
99.62407841140814
 20
141.5288616332605
 30
0.0
  0
VERTEX
  5
1F2
  8
2
  6
CONTINUOUS
 62
     7
 10
99.90546807693158
 20
141.6143373966615
 30
0.0
  0
VERTEX
  5
1F3
  8
2
  6
CONTINUOUS
 62
     7
 10
100.1647982779134
 20
141.7531425045508
 30
0.0
  0
VERTEX
  5
1F4
  8
2
  6
CONTINUOUS
 62
     7
 10
100.3921031001638
 20
141.9399427544752
 30
0.0
  0
VERTEX
  5
1F5
  8
2
  6
CONTINUOUS
 62
     7
 10
100.5786473468378
 20
142.1675595175887
 30
0.0
  0
VERTEX
  5
1F6
  8
2
  6
CONTINUOUS
 62
     7
 10
100.7172622271509
 20
142.427245609334
 30
0.0
  0
VERTEX
  5
1F7
  8
2
  6
CONTINUOUS
 62
     7
 10
100.8026208489888
 20
142.7090214388388
 30
0.0
  0
VERTEX
  5
1F8
  8
2
  6
CONTINUOUS
 62
     7
 10
100.831442928384
 20
143.0020585189969
 30
0.0
  0
SEQEND
  5
24A
  8
2
  6
CONTINUOUS
 62
     7
  0
LINE
  5
113
  8
2
  6
CONTINUOUS
 62
     7
 10
48.03144292838397
 20
143.0020585189969
 30
0.0
 11
48.03144292838397
 21
144.6308595997878
 31
0.0
  0
POLYLINE
  5
114
  8
2
  6
CONTINUOUS
 62
     7
 66
     1
 10
0.0
 20
0.0
 30
0.0
  0
VERTEX
  5
1F9
  8
2
  6
CONTINUOUS
 62
     7
 10
48.03144292838397
 20
143.0020585189969
 30
0.0
  0
VERTEX
  5
1FA
  8
2
  6
CONTINUOUS
 62
     7
 10
48.06026500777912
 20
142.7090214388388
 30
0.0
  0
VERTEX
  5
1FB
  8
2
  6
CONTINUOUS
 62
     7
 10
48.14562362961703
 20
142.427245609334
 30
0.0
  0
VERTEX
  5
1FC
  8
2
  6
CONTINUOUS
 62
     7
 10
48.28423850993014
 20
142.1675595175887
 30
0.0
  0
VERTEX
  5
1FD
  8
2
  6
CONTINUOUS
 62
     7
 10
48.47078275660414
 20
141.9399427544752
 30
0.0
  0
VERTEX
  5
1FE
  8
2
  6
CONTINUOUS
 62
     7
 10
48.69808757885456
 20
141.7531425045508
 30
0.0
  0
VERTEX
  5
1FF
  8
2
  6
CONTINUOUS
 62
     7
 10
48.95741777983633
 20
141.6143373966615
 30
0.0
  0
VERTEX
  5
200
  8
2
  6
CONTINUOUS
 62
     7
 10
49.23880744535978
 20
141.5288616332605
 30
0.0
  0
VERTEX
  5
201
  8
2
  6
CONTINUOUS
 62
     7
 10
49.53144292838397
 20
141.5
 30
0.0
  0
SEQEND
  5
24B
  8
2
  6
CONTINUOUS
 62
     7
  0
POLYLINE
  5
115
  8
2
  6
CONTINUOUS
 62
     7
 66
     1
 10
0.0
 20
0.0
 30
0.0
  0
VERTEX
  5
202
  8
2
  6
CONTINUOUS
 62
     7
 10
101.4076948795377
 20
163.3850019911521
 30
0.0
  0
VERTEX
  5
203
  8
2
  6
CONTINUOUS
 62
     7
 10
101.3705487939719
 20
163.3666731968078
 30
0.0
  0
VERTEX
  5
204
  8
2
  6
CONTINUOUS
 62
     7
 10
101.3341933290859
 20
163.3468223382647
 30
0.0
  0
VERTEX
  5
205
  8
2
  6
CONTINUOUS
 62
     7
 10
101.2984480067282
 20
163.3253288046995
 30
0.0
  0
VERTEX
  5
206
  8
2
  6
CONTINUOUS
 62
     7
 10
101.2636296809025
 20
163.3023639558103
 30
0.0
  0
VERTEX
  5
207
  8
2
  6
CONTINUOUS
 62
     7
 10
101.2290749345897
 20
163.2774199185355
 30
0.0
  0
VERTEX
  5
208
  8
2
  6
CONTINUOUS
 62
     7
 10
101.1956138451256
 20
163.2510269075228
 30
0.0
  0
VERTEX
  5
209
  8
2
  6
CONTINUOUS
 62
     7
 10
101.1630748599287
 20
163.2230219593329
 30
0.0
  0
VERTEX
  5
20A
  8
2
  6
CONTINUOUS
 62
     7
 10
101.1317672004564
 20
163.1936469156238
 30
0.0
  0
VERTEX
  5
20B
  8
2
  6
CONTINUOUS
 62
     7
 10
101.1027824180075
 20
163.1640554057285
 30
0.0
  0
VERTEX
  5
20C
  8
2
  6
CONTINUOUS
 62
     7
 10
101.0750472885805
 20
163.1332895527046
 30
0.0
  0
VERTEX
  5
20D
  8
2
  6
CONTINUOUS
 62
     7
 10
101.0484314720483
 20
163.1011758748784
 30
0.0
  0
VERTEX
  5
20E
  8
2
  6
CONTINUOUS
 62
     7
 10
101.0231771466711
 20
163.0679808588592
 30
0.0
  0
VERTEX
  5
20F
  8
2
  6
CONTINUOUS
 62
     7
 10
100.9988265623983
 20
163.0330059499804
 30
0.0
  0
VERTEX
  5
210
  8
2
  6
CONTINUOUS
 62
     7
 10
100.9759872696838
 20
162.9970259282758
 30
0.0
  0
VERTEX
  5
211
  8
2
  6
CONTINUOUS
 62
     7
 10
100.9545513649574
 20
162.9598303204113
 30
0.0
  0
VERTEX
  5
212
  8
2
  6
CONTINUOUS
 62
     7
 10
100.934730515649
 20
162.9217495479125
 30
0.0
  0
VERTEX
  5
213
  8
2
  6
CONTINUOUS
 62
     7
 10
100.9171704791181
 20
162.8842278681358
 30
0.0
  0
VERTEX
  5
214
  8
2
  6
CONTINUOUS
 62
     7
 10
100.9011784827924
 20
162.8460115440942
 30
0.0
  0
VERTEX
  5
215
  8
2
  6
CONTINUOUS
 62
     7
 10
100.8866889519905
 20
162.8068937147034
 30
0.0
  0
VERTEX
  5
216
  8
2
  6
CONTINUOUS
 62
     7
 10
100.8738422435569
 20
162.7672060189967
 30
0.0
  0
VERTEX
  5
217
  8
2
  6
CONTINUOUS
 62
     7
 10
100.8624375894498
 20
162.7261376906848
 30
0.0
  0
VERTEX
  5
218
  8
2
  6
CONTINUOUS
 62
     7
 10
100.8527919312601
 20
162.684621006946
 30
0.0
  0
VERTEX
  5
219
  8
2
  6
CONTINUOUS
 62
     7
 10
100.8448731183735
 20
162.6424216061778
 30
0.0
  0
VERTEX
  5
21A
  8
2
  6
CONTINUOUS
 62
     7
 10
100.8387715695776
 20
162.5999213927378
 30
0.0
  0
VERTEX
  5
21B
  8
2
  6
CONTINUOUS
 62
     7
 10
100.8355726411851
 20
162.5698569221249
 30
0.0
  0
VERTEX
  5
21C
  8
2
  6
CONTINUOUS
 62
     7
 10
100.8332835034794
 20
162.5397095277706
 30
0.0
  0
VERTEX
  5
21D
  8
2
  6
CONTINUOUS
 62
     7
 10
100.8319032837034
 20
162.5093955748918
 30
0.0
  0
VERTEX
  5
21E
  8
2
  6
CONTINUOUS
 62
     7
 10
100.831442928384
 20
162.4790537091068
 30
0.0
  0
SEQEND
  5
24C
  8
2
  6
CONTINUOUS
 62
     7
  0
POLYLINE
  5
116
  8
2
  6
CONTINUOUS
 62
     7
 66
     1
 10
0.0
 20
0.0
 30
0.0
  0
VERTEX
  5
21F
  8
2
  6
CONTINUOUS
 62
     7
 10
48.03144292838397
 20
162.4790537091068
 30
0.0
  0
VERTEX
  5
220
  8
2
  6
CONTINUOUS
 62
     7
 10
48.03058450933888
 20
162.5204783703368
 30
0.0
  0
VERTEX
  5
221
  8
2
  6
CONTINUOUS
 62
     7
 10
48.02801219268675
 20
162.5618319992535
 30
0.0
  0
VERTEX
  5
222
  8
2
  6
CONTINUOUS
 62
     7
 10
48.02369319151583
 20
162.6033291797669
 30
0.0
  0
VERTEX
  5
223
  8
2
  6
CONTINUOUS
 62
     7
 10
48.01764838071877
 20
162.6446102894002
 30
0.0
  0
VERTEX
  5
224
  8
2
  6
CONTINUOUS
 62
     7
 10
48.00969887798399
 20
162.6864915252036
 30
0.0
  0
VERTEX
  5
225
  8
2
  6
CONTINUOUS
 62
     7
 10
47.99997306482835
 20
162.727996236303
 30
0.0
  0
VERTEX
  5
226
  8
2
  6
CONTINUOUS
 62
     7
 10
47.9883959743156
 20
162.769348911079
 30
0.0
  0
VERTEX
  5
227
  8
2
  6
CONTINUOUS
 62
     7
 10
47.9750555485217
 20
162.8101668696936
 30
0.0
  0
VERTEX
  5
228
  8
2
  6
CONTINUOUS
 62
     7
 10
47.96053402425211
 20
162.8489723501704
 30
0.0
  0
VERTEX
  5
229
  8
2
  6
CONTINUOUS
 62
     7
 10
47.94441860499128
 20
162.8871434545964
 30
0.0
  0
VERTEX
  5
22A
  8
2
  6
CONTINUOUS
 62
     7
 10
47.92660728307578
 20
162.9248718426042
 30
0.0
  0
VERTEX
  5
22B
  8
2
  6
CONTINUOUS
 62
     7
 10
47.90723879651713
 20
162.9618250040533
 30
0.0
  0
VERTEX
  5
22C
  8
2
  6
CONTINUOUS
 62
     7
 10
47.88587405357071
 20
162.9987140612312
 30
0.0
  0
VERTEX
  5
22D
  8
2
  6
CONTINUOUS
 62
     7
 10
47.8629575607843
 20
163.0346597020335
 30
0.0
  0
VERTEX
  5
22E
  8
2
  6
CONTINUOUS
 62
     7
 10
47.8383442053285
 20
163.0698489862316
 30
0.0
  0
VERTEX
  5
22F
  8
2
  6
CONTINUOUS
 62
     7
 10
47.81224369264227
 20
163.1039498099033
 30
0.0
  0
VERTEX
  5
230
  8
2
  6
CONTINUOUS
 62
     7
 10
47.78569721222649
 20
163.1357574803827
 30
0.0
  0
VERTEX
  5
231
  8
2
  6
CONTINUOUS
 62
     7
 10
47.7578567181237
 20
163.1664389139716
 30
0.0
  0
VERTEX
  5
232
  8
2
  6
CONTINUOUS
 62
     7
 10
47.72856248475633
 20
163.1961411988425
 30
0.0
  0
VERTEX
  5
233
  8
2
  6
CONTINUOUS
 62
     7
 10
47.69805551487872
 20
163.224596472118
 30
0.0
  0
VERTEX
  5
234
  8
2
  6
CONTINUOUS
 62
     7
 10
47.66568598515415
 20
163.2523304446426
 30
0.0
  0
VERTEX
  5
235
  8
2
  6
CONTINUOUS
 62
     7
 10
47.63216450105546
 20
163.2786604605793
 30
0.0
  0
VERTEX
  5
236
  8
2
  6
CONTINUOUS
 62
     7
 10
47.59729217715626
 20
163.3037150036107
 30
0.0
  0
VERTEX
  5
237
  8
2
  6
CONTINUOUS
 62
     7
 10
47.56137687693838
 20
163.327250089342
 30
0.0
  0
VERTEX
  5
238
  8
2
  6
CONTINUOUS
 62
     7
 10
47.53554531918471
 20
163.3428578427705
 30
0.0
  0
VERTEX
  5
239
  8
2
  6
CONTINUOUS
 62
     7
 10
47.50925460987767
 20
163.3576791092179
 30
0.0
  0
VERTEX
  5
23A
  8
2
  6
CONTINUOUS
 62
     7
 10
47.48242969630821
 20
163.3717499476394
 30
0.0
  0
VERTEX
  5
23B
  8
2
  6
CONTINUOUS
 62
     7
 10
47.45519097723026
 20
163.3850019911522
 30
0.0
  0
SEQEND
  5
24D
  8
2
  6
CONTINUOUS
 62
     7
  0
LINE
  5
117
  8
2
  6
CONTINUOUS
 62
     7
 10
70.34824565173915
 20
207.2
 30
0.0
 11
74.18144292838397
 21
207.2
 31
0.0
  0
LINE
  5
118
  8
2
  6
CONTINUOUS
 62
     7
 10
74.18144292838397
 20
207.2
 30
0.0
 11
74.43144292838397
 21
207.2043634338954
 31
0.0
  0
LINE
  5
119
  8
2
  6
CONTINUOUS
 62
     7
 10
74.43144292838397
 20
207.2043634338954
 30
0.0
 11
74.68144292838397
 21
207.2
 31
0.0
  0
LINE
  5
11A
  8
2
  6
CONTINUOUS
 62
     7
 10
74.68144292838397
 20
207.2
 30
0.0
 11
78.51464020502881
 21
207.2
 31
0.0
  0
LINE
  5
11B
  8
2
  6
CONTINUOUS
 62
     7
 10
74.68144292838397
 20
207.2
 30
0.0
 11
74.68144292838397
 21
207.4000000000001
 31
0.0
  0
LINE
  5
11C
  8
2
  6
CONTINUOUS
 62
     7
 10
74.43144292838397
 20
207.2043634338954
 30
0.0
 11
74.43144292838397
 21
207.4000000000001
 31
0.0
  0
LINE
  5
11D
  8
2
  6
CONTINUOUS
 62
     7
 10
74.18144292838397
 20
207.2
 30
0.0
 11
74.18144292838397
 21
207.4000000000001
 31
0.0
  0
ENDBLK
  8
0
  0
ENDSEC
  0
SECTION
  2
ENTITIES
  0
INSERT
  5
CA
  8
2
  6
CONTINUOUS
 62
     7
  2
D_FRAME_VIEW_2979
 10
0.0
 20
0.0
 30
0.0
  0
TEXT
  5
CB
  8
2
  6
CONTINUOUS
 62
     7
 10
95.00222019036903
 20
53.54718853760054
 30
0.0
 40
3.0
  1
RMEB-25MH
  0
INSERT
  5
11E
  8
2
  6
CONTINUOUS
 62
     7
  2
D_FRAME_VIEW_3150
 10
0.0
 20
0.0
 30
0.0
  0
ENDSEC
  0
EOF
