  0
SECTION
  2
HEADER
  9
$ACADVER
  1
AC1006
  9
$DWGCODEPAGE
  3
ansi_932
  9
$INSBASE
 10
0.0
 20
0.0
 30
0.0
  9
$EXTMIN
 10
19.76516968668045
 20
349.7963056640418
  9
$EXTMAX
 10
344.5670820470343
 20
599.2787223727624
  9
$LIMMIN
 10
0.0
 20
0.0
  9
$LIMMAX
 10
12.0
 20
9.0
  9
$ORTHOMODE
 70
     0
  9
$REGENMODE
 70
     1
  9
$FILLMODE
 70
     1
  9
$QTEXTMODE
 70
     0
  9
$MIRRTEXT
 70
     1
  9
$DRAGMODE
 70
     2
  9
$LTSCALE
 40
1.0
  9
$OSMODE
 70
    37
  9
$ATTMODE
 70
     1
  9
$TEXTSIZE
 40
0.2
  9
$TRACEWID
 40
0.05
  9
$TEXTSTYLE
  7
STANDARD
  9
$CLAYER
  8
0
  9
$CELTYPE
  6
BYLAYER
  9
$CECOLOR
 62
   256
  9
$DIMSCALE
 40
1.0
  9
$DIMASZ
 40
3.0
  9
$DIMEXO
 40
0.0625
  9
$DIMDLI
 40
0.38
  9
$DIMRND
 40
0.0
  9
$DIMDLE
 40
0.0
  9
$DIMEXE
 40
1.5
  9
$DIMTP
 40
0.0
  9
$DIMTM
 40
0.0
  9
$DIMTXT
 40
3.0
  9
$DIMCEN
 40
0.09
  9
$DIMTSZ
 40
0.0
  9
$DIMTOL
 70
     0
  9
$DIMLIM
 70
     0
  9
$DIMTIH
 70
     1
  9
$DIMTOH
 70
     1
  9
$DIMSE1
 70
     0
  9
$DIMSE2
 70
     0
  9
$DIMTAD
 70
     1
  9
$DIMZIN
 70
     0
  9
$DIMBLK
  1

  9
$DIMASO
 70
     1
  9
$DIMSHO
 70
     1
  9
$DIMPOST
  1

  9
$DIMAPOST
  1

  9
$DIMALT
 70
     0
  9
$DIMALTD
 70
     2
  9
$DIMALTF
 40
25.4
  9
$DIMLFAC
 40
1.0
  9
$DIMTOFL
 70
     0
  9
$DIMTVP
 40
0.0
  9
$DIMTIX
 70
     0
  9
$DIMSOXD
 70
     0
  9
$DIMSAH
 70
     0
  9
$DIMBLK1
  1

  9
$DIMBLK2
  1

  9
$LUNITS
 70
     2
  9
$LUPREC
 70
     4
  9
$SKETCHINC
 40
0.1
  9
$FILLETRAD
 40
0.5
  9
$AUNITS
 70
     0
  9
$AUPREC
 70
     0
  9
$MENU
  1
.
  9
$ELEVATION
 40
0.0
  9
$THICKNESS
 40
0.0
  9
$LIMCHECK
 70
     0
  9
$CHAMFERA
 40
0.0
  9
$CHAMFERB
 40
0.0
  9
$SKPOLY
 70
     0
  9
$TDCREATE
 40
2459110.478466481
  9
$TDUPDATE
 40
2459110.478466759
  9
$TDINDWG
 40
0.0000000116
  9
$TDUSRTIMER
 40
0.0000000116
  9
$USRTIMER
 70
     1
  9
$ANGBASE
 50
0.0
  9
$ANGDIR
 70
     0
  9
$PDMODE
 70
     0
  9
$PDSIZE
 40
0.0
  9
$PLINEWID
 40
0.0
  9
$COORDS
 70
     1
  9
$SPLFRAME
 70
     0
  9
$SPLINETYPE
 70
     6
  9
$SPLINESEGS
 70
     8
  9
$ATTDIA
 70
     0
  9
$ATTREQ
 70
     1
  9
$HANDLING
 70
     1
  9
$HANDSEED
  5
954
  9
$SURFTAB1
 70
     6
  9
$SURFTAB2
 70
     6
  9
$SURFTYPE
 70
     6
  9
$SURFU
 70
     6
  9
$SURFV
 70
     6
  9
$UCSNAME
  2

  9
$UCSORG
 10
0.0
 20
0.0
 30
0.0
  9
$UCSXDIR
 10
1.0
 20
0.0
 30
0.0
  9
$UCSYDIR
 10
0.0
 20
1.0
 30
0.0
  9
$USERI1
 70
     0
  9
$USERI2
 70
     0
  9
$USERI3
 70
     0
  9
$USERI4
 70
     0
  9
$USERI5
 70
     0
  9
$USERR1
 40
0.0
  9
$USERR2
 40
0.0
  9
$USERR3
 40
0.0
  9
$USERR4
 40
0.0
  9
$USERR5
 40
0.0
  9
$WORLDVIEW
 70
     1
  0
ENDSEC
  0
SECTION
  2
TABLES
  0
TABLE
  2
VPORT
 70
     1
  0
VPORT
  2
*ACTIVE
 70
     0
 10
0.0
 20
0.0
 11
1.0
 21
1.0
 12
182.1661258668574
 22
474.5375140184021
 13
0.0
 23
0.0
 14
0.5
 24
0.5
 15
0.5
 25
0.5
 16
0.0
 26
0.0
 36
1.0
 17
0.0
 27
0.0
 37
0.0
 40
249.4824167087206
 41
1.6
 42
50.0
 43
0.0
 44
0.0
 50
0.0
 51
0.0
 71
     0
 72
   100
 73
     1
 74
     3
 75
     0
 76
     0
 77
     0
 78
     0
  0
ENDTAB
  0
TABLE
  2
LTYPE
 70
     2
  0
LTYPE
  2
CONTINUOUS
 70
     0
  3
Solid line
 72
    65
 73
     0
 40
0.0
  0
LTYPE
  2
CENTER
 70
     0
  3

 72
    65
 73
     0
 40
0.0
  0
ENDTAB
  0
TABLE
  2
LAYER
 70
     1
  0
LAYER
  2
0
 70
     0
 62
     7
  6
CONTINUOUS
  0
ENDTAB
  0
TABLE
  2
STYLE
 70
     2
  0
STYLE
  2
STANDARD
 70
     0
 40
0.0
 41
1.0
 50
0.0
 71
     0
 42
0.2
  3
txt
  4

  0
STYLE
  2
ＭＳ_ゴシック
 70
     0
 40
0.0
 41
1.0
 50
0.0
 71
     0
 42
0.2
  3
ＭＳ ゴシック.shx
  4

  0
ENDTAB
  0
TABLE
  2
VIEW
 70
     0
  0
ENDTAB
  0
TABLE
  2
UCS
 70
     0
  0
ENDTAB
  0
ENDSEC
  0
SECTION
  2
BLOCKS
  0
BLOCK
  8
0
  2
D_FRAME_VIEW_2501
 70
     0
 10
0.0
 20
0.0
 30
0.0
  0
CIRCLE
  5
77
  8
0
  6
CONTINUOUS
 62
     9
 10
306.5670820470343
 20
561.2787223727624
 30
0.0
 40
16.88651264105937
  0
CIRCLE
  5
78
  8
0
  6
CONTINUOUS
 62
     9
 10
306.5670820470343
 20
561.2787223727624
 30
0.0
 40
16.38653167952728
  0
CIRCLE
  5
79
  8
0
  6
CONTINUOUS
 62
     7
 10
306.5670820470343
 20
561.2787223727624
 30
0.0
 40
14.72944649361263
  0
CIRCLE
  5
7A
  8
0
  6
CONTINUOUS
 62
     7
 10
329.0670820470343
 20
496.2787223727624
 30
0.0
 40
2.25000000000003
  0
CIRCLE
  5
7B
  8
0
  6
CONTINUOUS
 62
     7
 10
306.5670820470343
 20
561.2787223727624
 30
0.0
 40
16.99999999999999
  0
CIRCLE
  5
7C
  8
0
  6
CONTINUOUS
 62
     7
 10
284.0670820470343
 20
536.2787223727624
 30
0.0
 40
2.250000000000002
  0
CIRCLE
  5
7D
  8
0
  6
CONTINUOUS
 62
     7
 10
280.0670820470343
 20
581.2787223727624
 30
0.0
 40
2.250000000000002
  0
CIRCLE
  5
7E
  8
0
  6
CONTINUOUS
 62
     7
 10
329.0670820470343
 20
536.2787223727624
 30
0.0
 40
2.25000000000003
  0
CIRCLE
  5
7F
  8
0
  6
CONTINUOUS
 62
     7
 10
333.0670820470343
 20
581.2787223727624
 30
0.0
 40
2.25000000000003
  0
ARC
  5
80
  8
0
  6
CONTINUOUS
 62
     7
 10
273.5670820470343
 20
479.9916345622591
 30
0.0
 40
0.4999999999999845
 50
0.0
 51
30.13272183101145
  0
ARC
  5
81
  8
0
  6
CONTINUOUS
 62
     7
 10
289.5670820470343
 20
489.2787223727624
 30
0.0
 40
18.0
 50
180.0
 51
210.1327218310101
  0
LINE
  5
82
  8
0
  6
CONTINUOUS
 62
     7
 10
271.5670820470343
 20
489.2787223727624
 30
0.0
 11
271.5670820470343
 21
492.2787223727624
 31
0.0
  0
LINE
  5
83
  8
0
  6
CONTINUOUS
 62
     7
 10
271.5670820470343
 20
492.2787223727624
 30
0.0
 11
273.5670820470343
 21
492.2787223727624
 31
0.0
  0
LINE
  5
84
  8
0
  6
CONTINUOUS
 62
     7
 10
273.5670820470343
 20
492.2787223727624
 30
0.0
 11
273.5670820470343
 21
539.2787223727624
 31
0.0
  0
LINE
  5
85
  8
0
  6
CONTINUOUS
 62
     7
 10
273.5670820470343
 20
539.2787223727624
 30
0.0
 11
271.5670820470343
 21
539.2787223727624
 31
0.0
  0
LINE
  5
86
  8
0
  6
CONTINUOUS
 62
     7
 10
271.5670820470343
 20
539.2787223727624
 30
0.0
 11
271.5670820470343
 21
581.3787223727625
 31
0.0
  0
ARC
  5
87
  8
0
  6
CONTINUOUS
 62
     7
 10
282.7670820470343
 20
581.3787223727625
 30
0.0
 40
11.19999999999999
 50
90.00000000000011
 51
180.0
  0
LINE
  5
88
  8
0
  6
CONTINUOUS
 62
     7
 10
299.0670820470343
 20
592.5787223727624
 30
0.0
 11
282.7670820470343
 21
592.5787223727624
 31
0.0
  0
LINE
  5
89
  8
0
  6
CONTINUOUS
 62
     7
 10
299.0670820470343
 20
590.0787223727625
 30
0.0
 11
299.0670820470343
 21
592.5787223727624
 31
0.0
  0
LINE
  5
8A
  8
0
  6
CONTINUOUS
 62
     7
 10
314.0670820470343
 20
590.0787223727625
 30
0.0
 11
299.0670820470343
 21
590.0787223727625
 31
0.0
  0
LINE
  5
8B
  8
0
  6
CONTINUOUS
 62
     7
 10
314.0670820470343
 20
590.0787223727625
 30
0.0
 11
314.0670820470343
 21
592.5787223727624
 31
0.0
  0
LINE
  5
8C
  8
0
  6
CONTINUOUS
 62
     7
 10
330.3670820470343
 20
592.5787223727624
 30
0.0
 11
314.0670820470343
 21
592.5787223727624
 31
0.0
  0
ARC
  5
8D
  8
0
  6
CONTINUOUS
 62
     7
 10
330.3670820470343
 20
581.3787223727625
 30
0.0
 40
11.20000000000004
 50
0.0
 51
89.99999999999991
  0
LINE
  5
8E
  8
0
  6
CONTINUOUS
 62
     7
 10
341.5670820470343
 20
539.2787223727624
 30
0.0
 11
341.5670820470343
 21
581.3787223727625
 31
0.0
  0
LINE
  5
8F
  8
0
  6
CONTINUOUS
 62
     7
 10
341.5670820470343
 20
539.2787223727624
 30
0.0
 11
339.5670820470343
 21
539.2787223727624
 31
0.0
  0
LINE
  5
90
  8
0
  6
CONTINUOUS
 62
     7
 10
339.5670820470343
 20
492.2787223727624
 30
0.0
 11
339.5670820470343
 21
539.2787223727624
 31
0.0
  0
LINE
  5
91
  8
0
  6
CONTINUOUS
 62
     7
 10
339.5670820470343
 20
492.2787223727624
 30
0.0
 11
341.5670820470343
 21
492.2787223727624
 31
0.0
  0
LINE
  5
92
  8
0
  6
CONTINUOUS
 62
     7
 10
341.5670820470343
 20
489.2787223727624
 30
0.0
 11
341.5670820470343
 21
492.2787223727624
 31
0.0
  0
ARC
  5
93
  8
0
  6
CONTINUOUS
 62
     7
 10
323.5670820470343
 20
489.2787223727624
 30
0.0
 40
17.99999999999998
 50
329.8672781689896
 51
0.0
  0
ARC
  5
94
  8
0
  6
CONTINUOUS
 62
     7
 10
339.5670820470343
 20
479.991634562259
 30
0.0
 40
0.5000000000000004
 50
149.8672781689903
 51
180.0
  0
LINE
  5
95
  8
0
  6
CONTINUOUS
 62
     7
 10
339.0670820470343
 20
479.991634562259
 30
0.0
 11
339.0670820470343
 21
471.7786652595335
 31
0.0
  0
POLYLINE
  5
96
  8
0
  6
CONTINUOUS
 62
     7
 66
     1
 10
0.0
 20
0.0
 30
0.0
  0
VERTEX
  5
39B
  8
0
  6
CONTINUOUS
 62
     7
 10
338.5670820441342
 20
471.2787223727625
 30
0.0
  0
VERTEX
  5
39C
  8
0
  6
CONTINUOUS
 62
     7
 10
338.6646312625116
 20
471.2883282414074
 30
0.0
  0
VERTEX
  5
39D
  8
0
  6
CONTINUOUS
 62
     7
 10
338.7584295174321
 20
471.3167767705464
 30
0.0
  0
VERTEX
  5
39E
  8
0
  6
CONTINUOUS
 62
     7
 10
338.8448728912636
 20
471.3629749104647
 30
0.0
  0
VERTEX
  5
39F
  8
0
  6
CONTINUOUS
 62
     7
 10
338.9206400556997
 20
471.4251476356978
 30
0.0
  0
VERTEX
  5
3A0
  8
0
  6
CONTINUOUS
 62
     7
 10
338.9828198838749
 20
471.5009061450797
 30
0.0
  0
VERTEX
  5
3A1
  8
0
  6
CONTINUOUS
 62
     7
 10
339.0290233017141
 20
471.5873396442894
 30
0.0
  0
VERTEX
  5
3A2
  8
0
  6
CONTINUOUS
 62
     7
 10
339.057475080964
 20
471.6811271844235
 30
0.0
  0
VERTEX
  5
3A3
  8
0
  6
CONTINUOUS
 62
     7
 10
339.0670820470343
 20
471.7786652595335
 30
0.0
  0
SEQEND
  5
8EC
  8
0
  6
CONTINUOUS
 62
     7
  0
LINE
  5
97
  8
0
  6
CONTINUOUS
 62
     7
 10
322.5670820470343
 20
471.2787223727624
 30
0.0
 11
338.5670820441342
 21
471.2787223727624
 31
0.0
  0
LINE
  5
98
  8
0
  6
CONTINUOUS
 62
     7
 10
322.5670820470343
 20
471.2787223727624
 30
0.0
 11
322.5670820470343
 21
457.2787223727624
 31
0.0
  0
ARC
  5
99
  8
0
  6
CONTINUOUS
 62
     7
 10
321.5670820470343
 20
457.2787223727624
 30
0.0
 40
1.000000000000001
 50
270.0
 51
0.0
  0
LINE
  5
9A
  8
0
  6
CONTINUOUS
 62
     7
 10
318.5670820470343
 20
456.2787223727624
 30
0.0
 11
321.5670820470343
 21
456.2787223727624
 31
0.0
  0
ARC
  5
9B
  8
0
  6
CONTINUOUS
 62
     7
 10
318.5670820470343
 20
457.2787223727624
 30
0.0
 40
1.000000000000001
 50
180.0
 51
270.0
  0
LINE
  5
9C
  8
0
  6
CONTINUOUS
 62
     7
 10
317.5670820470343
 20
471.2787223727624
 30
0.0
 11
317.5670820470343
 21
457.2787223727624
 31
0.0
  0
LINE
  5
9D
  8
0
  6
CONTINUOUS
 62
     7
 10
295.5670820470343
 20
471.2787223727624
 30
0.0
 11
317.5670820470343
 21
471.2787223727624
 31
0.0
  0
LINE
  5
9E
  8
0
  6
CONTINUOUS
 62
     7
 10
295.5670820470343
 20
471.2787223727624
 30
0.0
 11
295.5670820470343
 21
457.2787223727624
 31
0.0
  0
ARC
  5
9F
  8
0
  6
CONTINUOUS
 62
     7
 10
294.5670820470343
 20
457.2787223727624
 30
0.0
 40
1.000000000000001
 50
269.9999999999998
 51
0.0
  0
LINE
  5
A0
  8
0
  6
CONTINUOUS
 62
     7
 10
294.5670820470343
 20
456.2787223727624
 30
0.0
 11
291.5670820470343
 21
456.2787223727624
 31
0.0
  0
ARC
  5
A1
  8
0
  6
CONTINUOUS
 62
     7
 10
291.5670820470343
 20
457.2787223727624
 30
0.0
 40
1.000000000000001
 50
180.0
 51
270.0
  0
LINE
  5
A2
  8
0
  6
CONTINUOUS
 62
     7
 10
290.5670820470343
 20
471.2787223727624
 30
0.0
 11
290.5670820470343
 21
457.2787223727624
 31
0.0
  0
LINE
  5
A3
  8
0
  6
CONTINUOUS
 62
     7
 10
274.5670820499344
 20
471.2787223727624
 30
0.0
 11
290.5670820470343
 21
471.2787223727624
 31
0.0
  0
POLYLINE
  5
A4
  8
0
  6
CONTINUOUS
 62
     7
 66
     1
 10
0.0
 20
0.0
 30
0.0
  0
VERTEX
  5
3A4
  8
0
  6
CONTINUOUS
 62
     7
 10
274.0670820470343
 20
471.7786652595335
 30
0.0
  0
VERTEX
  5
3A5
  8
0
  6
CONTINUOUS
 62
     7
 10
274.0766890131047
 20
471.6811271844235
 30
0.0
  0
VERTEX
  5
3A6
  8
0
  6
CONTINUOUS
 62
     7
 10
274.1051407923546
 20
471.5873396442894
 30
0.0
  0
VERTEX
  5
3A7
  8
0
  6
CONTINUOUS
 62
     7
 10
274.1513442101937
 20
471.5009061450797
 30
0.0
  0
VERTEX
  5
3A8
  8
0
  6
CONTINUOUS
 62
     7
 10
274.2135240383689
 20
471.4251476356977
 30
0.0
  0
VERTEX
  5
3A9
  8
0
  6
CONTINUOUS
 62
     7
 10
274.289291202805
 20
471.3629749104647
 30
0.0
  0
VERTEX
  5
3AA
  8
0
  6
CONTINUOUS
 62
     7
 10
274.3757345766365
 20
471.3167767705464
 30
0.0
  0
VERTEX
  5
3AB
  8
0
  6
CONTINUOUS
 62
     7
 10
274.469532831557
 20
471.2883282414074
 30
0.0
  0
VERTEX
  5
3AC
  8
0
  6
CONTINUOUS
 62
     7
 10
274.5670820499344
 20
471.2787223727624
 30
0.0
  0
SEQEND
  5
8ED
  8
0
  6
CONTINUOUS
 62
     7
  0
LINE
  5
A5
  8
0
  6
CONTINUOUS
 62
     7
 10
274.0670820470343
 20
471.7786652595335
 30
0.0
 11
274.0670820470343
 21
479.9916345622591
 31
0.0
  0
CIRCLE
  5
A6
  8
0
  6
CONTINUOUS
 62
     7
 10
284.0670820470343
 20
496.2787223727624
 30
0.0
 40
2.249999999999974
  0
LINE
  5
A7
  8
0
  6
CONTINUOUS
 62
     7
 10
271.6543573716754
 20
539.1914470481214
 30
0.0
 11
273.5670820470343
 21
539.2107228876362
 31
0.0
  0
LINE
  5
A8
  8
0
  6
CONTINUOUS
 62
     7
 10
271.5670820470343
 20
539.2787223727624
 30
0.0
 11
271.6543573716754
 21
539.1914470481214
 31
0.0
  0
LINE
  5
A9
  8
0
  6
CONTINUOUS
 62
     7
 10
299.1102810400819
 20
592.4923178062492
 30
0.0
 11
299.0981202373177
 21
590.0787223727624
 31
0.0
  0
LINE
  5
AA
  8
0
  6
CONTINUOUS
 62
     7
 10
299.0670820470343
 20
592.5787223727624
 30
0.0
 11
299.1102810400819
 21
592.4923178062492
 31
0.0
  0
LINE
  5
AB
  8
0
  6
CONTINUOUS
 62
     7
 10
314.0238830539868
 20
592.4923178062492
 30
0.0
 11
314.036043856751
 21
590.0787223727624
 31
0.0
  0
LINE
  5
AC
  8
0
  6
CONTINUOUS
 62
     7
 10
314.0670820470343
 20
592.5787223727624
 30
0.0
 11
314.0238830539868
 21
592.4923178062492
 31
0.0
  0
LINE
  5
AD
  8
0
  6
CONTINUOUS
 62
     7
 10
273.5670820470343
 20
492.3467218578887
 30
0.0
 11
271.6543573716754
 21
492.3659976974035
 31
0.0
  0
LINE
  5
AE
  8
0
  6
CONTINUOUS
 62
     7
 10
271.6543573716754
 20
492.3659976974035
 30
0.0
 11
271.5670820470343
 21
492.2787223727624
 31
0.0
  0
LINE
  5
AF
  8
0
  6
CONTINUOUS
 62
     7
 10
339.5670820470343
 20
539.2107228876362
 30
0.0
 11
341.4798067223932
 21
539.1914470481214
 31
0.0
  0
LINE
  5
B0
  8
0
  6
CONTINUOUS
 62
     7
 10
341.4798067223932
 20
539.1914470481214
 30
0.0
 11
341.5670820470343
 21
539.2787223727624
 31
0.0
  0
LINE
  5
B1
  8
0
  6
CONTINUOUS
 62
     7
 10
341.4798067223932
 20
492.3659976974035
 30
0.0
 11
339.5670820470343
 21
492.3467218578887
 31
0.0
  0
LINE
  5
B2
  8
0
  6
CONTINUOUS
 62
     7
 10
341.5670820470343
 20
492.2787223727624
 30
0.0
 11
341.4798067223932
 21
492.3659976974035
 31
0.0
  0
LINE
  5
B3
  8
0
  6
CONTINUOUS
 62
     7
 10
314.0238830539868
 20
592.4923178062492
 30
0.0
 11
313.8170820470343
 21
592.4923178062492
 31
0.0
  0
LINE
  5
B4
  8
0
  6
CONTINUOUS
 62
     7
 10
299.3170820470343
 20
592.4923178062492
 30
0.0
 11
299.1102810400819
 21
592.4923178062492
 31
0.0
  0
LINE
  5
B5
  8
0
  6
CONTINUOUS
 62
     7
 10
271.6543573716754
 20
539.1914470481214
 30
0.0
 11
271.6543573716754
 21
538.3158327495079
 31
0.0
  0
LINE
  5
B6
  8
0
  6
CONTINUOUS
 62
     7
 10
271.6543573716754
 20
493.241611996017
 30
0.0
 11
271.6543573716754
 21
492.3659976974035
 31
0.0
  0
LINE
  5
B7
  8
0
  6
CONTINUOUS
 62
     7
 10
341.4798067223932
 20
492.3659976974035
 30
0.0
 11
341.4798067223932
 21
493.241611996017
 31
0.0
  0
LINE
  5
B8
  8
0
  6
CONTINUOUS
 62
     7
 10
341.4798067223932
 20
538.3158327495079
 30
0.0
 11
341.4798067223932
 21
539.1914470481214
 31
0.0
  0
LINE
  5
B9
  8
0
  6
CONTINUOUS
 62
     7
 10
268.5670820470343
 20
485.7781702571929
 30
0.0
 11
268.5670820470343
 21
581.779274488332
 31
0.0
  0
POLYLINE
  5
BA
  8
0
  6
CONTINUOUS
 62
     7
 66
     1
 10
0.0
 20
0.0
 30
0.0
  0
VERTEX
  5
3AD
  8
0
  6
CONTINUOUS
 62
     7
 10
283.0665299314648
 20
596.2787223727626
 30
0.0
  0
VERTEX
  5
3AE
  8
0
  6
CONTINUOUS
 62
     7
 10
280.2377691491842
 20
596.0001252574289
 30
0.0
  0
VERTEX
  5
3AF
  8
0
  6
CONTINUOUS
 62
     7
 10
277.5177479828786
 20
595.1750392076048
 30
0.0
  0
VERTEX
  5
3B0
  8
0
  6
CONTINUOUS
 62
     7
 10
275.0109852182384
 20
593.835168753051
 30
0.0
  0
VERTEX
  5
3B1
  8
0
  6
CONTINUOUS
 62
     7
 10
272.8138050322297
 20
592.0319993875672
 30
0.0
  0
VERTEX
  5
3B2
  8
0
  6
CONTINUOUS
 62
     7
 10
271.0106356667458
 20
589.8348192015583
 30
0.0
  0
VERTEX
  5
3B3
  8
0
  6
CONTINUOUS
 62
     7
 10
269.670765212192
 20
587.3280564369182
 30
0.0
  0
VERTEX
  5
3B4
  8
0
  6
CONTINUOUS
 62
     7
 10
268.8456791623679
 20
584.6080352706125
 30
0.0
  0
VERTEX
  5
3B5
  8
0
  6
CONTINUOUS
 62
     7
 10
268.5670820470344
 20
581.779274488332
 30
0.0
  0
SEQEND
  5
8EE
  8
0
  6
CONTINUOUS
 62
     7
  0
LINE
  5
BB
  8
0
  6
CONTINUOUS
 62
     7
 10
283.0665299314648
 20
596.2787223727624
 30
0.0
 11
330.0676341626038
 21
596.2787223727624
 31
0.0
  0
POLYLINE
  5
BC
  8
0
  6
CONTINUOUS
 62
     7
 66
     1
 10
0.0
 20
0.0
 30
0.0
  0
VERTEX
  5
3B6
  8
0
  6
CONTINUOUS
 62
     7
 10
344.5670820470342
 20
581.779274488332
 30
0.0
  0
VERTEX
  5
3B7
  8
0
  6
CONTINUOUS
 62
     7
 10
344.2884849317007
 20
584.6080352706126
 30
0.0
  0
VERTEX
  5
3B8
  8
0
  6
CONTINUOUS
 62
     7
 10
343.4633988818765
 20
587.3280564369182
 30
0.0
  0
VERTEX
  5
3B9
  8
0
  6
CONTINUOUS
 62
     7
 10
342.1235284273228
 20
589.8348192015583
 30
0.0
  0
VERTEX
  5
3BA
  8
0
  6
CONTINUOUS
 62
     7
 10
340.3203590618389
 20
592.0319993875672
 30
0.0
  0
VERTEX
  5
3BB
  8
0
  6
CONTINUOUS
 62
     7
 10
338.1231788758301
 20
593.835168753051
 30
0.0
  0
VERTEX
  5
3BC
  8
0
  6
CONTINUOUS
 62
     7
 10
335.6164161111899
 20
595.1750392076048
 30
0.0
  0
VERTEX
  5
3BD
  8
0
  6
CONTINUOUS
 62
     7
 10
332.8963949448843
 20
596.000125257429
 30
0.0
  0
VERTEX
  5
3BE
  8
0
  6
CONTINUOUS
 62
     7
 10
330.0676341626038
 20
596.2787223727626
 30
0.0
  0
SEQEND
  5
8EF
  8
0
  6
CONTINUOUS
 62
     7
  0
LINE
  5
BD
  8
0
  6
CONTINUOUS
 62
     7
 10
344.5670820470343
 20
581.779274488332
 30
0.0
 11
344.5670820470343
 21
485.7781702571929
 31
0.0
  0
POLYLINE
  5
BE
  8
0
  6
CONTINUOUS
 62
     7
 66
     1
 10
0.0
 20
0.0
 30
0.0
  0
VERTEX
  5
3BF
  8
0
  6
CONTINUOUS
 62
     7
 10
340.8867062963483
 20
446.2787223727624
 30
0.0
  0
VERTEX
  5
3C0
  8
0
  6
CONTINUOUS
 62
     7
 10
341.1792557440207
 20
446.3075672792445
 30
0.0
  0
VERTEX
  5
3C1
  8
0
  6
CONTINUOUS
 62
     7
 10
341.4605428835883
 20
446.3929941475392
 30
0.0
  0
VERTEX
  5
3C2
  8
0
  6
CONTINUOUS
 62
     7
 10
341.7197642727979
 20
446.5317219736168
 30
0.0
  0
VERTEX
  5
3C3
  8
0
  6
CONTINUOUS
 62
     7
 10
341.9469639523639
 20
446.7184226146395
 30
0.0
  0
VERTEX
  5
3C4
  8
0
  6
CONTINUOUS
 62
     7
 10
342.1334158261629
 20
446.9459254278366
 30
0.0
  0
VERTEX
  5
3C5
  8
0
  6
CONTINUOUS
 62
     7
 10
342.2719588058683
 20
447.2054926745806
 30
0.0
  0
VERTEX
  5
3C6
  8
0
  6
CONTINUOUS
 62
     7
 10
342.3572718480683
 20
447.4871551121774
 30
0.0
  0
VERTEX
  5
3C7
  8
0
  6
CONTINUOUS
 62
     7
 10
342.3860783204708
 20
447.7800948842399
 30
0.0
  0
SEQEND
  5
8F0
  8
0
  6
CONTINUOUS
 62
     7
  0
LINE
  5
BF
  8
0
  6
CONTINUOUS
 62
     7
 10
339.5859717009907
 20
446.2787223727624
 30
0.0
 11
340.8867062963484
 21
446.2787223727624
 31
0.0
  0
LINE
  5
C0
  8
0
  6
CONTINUOUS
 62
     7
 10
339.5859717009907
 20
446.2787223727624
 30
0.0
 11
339.5859717009907
 21
478.975561044373
 31
0.0
  0
POLYLINE
  5
C1
  8
0
  6
CONTINUOUS
 62
     7
 66
     1
 10
0.0
 20
0.0
 30
0.0
  0
VERTEX
  5
3C8
  8
0
  6
CONTINUOUS
 62
     7
 10
339.5859717009907
 20
478.975561044373
 30
0.0
  0
VERTEX
  5
3C9
  8
0
  6
CONTINUOUS
 62
     7
 10
340.7801258814117
 20
481.0753440855239
 30
0.0
  0
VERTEX
  5
3CA
  8
0
  6
CONTINUOUS
 62
     7
 10
341.5176056513843
 20
483.3756354022261
 30
0.0
  0
VERTEX
  5
3CB
  8
0
  6
CONTINUOUS
 62
     7
 10
341.7669754275542
 20
485.7783834920933
 30
0.0
  0
SEQEND
  5
8F1
  8
0
  6
CONTINUOUS
 62
     7
  0
LINE
  5
C2
  8
0
  6
CONTINUOUS
 62
     7
 10
341.7669754275543
 20
581.7790612534316
 30
0.0
 11
341.7669754275543
 21
485.7783834920933
 31
0.0
  0
POLYLINE
  5
C3
  8
0
  6
CONTINUOUS
 62
     7
 66
     1
 10
0.0
 20
0.0
 30
0.0
  0
VERTEX
  5
3CC
  8
0
  6
CONTINUOUS
 62
     7
 10
341.7669754275542
 20
581.7790612534317
 30
0.0
  0
VERTEX
  5
3CD
  8
0
  6
CONTINUOUS
 62
     7
 10
341.5421763758712
 20
584.0615785743063
 30
0.0
  0
VERTEX
  5
3CE
  8
0
  6
CONTINUOUS
 62
     7
 10
340.8764172873924
 20
586.256354274015
 30
0.0
  0
VERTEX
  5
3CF
  8
0
  6
CONTINUOUS
 62
     7
 10
339.795280437856
 20
588.2790525047935
 30
0.0
  0
VERTEX
  5
3D0
  8
0
  6
CONTINUOUS
 62
     7
 10
338.3403092946725
 20
590.0519496204007
 30
0.0
  0
VERTEX
  5
3D1
  8
0
  6
CONTINUOUS
 62
     7
 10
336.5674121790654
 20
591.5069207635842
 30
0.0
  0
VERTEX
  5
3D2
  8
0
  6
CONTINUOUS
 62
     7
 10
334.5447139482868
 20
592.5880576131207
 30
0.0
  0
VERTEX
  5
3D3
  8
0
  6
CONTINUOUS
 62
     7
 10
332.3499382485782
 20
593.2538167015995
 30
0.0
  0
VERTEX
  5
3D4
  8
0
  6
CONTINUOUS
 62
     7
 10
330.0674209277034
 20
593.4786157532825
 30
0.0
  0
SEQEND
  5
8F2
  8
0
  6
CONTINUOUS
 62
     7
  0
LINE
  5
C4
  8
0
  6
CONTINUOUS
 62
     7
 10
313.3170820470343
 20
593.4786157532824
 30
0.0
 11
330.0674209277034
 21
593.4786157532824
 31
0.0
  0
LINE
  5
C5
  8
0
  6
CONTINUOUS
 62
     7
 10
313.3170820470343
 20
593.4786157532824
 30
0.0
 11
312.8170820470343
 21
593.4786157532824
 31
0.0
  0
LINE
  5
C6
  8
0
  6
CONTINUOUS
 62
     7
 10
300.3170820470343
 20
593.4786157532824
 30
0.0
 11
312.8170820470343
 21
593.4786157532824
 31
0.0
  0
LINE
  5
C7
  8
0
  6
CONTINUOUS
 62
     7
 10
300.3170820470343
 20
593.4786157532824
 30
0.0
 11
299.8170820470343
 21
593.4786157532824
 31
0.0
  0
LINE
  5
C8
  8
0
  6
CONTINUOUS
 62
     7
 10
283.0667431663651
 20
593.4786157532824
 30
0.0
 11
299.8170820470343
 21
593.4786157532824
 31
0.0
  0
POLYLINE
  5
C9
  8
0
  6
CONTINUOUS
 62
     7
 66
     1
 10
0.0
 20
0.0
 30
0.0
  0
VERTEX
  5
3D5
  8
0
  6
CONTINUOUS
 62
     7
 10
283.0667431663652
 20
593.4786157532825
 30
0.0
  0
VERTEX
  5
3D6
  8
0
  6
CONTINUOUS
 62
     7
 10
280.7842258454905
 20
593.2538167015995
 30
0.0
  0
VERTEX
  5
3D7
  8
0
  6
CONTINUOUS
 62
     7
 10
278.5894501457819
 20
592.5880576131207
 30
0.0
  0
VERTEX
  5
3D8
  8
0
  6
CONTINUOUS
 62
     7
 10
276.5667519150032
 20
591.5069207635843
 30
0.0
  0
VERTEX
  5
3D9
  8
0
  6
CONTINUOUS
 62
     7
 10
274.7938547993961
 20
590.0519496204007
 30
0.0
  0
VERTEX
  5
3DA
  8
0
  6
CONTINUOUS
 62
     7
 10
273.3388836562127
 20
588.2790525047936
 30
0.0
  0
VERTEX
  5
3DB
  8
0
  6
CONTINUOUS
 62
     7
 10
272.2577468066762
 20
586.256354274015
 30
0.0
  0
VERTEX
  5
3DC
  8
0
  6
CONTINUOUS
 62
     7
 10
271.5919877181973
 20
584.0615785743063
 30
0.0
  0
VERTEX
  5
3DD
  8
0
  6
CONTINUOUS
 62
     7
 10
271.3671886665144
 20
581.7790612534317
 30
0.0
  0
SEQEND
  5
8F3
  8
0
  6
CONTINUOUS
 62
     7
  0
LINE
  5
CA
  8
0
  6
CONTINUOUS
 62
     7
 10
271.3671886665144
 20
485.7783834920933
 30
0.0
 11
271.3671886665144
 21
581.7790612534316
 31
0.0
  0
POLYLINE
  5
CB
  8
0
  6
CONTINUOUS
 62
     7
 66
     1
 10
0.0
 20
0.0
 30
0.0
  0
VERTEX
  5
3DE
  8
0
  6
CONTINUOUS
 62
     7
 10
271.3671886665143
 20
485.7783834920933
 30
0.0
  0
VERTEX
  5
3DF
  8
0
  6
CONTINUOUS
 62
     7
 10
271.6165584426842
 20
483.3756354022261
 30
0.0
  0
VERTEX
  5
3E0
  8
0
  6
CONTINUOUS
 62
     7
 10
272.3540382126568
 20
481.0753440855239
 30
0.0
  0
VERTEX
  5
3E1
  8
0
  6
CONTINUOUS
 62
     7
 10
273.5481923930778
 20
478.975561044373
 30
0.0
  0
SEQEND
  5
8F4
  8
0
  6
CONTINUOUS
 62
     7
  0
LINE
  5
CC
  8
0
  6
CONTINUOUS
 62
     7
 10
273.5481923930778
 20
446.2787223727624
 30
0.0
 11
273.5481923930778
 21
478.975561044373
 31
0.0
  0
LINE
  5
CD
  8
0
  6
CONTINUOUS
 62
     7
 10
273.5481923930778
 20
446.2787223727624
 30
0.0
 11
272.2474577977202
 21
446.2787223727624
 31
0.0
  0
POLYLINE
  5
CE
  8
0
  6
CONTINUOUS
 62
     7
 66
     1
 10
0.0
 20
0.0
 30
0.0
  0
VERTEX
  5
3E2
  8
0
  6
CONTINUOUS
 62
     7
 10
270.7480857735978
 20
447.7800948842399
 30
0.0
  0
VERTEX
  5
3E3
  8
0
  6
CONTINUOUS
 62
     7
 10
270.7768922460003
 20
447.4871551121774
 30
0.0
  0
VERTEX
  5
3E4
  8
0
  6
CONTINUOUS
 62
     7
 10
270.8622052882002
 20
447.2054926745806
 30
0.0
  0
VERTEX
  5
3E5
  8
0
  6
CONTINUOUS
 62
     7
 10
271.0007482679056
 20
446.9459254278366
 30
0.0
  0
VERTEX
  5
3E6
  8
0
  6
CONTINUOUS
 62
     7
 10
271.1872001417046
 20
446.7184226146395
 30
0.0
  0
VERTEX
  5
3E7
  8
0
  6
CONTINUOUS
 62
     7
 10
271.4143998212706
 20
446.5317219736168
 30
0.0
  0
VERTEX
  5
3E8
  8
0
  6
CONTINUOUS
 62
     7
 10
271.6736212104803
 20
446.3929941475392
 30
0.0
  0
VERTEX
  5
3E9
  8
0
  6
CONTINUOUS
 62
     7
 10
271.9549083500478
 20
446.3075672792446
 30
0.0
  0
VERTEX
  5
3EA
  8
0
  6
CONTINUOUS
 62
     7
 10
272.2474577977202
 20
446.2787223727624
 30
0.0
  0
SEQEND
  5
8F5
  8
0
  6
CONTINUOUS
 62
     7
  0
LINE
  5
CF
  8
0
  6
CONTINUOUS
 62
     7
 10
270.7480857735978
 20
447.7800948842399
 30
0.0
 11
270.7480857735978
 21
476.3427678106962
 31
0.0
  0
POLYLINE
  5
D0
  8
0
  6
CONTINUOUS
 62
     7
 66
     1
 10
0.0
 20
0.0
 30
0.0
  0
VERTEX
  5
3EB
  8
0
  6
CONTINUOUS
 62
     7
 10
343.0961725570475
 20
479.4147593049724
 30
0.0
  0
VERTEX
  5
3EC
  8
0
  6
CONTINUOUS
 62
     7
 10
344.1945698449888
 20
482.5125440485491
 30
0.0
  0
VERTEX
  5
3ED
  8
0
  6
CONTINUOUS
 62
     7
 10
344.5670820470343
 20
485.7781702571929
 30
0.0
  0
SEQEND
  5
8F6
  8
0
  6
CONTINUOUS
 62
     7
  0
POLYLINE
  5
D1
  8
0
  6
CONTINUOUS
 62
     7
 66
     1
 10
0.0
 20
0.0
 30
0.0
  0
VERTEX
  5
3EE
  8
0
  6
CONTINUOUS
 62
     7
 10
268.5670820470342
 20
485.7781702571929
 30
0.0
  0
VERTEX
  5
3EF
  8
0
  6
CONTINUOUS
 62
     7
 10
268.9395942490959
 20
482.5125440484787
 30
0.0
  0
VERTEX
  5
3F0
  8
0
  6
CONTINUOUS
 62
     7
 10
270.0379915370845
 20
479.4147593048426
 30
0.0
  0
SEQEND
  5
8F7
  8
0
  6
CONTINUOUS
 62
     7
  0
LINE
  5
D2
  8
0
  6
CONTINUOUS
 62
     7
 10
342.3860783204708
 20
447.7800948842399
 30
0.0
 11
342.3860783204708
 21
476.342767810737
 31
0.0
  0
ARC
  5
D3
  8
0
  6
CONTINUOUS
 62
     7
 10
263.8369214893422
 20
476.3633098130724
 30
0.0
 40
6.911194812608858
 50
359.829700680735
 51
26.20107671311996
  0
ARC
  5
D4
  8
0
  6
CONTINUOUS
 62
     7
 10
349.2972426042611
 20
476.3633098131812
 30
0.0
 40
6.911194812143775
 50
153.7989232847873
 51
180.1702993198388
  0
LINE
  5
D5
  8
0
  6
CONTINUOUS
 62
     9
 10
271.3671886665144
 20
581.7790612534316
 30
0.0
 11
271.568844461088
 21
581.5774054588579
 31
0.0
  0
LINE
  5
D6
  8
0
  6
CONTINUOUS
 62
     9
 10
283.6259057402989
 20
592.9194531793487
 30
0.0
 11
283.0667431663651
 21
593.4786157532824
 31
0.0
  0
ARC
  5
D7
  8
0
  6
CONTINUOUS
 62
     7
 10
283.615445960393
 20
581.1999116019082
 30
0.0
 40
11.71954624515608
 50
89.94886309501487
 51
116.6666650273053
  0
LINE
  5
D8
  8
0
  6
CONTINUOUS
 62
     9
 10
271.8259249861079
 20
486.2371198116869
 30
0.0
 11
271.3671886665144
 21
485.7783834920933
 31
0.0
  0
LINE
  5
D9
  8
0
  6
CONTINUOUS
 62
     7
 10
271.3733763457598
 20
536.7725346935171
 30
0.0
 11
271.3671896051599
 21
537.2756550596131
 31
0.0
  0
LINE
  5
DA
  8
0
  6
CONTINUOUS
 62
     7
 10
271.3881331492122
 20
536.7577778900646
 30
0.0
 11
271.3733763457597
 21
536.7725346935171
 31
0.0
  0
LINE
  5
DB
  8
0
  6
CONTINUOUS
 62
     7
 10
271.3881331492122
 20
494.7996668554603
 30
0.0
 11
271.3881331492122
 21
536.7577778900646
 31
0.0
  0
LINE
  5
DC
  8
0
  6
CONTINUOUS
 62
     7
 10
271.3881331492122
 20
494.7996668554603
 30
0.0
 11
271.3733763457598
 21
494.7849100520078
 31
0.0
  0
LINE
  5
DD
  8
0
  6
CONTINUOUS
 62
     7
 10
271.3671896051599
 20
494.2817896859118
 30
0.0
 11
271.3733763457598
 21
494.7849100520078
 31
0.0
  0
LINE
  5
DE
  8
0
  6
CONTINUOUS
 62
     7
 10
271.3671896051599
 20
494.2817896859118
 30
0.0
 11
271.3671896051599
 21
493.7756550596131
 31
0.0
  0
LINE
  5
DF
  8
0
  6
CONTINUOUS
 62
     7
 10
271.3733763457598
 20
493.2725346935171
 30
0.0
 11
271.3671896051599
 21
493.7756550596131
 31
0.0
  0
LINE
  5
E0
  8
0
  6
CONTINUOUS
 62
     7
 10
271.3733763457598
 20
493.2725346935171
 30
0.0
 11
271.4055530214681
 21
493.2403580178087
 31
0.0
  0
LINE
  5
E1
  8
0
  6
CONTINUOUS
 62
     7
 10
271.3733763457598
 20
538.2849100520078
 30
0.0
 11
271.4055530214681
 21
538.3170867277162
 31
0.0
  0
LINE
  5
E2
  8
0
  6
CONTINUOUS
 62
     7
 10
271.3671896051599
 20
537.7817896859118
 30
0.0
 11
271.3733763457598
 21
538.2849100520078
 31
0.0
  0
LINE
  5
E3
  8
0
  6
CONTINUOUS
 62
     7
 10
271.3671896051599
 20
537.7817896859118
 30
0.0
 11
271.3671896051599
 21
537.2756550596131
 31
0.0
  0
LINE
  5
E4
  8
0
  6
CONTINUOUS
 62
     7
 10
313.3170820470343
 20
593.4786157532824
 30
0.0
 11
313.8170820470343
 21
593.4723905997976
 31
0.0
  0
LINE
  5
E5
  8
0
  6
CONTINUOUS
 62
     9
 10
330.0674209277034
 20
593.4786157532824
 30
0.0
 11
329.5082583537697
 21
592.9194531793487
 31
0.0
  0
LINE
  5
E6
  8
0
  6
CONTINUOUS
 62
     7
 10
283.6259057402988
 20
592.9194531793487
 30
0.0
 11
299.3170820470343
 21
592.9106035120432
 31
0.0
  0
LINE
  5
E7
  8
0
  6
CONTINUOUS
 62
     7
 10
313.8170820470343
 20
592.9106035120432
 30
0.0
 11
329.5082583537697
 21
592.9194531793487
 31
0.0
  0
LINE
  5
E8
  8
0
  6
CONTINUOUS
 62
     7
 10
299.3170820470343
 20
593.4723905997976
 30
0.0
 11
299.8170820470343
 21
593.4786157532824
 31
0.0
  0
ARC
  5
E9
  8
0
  6
CONTINUOUS
 62
     7
 10
283.5920099148544
 20
486.324547134597
 30
0.0
 40
11.67831761843328
 50
183.1225408221903
 51
215.3336189675467
  0
LINE
  5
EA
  8
0
  6
CONTINUOUS
 62
     7
 10
273.9257268503077
 20
479.3530955016029
 30
0.0
 11
274.0662210469301
 21
479.1960499343894
 31
0.0
  0
LINE
  5
EB
  8
0
  6
CONTINUOUS
 62
     7
 10
273.5481923930778
 20
478.975561044373
 30
0.0
 11
273.9257268503077
 21
479.3530955016029
 31
0.0
  0
LINE
  5
EC
  8
0
  6
CONTINUOUS
 62
     9
 10
273.9257268503077
 20
448.5459438983593
 30
0.0
 11
273.9257268503077
 21
479.3530955016029
 31
0.0
  0
LINE
  5
ED
  8
0
  6
CONTINUOUS
 62
     7
 10
273.9257268503077
 20
448.5459438983593
 30
0.0
 11
273.5481923930778
 21
446.2787223727624
 31
0.0
  0
LINE
  5
EE
  8
0
  6
CONTINUOUS
 62
     7
 10
312.3170820470343
 20
593.4576712705846
 30
0.0
 11
300.8170820470343
 21
593.4576712705846
 31
0.0
  0
LINE
  5
EF
  8
0
  6
CONTINUOUS
 62
     7
 10
300.3170820470343
 20
593.4786157532824
 30
0.0
 11
300.8170820470343
 21
593.4723905997976
 31
0.0
  0
LINE
  5
F0
  8
0
  6
CONTINUOUS
 62
     7
 10
312.3170820470343
 20
593.4723905997976
 30
0.0
 11
312.8170820470343
 21
593.4786157532824
 31
0.0
  0
LINE
  5
F1
  8
0
  6
CONTINUOUS
 62
     7
 10
300.8170820470343
 20
593.4723905997976
 30
0.0
 11
300.8170820470343
 21
591.9786157532824
 31
0.0
  0
POLYLINE
  5
F2
  8
0
  6
CONTINUOUS
 62
     7
 66
     1
 10
0.0
 20
0.0
 30
0.0
  0
VERTEX
  5
3F1
  8
0
  6
CONTINUOUS
 62
     7
 10
300.3170820470343
 20
591.4786157532824
 30
0.0
  0
VERTEX
  5
3F2
  8
0
  6
CONTINUOUS
 62
     7
 10
300.3416158841981
 20
591.4792180251798
 30
0.0
  0
VERTEX
  5
3F3
  8
0
  6
CONTINUOUS
 62
     7
 10
300.3660906171991
 20
591.4810233899462
 30
0.0
  0
VERTEX
  5
3F4
  8
0
  6
CONTINUOUS
 62
     7
 10
300.390447284262
 20
591.4840274983
 30
0.0
  0
VERTEX
  5
3F5
  8
0
  6
CONTINUOUS
 62
     7
 10
300.4146272080424
 20
591.4882231130808
 30
0.0
  0
VERTEX
  5
3F6
  8
0
  6
CONTINUOUS
 62
     7
 10
300.438572136986
 20
591.4936001266851
 30
0.0
  0
VERTEX
  5
3F7
  8
0
  6
CONTINUOUS
 62
     7
 10
300.4622243856616
 20
591.5001455854162
 30
0.0
  0
VERTEX
  5
3F8
  8
0
  6
CONTINUOUS
 62
     7
 10
300.4855269737304
 20
591.5078437206909
 30
0.0
  0
VERTEX
  5
3F9
  8
0
  6
CONTINUOUS
 62
     7
 10
300.5084237632169
 20
591.5166759870267
 30
0.0
  0
VERTEX
  5
3FA
  8
0
  6
CONTINUOUS
 62
     7
 10
300.5308595937495
 20
591.5266211067207
 30
0.0
  0
VERTEX
  5
3FB
  8
0
  6
CONTINUOUS
 62
     7
 10
300.5527804154473
 20
591.5376551211082
 30
0.0
  0
VERTEX
  5
3FC
  8
0
  6
CONTINUOUS
 62
     7
 10
300.5741334191309
 20
591.5497514482822
 30
0.0
  0
VERTEX
  5
3FD
  8
0
  6
CONTINUOUS
 62
     7
 10
300.5948671635441
 20
591.5628809471311
 30
0.0
  0
VERTEX
  5
3FE
  8
0
  6
CONTINUOUS
 62
     7
 10
300.6149316992805
 20
591.577011987542
 30
0.0
  0
VERTEX
  5
3FF
  8
0
  6
CONTINUOUS
 62
     7
 10
300.6342786891161
 20
591.592110526601
 30
0.0
  0
VERTEX
  5
400
  8
0
  6
CONTINUOUS
 62
     7
 10
300.6528615244578
 20
591.6081401906049
 30
0.0
  0
VERTEX
  5
401
  8
0
  6
CONTINUOUS
 62
     7
 10
300.6706354376275
 20
591.625062362689
 30
0.0
  0
VERTEX
  5
402
  8
0
  6
CONTINUOUS
 62
     7
 10
300.6875576097117
 20
591.6428362758589
 30
0.0
  0
VERTEX
  5
403
  8
0
  6
CONTINUOUS
 62
     7
 10
300.7035872737157
 20
591.6614191112005
 30
0.0
  0
VERTEX
  5
404
  8
0
  6
CONTINUOUS
 62
     7
 10
300.7186858127746
 20
591.6807661010362
 30
0.0
  0
VERTEX
  5
405
  8
0
  6
CONTINUOUS
 62
     7
 10
300.7328168531856
 20
591.7008306367726
 30
0.0
  0
VERTEX
  5
406
  8
0
  6
CONTINUOUS
 62
     7
 10
300.7459463520344
 20
591.7215643811858
 30
0.0
  0
VERTEX
  5
407
  8
0
  6
CONTINUOUS
 62
     7
 10
300.7580426792085
 20
591.7429173848694
 30
0.0
  0
VERTEX
  5
408
  8
0
  6
CONTINUOUS
 62
     7
 10
300.769076693596
 20
591.7648382065672
 30
0.0
  0
VERTEX
  5
409
  8
0
  6
CONTINUOUS
 62
     7
 10
300.7790218132899
 20
591.7872740370998
 30
0.0
  0
VERTEX
  5
40A
  8
0
  6
CONTINUOUS
 62
     7
 10
300.7878540796258
 20
591.8101708265863
 30
0.0
  0
VERTEX
  5
40B
  8
0
  6
CONTINUOUS
 62
     7
 10
300.7955522149004
 20
591.8334734146551
 30
0.0
  0
VERTEX
  5
40C
  8
0
  6
CONTINUOUS
 62
     7
 10
300.8020976736316
 20
591.8571256633307
 30
0.0
  0
VERTEX
  5
40D
  8
0
  6
CONTINUOUS
 62
     7
 10
300.8074746872359
 20
591.8810705922743
 30
0.0
  0
VERTEX
  5
40E
  8
0
  6
CONTINUOUS
 62
     7
 10
300.8116703020167
 20
591.9052505160547
 30
0.0
  0
VERTEX
  5
40F
  8
0
  6
CONTINUOUS
 62
     7
 10
300.8146744103704
 20
591.9296071831176
 30
0.0
  0
VERTEX
  5
410
  8
0
  6
CONTINUOUS
 62
     7
 10
300.8164797751369
 20
591.9540819161186
 30
0.0
  0
VERTEX
  5
411
  8
0
  6
CONTINUOUS
 62
     7
 10
300.8170820470343
 20
591.9786157532824
 30
0.0
  0
SEQEND
  5
8F8
  8
0
  6
CONTINUOUS
 62
     7
  0
LINE
  5
F3
  8
0
  6
CONTINUOUS
 62
     9
 10
300.3170820470343
 20
591.4786157532824
 30
0.0
 11
300.3170820470343
 21
593.4786157532824
 31
0.0
  0
LINE
  5
F4
  8
0
  6
CONTINUOUS
 62
     9
 10
299.8170820470343
 20
593.4786157532824
 30
0.0
 11
299.8170820470343
 21
591.4786157532824
 31
0.0
  0
POLYLINE
  5
F5
  8
0
  6
CONTINUOUS
 62
     7
 66
     1
 10
0.0
 20
0.0
 30
0.0
  0
VERTEX
  5
412
  8
0
  6
CONTINUOUS
 62
     7
 10
299.8170820470343
 20
591.4786157532824
 30
0.0
  0
VERTEX
  5
413
  8
0
  6
CONTINUOUS
 62
     7
 10
299.7925482098706
 20
591.4792180251798
 30
0.0
  0
VERTEX
  5
414
  8
0
  6
CONTINUOUS
 62
     7
 10
299.7680734768696
 20
591.4810233899462
 30
0.0
  0
VERTEX
  5
415
  8
0
  6
CONTINUOUS
 62
     7
 10
299.7437168098066
 20
591.4840274983
 30
0.0
  0
VERTEX
  5
416
  8
0
  6
CONTINUOUS
 62
     7
 10
299.7195368860263
 20
591.4882231130808
 30
0.0
  0
VERTEX
  5
417
  8
0
  6
CONTINUOUS
 62
     7
 10
299.6955919570827
 20
591.493600126685
 30
0.0
  0
VERTEX
  5
418
  8
0
  6
CONTINUOUS
 62
     7
 10
299.6719397084071
 20
591.5001455854162
 30
0.0
  0
VERTEX
  5
419
  8
0
  6
CONTINUOUS
 62
     7
 10
299.6486371203382
 20
591.5078437206909
 30
0.0
  0
VERTEX
  5
41A
  8
0
  6
CONTINUOUS
 62
     7
 10
299.6257403308518
 20
591.5166759870267
 30
0.0
  0
VERTEX
  5
41B
  8
0
  6
CONTINUOUS
 62
     7
 10
299.6033045003192
 20
591.5266211067207
 30
0.0
  0
VERTEX
  5
41C
  8
0
  6
CONTINUOUS
 62
     7
 10
299.5813836786213
 20
591.5376551211082
 30
0.0
  0
VERTEX
  5
41D
  8
0
  6
CONTINUOUS
 62
     7
 10
299.5600306749377
 20
591.5497514482822
 30
0.0
  0
VERTEX
  5
41E
  8
0
  6
CONTINUOUS
 62
     7
 10
299.5392969305245
 20
591.5628809471311
 30
0.0
  0
VERTEX
  5
41F
  8
0
  6
CONTINUOUS
 62
     7
 10
299.5192323947881
 20
591.577011987542
 30
0.0
  0
VERTEX
  5
420
  8
0
  6
CONTINUOUS
 62
     7
 10
299.4998854049525
 20
591.592110526601
 30
0.0
  0
VERTEX
  5
421
  8
0
  6
CONTINUOUS
 62
     7
 10
299.4813025696108
 20
591.6081401906049
 30
0.0
  0
VERTEX
  5
422
  8
0
  6
CONTINUOUS
 62
     7
 10
299.463528656441
 20
591.625062362689
 30
0.0
  0
VERTEX
  5
423
  8
0
  6
CONTINUOUS
 62
     7
 10
299.4466064843568
 20
591.6428362758589
 30
0.0
  0
VERTEX
  5
424
  8
0
  6
CONTINUOUS
 62
     7
 10
299.4305768203529
 20
591.6614191112005
 30
0.0
  0
VERTEX
  5
425
  8
0
  6
CONTINUOUS
 62
     7
 10
299.415478281294
 20
591.6807661010362
 30
0.0
  0
VERTEX
  5
426
  8
0
  6
CONTINUOUS
 62
     7
 10
299.401347240883
 20
591.7008306367726
 30
0.0
  0
VERTEX
  5
427
  8
0
  6
CONTINUOUS
 62
     7
 10
299.3882177420342
 20
591.7215643811858
 30
0.0
  0
VERTEX
  5
428
  8
0
  6
CONTINUOUS
 62
     7
 10
299.3761214148601
 20
591.7429173848694
 30
0.0
  0
VERTEX
  5
429
  8
0
  6
CONTINUOUS
 62
     7
 10
299.3650874004726
 20
591.7648382065672
 30
0.0
  0
VERTEX
  5
42A
  8
0
  6
CONTINUOUS
 62
     7
 10
299.3551422807787
 20
591.7872740370998
 30
0.0
  0
VERTEX
  5
42B
  8
0
  6
CONTINUOUS
 62
     7
 10
299.3463100144428
 20
591.8101708265863
 30
0.0
  0
VERTEX
  5
42C
  8
0
  6
CONTINUOUS
 62
     7
 10
299.3386118791682
 20
591.8334734146551
 30
0.0
  0
VERTEX
  5
42D
  8
0
  6
CONTINUOUS
 62
     7
 10
299.332066420437
 20
591.8571256633307
 30
0.0
  0
VERTEX
  5
42E
  8
0
  6
CONTINUOUS
 62
     7
 10
299.3266894068327
 20
591.8810705922743
 30
0.0
  0
VERTEX
  5
42F
  8
0
  6
CONTINUOUS
 62
     7
 10
299.3224937920519
 20
591.9052505160547
 30
0.0
  0
VERTEX
  5
430
  8
0
  6
CONTINUOUS
 62
     7
 10
299.3194896836982
 20
591.9296071831176
 30
0.0
  0
VERTEX
  5
431
  8
0
  6
CONTINUOUS
 62
     7
 10
299.3176843189318
 20
591.9540819161186
 30
0.0
  0
VERTEX
  5
432
  8
0
  6
CONTINUOUS
 62
     7
 10
299.3170820470343
 20
591.9786157532824
 30
0.0
  0
SEQEND
  5
8F9
  8
0
  6
CONTINUOUS
 62
     7
  0
LINE
  5
F6
  8
0
  6
CONTINUOUS
 62
     7
 10
299.3170820470343
 20
591.9786157532824
 30
0.0
 11
299.3170820470343
 21
593.4723905997976
 31
0.0
  0
LINE
  5
F7
  8
0
  6
CONTINUOUS
 62
     7
 10
300.3170820470343
 20
591.4786157532824
 30
0.0
 11
299.8170820470343
 21
591.4786157532824
 31
0.0
  0
LINE
  5
F8
  8
0
  6
CONTINUOUS
 62
     9
 10
312.8170820470343
 20
593.4786157532824
 30
0.0
 11
312.8170820470343
 21
591.4786157532824
 31
0.0
  0
POLYLINE
  5
F9
  8
0
  6
CONTINUOUS
 62
     7
 66
     1
 10
0.0
 20
0.0
 30
0.0
  0
VERTEX
  5
433
  8
0
  6
CONTINUOUS
 62
     7
 10
312.8170820470343
 20
591.4786157532824
 30
0.0
  0
VERTEX
  5
434
  8
0
  6
CONTINUOUS
 62
     7
 10
312.7925482098706
 20
591.4792180251798
 30
0.0
  0
VERTEX
  5
435
  8
0
  6
CONTINUOUS
 62
     7
 10
312.7680734768695
 20
591.4810233899462
 30
0.0
  0
VERTEX
  5
436
  8
0
  6
CONTINUOUS
 62
     7
 10
312.7437168098066
 20
591.4840274983
 30
0.0
  0
VERTEX
  5
437
  8
0
  6
CONTINUOUS
 62
     7
 10
312.7195368860263
 20
591.4882231130808
 30
0.0
  0
VERTEX
  5
438
  8
0
  6
CONTINUOUS
 62
     7
 10
312.6955919570827
 20
591.493600126685
 30
0.0
  0
VERTEX
  5
439
  8
0
  6
CONTINUOUS
 62
     7
 10
312.6719397084071
 20
591.5001455854162
 30
0.0
  0
VERTEX
  5
43A
  8
0
  6
CONTINUOUS
 62
     7
 10
312.6486371203382
 20
591.5078437206909
 30
0.0
  0
VERTEX
  5
43B
  8
0
  6
CONTINUOUS
 62
     7
 10
312.6257403308518
 20
591.5166759870267
 30
0.0
  0
VERTEX
  5
43C
  8
0
  6
CONTINUOUS
 62
     7
 10
312.6033045003192
 20
591.5266211067207
 30
0.0
  0
VERTEX
  5
43D
  8
0
  6
CONTINUOUS
 62
     7
 10
312.5813836786213
 20
591.5376551211082
 30
0.0
  0
VERTEX
  5
43E
  8
0
  6
CONTINUOUS
 62
     7
 10
312.5600306749377
 20
591.5497514482822
 30
0.0
  0
VERTEX
  5
43F
  8
0
  6
CONTINUOUS
 62
     7
 10
312.5392969305245
 20
591.5628809471311
 30
0.0
  0
VERTEX
  5
440
  8
0
  6
CONTINUOUS
 62
     7
 10
312.519232394788
 20
591.577011987542
 30
0.0
  0
VERTEX
  5
441
  8
0
  6
CONTINUOUS
 62
     7
 10
312.4998854049525
 20
591.592110526601
 30
0.0
  0
VERTEX
  5
442
  8
0
  6
CONTINUOUS
 62
     7
 10
312.4813025696108
 20
591.6081401906049
 30
0.0
  0
VERTEX
  5
443
  8
0
  6
CONTINUOUS
 62
     7
 10
312.463528656441
 20
591.625062362689
 30
0.0
  0
VERTEX
  5
444
  8
0
  6
CONTINUOUS
 62
     7
 10
312.4466064843568
 20
591.6428362758589
 30
0.0
  0
VERTEX
  5
445
  8
0
  6
CONTINUOUS
 62
     7
 10
312.4305768203529
 20
591.6614191112005
 30
0.0
  0
VERTEX
  5
446
  8
0
  6
CONTINUOUS
 62
     7
 10
312.415478281294
 20
591.6807661010362
 30
0.0
  0
VERTEX
  5
447
  8
0
  6
CONTINUOUS
 62
     7
 10
312.401347240883
 20
591.7008306367726
 30
0.0
  0
VERTEX
  5
448
  8
0
  6
CONTINUOUS
 62
     7
 10
312.3882177420342
 20
591.7215643811858
 30
0.0
  0
VERTEX
  5
449
  8
0
  6
CONTINUOUS
 62
     7
 10
312.3761214148602
 20
591.7429173848694
 30
0.0
  0
VERTEX
  5
44A
  8
0
  6
CONTINUOUS
 62
     7
 10
312.3650874004726
 20
591.7648382065672
 30
0.0
  0
VERTEX
  5
44B
  8
0
  6
CONTINUOUS
 62
     7
 10
312.3551422807786
 20
591.7872740370998
 30
0.0
  0
VERTEX
  5
44C
  8
0
  6
CONTINUOUS
 62
     7
 10
312.3463100144428
 20
591.8101708265863
 30
0.0
  0
VERTEX
  5
44D
  8
0
  6
CONTINUOUS
 62
     7
 10
312.3386118791682
 20
591.8334734146551
 30
0.0
  0
VERTEX
  5
44E
  8
0
  6
CONTINUOUS
 62
     7
 10
312.3320664204371
 20
591.8571256633307
 30
0.0
  0
VERTEX
  5
44F
  8
0
  6
CONTINUOUS
 62
     7
 10
312.3266894068327
 20
591.8810705922743
 30
0.0
  0
VERTEX
  5
450
  8
0
  6
CONTINUOUS
 62
     7
 10
312.3224937920519
 20
591.9052505160547
 30
0.0
  0
VERTEX
  5
451
  8
0
  6
CONTINUOUS
 62
     7
 10
312.3194896836982
 20
591.9296071831176
 30
0.0
  0
VERTEX
  5
452
  8
0
  6
CONTINUOUS
 62
     7
 10
312.3176843189318
 20
591.9540819161186
 30
0.0
  0
VERTEX
  5
453
  8
0
  6
CONTINUOUS
 62
     7
 10
312.3170820470343
 20
591.9786157532824
 30
0.0
  0
SEQEND
  5
8FA
  8
0
  6
CONTINUOUS
 62
     7
  0
LINE
  5
FA
  8
0
  6
CONTINUOUS
 62
     7
 10
312.3170820470343
 20
591.9786157532824
 30
0.0
 11
312.3170820470343
 21
593.4723905997976
 31
0.0
  0
LINE
  5
FB
  8
0
  6
CONTINUOUS
 62
     9
 10
313.3170820470343
 20
591.4786157532824
 30
0.0
 11
313.3170820470343
 21
593.4786157532824
 31
0.0
  0
LINE
  5
FC
  8
0
  6
CONTINUOUS
 62
     7
 10
313.3170820470343
 20
591.4786157532824
 30
0.0
 11
312.8170820470343
 21
591.4786157532824
 31
0.0
  0
LINE
  5
FD
  8
0
  6
CONTINUOUS
 62
     7
 10
313.8170820470343
 20
593.4723905997976
 30
0.0
 11
313.8170820470343
 21
591.9786157532824
 31
0.0
  0
POLYLINE
  5
FE
  8
0
  6
CONTINUOUS
 62
     7
 66
     1
 10
0.0
 20
0.0
 30
0.0
  0
VERTEX
  5
454
  8
0
  6
CONTINUOUS
 62
     7
 10
313.8170820470343
 20
591.9786157532824
 30
0.0
  0
VERTEX
  5
455
  8
0
  6
CONTINUOUS
 62
     7
 10
313.8164797751369
 20
591.9540819161186
 30
0.0
  0
VERTEX
  5
456
  8
0
  6
CONTINUOUS
 62
     7
 10
313.8146744103704
 20
591.9296071831176
 30
0.0
  0
VERTEX
  5
457
  8
0
  6
CONTINUOUS
 62
     7
 10
313.8116703020168
 20
591.9052505160547
 30
0.0
  0
VERTEX
  5
458
  8
0
  6
CONTINUOUS
 62
     7
 10
313.8074746872359
 20
591.8810705922743
 30
0.0
  0
VERTEX
  5
459
  8
0
  6
CONTINUOUS
 62
     7
 10
313.8020976736316
 20
591.8571256633307
 30
0.0
  0
VERTEX
  5
45A
  8
0
  6
CONTINUOUS
 62
     7
 10
313.7955522149004
 20
591.8334734146551
 30
0.0
  0
VERTEX
  5
45B
  8
0
  6
CONTINUOUS
 62
     7
 10
313.7878540796258
 20
591.8101708265863
 30
0.0
  0
VERTEX
  5
45C
  8
0
  6
CONTINUOUS
 62
     7
 10
313.77902181329
 20
591.7872740370998
 30
0.0
  0
VERTEX
  5
45D
  8
0
  6
CONTINUOUS
 62
     7
 10
313.769076693596
 20
591.7648382065672
 30
0.0
  0
VERTEX
  5
45E
  8
0
  6
CONTINUOUS
 62
     7
 10
313.7580426792085
 20
591.7429173848694
 30
0.0
  0
VERTEX
  5
45F
  8
0
  6
CONTINUOUS
 62
     7
 10
313.7459463520344
 20
591.7215643811858
 30
0.0
  0
VERTEX
  5
460
  8
0
  6
CONTINUOUS
 62
     7
 10
313.7328168531856
 20
591.7008306367726
 30
0.0
  0
VERTEX
  5
461
  8
0
  6
CONTINUOUS
 62
     7
 10
313.7186858127746
 20
591.6807661010362
 30
0.0
  0
VERTEX
  5
462
  8
0
  6
CONTINUOUS
 62
     7
 10
313.7035872737156
 20
591.6614191112005
 30
0.0
  0
VERTEX
  5
463
  8
0
  6
CONTINUOUS
 62
     7
 10
313.6875576097118
 20
591.6428362758589
 30
0.0
  0
VERTEX
  5
464
  8
0
  6
CONTINUOUS
 62
     7
 10
313.6706354376276
 20
591.625062362689
 30
0.0
  0
VERTEX
  5
465
  8
0
  6
CONTINUOUS
 62
     7
 10
313.6528615244578
 20
591.6081401906049
 30
0.0
  0
VERTEX
  5
466
  8
0
  6
CONTINUOUS
 62
     7
 10
313.6342786891161
 20
591.592110526601
 30
0.0
  0
VERTEX
  5
467
  8
0
  6
CONTINUOUS
 62
     7
 10
313.6149316992805
 20
591.577011987542
 30
0.0
  0
VERTEX
  5
468
  8
0
  6
CONTINUOUS
 62
     7
 10
313.5948671635441
 20
591.5628809471311
 30
0.0
  0
VERTEX
  5
469
  8
0
  6
CONTINUOUS
 62
     7
 10
313.5741334191309
 20
591.5497514482822
 30
0.0
  0
VERTEX
  5
46A
  8
0
  6
CONTINUOUS
 62
     7
 10
313.5527804154473
 20
591.5376551211082
 30
0.0
  0
VERTEX
  5
46B
  8
0
  6
CONTINUOUS
 62
     7
 10
313.5308595937494
 20
591.5266211067207
 30
0.0
  0
VERTEX
  5
46C
  8
0
  6
CONTINUOUS
 62
     7
 10
313.5084237632169
 20
591.5166759870267
 30
0.0
  0
VERTEX
  5
46D
  8
0
  6
CONTINUOUS
 62
     7
 10
313.4855269737304
 20
591.5078437206909
 30
0.0
  0
VERTEX
  5
46E
  8
0
  6
CONTINUOUS
 62
     7
 10
313.4622243856616
 20
591.5001455854162
 30
0.0
  0
VERTEX
  5
46F
  8
0
  6
CONTINUOUS
 62
     7
 10
313.438572136986
 20
591.493600126685
 30
0.0
  0
VERTEX
  5
470
  8
0
  6
CONTINUOUS
 62
     7
 10
313.4146272080424
 20
591.4882231130808
 30
0.0
  0
VERTEX
  5
471
  8
0
  6
CONTINUOUS
 62
     7
 10
313.390447284262
 20
591.4840274983
 30
0.0
  0
VERTEX
  5
472
  8
0
  6
CONTINUOUS
 62
     7
 10
313.3660906171991
 20
591.4810233899462
 30
0.0
  0
VERTEX
  5
473
  8
0
  6
CONTINUOUS
 62
     7
 10
313.341615884198
 20
591.4792180251798
 30
0.0
  0
VERTEX
  5
474
  8
0
  6
CONTINUOUS
 62
     7
 10
313.3170820470343
 20
591.4786157532824
 30
0.0
  0
SEQEND
  5
8FB
  8
0
  6
CONTINUOUS
 62
     7
  0
LINE
  5
FF
  8
0
  6
CONTINUOUS
 62
     9
 10
341.5653196329806
 20
581.5774054588579
 30
0.0
 11
341.7669754275543
 21
581.7790612534316
 31
0.0
  0
ARC
  5
100
  8
0
  6
CONTINUOUS
 62
     7
 10
329.5183667184763
 20
581.1984517504385
 30
0.0
 40
11.72100578771087
 50
63.2242720220305
 51
90.04941271404073
  0
LINE
  5
101
  8
0
  6
CONTINUOUS
 62
     9
 10
341.7669754275543
 20
485.7783834920933
 30
0.0
 11
341.3082391079607
 21
486.2371198116869
 31
0.0
  0
LINE
  5
102
  8
0
  6
CONTINUOUS
 62
     7
 10
341.7669744889087
 20
493.7756550596131
 30
0.0
 11
341.7607877483089
 21
493.2725346935171
 31
0.0
  0
LINE
  5
103
  8
0
  6
CONTINUOUS
 62
     7
 10
341.7669744889087
 20
493.7756550596131
 30
0.0
 11
341.7669744889087
 21
494.2817896859118
 31
0.0
  0
LINE
  5
104
  8
0
  6
CONTINUOUS
 62
     7
 10
341.7607877483089
 20
494.7849100520078
 30
0.0
 11
341.7669744889087
 21
494.2817896859118
 31
0.0
  0
LINE
  5
105
  8
0
  6
CONTINUOUS
 62
     7
 10
341.7607877483089
 20
494.7849100520078
 30
0.0
 11
341.7460309448564
 21
494.7996668554603
 31
0.0
  0
LINE
  5
106
  8
0
  6
CONTINUOUS
 62
     7
 10
341.7460309448564
 20
536.7577778900646
 30
0.0
 11
341.7460309448564
 21
494.7996668554603
 31
0.0
  0
LINE
  5
107
  8
0
  6
CONTINUOUS
 62
     7
 10
341.7607877483089
 20
536.7725346935171
 30
0.0
 11
341.7460309448564
 21
536.7577778900646
 31
0.0
  0
LINE
  5
108
  8
0
  6
CONTINUOUS
 62
     7
 10
341.7669744889087
 20
537.2756550596131
 30
0.0
 11
341.7607877483089
 21
536.7725346935171
 31
0.0
  0
LINE
  5
109
  8
0
  6
CONTINUOUS
 62
     7
 10
341.7669744889087
 20
537.2756550596131
 30
0.0
 11
341.7669744889087
 21
537.7817896859118
 31
0.0
  0
LINE
  5
10A
  8
0
  6
CONTINUOUS
 62
     7
 10
341.7607877483089
 20
538.2849100520078
 30
0.0
 11
341.7669744889087
 21
537.7817896859118
 31
0.0
  0
LINE
  5
10B
  8
0
  6
CONTINUOUS
 62
     7
 10
341.7286110726005
 20
538.3170867277162
 30
0.0
 11
341.7607877483089
 21
538.2849100520078
 31
0.0
  0
LINE
  5
10C
  8
0
  6
CONTINUOUS
 62
     7
 10
341.7286110726005
 20
493.2403580178087
 30
0.0
 11
341.7607877483089
 21
493.2725346935171
 31
0.0
  0
ARC
  5
10D
  8
0
  6
CONTINUOUS
 62
     7
 10
329.5431928635413
 20
486.324184667212
 30
0.0
 40
11.67726065947156
 50
324.6590076944758
 51
356.8657185812187
  0
LINE
  5
10E
  8
0
  6
CONTINUOUS
 62
     7
 10
339.2084372437608
 20
479.3530955016029
 30
0.0
 11
339.5859717009907
 21
478.975561044373
 31
0.0
  0
LINE
  5
10F
  8
0
  6
CONTINUOUS
 62
     7
 10
339.0679271652666
 20
479.196030649382
 30
0.0
 11
339.2084372437616
 21
479.353095501604
 31
0.0
  0
LINE
  5
110
  8
0
  6
CONTINUOUS
 62
     9
 10
339.2084372437608
 20
448.5459438983593
 30
0.0
 11
339.2084372437608
 21
479.3530955016029
 31
0.0
  0
LINE
  5
111
  8
0
  6
CONTINUOUS
 62
     7
 10
339.2084372437608
 20
448.5459438983593
 30
0.0
 11
339.5859717009907
 21
446.2787223727624
 31
0.0
  0
LINE
  5
112
  8
0
  6
CONTINUOUS
 62
     7
 10
271.3733763457598
 20
494.7849100520078
 30
0.0
 11
272.3670820470343
 21
494.7935819902858
 31
0.0
  0
POLYLINE
  5
113
  8
0
  6
CONTINUOUS
 62
     7
 66
     1
 10
0.0
 20
0.0
 30
0.0
  0
VERTEX
  5
475
  8
0
  6
CONTINUOUS
 62
     7
 10
272.3670820470343
 20
494.7935819902858
 30
0.0
  0
VERTEX
  5
476
  8
0
  6
CONTINUOUS
 62
     7
 10
272.3915195837614
 20
494.792896132023
 30
0.0
  0
VERTEX
  5
477
  8
0
  6
CONTINUOUS
 62
     7
 10
272.415898709862
 20
494.79101685807
 30
0.0
  0
VERTEX
  5
478
  8
0
  6
CONTINUOUS
 62
     7
 10
272.4401611543228
 20
494.7879486602692
 30
0.0
  0
VERTEX
  5
479
  8
0
  6
CONTINUOUS
 62
     7
 10
272.4642489250233
 20
494.7836988722304
 30
0.0
  0
VERTEX
  5
47A
  8
0
  6
CONTINUOUS
 62
     7
 10
272.4881044473479
 20
494.7782776518016
 30
0.0
  0
VERTEX
  5
47B
  8
0
  6
CONTINUOUS
 62
     7
 10
272.5116707018017
 20
494.7716979567895
 30
0.0
  0
VERTEX
  5
47C
  8
0
  6
CONTINUOUS
 62
     7
 10
272.5348913602982
 20
494.7639755139883
 30
0.0
  0
VERTEX
  5
47D
  8
0
  6
CONTINUOUS
 62
     7
 10
272.5577109207944
 20
494.755128781589
 30
0.0
  0
VERTEX
  5
47E
  8
0
  6
CONTINUOUS
 62
     7
 10
272.5800748399526
 20
494.7451789050607
 30
0.0
  0
VERTEX
  5
47F
  8
0
  6
CONTINUOUS
 62
     7
 10
272.6019296635092
 20
494.7341496666091
 30
0.0
  0
VERTEX
  5
480
  8
0
  6
CONTINUOUS
 62
     7
 10
272.6232231540413
 20
494.7220674283318
 30
0.0
  0
VERTEX
  5
481
  8
0
  6
CONTINUOUS
 62
     7
 10
272.6439044158254
 20
494.7089610692076
 30
0.0
  0
VERTEX
  5
482
  8
0
  6
CONTINUOUS
 62
     7
 10
272.6639240164873
 20
494.69486191607
 30
0.0
  0
VERTEX
  5
483
  8
0
  6
CONTINUOUS
 62
     7
 10
272.683234105156
 20
494.6798036687301
 30
0.0
  0
VERTEX
  5
484
  8
0
  6
CONTINUOUS
 62
     7
 10
272.701788526837
 20
494.6638223194266
 30
0.0
  0
VERTEX
  5
485
  8
0
  6
CONTINUOUS
 62
     7
 10
272.7195429327317
 20
494.646956066798
 30
0.0
  0
VERTEX
  5
486
  8
0
  6
CONTINUOUS
 62
     7
 10
272.7364548862401
 20
494.6292452245791
 30
0.0
  0
VERTEX
  5
487
  8
0
  6
CONTINUOUS
 62
     7
 10
272.7524839643929
 20
494.6107321252441
 30
0.0
  0
VERTEX
  5
488
  8
0
  6
CONTINUOUS
 62
     7
 10
272.7675918544702
 20
494.5914610188228
 30
0.0
  0
VERTEX
  5
489
  8
0
  6
CONTINUOUS
 62
     7
 10
272.781742445577
 20
494.5714779671343
 30
0.0
  0
VERTEX
  5
48A
  8
0
  6
CONTINUOUS
 62
     7
 10
272.7949019149555
 20
494.5508307336904
 30
0.0
  0
VERTEX
  5
48B
  8
0
  6
CONTINUOUS
 62
     7
 10
272.8070388088276
 20
494.5295686695303
 30
0.0
  0
VERTEX
  5
48C
  8
0
  6
CONTINUOUS
 62
     7
 10
272.8181241175768
 20
494.5077425952626
 30
0.0
  0
VERTEX
  5
48D
  8
0
  6
CONTINUOUS
 62
     7
 10
272.8281313450861
 20
494.4854046795935
 30
0.0
  0
VERTEX
  5
48E
  8
0
  6
CONTINUOUS
 62
     7
 10
272.8370365720697
 20
494.4626083146329
 30
0.0
  0
VERTEX
  5
48F
  8
0
  6
CONTINUOUS
 62
     7
 10
272.8448185132445
 20
494.4394079882765
 30
0.0
  0
VERTEX
  5
490
  8
0
  6
CONTINUOUS
 62
     7
 10
272.8514585682065
 20
494.4158591539694
 30
0.0
  0
VERTEX
  5
491
  8
0
  6
CONTINUOUS
 62
     7
 10
272.8569408658889
 20
494.3920180981607
 30
0.0
  0
VERTEX
  5
492
  8
0
  6
CONTINUOUS
 62
     7
 10
272.8612523024983
 20
494.3679418057672
 30
0.0
  0
VERTEX
  5
493
  8
0
  6
CONTINUOUS
 62
     7
 10
272.864382572834
 20
494.343687823969
 30
0.0
  0
VERTEX
  5
494
  8
0
  6
CONTINUOUS
 62
     7
 10
272.8663241949207
 20
494.3193141246592
 30
0.0
  0
VERTEX
  5
495
  8
0
  6
CONTINUOUS
 62
     7
 10
272.8670725278909
 20
494.2948789658801
 30
0.0
  0
SEQEND
  5
8FC
  8
0
  6
CONTINUOUS
 62
     7
  0
LINE
  5
114
  8
0
  6
CONTINUOUS
 62
     9
 10
272.8670725278909
 20
494.2948789658801
 30
0.0
 11
271.3671896051599
 21
494.2817896859118
 31
0.0
  0
LINE
  5
115
  8
0
  6
CONTINUOUS
 62
     7
 10
272.8670820470343
 20
494.2917936352557
 30
0.0
 11
272.8670725278909
 21
494.2948789658801
 31
0.0
  0
LINE
  5
116
  8
0
  6
CONTINUOUS
 62
     7
 10
272.8670820470343
 20
493.7656511102691
 30
0.0
 11
272.8670820470343
 21
494.2917936352557
 31
0.0
  0
LINE
  5
117
  8
0
  6
CONTINUOUS
 62
     7
 10
272.8670725278909
 20
493.7625657796448
 30
0.0
 11
272.8670820470343
 21
493.7656511102691
 31
0.0
  0
LINE
  5
118
  8
0
  6
CONTINUOUS
 62
     9
 10
271.3671896051599
 20
493.7756550596131
 30
0.0
 11
272.867072527891
 21
493.7625657796448
 31
0.0
  0
POLYLINE
  5
119
  8
0
  6
CONTINUOUS
 62
     7
 66
     1
 10
0.0
 20
0.0
 30
0.0
  0
VERTEX
  5
496
  8
0
  6
CONTINUOUS
 62
     7
 10
272.867072527891
 20
493.7625657796448
 30
0.0
  0
VERTEX
  5
497
  8
0
  6
CONTINUOUS
 62
     7
 10
272.8663241949207
 20
493.7381306208657
 30
0.0
  0
VERTEX
  5
498
  8
0
  6
CONTINUOUS
 62
     7
 10
272.864382572834
 20
493.7137569215559
 30
0.0
  0
VERTEX
  5
499
  8
0
  6
CONTINUOUS
 62
     7
 10
272.8612523024983
 20
493.6895029397576
 30
0.0
  0
VERTEX
  5
49A
  8
0
  6
CONTINUOUS
 62
     7
 10
272.8569408658889
 20
493.6654266473642
 30
0.0
  0
VERTEX
  5
49B
  8
0
  6
CONTINUOUS
 62
     7
 10
272.8514585682065
 20
493.6415855915554
 30
0.0
  0
VERTEX
  5
49C
  8
0
  6
CONTINUOUS
 62
     7
 10
272.8448185132445
 20
493.6180367572483
 30
0.0
  0
VERTEX
  5
49D
  8
0
  6
CONTINUOUS
 62
     7
 10
272.8370365720697
 20
493.5948364308921
 30
0.0
  0
VERTEX
  5
49E
  8
0
  6
CONTINUOUS
 62
     7
 10
272.8281313450861
 20
493.5720400659313
 30
0.0
  0
VERTEX
  5
49F
  8
0
  6
CONTINUOUS
 62
     7
 10
272.8181241175768
 20
493.5497021502622
 30
0.0
  0
VERTEX
  5
4A0
  8
0
  6
CONTINUOUS
 62
     7
 10
272.8070388088276
 20
493.5278760759946
 30
0.0
  0
VERTEX
  5
4A1
  8
0
  6
CONTINUOUS
 62
     7
 10
272.7949019149555
 20
493.5066140118345
 30
0.0
  0
VERTEX
  5
4A2
  8
0
  6
CONTINUOUS
 62
     7
 10
272.781742445577
 20
493.4859667783905
 30
0.0
  0
VERTEX
  5
4A3
  8
0
  6
CONTINUOUS
 62
     7
 10
272.7675918544702
 20
493.4659837267021
 30
0.0
  0
VERTEX
  5
4A4
  8
0
  6
CONTINUOUS
 62
     7
 10
272.7524839643929
 20
493.4467126202808
 30
0.0
  0
VERTEX
  5
4A5
  8
0
  6
CONTINUOUS
 62
     7
 10
272.7364548862401
 20
493.4281995209458
 30
0.0
  0
VERTEX
  5
4A6
  8
0
  6
CONTINUOUS
 62
     7
 10
272.7195429327317
 20
493.4104886787269
 30
0.0
  0
VERTEX
  5
4A7
  8
0
  6
CONTINUOUS
 62
     7
 10
272.701788526837
 20
493.3936224260983
 30
0.0
  0
VERTEX
  5
4A8
  8
0
  6
CONTINUOUS
 62
     7
 10
272.683234105156
 20
493.3776410767948
 30
0.0
  0
VERTEX
  5
4A9
  8
0
  6
CONTINUOUS
 62
     7
 10
272.6639240164873
 20
493.3625828294549
 30
0.0
  0
VERTEX
  5
4AA
  8
0
  6
CONTINUOUS
 62
     7
 10
272.6439044158254
 20
493.3484836763174
 30
0.0
  0
VERTEX
  5
4AB
  8
0
  6
CONTINUOUS
 62
     7
 10
272.6232231540413
 20
493.335377317193
 30
0.0
  0
VERTEX
  5
4AC
  8
0
  6
CONTINUOUS
 62
     7
 10
272.6019296635092
 20
493.3232950789157
 30
0.0
  0
VERTEX
  5
4AD
  8
0
  6
CONTINUOUS
 62
     7
 10
272.5800748399526
 20
493.3122658404641
 30
0.0
  0
VERTEX
  5
4AE
  8
0
  6
CONTINUOUS
 62
     7
 10
272.5577109207944
 20
493.3023159639359
 30
0.0
  0
VERTEX
  5
4AF
  8
0
  6
CONTINUOUS
 62
     7
 10
272.5348913602982
 20
493.2934692315366
 30
0.0
  0
VERTEX
  5
4B0
  8
0
  6
CONTINUOUS
 62
     7
 10
272.5116707018017
 20
493.2857467887354
 30
0.0
  0
VERTEX
  5
4B1
  8
0
  6
CONTINUOUS
 62
     7
 10
272.4881044473479
 20
493.2791670937232
 30
0.0
  0
VERTEX
  5
4B2
  8
0
  6
CONTINUOUS
 62
     7
 10
272.4642489250233
 20
493.2737458732944
 30
0.0
  0
VERTEX
  5
4B3
  8
0
  6
CONTINUOUS
 62
     7
 10
272.4401611543228
 20
493.2694960852556
 30
0.0
  0
VERTEX
  5
4B4
  8
0
  6
CONTINUOUS
 62
     7
 10
272.415898709862
 20
493.2664278874549
 30
0.0
  0
VERTEX
  5
4B5
  8
0
  6
CONTINUOUS
 62
     7
 10
272.3915195837614
 20
493.2645486135019
 30
0.0
  0
VERTEX
  5
4B6
  8
0
  6
CONTINUOUS
 62
     7
 10
272.3670820470343
 20
493.2638627552391
 30
0.0
  0
SEQEND
  5
8FD
  8
0
  6
CONTINUOUS
 62
     7
  0
LINE
  5
11A
  8
0
  6
CONTINUOUS
 62
     7
 10
272.3670820470343
 20
493.2638627552391
 30
0.0
 11
271.3733763457598
 21
493.2725346935171
 31
0.0
  0
LINE
  5
11B
  8
0
  6
CONTINUOUS
 62
     9
 10
272.8670725278909
 20
537.7948789658801
 30
0.0
 11
271.3671896051599
 21
537.7817896859118
 31
0.0
  0
LINE
  5
11C
  8
0
  6
CONTINUOUS
 62
     7
 10
272.8670820470343
 20
537.7917936352557
 30
0.0
 11
272.8670725278909
 21
537.7948789658801
 31
0.0
  0
LINE
  5
11D
  8
0
  6
CONTINUOUS
 62
     7
 10
272.8670820470343
 20
537.2656511102691
 30
0.0
 11
272.8670820470343
 21
537.7917936352557
 31
0.0
  0
LINE
  5
11E
  8
0
  6
CONTINUOUS
 62
     7
 10
272.8670725278909
 20
537.2625657796448
 30
0.0
 11
272.8670820470343
 21
537.2656511102691
 31
0.0
  0
LINE
  5
11F
  8
0
  6
CONTINUOUS
 62
     9
 10
271.3671896051599
 20
537.2756550596131
 30
0.0
 11
272.8670725278909
 21
537.2625657796448
 31
0.0
  0
POLYLINE
  5
120
  8
0
  6
CONTINUOUS
 62
     7
 66
     1
 10
0.0
 20
0.0
 30
0.0
  0
VERTEX
  5
4B7
  8
0
  6
CONTINUOUS
 62
     7
 10
272.867072527891
 20
537.2625657796448
 30
0.0
  0
VERTEX
  5
4B8
  8
0
  6
CONTINUOUS
 62
     7
 10
272.8663241949207
 20
537.2381306208657
 30
0.0
  0
VERTEX
  5
4B9
  8
0
  6
CONTINUOUS
 62
     7
 10
272.864382572834
 20
537.213756921556
 30
0.0
  0
VERTEX
  5
4BA
  8
0
  6
CONTINUOUS
 62
     7
 10
272.8612523024983
 20
537.1895029397576
 30
0.0
  0
VERTEX
  5
4BB
  8
0
  6
CONTINUOUS
 62
     7
 10
272.8569408658889
 20
537.1654266473643
 30
0.0
  0
VERTEX
  5
4BC
  8
0
  6
CONTINUOUS
 62
     7
 10
272.8514585682065
 20
537.1415855915554
 30
0.0
  0
VERTEX
  5
4BD
  8
0
  6
CONTINUOUS
 62
     7
 10
272.8448185132446
 20
537.1180367572483
 30
0.0
  0
VERTEX
  5
4BE
  8
0
  6
CONTINUOUS
 62
     7
 10
272.8370365720697
 20
537.0948364308921
 30
0.0
  0
VERTEX
  5
4BF
  8
0
  6
CONTINUOUS
 62
     7
 10
272.8281313450861
 20
537.0720400659313
 30
0.0
  0
VERTEX
  5
4C0
  8
0
  6
CONTINUOUS
 62
     7
 10
272.8181241175768
 20
537.0497021502623
 30
0.0
  0
VERTEX
  5
4C1
  8
0
  6
CONTINUOUS
 62
     7
 10
272.8070388088276
 20
537.0278760759945
 30
0.0
  0
VERTEX
  5
4C2
  8
0
  6
CONTINUOUS
 62
     7
 10
272.7949019149555
 20
537.0066140118345
 30
0.0
  0
VERTEX
  5
4C3
  8
0
  6
CONTINUOUS
 62
     7
 10
272.781742445577
 20
536.9859667783904
 30
0.0
  0
VERTEX
  5
4C4
  8
0
  6
CONTINUOUS
 62
     7
 10
272.7675918544702
 20
536.9659837267021
 30
0.0
  0
VERTEX
  5
4C5
  8
0
  6
CONTINUOUS
 62
     7
 10
272.7524839643929
 20
536.9467126202808
 30
0.0
  0
VERTEX
  5
4C6
  8
0
  6
CONTINUOUS
 62
     7
 10
272.7364548862401
 20
536.9281995209458
 30
0.0
  0
VERTEX
  5
4C7
  8
0
  6
CONTINUOUS
 62
     7
 10
272.7195429327317
 20
536.9104886787269
 30
0.0
  0
VERTEX
  5
4C8
  8
0
  6
CONTINUOUS
 62
     7
 10
272.701788526837
 20
536.8936224260983
 30
0.0
  0
VERTEX
  5
4C9
  8
0
  6
CONTINUOUS
 62
     7
 10
272.683234105156
 20
536.8776410767948
 30
0.0
  0
VERTEX
  5
4CA
  8
0
  6
CONTINUOUS
 62
     7
 10
272.6639240164873
 20
536.8625828294548
 30
0.0
  0
VERTEX
  5
4CB
  8
0
  6
CONTINUOUS
 62
     7
 10
272.6439044158254
 20
536.8484836763173
 30
0.0
  0
VERTEX
  5
4CC
  8
0
  6
CONTINUOUS
 62
     7
 10
272.6232231540413
 20
536.835377317193
 30
0.0
  0
VERTEX
  5
4CD
  8
0
  6
CONTINUOUS
 62
     7
 10
272.6019296635092
 20
536.8232950789156
 30
0.0
  0
VERTEX
  5
4CE
  8
0
  6
CONTINUOUS
 62
     7
 10
272.5800748399526
 20
536.8122658404642
 30
0.0
  0
VERTEX
  5
4CF
  8
0
  6
CONTINUOUS
 62
     7
 10
272.5577109207944
 20
536.8023159639359
 30
0.0
  0
VERTEX
  5
4D0
  8
0
  6
CONTINUOUS
 62
     7
 10
272.5348913602982
 20
536.7934692315366
 30
0.0
  0
VERTEX
  5
4D1
  8
0
  6
CONTINUOUS
 62
     7
 10
272.5116707018017
 20
536.7857467887353
 30
0.0
  0
VERTEX
  5
4D2
  8
0
  6
CONTINUOUS
 62
     7
 10
272.4881044473479
 20
536.7791670937233
 30
0.0
  0
VERTEX
  5
4D3
  8
0
  6
CONTINUOUS
 62
     7
 10
272.4642489250233
 20
536.7737458732944
 30
0.0
  0
VERTEX
  5
4D4
  8
0
  6
CONTINUOUS
 62
     7
 10
272.4401611543228
 20
536.7694960852557
 30
0.0
  0
VERTEX
  5
4D5
  8
0
  6
CONTINUOUS
 62
     7
 10
272.415898709862
 20
536.7664278874548
 30
0.0
  0
VERTEX
  5
4D6
  8
0
  6
CONTINUOUS
 62
     7
 10
272.3915195837614
 20
536.7645486135018
 30
0.0
  0
VERTEX
  5
4D7
  8
0
  6
CONTINUOUS
 62
     7
 10
272.3670820470343
 20
536.7638627552391
 30
0.0
  0
SEQEND
  5
8FE
  8
0
  6
CONTINUOUS
 62
     7
  0
LINE
  5
121
  8
0
  6
CONTINUOUS
 62
     7
 10
272.3670820470343
 20
536.7638627552391
 30
0.0
 11
271.3733763457598
 21
536.7725346935171
 31
0.0
  0
LINE
  5
122
  8
0
  6
CONTINUOUS
 62
     7
 10
271.3733763457598
 20
538.2849100520078
 30
0.0
 11
272.3670820470343
 21
538.2935819902857
 31
0.0
  0
POLYLINE
  5
123
  8
0
  6
CONTINUOUS
 62
     7
 66
     1
 10
0.0
 20
0.0
 30
0.0
  0
VERTEX
  5
4D8
  8
0
  6
CONTINUOUS
 62
     7
 10
272.3670820470343
 20
538.2935819902857
 30
0.0
  0
VERTEX
  5
4D9
  8
0
  6
CONTINUOUS
 62
     7
 10
272.3915195837614
 20
538.292896132023
 30
0.0
  0
VERTEX
  5
4DA
  8
0
  6
CONTINUOUS
 62
     7
 10
272.415898709862
 20
538.2910168580698
 30
0.0
  0
VERTEX
  5
4DB
  8
0
  6
CONTINUOUS
 62
     7
 10
272.4401611543228
 20
538.2879486602692
 30
0.0
  0
VERTEX
  5
4DC
  8
0
  6
CONTINUOUS
 62
     7
 10
272.4642489250233
 20
538.2836988722305
 30
0.0
  0
VERTEX
  5
4DD
  8
0
  6
CONTINUOUS
 62
     7
 10
272.4881044473479
 20
538.2782776518015
 30
0.0
  0
VERTEX
  5
4DE
  8
0
  6
CONTINUOUS
 62
     7
 10
272.5116707018017
 20
538.2716979567895
 30
0.0
  0
VERTEX
  5
4DF
  8
0
  6
CONTINUOUS
 62
     7
 10
272.5348913602982
 20
538.2639755139883
 30
0.0
  0
VERTEX
  5
4E0
  8
0
  6
CONTINUOUS
 62
     7
 10
272.5577109207944
 20
538.2551287815888
 30
0.0
  0
VERTEX
  5
4E1
  8
0
  6
CONTINUOUS
 62
     7
 10
272.5800748399526
 20
538.2451789050607
 30
0.0
  0
VERTEX
  5
4E2
  8
0
  6
CONTINUOUS
 62
     7
 10
272.6019296635092
 20
538.2341496666091
 30
0.0
  0
VERTEX
  5
4E3
  8
0
  6
CONTINUOUS
 62
     7
 10
272.6232231540413
 20
538.2220674283318
 30
0.0
  0
VERTEX
  5
4E4
  8
0
  6
CONTINUOUS
 62
     7
 10
272.6439044158254
 20
538.2089610692076
 30
0.0
  0
VERTEX
  5
4E5
  8
0
  6
CONTINUOUS
 62
     7
 10
272.6639240164873
 20
538.1948619160701
 30
0.0
  0
VERTEX
  5
4E6
  8
0
  6
CONTINUOUS
 62
     7
 10
272.683234105156
 20
538.1798036687301
 30
0.0
  0
VERTEX
  5
4E7
  8
0
  6
CONTINUOUS
 62
     7
 10
272.701788526837
 20
538.1638223194266
 30
0.0
  0
VERTEX
  5
4E8
  8
0
  6
CONTINUOUS
 62
     7
 10
272.7195429327317
 20
538.146956066798
 30
0.0
  0
VERTEX
  5
4E9
  8
0
  6
CONTINUOUS
 62
     7
 10
272.7364548862401
 20
538.129245224579
 30
0.0
  0
VERTEX
  5
4EA
  8
0
  6
CONTINUOUS
 62
     7
 10
272.7524839643929
 20
538.1107321252441
 30
0.0
  0
VERTEX
  5
4EB
  8
0
  6
CONTINUOUS
 62
     7
 10
272.7675918544702
 20
538.0914610188228
 30
0.0
  0
VERTEX
  5
4EC
  8
0
  6
CONTINUOUS
 62
     7
 10
272.781742445577
 20
538.0714779671343
 30
0.0
  0
VERTEX
  5
4ED
  8
0
  6
CONTINUOUS
 62
     7
 10
272.7949019149555
 20
538.0508307336903
 30
0.0
  0
VERTEX
  5
4EE
  8
0
  6
CONTINUOUS
 62
     7
 10
272.8070388088276
 20
538.0295686695304
 30
0.0
  0
VERTEX
  5
4EF
  8
0
  6
CONTINUOUS
 62
     7
 10
272.8181241175768
 20
538.0077425952626
 30
0.0
  0
VERTEX
  5
4F0
  8
0
  6
CONTINUOUS
 62
     7
 10
272.8281313450861
 20
537.9854046795936
 30
0.0
  0
VERTEX
  5
4F1
  8
0
  6
CONTINUOUS
 62
     7
 10
272.8370365720697
 20
537.9626083146328
 30
0.0
  0
VERTEX
  5
4F2
  8
0
  6
CONTINUOUS
 62
     7
 10
272.8448185132445
 20
537.9394079882766
 30
0.0
  0
VERTEX
  5
4F3
  8
0
  6
CONTINUOUS
 62
     7
 10
272.8514585682065
 20
537.9158591539694
 30
0.0
  0
VERTEX
  5
4F4
  8
0
  6
CONTINUOUS
 62
     7
 10
272.8569408658889
 20
537.8920180981606
 30
0.0
  0
VERTEX
  5
4F5
  8
0
  6
CONTINUOUS
 62
     7
 10
272.8612523024983
 20
537.8679418057673
 30
0.0
  0
VERTEX
  5
4F6
  8
0
  6
CONTINUOUS
 62
     7
 10
272.864382572834
 20
537.8436878239689
 30
0.0
  0
VERTEX
  5
4F7
  8
0
  6
CONTINUOUS
 62
     7
 10
272.8663241949207
 20
537.8193141246592
 30
0.0
  0
VERTEX
  5
4F8
  8
0
  6
CONTINUOUS
 62
     7
 10
272.8670725278909
 20
537.7948789658801
 30
0.0
  0
SEQEND
  5
8FF
  8
0
  6
CONTINUOUS
 62
     7
  0
LINE
  5
124
  8
0
  6
CONTINUOUS
 62
     9
 10
341.7669744889087
 20
537.7817896859118
 30
0.0
 11
340.2670915661777
 21
537.7948789658801
 31
0.0
  0
POLYLINE
  5
125
  8
0
  6
CONTINUOUS
 62
     7
 66
     1
 10
0.0
 20
0.0
 30
0.0
  0
VERTEX
  5
4F9
  8
0
  6
CONTINUOUS
 62
     7
 10
340.2670915661777
 20
537.7948789658801
 30
0.0
  0
VERTEX
  5
4FA
  8
0
  6
CONTINUOUS
 62
     7
 10
340.267839899148
 20
537.8193141246592
 30
0.0
  0
VERTEX
  5
4FB
  8
0
  6
CONTINUOUS
 62
     7
 10
340.2697815212347
 20
537.8436878239689
 30
0.0
  0
VERTEX
  5
4FC
  8
0
  6
CONTINUOUS
 62
     7
 10
340.2729117915704
 20
537.8679418057673
 30
0.0
  0
VERTEX
  5
4FD
  8
0
  6
CONTINUOUS
 62
     7
 10
340.2772232281797
 20
537.8920180981606
 30
0.0
  0
VERTEX
  5
4FE
  8
0
  6
CONTINUOUS
 62
     7
 10
340.2827055258621
 20
537.9158591539694
 30
0.0
  0
VERTEX
  5
4FF
  8
0
  6
CONTINUOUS
 62
     7
 10
340.2893455808241
 20
537.9394079882766
 30
0.0
  0
VERTEX
  5
500
  8
0
  6
CONTINUOUS
 62
     7
 10
340.2971275219988
 20
537.9626083146328
 30
0.0
  0
VERTEX
  5
501
  8
0
  6
CONTINUOUS
 62
     7
 10
340.3060327489825
 20
537.9854046795936
 30
0.0
  0
VERTEX
  5
502
  8
0
  6
CONTINUOUS
 62
     7
 10
340.3160399764918
 20
538.0077425952626
 30
0.0
  0
VERTEX
  5
503
  8
0
  6
CONTINUOUS
 62
     7
 10
340.327125285241
 20
538.0295686695304
 30
0.0
  0
VERTEX
  5
504
  8
0
  6
CONTINUOUS
 62
     7
 10
340.3392621791131
 20
538.0508307336903
 30
0.0
  0
VERTEX
  5
505
  8
0
  6
CONTINUOUS
 62
     7
 10
340.3524216484915
 20
538.0714779671343
 30
0.0
  0
VERTEX
  5
506
  8
0
  6
CONTINUOUS
 62
     7
 10
340.3665722395984
 20
538.0914610188228
 30
0.0
  0
VERTEX
  5
507
  8
0
  6
CONTINUOUS
 62
     7
 10
340.3816801296757
 20
538.1107321252441
 30
0.0
  0
VERTEX
  5
508
  8
0
  6
CONTINUOUS
 62
     7
 10
340.3977092078285
 20
538.129245224579
 30
0.0
  0
VERTEX
  5
509
  8
0
  6
CONTINUOUS
 62
     7
 10
340.4146211613369
 20
538.146956066798
 30
0.0
  0
VERTEX
  5
50A
  8
0
  6
CONTINUOUS
 62
     7
 10
340.4323755672316
 20
538.1638223194266
 30
0.0
  0
VERTEX
  5
50B
  8
0
  6
CONTINUOUS
 62
     7
 10
340.4509299889125
 20
538.1798036687301
 30
0.0
  0
VERTEX
  5
50C
  8
0
  6
CONTINUOUS
 62
     7
 10
340.4702400775813
 20
538.1948619160701
 30
0.0
  0
VERTEX
  5
50D
  8
0
  6
CONTINUOUS
 62
     7
 10
340.4902596782432
 20
538.2089610692076
 30
0.0
  0
VERTEX
  5
50E
  8
0
  6
CONTINUOUS
 62
     7
 10
340.5109409400272
 20
538.2220674283318
 30
0.0
  0
VERTEX
  5
50F
  8
0
  6
CONTINUOUS
 62
     7
 10
340.5322344305595
 20
538.2341496666091
 30
0.0
  0
VERTEX
  5
510
  8
0
  6
CONTINUOUS
 62
     7
 10
340.554089254116
 20
538.2451789050607
 30
0.0
  0
VERTEX
  5
511
  8
0
  6
CONTINUOUS
 62
     7
 10
340.5764531732742
 20
538.2551287815888
 30
0.0
  0
VERTEX
  5
512
  8
0
  6
CONTINUOUS
 62
     7
 10
340.5992727337704
 20
538.2639755139883
 30
0.0
  0
VERTEX
  5
513
  8
0
  6
CONTINUOUS
 62
     7
 10
340.6224933922668
 20
538.2716979567895
 30
0.0
  0
VERTEX
  5
514
  8
0
  6
CONTINUOUS
 62
     7
 10
340.6460596467207
 20
538.2782776518015
 30
0.0
  0
VERTEX
  5
515
  8
0
  6
CONTINUOUS
 62
     7
 10
340.6699151690453
 20
538.2836988722305
 30
0.0
  0
VERTEX
  5
516
  8
0
  6
CONTINUOUS
 62
     7
 10
340.6940029397458
 20
538.2879486602692
 30
0.0
  0
VERTEX
  5
517
  8
0
  6
CONTINUOUS
 62
     7
 10
340.7182653842066
 20
538.2910168580698
 30
0.0
  0
VERTEX
  5
518
  8
0
  6
CONTINUOUS
 62
     7
 10
340.7426445103073
 20
538.292896132023
 30
0.0
  0
VERTEX
  5
519
  8
0
  6
CONTINUOUS
 62
     7
 10
340.7670820470343
 20
538.2935819902857
 30
0.0
  0
SEQEND
  5
900
  8
0
  6
CONTINUOUS
 62
     7
  0
LINE
  5
126
  8
0
  6
CONTINUOUS
 62
     7
 10
340.7670820470343
 20
538.2935819902857
 30
0.0
 11
341.7607877483089
 21
538.2849100520078
 31
0.0
  0
LINE
  5
127
  8
0
  6
CONTINUOUS
 62
     7
 10
340.2670915661777
 20
537.7948789658801
 30
0.0
 11
340.2670820470343
 21
537.7917936352557
 31
0.0
  0
LINE
  5
128
  8
0
  6
CONTINUOUS
 62
     9
 10
340.2670915661777
 20
537.2625657796448
 30
0.0
 11
341.7669744889087
 21
537.2756550596131
 31
0.0
  0
LINE
  5
129
  8
0
  6
CONTINUOUS
 62
     7
 10
340.2670820470343
 20
537.2656511102691
 30
0.0
 11
340.2670915661777
 21
537.2625657796448
 31
0.0
  0
LINE
  5
12A
  8
0
  6
CONTINUOUS
 62
     7
 10
340.2670820470343
 20
537.2656511102691
 30
0.0
 11
340.2670820470343
 21
537.7917936352557
 31
0.0
  0
LINE
  5
12B
  8
0
  6
CONTINUOUS
 62
     7
 10
341.7607877483089
 20
536.7725346935171
 30
0.0
 11
340.7670820470343
 21
536.7638627552391
 31
0.0
  0
POLYLINE
  5
12C
  8
0
  6
CONTINUOUS
 62
     7
 66
     1
 10
0.0
 20
0.0
 30
0.0
  0
VERTEX
  5
51A
  8
0
  6
CONTINUOUS
 62
     7
 10
340.7670820470343
 20
536.7638627552391
 30
0.0
  0
VERTEX
  5
51B
  8
0
  6
CONTINUOUS
 62
     7
 10
340.7426445103073
 20
536.7645486135018
 30
0.0
  0
VERTEX
  5
51C
  8
0
  6
CONTINUOUS
 62
     7
 10
340.7182653842066
 20
536.7664278874548
 30
0.0
  0
VERTEX
  5
51D
  8
0
  6
CONTINUOUS
 62
     7
 10
340.6940029397458
 20
536.7694960852557
 30
0.0
  0
VERTEX
  5
51E
  8
0
  6
CONTINUOUS
 62
     7
 10
340.6699151690454
 20
536.7737458732944
 30
0.0
  0
VERTEX
  5
51F
  8
0
  6
CONTINUOUS
 62
     7
 10
340.6460596467207
 20
536.7791670937233
 30
0.0
  0
VERTEX
  5
520
  8
0
  6
CONTINUOUS
 62
     7
 10
340.6224933922668
 20
536.7857467887353
 30
0.0
  0
VERTEX
  5
521
  8
0
  6
CONTINUOUS
 62
     7
 10
340.5992727337704
 20
536.7934692315366
 30
0.0
  0
VERTEX
  5
522
  8
0
  6
CONTINUOUS
 62
     7
 10
340.5764531732742
 20
536.8023159639359
 30
0.0
  0
VERTEX
  5
523
  8
0
  6
CONTINUOUS
 62
     7
 10
340.554089254116
 20
536.8122658404642
 30
0.0
  0
VERTEX
  5
524
  8
0
  6
CONTINUOUS
 62
     7
 10
340.5322344305595
 20
536.8232950789156
 30
0.0
  0
VERTEX
  5
525
  8
0
  6
CONTINUOUS
 62
     7
 10
340.5109409400272
 20
536.8353773171931
 30
0.0
  0
VERTEX
  5
526
  8
0
  6
CONTINUOUS
 62
     7
 10
340.4902596782432
 20
536.8484836763173
 30
0.0
  0
VERTEX
  5
527
  8
0
  6
CONTINUOUS
 62
     7
 10
340.4702400775813
 20
536.8625828294548
 30
0.0
  0
VERTEX
  5
528
  8
0
  6
CONTINUOUS
 62
     7
 10
340.4509299889125
 20
536.8776410767948
 30
0.0
  0
VERTEX
  5
529
  8
0
  6
CONTINUOUS
 62
     7
 10
340.4323755672316
 20
536.8936224260983
 30
0.0
  0
VERTEX
  5
52A
  8
0
  6
CONTINUOUS
 62
     7
 10
340.4146211613369
 20
536.9104886787269
 30
0.0
  0
VERTEX
  5
52B
  8
0
  6
CONTINUOUS
 62
     7
 10
340.3977092078285
 20
536.9281995209458
 30
0.0
  0
VERTEX
  5
52C
  8
0
  6
CONTINUOUS
 62
     7
 10
340.3816801296757
 20
536.9467126202808
 30
0.0
  0
VERTEX
  5
52D
  8
0
  6
CONTINUOUS
 62
     7
 10
340.3665722395984
 20
536.9659837267021
 30
0.0
  0
VERTEX
  5
52E
  8
0
  6
CONTINUOUS
 62
     7
 10
340.3524216484915
 20
536.9859667783904
 30
0.0
  0
VERTEX
  5
52F
  8
0
  6
CONTINUOUS
 62
     7
 10
340.3392621791131
 20
537.0066140118345
 30
0.0
  0
VERTEX
  5
530
  8
0
  6
CONTINUOUS
 62
     7
 10
340.327125285241
 20
537.0278760759945
 30
0.0
  0
VERTEX
  5
531
  8
0
  6
CONTINUOUS
 62
     7
 10
340.3160399764918
 20
537.0497021502623
 30
0.0
  0
VERTEX
  5
532
  8
0
  6
CONTINUOUS
 62
     7
 10
340.3060327489825
 20
537.0720400659313
 30
0.0
  0
VERTEX
  5
533
  8
0
  6
CONTINUOUS
 62
     7
 10
340.2971275219988
 20
537.0948364308921
 30
0.0
  0
VERTEX
  5
534
  8
0
  6
CONTINUOUS
 62
     7
 10
340.2893455808241
 20
537.1180367572483
 30
0.0
  0
VERTEX
  5
535
  8
0
  6
CONTINUOUS
 62
     7
 10
340.2827055258621
 20
537.1415855915554
 30
0.0
  0
VERTEX
  5
536
  8
0
  6
CONTINUOUS
 62
     7
 10
340.2772232281797
 20
537.1654266473643
 30
0.0
  0
VERTEX
  5
537
  8
0
  6
CONTINUOUS
 62
     7
 10
340.2729117915704
 20
537.1895029397576
 30
0.0
  0
VERTEX
  5
538
  8
0
  6
CONTINUOUS
 62
     7
 10
340.2697815212347
 20
537.213756921556
 30
0.0
  0
VERTEX
  5
539
  8
0
  6
CONTINUOUS
 62
     7
 10
340.267839899148
 20
537.2381306208657
 30
0.0
  0
VERTEX
  5
53A
  8
0
  6
CONTINUOUS
 62
     7
 10
340.2670915661777
 20
537.2625657796448
 30
0.0
  0
SEQEND
  5
901
  8
0
  6
CONTINUOUS
 62
     7
  0
LINE
  5
12D
  8
0
  6
CONTINUOUS
 62
     9
 10
341.7669744889087
 20
494.2817896859118
 30
0.0
 11
340.2670915661777
 21
494.2948789658801
 31
0.0
  0
POLYLINE
  5
12E
  8
0
  6
CONTINUOUS
 62
     7
 66
     1
 10
0.0
 20
0.0
 30
0.0
  0
VERTEX
  5
53B
  8
0
  6
CONTINUOUS
 62
     7
 10
340.2670915661777
 20
494.2948789658801
 30
0.0
  0
VERTEX
  5
53C
  8
0
  6
CONTINUOUS
 62
     7
 10
340.267839899148
 20
494.3193141246592
 30
0.0
  0
VERTEX
  5
53D
  8
0
  6
CONTINUOUS
 62
     7
 10
340.2697815212347
 20
494.343687823969
 30
0.0
  0
VERTEX
  5
53E
  8
0
  6
CONTINUOUS
 62
     7
 10
340.2729117915704
 20
494.3679418057673
 30
0.0
  0
VERTEX
  5
53F
  8
0
  6
CONTINUOUS
 62
     7
 10
340.2772232281797
 20
494.3920180981607
 30
0.0
  0
VERTEX
  5
540
  8
0
  6
CONTINUOUS
 62
     7
 10
340.2827055258621
 20
494.4158591539694
 30
0.0
  0
VERTEX
  5
541
  8
0
  6
CONTINUOUS
 62
     7
 10
340.2893455808241
 20
494.4394079882765
 30
0.0
  0
VERTEX
  5
542
  8
0
  6
CONTINUOUS
 62
     7
 10
340.2971275219988
 20
494.4626083146329
 30
0.0
  0
VERTEX
  5
543
  8
0
  6
CONTINUOUS
 62
     7
 10
340.3060327489825
 20
494.4854046795935
 30
0.0
  0
VERTEX
  5
544
  8
0
  6
CONTINUOUS
 62
     7
 10
340.3160399764918
 20
494.5077425952626
 30
0.0
  0
VERTEX
  5
545
  8
0
  6
CONTINUOUS
 62
     7
 10
340.327125285241
 20
494.5295686695303
 30
0.0
  0
VERTEX
  5
546
  8
0
  6
CONTINUOUS
 62
     7
 10
340.3392621791131
 20
494.5508307336904
 30
0.0
  0
VERTEX
  5
547
  8
0
  6
CONTINUOUS
 62
     7
 10
340.3524216484915
 20
494.5714779671343
 30
0.0
  0
VERTEX
  5
548
  8
0
  6
CONTINUOUS
 62
     7
 10
340.3665722395984
 20
494.5914610188228
 30
0.0
  0
VERTEX
  5
549
  8
0
  6
CONTINUOUS
 62
     7
 10
340.3816801296757
 20
494.6107321252441
 30
0.0
  0
VERTEX
  5
54A
  8
0
  6
CONTINUOUS
 62
     7
 10
340.3977092078285
 20
494.6292452245791
 30
0.0
  0
VERTEX
  5
54B
  8
0
  6
CONTINUOUS
 62
     7
 10
340.4146211613369
 20
494.646956066798
 30
0.0
  0
VERTEX
  5
54C
  8
0
  6
CONTINUOUS
 62
     7
 10
340.4323755672316
 20
494.6638223194266
 30
0.0
  0
VERTEX
  5
54D
  8
0
  6
CONTINUOUS
 62
     7
 10
340.4509299889125
 20
494.6798036687301
 30
0.0
  0
VERTEX
  5
54E
  8
0
  6
CONTINUOUS
 62
     7
 10
340.4702400775813
 20
494.69486191607
 30
0.0
  0
VERTEX
  5
54F
  8
0
  6
CONTINUOUS
 62
     7
 10
340.4902596782432
 20
494.7089610692076
 30
0.0
  0
VERTEX
  5
550
  8
0
  6
CONTINUOUS
 62
     7
 10
340.5109409400272
 20
494.7220674283319
 30
0.0
  0
VERTEX
  5
551
  8
0
  6
CONTINUOUS
 62
     7
 10
340.5322344305595
 20
494.7341496666091
 30
0.0
  0
VERTEX
  5
552
  8
0
  6
CONTINUOUS
 62
     7
 10
340.554089254116
 20
494.7451789050607
 30
0.0
  0
VERTEX
  5
553
  8
0
  6
CONTINUOUS
 62
     7
 10
340.5764531732742
 20
494.755128781589
 30
0.0
  0
VERTEX
  5
554
  8
0
  6
CONTINUOUS
 62
     7
 10
340.5992727337704
 20
494.7639755139883
 30
0.0
  0
VERTEX
  5
555
  8
0
  6
CONTINUOUS
 62
     7
 10
340.6224933922668
 20
494.7716979567895
 30
0.0
  0
VERTEX
  5
556
  8
0
  6
CONTINUOUS
 62
     7
 10
340.6460596467207
 20
494.7782776518016
 30
0.0
  0
VERTEX
  5
557
  8
0
  6
CONTINUOUS
 62
     7
 10
340.6699151690453
 20
494.7836988722304
 30
0.0
  0
VERTEX
  5
558
  8
0
  6
CONTINUOUS
 62
     7
 10
340.6940029397458
 20
494.7879486602692
 30
0.0
  0
VERTEX
  5
559
  8
0
  6
CONTINUOUS
 62
     7
 10
340.7182653842066
 20
494.79101685807
 30
0.0
  0
VERTEX
  5
55A
  8
0
  6
CONTINUOUS
 62
     7
 10
340.7426445103073
 20
494.792896132023
 30
0.0
  0
VERTEX
  5
55B
  8
0
  6
CONTINUOUS
 62
     7
 10
340.7670820470343
 20
494.7935819902858
 30
0.0
  0
SEQEND
  5
902
  8
0
  6
CONTINUOUS
 62
     7
  0
LINE
  5
12F
  8
0
  6
CONTINUOUS
 62
     7
 10
340.7670820470343
 20
494.7935819902858
 30
0.0
 11
341.7607877483089
 21
494.7849100520078
 31
0.0
  0
LINE
  5
130
  8
0
  6
CONTINUOUS
 62
     7
 10
340.2670915661777
 20
494.2948789658801
 30
0.0
 11
340.2670820470343
 21
494.2917936352557
 31
0.0
  0
LINE
  5
131
  8
0
  6
CONTINUOUS
 62
     9
 10
340.2670915661777
 20
493.7625657796448
 30
0.0
 11
341.7669744889087
 21
493.7756550596131
 31
0.0
  0
LINE
  5
132
  8
0
  6
CONTINUOUS
 62
     7
 10
340.2670820470343
 20
493.7656511102691
 30
0.0
 11
340.2670915661777
 21
493.7625657796448
 31
0.0
  0
LINE
  5
133
  8
0
  6
CONTINUOUS
 62
     7
 10
340.2670820470343
 20
493.7656511102691
 30
0.0
 11
340.2670820470343
 21
494.2917936352557
 31
0.0
  0
LINE
  5
134
  8
0
  6
CONTINUOUS
 62
     7
 10
341.7607877483089
 20
493.2725346935171
 30
0.0
 11
340.7670820470343
 21
493.2638627552391
 31
0.0
  0
POLYLINE
  5
135
  8
0
  6
CONTINUOUS
 62
     7
 66
     1
 10
0.0
 20
0.0
 30
0.0
  0
VERTEX
  5
55C
  8
0
  6
CONTINUOUS
 62
     7
 10
340.7670820470343
 20
493.2638627552391
 30
0.0
  0
VERTEX
  5
55D
  8
0
  6
CONTINUOUS
 62
     7
 10
340.7426445103073
 20
493.2645486135019
 30
0.0
  0
VERTEX
  5
55E
  8
0
  6
CONTINUOUS
 62
     7
 10
340.7182653842066
 20
493.2664278874549
 30
0.0
  0
VERTEX
  5
55F
  8
0
  6
CONTINUOUS
 62
     7
 10
340.6940029397458
 20
493.2694960852556
 30
0.0
  0
VERTEX
  5
560
  8
0
  6
CONTINUOUS
 62
     7
 10
340.6699151690454
 20
493.2737458732944
 30
0.0
  0
VERTEX
  5
561
  8
0
  6
CONTINUOUS
 62
     7
 10
340.6460596467207
 20
493.2791670937232
 30
0.0
  0
VERTEX
  5
562
  8
0
  6
CONTINUOUS
 62
     7
 10
340.6224933922668
 20
493.2857467887354
 30
0.0
  0
VERTEX
  5
563
  8
0
  6
CONTINUOUS
 62
     7
 10
340.5992727337704
 20
493.2934692315366
 30
0.0
  0
VERTEX
  5
564
  8
0
  6
CONTINUOUS
 62
     7
 10
340.5764531732742
 20
493.3023159639359
 30
0.0
  0
VERTEX
  5
565
  8
0
  6
CONTINUOUS
 62
     7
 10
340.554089254116
 20
493.3122658404641
 30
0.0
  0
VERTEX
  5
566
  8
0
  6
CONTINUOUS
 62
     7
 10
340.5322344305595
 20
493.3232950789157
 30
0.0
  0
VERTEX
  5
567
  8
0
  6
CONTINUOUS
 62
     7
 10
340.5109409400272
 20
493.335377317193
 30
0.0
  0
VERTEX
  5
568
  8
0
  6
CONTINUOUS
 62
     7
 10
340.4902596782432
 20
493.3484836763174
 30
0.0
  0
VERTEX
  5
569
  8
0
  6
CONTINUOUS
 62
     7
 10
340.4702400775813
 20
493.3625828294549
 30
0.0
  0
VERTEX
  5
56A
  8
0
  6
CONTINUOUS
 62
     7
 10
340.4509299889125
 20
493.3776410767948
 30
0.0
  0
VERTEX
  5
56B
  8
0
  6
CONTINUOUS
 62
     7
 10
340.4323755672316
 20
493.3936224260983
 30
0.0
  0
VERTEX
  5
56C
  8
0
  6
CONTINUOUS
 62
     7
 10
340.4146211613369
 20
493.4104886787269
 30
0.0
  0
VERTEX
  5
56D
  8
0
  6
CONTINUOUS
 62
     7
 10
340.3977092078285
 20
493.4281995209458
 30
0.0
  0
VERTEX
  5
56E
  8
0
  6
CONTINUOUS
 62
     7
 10
340.3816801296758
 20
493.4467126202808
 30
0.0
  0
VERTEX
  5
56F
  8
0
  6
CONTINUOUS
 62
     7
 10
340.3665722395984
 20
493.4659837267021
 30
0.0
  0
VERTEX
  5
570
  8
0
  6
CONTINUOUS
 62
     7
 10
340.3524216484915
 20
493.4859667783905
 30
0.0
  0
VERTEX
  5
571
  8
0
  6
CONTINUOUS
 62
     7
 10
340.3392621791131
 20
493.5066140118345
 30
0.0
  0
VERTEX
  5
572
  8
0
  6
CONTINUOUS
 62
     7
 10
340.327125285241
 20
493.5278760759946
 30
0.0
  0
VERTEX
  5
573
  8
0
  6
CONTINUOUS
 62
     7
 10
340.3160399764918
 20
493.5497021502622
 30
0.0
  0
VERTEX
  5
574
  8
0
  6
CONTINUOUS
 62
     7
 10
340.3060327489825
 20
493.5720400659313
 30
0.0
  0
VERTEX
  5
575
  8
0
  6
CONTINUOUS
 62
     7
 10
340.2971275219988
 20
493.5948364308921
 30
0.0
  0
VERTEX
  5
576
  8
0
  6
CONTINUOUS
 62
     7
 10
340.2893455808241
 20
493.6180367572483
 30
0.0
  0
VERTEX
  5
577
  8
0
  6
CONTINUOUS
 62
     7
 10
340.2827055258621
 20
493.6415855915554
 30
0.0
  0
VERTEX
  5
578
  8
0
  6
CONTINUOUS
 62
     7
 10
340.2772232281797
 20
493.6654266473642
 30
0.0
  0
VERTEX
  5
579
  8
0
  6
CONTINUOUS
 62
     7
 10
340.2729117915704
 20
493.6895029397576
 30
0.0
  0
VERTEX
  5
57A
  8
0
  6
CONTINUOUS
 62
     7
 10
340.2697815212347
 20
493.7137569215559
 30
0.0
  0
VERTEX
  5
57B
  8
0
  6
CONTINUOUS
 62
     7
 10
340.267839899148
 20
493.7381306208657
 30
0.0
  0
VERTEX
  5
57C
  8
0
  6
CONTINUOUS
 62
     7
 10
340.2670915661777
 20
493.7625657796448
 30
0.0
  0
SEQEND
  5
903
  8
0
  6
CONTINUOUS
 62
     7
  0
LINE
  5
136
  8
0
  6
CONTINUOUS
 62
     9
 10
272.3670820470343
 20
493.2452030304058
 30
0.0
 11
272.3670820470343
 21
493.2638627552391
 31
0.0
  0
LINE
  5
137
  8
0
  6
CONTINUOUS
 62
     7
 10
271.413129267342
 20
493.2403965779907
 30
0.0
 11
272.3670820470343
 21
493.2452030304058
 31
0.0
  0
LINE
  5
138
  8
0
  6
CONTINUOUS
 62
     7
 10
271.4055530214681
 20
493.2403580178087
 30
0.0
 11
271.413129267342
 21
493.2403965779908
 31
0.0
  0
LINE
  5
139
  8
0
  6
CONTINUOUS
 62
     9
 10
272.3670820470343
 20
536.7577778900646
 30
0.0
 11
272.3670820470343
 21
536.7638627552391
 31
0.0
  0
LINE
  5
13A
  8
0
  6
CONTINUOUS
 62
     7
 10
271.3881331492122
 20
536.7577778900646
 30
0.0
 11
272.3670820470343
 21
536.7577778900646
 31
0.0
  0
LINE
  5
13B
  8
0
  6
CONTINUOUS
 62
     9
 10
340.7670820470343
 20
538.3122417151191
 30
0.0
 11
340.7670820470343
 21
538.2935819902857
 31
0.0
  0
LINE
  5
13C
  8
0
  6
CONTINUOUS
 62
     7
 10
341.7210348267267
 20
538.3170481675342
 30
0.0
 11
340.7670820470343
 21
538.3122417151191
 31
0.0
  0
LINE
  5
13D
  8
0
  6
CONTINUOUS
 62
     7
 10
341.7286110726005
 20
538.3170867277162
 30
0.0
 11
341.7210348267267
 21
538.3170481675342
 31
0.0
  0
LINE
  5
13E
  8
0
  6
CONTINUOUS
 62
     9
 10
272.3670820470343
 20
538.2935819902857
 30
0.0
 11
272.3670820470343
 21
538.3122417151191
 31
0.0
  0
LINE
  5
13F
  8
0
  6
CONTINUOUS
 62
     7
 10
271.413129267342
 20
538.3170481675342
 30
0.0
 11
271.4055530214681
 21
538.3170867277162
 31
0.0
  0
LINE
  5
140
  8
0
  6
CONTINUOUS
 62
     7
 10
272.3670820470343
 20
538.3122417151191
 30
0.0
 11
271.413129267342
 21
538.3170481675342
 31
0.0
  0
LINE
  5
141
  8
0
  6
CONTINUOUS
 62
     7
 10
341.7460309448564
 20
536.7577778900646
 30
0.0
 11
340.7670820470343
 21
536.7577778900646
 31
0.0
  0
LINE
  5
142
  8
0
  6
CONTINUOUS
 62
     9
 10
340.7670820470343
 20
536.7638627552391
 30
0.0
 11
340.7670820470343
 21
536.7577778900646
 31
0.0
  0
LINE
  5
143
  8
0
  6
CONTINUOUS
 62
     7
 10
271.3881331492122
 20
494.7996668554603
 30
0.0
 11
272.3670820470343
 21
494.7996668554603
 31
0.0
  0
LINE
  5
144
  8
0
  6
CONTINUOUS
 62
     9
 10
272.3670820470343
 20
494.7935819902858
 30
0.0
 11
272.3670820470343
 21
494.7996668554603
 31
0.0
  0
LINE
  5
145
  8
0
  6
CONTINUOUS
 62
     9
 10
340.7670820470343
 20
493.2638627552391
 30
0.0
 11
340.7670820470343
 21
493.2452030304058
 31
0.0
  0
LINE
  5
146
  8
0
  6
CONTINUOUS
 62
     7
 10
341.7210348267267
 20
493.2403965779908
 30
0.0
 11
341.7286110726005
 21
493.2403580178087
 31
0.0
  0
LINE
  5
147
  8
0
  6
CONTINUOUS
 62
     7
 10
340.7670820470343
 20
493.2452030304058
 30
0.0
 11
341.7210348267267
 21
493.2403965779907
 31
0.0
  0
LINE
  5
148
  8
0
  6
CONTINUOUS
 62
     9
 10
340.7670820470343
 20
494.7996668554603
 30
0.0
 11
340.7670820470343
 21
494.7935819902858
 31
0.0
  0
LINE
  5
149
  8
0
  6
CONTINUOUS
 62
     7
 10
341.7460309448564
 20
494.7996668554603
 30
0.0
 11
340.7670820470343
 21
494.7996668554603
 31
0.0
  0
POLYLINE
  5
14A
  8
0
  6
CONTINUOUS
 62
     9
 66
     1
 10
0.0
 20
0.0
 30
0.0
  0
VERTEX
  5
57D
  8
0
  6
CONTINUOUS
 62
     9
 10
272.8670820470343
 20
537.8122607535869
 30
0.0
  0
VERTEX
  5
57E
  8
0
  6
CONTINUOUS
 62
     9
 10
272.8574746872359
 20
537.9098022003741
 30
0.0
  0
VERTEX
  5
57F
  8
0
  6
CONTINUOUS
 62
     9
 10
272.82902181329
 20
538.0035951840632
 30
0.0
  0
VERTEX
  5
580
  8
0
  6
CONTINUOUS
 62
     9
 10
272.7828168531856
 20
538.0900352928907
 30
0.0
  0
VERTEX
  5
581
  8
0
  6
CONTINUOUS
 62
     9
 10
272.7206354376276
 20
538.1658006819504
 30
0.0
  0
VERTEX
  5
582
  8
0
  6
CONTINUOUS
 62
     9
 10
272.6448671635442
 20
538.2279797298306
 30
0.0
  0
VERTEX
  5
583
  8
0
  6
CONTINUOUS
 62
     9
 10
272.5584237632169
 20
538.2741829305918
 30
0.0
  0
VERTEX
  5
584
  8
0
  6
CONTINUOUS
 62
     9
 10
272.4646272080424
 20
538.3026347211395
 30
0.0
  0
VERTEX
  5
585
  8
0
  6
CONTINUOUS
 62
     9
 10
272.3670820470344
 20
538.3122417151191
 30
0.0
  0
SEQEND
  5
904
  8
0
  6
CONTINUOUS
 62
     9
  0
LINE
  5
14B
  8
0
  6
CONTINUOUS
 62
     7
 10
272.8670820470343
 20
537.812260753587
 30
0.0
 11
272.8670820470343
 21
537.7917936352557
 31
0.0
  0
LINE
  5
14C
  8
0
  6
CONTINUOUS
 62
     7
 10
272.8670820470343
 20
494.3040112501628
 30
0.0
 11
272.8670820470343
 21
494.2917936352557
 31
0.0
  0
POLYLINE
  5
14D
  8
0
  6
CONTINUOUS
 62
     7
 66
     1
 10
0.0
 20
0.0
 30
0.0
  0
VERTEX
  5
586
  8
0
  6
CONTINUOUS
 62
     7
 10
272.8670820470343
 20
494.3040112501628
 30
0.0
  0
VERTEX
  5
587
  8
0
  6
CONTINUOUS
 62
     7
 10
272.8664797751369
 20
494.3283319179821
 30
0.0
  0
VERTEX
  5
588
  8
0
  6
CONTINUOUS
 62
     7
 10
272.8646744103704
 20
494.3525939951823
 30
0.0
  0
VERTEX
  5
589
  8
0
  6
CONTINUOUS
 62
     7
 10
272.8616703020167
 20
494.3767390322945
 30
0.0
  0
VERTEX
  5
58A
  8
0
  6
CONTINUOUS
 62
     7
 10
272.8574746872359
 20
494.4007088618093
 30
0.0
  0
VERTEX
  5
58B
  8
0
  6
CONTINUOUS
 62
     7
 10
272.8520976736315
 20
494.424445738308
 30
0.0
  0
VERTEX
  5
58C
  8
0
  6
CONTINUOUS
 62
     7
 10
272.8455522149004
 20
494.4478924775759
 30
0.0
  0
VERTEX
  5
58D
  8
0
  6
CONTINUOUS
 62
     7
 10
272.8378540796258
 20
494.4709925943644
 30
0.0
  0
VERTEX
  5
58E
  8
0
  6
CONTINUOUS
 62
     7
 10
272.82902181329
 20
494.493690438469
 30
0.0
  0
VERTEX
  5
58F
  8
0
  6
CONTINUOUS
 62
     7
 10
272.819076693596
 20
494.515931328795
 30
0.0
  0
VERTEX
  5
590
  8
0
  6
CONTINUOUS
 62
     7
 10
272.8080426792084
 20
494.5376616850895
 30
0.0
  0
VERTEX
  5
591
  8
0
  6
CONTINUOUS
 62
     7
 10
272.7959463520344
 20
494.558829157021
 30
0.0
  0
VERTEX
  5
592
  8
0
  6
CONTINUOUS
 62
     7
 10
272.7828168531856
 20
494.5793827502953
 30
0.0
  0
VERTEX
  5
593
  8
0
  6
CONTINUOUS
 62
     7
 10
272.7686858127746
 20
494.5992729495062
 30
0.0
  0
VERTEX
  5
594
  8
0
  6
CONTINUOUS
 62
     7
 10
272.7535872737157
 20
494.6184518374216
 30
0.0
  0
VERTEX
  5
595
  8
0
  6
CONTINUOUS
 62
     7
 10
272.7375576097118
 20
494.6368732104204
 30
0.0
  0
VERTEX
  5
596
  8
0
  6
CONTINUOUS
 62
     7
 10
272.7206354376276
 20
494.6544926898018
 30
0.0
  0
VERTEX
  5
597
  8
0
  6
CONTINUOUS
 62
     7
 10
272.7028615244578
 20
494.6712678286964
 30
0.0
  0
VERTEX
  5
598
  8
0
  6
CONTINUOUS
 62
     7
 10
272.6842786891161
 20
494.6871582143256
 30
0.0
  0
VERTEX
  5
599
  8
0
  6
CONTINUOUS
 62
     7
 10
272.6649316992805
 20
494.7021255653583
 30
0.0
  0
VERTEX
  5
59A
  8
0
  6
CONTINUOUS
 62
     7
 10
272.6448671635441
 20
494.7161338241351
 30
0.0
  0
VERTEX
  5
59B
  8
0
  6
CONTINUOUS
 62
     7
 10
272.6241334191309
 20
494.7291492435334
 30
0.0
  0
VERTEX
  5
59C
  8
0
  6
CONTINUOUS
 62
     7
 10
272.6027804154473
 20
494.741140468268
 30
0.0
  0
VERTEX
  5
59D
  8
0
  6
CONTINUOUS
 62
     7
 10
272.5808595937494
 20
494.7520786104283
 30
0.0
  0
VERTEX
  5
59E
  8
0
  6
CONTINUOUS
 62
     7
 10
272.5584237632168
 20
494.7619373190716
 30
0.0
  0
VERTEX
  5
59F
  8
0
  6
CONTINUOUS
 62
     7
 10
272.5355269737304
 20
494.7706928437053
 30
0.0
  0
VERTEX
  5
5A0
  8
0
  6
CONTINUOUS
 62
     7
 10
272.5122243856615
 20
494.7783240915037
 30
0.0
  0
VERTEX
  5
5A1
  8
0
  6
CONTINUOUS
 62
     7
 10
272.488572136986
 20
494.7848126781224
 30
0.0
  0
VERTEX
  5
5A2
  8
0
  6
CONTINUOUS
 62
     7
 10
272.4646272080424
 20
494.7901429719878
 30
0.0
  0
VERTEX
  5
5A3
  8
0
  6
CONTINUOUS
 62
     7
 10
272.4404472842619
 20
494.7943021319554
 30
0.0
  0
VERTEX
  5
5A4
  8
0
  6
CONTINUOUS
 62
     7
 10
272.4160906171991
 20
494.7972801382443
 30
0.0
  0
VERTEX
  5
5A5
  8
0
  6
CONTINUOUS
 62
     7
 10
272.391615884198
 20
494.7990698165765
 30
0.0
  0
VERTEX
  5
5A6
  8
0
  6
CONTINUOUS
 62
     7
 10
272.3670820470343
 20
494.7996668554603
 30
0.0
  0
SEQEND
  5
905
  8
0
  6
CONTINUOUS
 62
     7
  0
POLYLINE
  5
14E
  8
0
  6
CONTINUOUS
 62
     7
 66
     1
 10
0.0
 20
0.0
 30
0.0
  0
VERTEX
  5
5A7
  8
0
  6
CONTINUOUS
 62
     7
 10
340.7670820470343
 20
536.7577778900646
 30
0.0
  0
VERTEX
  5
5A8
  8
0
  6
CONTINUOUS
 62
     7
 10
340.7425482098706
 20
536.7583749289483
 30
0.0
  0
VERTEX
  5
5A9
  8
0
  6
CONTINUOUS
 62
     7
 10
340.7180734768696
 20
536.7601646072806
 30
0.0
  0
VERTEX
  5
5AA
  8
0
  6
CONTINUOUS
 62
     7
 10
340.6937168098066
 20
536.7631426135695
 30
0.0
  0
VERTEX
  5
5AB
  8
0
  6
CONTINUOUS
 62
     7
 10
340.6695368860263
 20
536.7673017735369
 30
0.0
  0
VERTEX
  5
5AC
  8
0
  6
CONTINUOUS
 62
     7
 10
340.6455919570827
 20
536.7726320674025
 30
0.0
  0
VERTEX
  5
5AD
  8
0
  6
CONTINUOUS
 62
     7
 10
340.6219397084071
 20
536.7791206540212
 30
0.0
  0
VERTEX
  5
5AE
  8
0
  6
CONTINUOUS
 62
     7
 10
340.5986371203382
 20
536.7867519018196
 30
0.0
  0
VERTEX
  5
5AF
  8
0
  6
CONTINUOUS
 62
     7
 10
340.5757403308517
 20
536.7955074264534
 30
0.0
  0
VERTEX
  5
5B0
  8
0
  6
CONTINUOUS
 62
     7
 10
340.5533045003191
 20
536.8053661350965
 30
0.0
  0
VERTEX
  5
5B1
  8
0
  6
CONTINUOUS
 62
     7
 10
340.5313836786214
 20
536.8163042772568
 30
0.0
  0
VERTEX
  5
5B2
  8
0
  6
CONTINUOUS
 62
     7
 10
340.5100306749377
 20
536.8282955019914
 30
0.0
  0
VERTEX
  5
5B3
  8
0
  6
CONTINUOUS
 62
     7
 10
340.4892969305245
 20
536.8413109213899
 30
0.0
  0
VERTEX
  5
5B4
  8
0
  6
CONTINUOUS
 62
     7
 10
340.4692323947881
 20
536.8553191801666
 30
0.0
  0
VERTEX
  5
5B5
  8
0
  6
CONTINUOUS
 62
     7
 10
340.4498854049525
 20
536.8702865311993
 30
0.0
  0
VERTEX
  5
5B6
  8
0
  6
CONTINUOUS
 62
     7
 10
340.4313025696108
 20
536.8861769168285
 30
0.0
  0
VERTEX
  5
5B7
  8
0
  6
CONTINUOUS
 62
     7
 10
340.413528656441
 20
536.9029520557232
 30
0.0
  0
VERTEX
  5
5B8
  8
0
  6
CONTINUOUS
 62
     7
 10
340.3966064843568
 20
536.9205715351044
 30
0.0
  0
VERTEX
  5
5B9
  8
0
  6
CONTINUOUS
 62
     7
 10
340.3805768203529
 20
536.9389929081033
 30
0.0
  0
VERTEX
  5
5BA
  8
0
  6
CONTINUOUS
 62
     7
 10
340.365478281294
 20
536.9581717960186
 30
0.0
  0
VERTEX
  5
5BB
  8
0
  6
CONTINUOUS
 62
     7
 10
340.3513472408831
 20
536.9780619952296
 30
0.0
  0
VERTEX
  5
5BC
  8
0
  6
CONTINUOUS
 62
     7
 10
340.3382177420342
 20
536.9986155885039
 30
0.0
  0
VERTEX
  5
5BD
  8
0
  6
CONTINUOUS
 62
     7
 10
340.3261214148601
 20
537.0197830604354
 30
0.0
  0
VERTEX
  5
5BE
  8
0
  6
CONTINUOUS
 62
     7
 10
340.3150874004726
 20
537.0415134167299
 30
0.0
  0
VERTEX
  5
5BF
  8
0
  6
CONTINUOUS
 62
     7
 10
340.3051422807787
 20
537.0637543070559
 30
0.0
  0
VERTEX
  5
5C0
  8
0
  6
CONTINUOUS
 62
     7
 10
340.2963100144428
 20
537.0864521511604
 30
0.0
  0
VERTEX
  5
5C1
  8
0
  6
CONTINUOUS
 62
     7
 10
340.2886118791682
 20
537.109552267949
 30
0.0
  0
VERTEX
  5
5C2
  8
0
  6
CONTINUOUS
 62
     7
 10
340.282066420437
 20
537.1329990072169
 30
0.0
  0
VERTEX
  5
5C3
  8
0
  6
CONTINUOUS
 62
     7
 10
340.2766894068327
 20
537.1567358837154
 30
0.0
  0
VERTEX
  5
5C4
  8
0
  6
CONTINUOUS
 62
     7
 10
340.2724937920519
 20
537.1807057132304
 30
0.0
  0
VERTEX
  5
5C5
  8
0
  6
CONTINUOUS
 62
     7
 10
340.2694896836982
 20
537.2048507503425
 30
0.0
  0
VERTEX
  5
5C6
  8
0
  6
CONTINUOUS
 62
     7
 10
340.2676843189317
 20
537.2291128275428
 30
0.0
  0
VERTEX
  5
5C7
  8
0
  6
CONTINUOUS
 62
     7
 10
340.2670820470343
 20
537.2534334953622
 30
0.0
  0
SEQEND
  5
906
  8
0
  6
CONTINUOUS
 62
     7
  0
LINE
  5
14F
  8
0
  6
CONTINUOUS
 62
     7
 10
340.2670820470343
 20
537.2534334953622
 30
0.0
 11
340.2670820470343
 21
537.2656511102691
 31
0.0
  0
LINE
  5
150
  8
0
  6
CONTINUOUS
 62
     7
 10
272.8670820470343
 20
537.2656511102691
 30
0.0
 11
272.8670820470343
 21
537.2534334953622
 31
0.0
  0
POLYLINE
  5
151
  8
0
  6
CONTINUOUS
 62
     7
 66
     1
 10
0.0
 20
0.0
 30
0.0
  0
VERTEX
  5
5C8
  8
0
  6
CONTINUOUS
 62
     7
 10
272.8670820470343
 20
537.2534334953622
 30
0.0
  0
VERTEX
  5
5C9
  8
0
  6
CONTINUOUS
 62
     7
 10
272.8664797751369
 20
537.2291128275428
 30
0.0
  0
VERTEX
  5
5CA
  8
0
  6
CONTINUOUS
 62
     7
 10
272.8646744103704
 20
537.2048507503425
 30
0.0
  0
VERTEX
  5
5CB
  8
0
  6
CONTINUOUS
 62
     7
 10
272.8616703020167
 20
537.1807057132304
 30
0.0
  0
VERTEX
  5
5CC
  8
0
  6
CONTINUOUS
 62
     7
 10
272.8574746872359
 20
537.1567358837154
 30
0.0
  0
VERTEX
  5
5CD
  8
0
  6
CONTINUOUS
 62
     7
 10
272.8520976736315
 20
537.1329990072169
 30
0.0
  0
VERTEX
  5
5CE
  8
0
  6
CONTINUOUS
 62
     7
 10
272.8455522149004
 20
537.109552267949
 30
0.0
  0
VERTEX
  5
5CF
  8
0
  6
CONTINUOUS
 62
     7
 10
272.8378540796258
 20
537.0864521511603
 30
0.0
  0
VERTEX
  5
5D0
  8
0
  6
CONTINUOUS
 62
     7
 10
272.82902181329
 20
537.0637543070559
 30
0.0
  0
VERTEX
  5
5D1
  8
0
  6
CONTINUOUS
 62
     7
 10
272.819076693596
 20
537.0415134167299
 30
0.0
  0
VERTEX
  5
5D2
  8
0
  6
CONTINUOUS
 62
     7
 10
272.8080426792084
 20
537.0197830604354
 30
0.0
  0
VERTEX
  5
5D3
  8
0
  6
CONTINUOUS
 62
     7
 10
272.7959463520344
 20
536.9986155885039
 30
0.0
  0
VERTEX
  5
5D4
  8
0
  6
CONTINUOUS
 62
     7
 10
272.7828168531856
 20
536.9780619952295
 30
0.0
  0
VERTEX
  5
5D5
  8
0
  6
CONTINUOUS
 62
     7
 10
272.7686858127746
 20
536.9581717960185
 30
0.0
  0
VERTEX
  5
5D6
  8
0
  6
CONTINUOUS
 62
     7
 10
272.7535872737157
 20
536.9389929081033
 30
0.0
  0
VERTEX
  5
5D7
  8
0
  6
CONTINUOUS
 62
     7
 10
272.7375576097118
 20
536.9205715351044
 30
0.0
  0
VERTEX
  5
5D8
  8
0
  6
CONTINUOUS
 62
     7
 10
272.7206354376276
 20
536.9029520557232
 30
0.0
  0
VERTEX
  5
5D9
  8
0
  6
CONTINUOUS
 62
     7
 10
272.7028615244578
 20
536.8861769168285
 30
0.0
  0
VERTEX
  5
5DA
  8
0
  6
CONTINUOUS
 62
     7
 10
272.6842786891161
 20
536.8702865311993
 30
0.0
  0
VERTEX
  5
5DB
  8
0
  6
CONTINUOUS
 62
     7
 10
272.6649316992805
 20
536.8553191801666
 30
0.0
  0
VERTEX
  5
5DC
  8
0
  6
CONTINUOUS
 62
     7
 10
272.6448671635441
 20
536.8413109213899
 30
0.0
  0
VERTEX
  5
5DD
  8
0
  6
CONTINUOUS
 62
     7
 10
272.6241334191309
 20
536.8282955019914
 30
0.0
  0
VERTEX
  5
5DE
  8
0
  6
CONTINUOUS
 62
     7
 10
272.6027804154473
 20
536.8163042772568
 30
0.0
  0
VERTEX
  5
5DF
  8
0
  6
CONTINUOUS
 62
     7
 10
272.5808595937494
 20
536.8053661350965
 30
0.0
  0
VERTEX
  5
5E0
  8
0
  6
CONTINUOUS
 62
     7
 10
272.5584237632168
 20
536.7955074264532
 30
0.0
  0
VERTEX
  5
5E1
  8
0
  6
CONTINUOUS
 62
     7
 10
272.5355269737304
 20
536.7867519018196
 30
0.0
  0
VERTEX
  5
5E2
  8
0
  6
CONTINUOUS
 62
     7
 10
272.5122243856615
 20
536.7791206540212
 30
0.0
  0
VERTEX
  5
5E3
  8
0
  6
CONTINUOUS
 62
     7
 10
272.488572136986
 20
536.7726320674025
 30
0.0
  0
VERTEX
  5
5E4
  8
0
  6
CONTINUOUS
 62
     7
 10
272.4646272080424
 20
536.7673017735369
 30
0.0
  0
VERTEX
  5
5E5
  8
0
  6
CONTINUOUS
 62
     7
 10
272.4404472842619
 20
536.7631426135695
 30
0.0
  0
VERTEX
  5
5E6
  8
0
  6
CONTINUOUS
 62
     7
 10
272.4160906171991
 20
536.7601646072806
 30
0.0
  0
VERTEX
  5
5E7
  8
0
  6
CONTINUOUS
 62
     7
 10
272.391615884198
 20
536.7583749289483
 30
0.0
  0
VERTEX
  5
5E8
  8
0
  6
CONTINUOUS
 62
     7
 10
272.3670820470343
 20
536.7577778900646
 30
0.0
  0
SEQEND
  5
907
  8
0
  6
CONTINUOUS
 62
     7
  0
POLYLINE
  5
152
  8
0
  6
CONTINUOUS
 62
     9
 66
     1
 10
0.0
 20
0.0
 30
0.0
  0
VERTEX
  5
5E9
  8
0
  6
CONTINUOUS
 62
     9
 10
340.2670820470343
 20
493.7451839919379
 30
0.0
  0
VERTEX
  5
5EA
  8
0
  6
CONTINUOUS
 62
     9
 10
340.2766894068327
 20
493.6476425451507
 30
0.0
  0
VERTEX
  5
5EB
  8
0
  6
CONTINUOUS
 62
     9
 10
340.3051422807787
 20
493.5538495614616
 30
0.0
  0
VERTEX
  5
5EC
  8
0
  6
CONTINUOUS
 62
     9
 10
340.3513472408831
 20
493.4674094526342
 30
0.0
  0
VERTEX
  5
5ED
  8
0
  6
CONTINUOUS
 62
     9
 10
340.413528656441
 20
493.3916440635744
 30
0.0
  0
VERTEX
  5
5EE
  8
0
  6
CONTINUOUS
 62
     9
 10
340.4892969305245
 20
493.3294650156942
 30
0.0
  0
VERTEX
  5
5EF
  8
0
  6
CONTINUOUS
 62
     9
 10
340.5757403308518
 20
493.2832618149331
 30
0.0
  0
VERTEX
  5
5F0
  8
0
  6
CONTINUOUS
 62
     9
 10
340.6695368860263
 20
493.2548100243854
 30
0.0
  0
VERTEX
  5
5F1
  8
0
  6
CONTINUOUS
 62
     9
 10
340.7670820470343
 20
493.2452030304058
 30
0.0
  0
SEQEND
  5
908
  8
0
  6
CONTINUOUS
 62
     9
  0
LINE
  5
153
  8
0
  6
CONTINUOUS
 62
     7
 10
340.2670820470343
 20
493.7451839919379
 30
0.0
 11
340.2670820470343
 21
493.7656511102691
 31
0.0
  0
LINE
  5
154
  8
0
  6
CONTINUOUS
 62
     7
 10
272.8670820470343
 20
493.7656511102691
 30
0.0
 11
272.8670820470343
 21
493.7451839919379
 31
0.0
  0
POLYLINE
  5
155
  8
0
  6
CONTINUOUS
 62
     9
 66
     1
 10
0.0
 20
0.0
 30
0.0
  0
VERTEX
  5
5F2
  8
0
  6
CONTINUOUS
 62
     9
 10
272.3670820470343
 20
493.2452030304058
 30
0.0
  0
VERTEX
  5
5F3
  8
0
  6
CONTINUOUS
 62
     9
 10
272.4646272080423
 20
493.2548100243854
 30
0.0
  0
VERTEX
  5
5F4
  8
0
  6
CONTINUOUS
 62
     9
 10
272.5584237632168
 20
493.2832618149331
 30
0.0
  0
VERTEX
  5
5F5
  8
0
  6
CONTINUOUS
 62
     9
 10
272.6448671635441
 20
493.3294650156942
 30
0.0
  0
VERTEX
  5
5F6
  8
0
  6
CONTINUOUS
 62
     9
 10
272.7206354376275
 20
493.3916440635744
 30
0.0
  0
VERTEX
  5
5F7
  8
0
  6
CONTINUOUS
 62
     9
 10
272.7828168531855
 20
493.4674094526342
 30
0.0
  0
VERTEX
  5
5F8
  8
0
  6
CONTINUOUS
 62
     9
 10
272.8290218132899
 20
493.5538495614616
 30
0.0
  0
VERTEX
  5
5F9
  8
0
  6
CONTINUOUS
 62
     9
 10
272.8574746872359
 20
493.6476425451507
 30
0.0
  0
VERTEX
  5
5FA
  8
0
  6
CONTINUOUS
 62
     9
 10
272.8670820470343
 20
493.7451839919379
 30
0.0
  0
SEQEND
  5
909
  8
0
  6
CONTINUOUS
 62
     9
  0
LINE
  5
156
  8
0
  6
CONTINUOUS
 62
     7
 10
340.2670820470343
 20
537.7917936352557
 30
0.0
 11
340.2670820470343
 21
537.812260753587
 31
0.0
  0
POLYLINE
  5
157
  8
0
  6
CONTINUOUS
 62
     9
 66
     1
 10
0.0
 20
0.0
 30
0.0
  0
VERTEX
  5
5FB
  8
0
  6
CONTINUOUS
 62
     9
 10
340.7670820470343
 20
538.3122417151191
 30
0.0
  0
VERTEX
  5
5FC
  8
0
  6
CONTINUOUS
 62
     9
 10
340.6695368860263
 20
538.3026347211395
 30
0.0
  0
VERTEX
  5
5FD
  8
0
  6
CONTINUOUS
 62
     9
 10
340.5757403308518
 20
538.2741829305918
 30
0.0
  0
VERTEX
  5
5FE
  8
0
  6
CONTINUOUS
 62
     9
 10
340.4892969305245
 20
538.2279797298307
 30
0.0
  0
VERTEX
  5
5FF
  8
0
  6
CONTINUOUS
 62
     9
 10
340.413528656441
 20
538.1658006819505
 30
0.0
  0
VERTEX
  5
600
  8
0
  6
CONTINUOUS
 62
     9
 10
340.3513472408831
 20
538.0900352928908
 30
0.0
  0
VERTEX
  5
601
  8
0
  6
CONTINUOUS
 62
     9
 10
340.3051422807787
 20
538.0035951840633
 30
0.0
  0
VERTEX
  5
602
  8
0
  6
CONTINUOUS
 62
     9
 10
340.2766894068327
 20
537.9098022003742
 30
0.0
  0
VERTEX
  5
603
  8
0
  6
CONTINUOUS
 62
     9
 10
340.2670820470343
 20
537.812260753587
 30
0.0
  0
SEQEND
  5
90A
  8
0
  6
CONTINUOUS
 62
     9
  0
LINE
  5
158
  8
0
  6
CONTINUOUS
 62
     7
 10
340.2670820470343
 20
494.2917936352557
 30
0.0
 11
340.2670820470343
 21
494.3040112501628
 31
0.0
  0
POLYLINE
  5
159
  8
0
  6
CONTINUOUS
 62
     7
 66
     1
 10
0.0
 20
0.0
 30
0.0
  0
VERTEX
  5
604
  8
0
  6
CONTINUOUS
 62
     7
 10
340.2670820470343
 20
494.3040112501628
 30
0.0
  0
VERTEX
  5
605
  8
0
  6
CONTINUOUS
 62
     7
 10
340.2676843189317
 20
494.3283319179821
 30
0.0
  0
VERTEX
  5
606
  8
0
  6
CONTINUOUS
 62
     7
 10
340.2694896836982
 20
494.3525939951823
 30
0.0
  0
VERTEX
  5
607
  8
0
  6
CONTINUOUS
 62
     7
 10
340.2724937920519
 20
494.3767390322945
 30
0.0
  0
VERTEX
  5
608
  8
0
  6
CONTINUOUS
 62
     7
 10
340.2766894068327
 20
494.4007088618093
 30
0.0
  0
VERTEX
  5
609
  8
0
  6
CONTINUOUS
 62
     7
 10
340.282066420437
 20
494.424445738308
 30
0.0
  0
VERTEX
  5
60A
  8
0
  6
CONTINUOUS
 62
     7
 10
340.2886118791682
 20
494.4478924775759
 30
0.0
  0
VERTEX
  5
60B
  8
0
  6
CONTINUOUS
 62
     7
 10
340.2963100144428
 20
494.4709925943644
 30
0.0
  0
VERTEX
  5
60C
  8
0
  6
CONTINUOUS
 62
     7
 10
340.3051422807787
 20
494.493690438469
 30
0.0
  0
VERTEX
  5
60D
  8
0
  6
CONTINUOUS
 62
     7
 10
340.3150874004726
 20
494.5159313287949
 30
0.0
  0
VERTEX
  5
60E
  8
0
  6
CONTINUOUS
 62
     7
 10
340.3261214148601
 20
494.5376616850895
 30
0.0
  0
VERTEX
  5
60F
  8
0
  6
CONTINUOUS
 62
     7
 10
340.3382177420342
 20
494.558829157021
 30
0.0
  0
VERTEX
  5
610
  8
0
  6
CONTINUOUS
 62
     7
 10
340.3513472408831
 20
494.5793827502953
 30
0.0
  0
VERTEX
  5
611
  8
0
  6
CONTINUOUS
 62
     7
 10
340.365478281294
 20
494.5992729495062
 30
0.0
  0
VERTEX
  5
612
  8
0
  6
CONTINUOUS
 62
     7
 10
340.3805768203529
 20
494.6184518374215
 30
0.0
  0
VERTEX
  5
613
  8
0
  6
CONTINUOUS
 62
     7
 10
340.3966064843568
 20
494.6368732104204
 30
0.0
  0
VERTEX
  5
614
  8
0
  6
CONTINUOUS
 62
     7
 10
340.413528656441
 20
494.6544926898018
 30
0.0
  0
VERTEX
  5
615
  8
0
  6
CONTINUOUS
 62
     7
 10
340.4313025696108
 20
494.6712678286964
 30
0.0
  0
VERTEX
  5
616
  8
0
  6
CONTINUOUS
 62
     7
 10
340.4498854049525
 20
494.6871582143256
 30
0.0
  0
VERTEX
  5
617
  8
0
  6
CONTINUOUS
 62
     7
 10
340.4692323947881
 20
494.7021255653583
 30
0.0
  0
VERTEX
  5
618
  8
0
  6
CONTINUOUS
 62
     7
 10
340.4892969305245
 20
494.7161338241351
 30
0.0
  0
VERTEX
  5
619
  8
0
  6
CONTINUOUS
 62
     7
 10
340.5100306749377
 20
494.7291492435334
 30
0.0
  0
VERTEX
  5
61A
  8
0
  6
CONTINUOUS
 62
     7
 10
340.5313836786214
 20
494.741140468268
 30
0.0
  0
VERTEX
  5
61B
  8
0
  6
CONTINUOUS
 62
     7
 10
340.5533045003191
 20
494.7520786104283
 30
0.0
  0
VERTEX
  5
61C
  8
0
  6
CONTINUOUS
 62
     7
 10
340.5757403308517
 20
494.7619373190716
 30
0.0
  0
VERTEX
  5
61D
  8
0
  6
CONTINUOUS
 62
     7
 10
340.5986371203382
 20
494.7706928437053
 30
0.0
  0
VERTEX
  5
61E
  8
0
  6
CONTINUOUS
 62
     7
 10
340.6219397084071
 20
494.7783240915037
 30
0.0
  0
VERTEX
  5
61F
  8
0
  6
CONTINUOUS
 62
     7
 10
340.6455919570827
 20
494.7848126781224
 30
0.0
  0
VERTEX
  5
620
  8
0
  6
CONTINUOUS
 62
     7
 10
340.6695368860263
 20
494.7901429719878
 30
0.0
  0
VERTEX
  5
621
  8
0
  6
CONTINUOUS
 62
     7
 10
340.6937168098066
 20
494.7943021319554
 30
0.0
  0
VERTEX
  5
622
  8
0
  6
CONTINUOUS
 62
     7
 10
340.7180734768696
 20
494.7972801382443
 30
0.0
  0
VERTEX
  5
623
  8
0
  6
CONTINUOUS
 62
     7
 10
340.7425482098706
 20
494.7990698165765
 30
0.0
  0
VERTEX
  5
624
  8
0
  6
CONTINUOUS
 62
     7
 10
340.7670820470343
 20
494.7996668554603
 30
0.0
  0
SEQEND
  5
90B
  8
0
  6
CONTINUOUS
 62
     7
  0
LINE
  5
15A
  8
0
  6
CONTINUOUS
 62
     9
 10
272.3670820470343
 20
494.7996668554603
 30
0.0
 11
272.3670820470343
 21
536.7577778900646
 31
0.0
  0
LINE
  5
15B
  8
0
  6
CONTINUOUS
 62
     9
 10
300.8170820470343
 20
591.9786157532824
 30
0.0
 11
312.3170820470343
 21
591.9786157532824
 31
0.0
  0
LINE
  5
15C
  8
0
  6
CONTINUOUS
 62
     7
 10
272.8670820470343
 20
537.2534334953622
 30
0.0
 11
272.8670820470343
 21
494.3040112501628
 31
0.0
  0
LINE
  5
15D
  8
0
  6
CONTINUOUS
 62
     7
 10
312.8170820470343
 20
591.4786157532824
 30
0.0
 11
300.3170820470343
 21
591.4786157532824
 31
0.0
  0
LINE
  5
15E
  8
0
  6
CONTINUOUS
 62
     9
 10
340.7670820470343
 20
536.7577778900646
 30
0.0
 11
340.7670820470343
 21
494.7996668554603
 31
0.0
  0
LINE
  5
15F
  8
0
  6
CONTINUOUS
 62
     7
 10
340.2670820470343
 20
494.3040112501628
 30
0.0
 11
340.2670820470343
 21
537.2534334953622
 31
0.0
  0
LINE
  5
160
  8
0
  6
CONTINUOUS
 62
     9
 10
277.2351955166923
 20
448.9741523198231
 30
0.0
 11
277.2351955166923
 21
471.2787223727624
 31
0.0
  0
POLYLINE
  5
161
  8
0
  6
CONTINUOUS
 62
     7
 66
     1
 10
0.0
 20
0.0
 30
0.0
  0
VERTEX
  5
625
  8
0
  6
CONTINUOUS
 62
     7
 10
277.2351955166923
 20
448.9741523198231
 30
0.0
  0
VERTEX
  5
626
  8
0
  6
CONTINUOUS
 62
     7
 10
275.8413009052291
 20
448.8813625762888
 30
0.0
  0
VERTEX
  5
627
  8
0
  6
CONTINUOUS
 62
     7
 10
274.8029874932058
 20
448.7765517697619
 30
0.0
  0
VERTEX
  5
628
  8
0
  6
CONTINUOUS
 62
     7
 10
274.1568683173781
 20
448.6634157418521
 30
0.0
  0
VERTEX
  5
629
  8
0
  6
CONTINUOUS
 62
     7
 10
273.9257268503077
 20
448.5459438983593
 30
0.0
  0
SEQEND
  5
90C
  8
0
  6
CONTINUOUS
 62
     7
  0
LINE
  5
162
  8
0
  6
CONTINUOUS
 62
     9
 10
335.8989685773763
 20
448.9741523198231
 30
0.0
 11
335.8989685773763
 21
471.2787223727624
 31
0.0
  0
POLYLINE
  5
163
  8
0
  6
CONTINUOUS
 62
     7
 66
     1
 10
0.0
 20
0.0
 30
0.0
  0
VERTEX
  5
62A
  8
0
  6
CONTINUOUS
 62
     7
 10
339.2084372437608
 20
448.5459438983593
 30
0.0
  0
VERTEX
  5
62B
  8
0
  6
CONTINUOUS
 62
     7
 10
338.9772957766905
 20
448.6634157418521
 30
0.0
  0
VERTEX
  5
62C
  8
0
  6
CONTINUOUS
 62
     7
 10
338.3311766008629
 20
448.7765517697619
 30
0.0
  0
VERTEX
  5
62D
  8
0
  6
CONTINUOUS
 62
     7
 10
337.2928631888395
 20
448.8813625762888
 30
0.0
  0
VERTEX
  5
62E
  8
0
  6
CONTINUOUS
 62
     7
 10
335.8989685773763
 20
448.9741523198231
 30
0.0
  0
SEQEND
  5
90D
  8
0
  6
CONTINUOUS
 62
     7
  0
LINE
  5
164
  8
0
  6
CONTINUOUS
 62
     7
 10
289.5670820470343
 20
449.6528222870069
 30
0.0
 11
289.5670820470343
 21
471.2787223727624
 31
0.0
  0
LINE
  5
165
  8
0
  6
CONTINUOUS
 62
     7
 10
289.5670820470343
 20
449.6528222870069
 30
0.0
 11
277.2351955166923
 21
448.9741523198231
 31
0.0
  0
LINE
  5
166
  8
0
  6
CONTINUOUS
 62
     7
 10
323.5670820470343
 20
449.6528222870069
 30
0.0
 11
323.5670820470343
 21
471.2787223727624
 31
0.0
  0
LINE
  5
167
  8
0
  6
CONTINUOUS
 62
     7
 10
323.5670820470343
 20
449.6528222870069
 30
0.0
 11
335.8989685773763
 21
448.9741523198231
 31
0.0
  0
LINE
  5
168
  8
0
  6
CONTINUOUS
 62
     7
 10
323.5670820470343
 20
449.6528222870069
 30
0.0
 11
289.5670820470342
 21
449.6528222870069
 31
0.0
  0
ARC
  5
169
  8
0
  6
CONTINUOUS
 62
     7
 10
272.3670820470343
 20
537.812260753587
 30
0.0
 40
0.5000000000000004
 50
359.9999999999996
 51
89.71131998002704
  0
ARC
  5
16A
  8
0
  6
CONTINUOUS
 62
     7
 10
272.3670820470343
 20
493.7451839919379
 30
0.0
 40
0.5000000000000471
 50
270.288680019973
 51
0.0
  0
ARC
  5
16B
  8
0
  6
CONTINUOUS
 62
     7
 10
340.7670820470343
 20
537.812260753587
 30
0.0
 40
0.5000000000000471
 50
90.28868001997296
 51
179.9999999999996
  0
ARC
  5
16C
  8
0
  6
CONTINUOUS
 62
     7
 10
340.7670820470343
 20
493.7451839919379
 30
0.0
 40
0.5000000000000004
 50
180.0000000000016
 51
269.711319980027
  0
ENDBLK
  8
0
  0
BLOCK
  8
0
  2
D_FRAME_VIEW_2180
 70
     0
 10
0.0
 20
0.0
 30
0.0
  0
LINE
  5
171
  8
0
  6
CONTINUOUS
 62
     7
 10
75.26516968668045
 20
354.7963056640418
 30
0.0
 11
75.27829806602738
 21
356.300668931791
 31
0.0
  0
POLYLINE
  5
172
  8
0
  6
CONTINUOUS
 62
     9
 66
     1
 10
0.0
 20
0.0
 30
0.0
  0
VERTEX
  5
62F
  8
0
  6
CONTINUOUS
 62
     9
 10
75.77827902755948
 20
356.3224736421633
 30
0.0
  0
VERTEX
  5
630
  8
0
  6
CONTINUOUS
 62
     9
 10
75.68076556569586
 20
356.3228197793967
 30
0.0
  0
VERTEX
  5
631
  8
0
  6
CONTINUOUS
 62
     9
 10
75.5869973196845
 20
356.3221475845635
 30
0.0
  0
VERTEX
  5
632
  8
0
  6
CONTINUOUS
 62
     9
 10
75.5005756622456
 20
356.3204828747633
 30
0.0
  0
VERTEX
  5
633
  8
0
  6
CONTINUOUS
 62
     9
 10
75.42481980444222
 20
356.317889586784
 30
0.0
  0
VERTEX
  5
634
  8
0
  6
CONTINUOUS
 62
     9
 10
75.36263931418563
 20
356.314467321471
 30
0.0
  0
VERTEX
  5
635
  8
0
  6
CONTINUOUS
 62
     9
 10
75.31642236797329
 20
356.3103475183411
 30
0.0
  0
VERTEX
  5
636
  8
0
  6
CONTINUOUS
 62
     9
 10
75.28794402779448
 20
356.3056884073627
 30
0.0
  0
VERTEX
  5
637
  8
0
  6
CONTINUOUS
 62
     9
 10
75.27829806602738
 20
356.300668931791
 30
0.0
  0
SEQEND
  5
90E
  8
0
  6
CONTINUOUS
 62
     9
  0
LINE
  5
173
  8
0
  6
CONTINUOUS
 62
     9
 10
75.77827902755946
 20
356.3224736421633
 30
0.0
 11
75.76496036138788
 21
354.7963056640418
 31
0.0
  0
LINE
  5
174
  8
0
  6
CONTINUOUS
 62
     9
 10
89.71536793437653
 20
364.3224736421633
 30
0.0
 11
88.20435514970235
 21
364.3224736421633
 31
0.0
  0
LINE
  5
175
  8
0
  6
CONTINUOUS
 62
     7
 10
88.76118625955893
 20
355.244041432408
 30
0.0
 11
89.71536793437653
 21
364.3224736421633
 31
0.0
  0
LINE
  5
176
  8
0
  6
CONTINUOUS
 62
     9
 10
87.36352126757696
 20
356.3224736421633
 30
0.0
 11
75.77827902755946
 21
356.3224736421633
 31
0.0
  0
LINE
  5
177
  8
0
  6
CONTINUOUS
 62
     9
 10
88.20435514970235
 20
364.3224736421633
 30
0.0
 11
87.36352126757696
 21
356.3224736421633
 31
0.0
  0
POLYLINE
  5
178
  8
0
  6
CONTINUOUS
 62
     7
 66
     1
 10
0.0
 20
0.0
 30
0.0
  0
VERTEX
  5
638
  8
0
  6
CONTINUOUS
 62
     7
 10
88.26392531187477
 20
354.7963056640418
 30
0.0
  0
VERTEX
  5
639
  8
0
  6
CONTINUOUS
 62
     7
 10
88.28682474534304
 20
354.7968303233624
 30
0.0
  0
VERTEX
  5
63A
  8
0
  6
CONTINUOUS
 62
     7
 10
88.30967612120648
 20
354.7984032002545
 30
0.0
  0
VERTEX
  5
63B
  8
0
  6
CONTINUOUS
 62
     7
 10
88.33243148271576
 20
354.80102099382
 30
0.0
  0
VERTEX
  5
63C
  8
0
  6
CONTINUOUS
 62
     7
 10
88.35504307462085
 20
354.8046782102599
 30
0.0
  0
VERTEX
  5
63D
  8
0
  6
CONTINUOUS
 62
     7
 10
88.37746344339196
 20
354.8093671744032
 30
0.0
  0
VERTEX
  5
63E
  8
0
  6
CONTINUOUS
 62
     7
 10
88.39964553680731
 20
354.815078045815
 30
0.0
  0
VERTEX
  5
63F
  8
0
  6
CONTINUOUS
 62
     7
 10
88.42154280269867
 20
354.8217988394478
 30
0.0
  0
VERTEX
  5
640
  8
0
  6
CONTINUOUS
 62
     7
 10
88.44310928664743
 20
354.8295154507933
 30
0.0
  0
VERTEX
  5
641
  8
0
  6
CONTINUOUS
 62
     7
 10
88.46429972842634
 20
354.8382116854833
 30
0.0
  0
VERTEX
  5
642
  8
0
  6
CONTINUOUS
 62
     7
 10
88.48506965698428
 20
354.8478692932755
 30
0.0
  0
VERTEX
  5
643
  8
0
  6
CONTINUOUS
 62
     7
 10
88.5053754837748
 20
354.8584680063541
 30
0.0
  0
VERTEX
  5
644
  8
0
  6
CONTINUOUS
 62
     7
 10
88.52517459423275
 20
354.8699855818648
 30
0.0
  0
VERTEX
  5
645
  8
0
  6
CONTINUOUS
 62
     7
 10
88.54442543720678
 20
354.8823978485941
 30
0.0
  0
VERTEX
  5
646
  8
0
  6
CONTINUOUS
 62
     7
 10
88.56308761216012
 20
354.8956787576963
 30
0.0
  0
VERTEX
  5
647
  8
0
  6
CONTINUOUS
 62
     7
 10
88.58112195395661
 20
354.9098004373604
 30
0.0
  0
VERTEX
  5
648
  8
0
  6
CONTINUOUS
 62
     7
 10
88.59849061505422
 20
354.9247332513031
 30
0.0
  0
VERTEX
  5
649
  8
0
  6
CONTINUOUS
 62
     7
 10
88.6151571449332
 20
354.9404458609642
 30
0.0
  0
VERTEX
  5
64A
  8
0
  6
CONTINUOUS
 62
     7
 10
88.63108656659263
 20
354.9569052912753
 30
0.0
  0
VERTEX
  5
64B
  8
0
  6
CONTINUOUS
 62
     7
 10
88.64624544995428
 20
354.9740769998624
 30
0.0
  0
VERTEX
  5
64C
  8
0
  6
CONTINUOUS
 62
     7
 10
88.6606019820204
 20
354.9919249495375
 30
0.0
  0
VERTEX
  5
64D
  8
0
  6
CONTINUOUS
 62
     7
 10
88.67412603363753
 20
355.0104116839281
 30
0.0
  0
VERTEX
  5
64E
  8
0
  6
CONTINUOUS
 62
     7
 10
88.68678922272677
 20
355.029498406084
 30
0.0
  0
VERTEX
  5
64F
  8
0
  6
CONTINUOUS
 62
     7
 10
88.69856497384735
 20
355.0491450598988
 30
0.0
  0
VERTEX
  5
650
  8
0
  6
CONTINUOUS
 62
     7
 10
88.70942857396898
 20
355.069310414172
 30
0.0
  0
VERTEX
  5
651
  8
0
  6
CONTINUOUS
 62
     7
 10
88.71935722433538
 20
355.0899521491396
 30
0.0
  0
VERTEX
  5
652
  8
0
  6
CONTINUOUS
 62
     7
 10
88.72833008831076
 20
355.1110269452869
 30
0.0
  0
VERTEX
  5
653
  8
0
  6
CONTINUOUS
 62
     7
 10
88.73632833510823
 20
355.132490574261
 30
0.0
  0
VERTEX
  5
654
  8
0
  6
CONTINUOUS
 62
     7
 10
88.74333517930887
 20
355.1542979916899
 30
0.0
  0
VERTEX
  5
655
  8
0
  6
CONTINUOUS
 62
     7
 10
88.74933591608824
 20
355.1764034317143
 30
0.0
  0
VERTEX
  5
656
  8
0
  6
CONTINUOUS
 62
     7
 10
88.7543179520764
 20
355.1987605030338
 30
0.0
  0
VERTEX
  5
657
  8
0
  6
CONTINUOUS
 62
     7
 10
88.75827083178687
 20
355.2213222862649
 30
0.0
  0
VERTEX
  5
658
  8
0
  6
CONTINUOUS
 62
     7
 10
88.76118625955893
 20
355.244041432408
 30
0.0
  0
SEQEND
  5
90F
  8
0
  6
CONTINUOUS
 62
     7
  0
LINE
  5
179
  8
0
  6
CONTINUOUS
 62
     7
 10
26.76915311380201
 20
355.244041432408
 30
0.0
 11
25.8149714389844
 21
364.3224736421633
 31
0.0
  0
LINE
  5
17A
  8
0
  6
CONTINUOUS
 62
     9
 10
27.32598422365858
 20
364.3224736421633
 30
0.0
 11
25.8149714389844
 21
364.3224736421633
 31
0.0
  0
LINE
  5
17B
  8
0
  6
CONTINUOUS
 62
     9
 10
28.16681810578399
 20
356.3224736421633
 30
0.0
 11
27.32598422365858
 21
364.3224736421633
 31
0.0
  0
LINE
  5
17C
  8
0
  6
CONTINUOUS
 62
     9
 10
39.68587184475694
 20
356.3224736421633
 30
0.0
 11
28.16681810578399
 21
356.3224736421633
 31
0.0
  0
LINE
  5
17D
  8
0
  6
CONTINUOUS
 62
     9
 10
39.76585491930318
 20
354.7963056640418
 30
0.0
 11
39.68587184475694
 21
356.3224736421633
 31
0.0
  0
POLYLINE
  5
17E
  8
0
  6
CONTINUOUS
 62
     7
 66
     1
 10
0.0
 20
0.0
 30
0.0
  0
VERTEX
  5
659
  8
0
  6
CONTINUOUS
 62
     7
 10
26.76915311380202
 20
355.244041432408
 30
0.0
  0
VERTEX
  5
65A
  8
0
  6
CONTINUOUS
 62
     7
 10
26.77206854157407
 20
355.2213222862649
 30
0.0
  0
VERTEX
  5
65B
  8
0
  6
CONTINUOUS
 62
     7
 10
26.77602142128454
 20
355.1987605030338
 30
0.0
  0
VERTEX
  5
65C
  8
0
  6
CONTINUOUS
 62
     7
 10
26.78100345727269
 20
355.1764034317143
 30
0.0
  0
VERTEX
  5
65D
  8
0
  6
CONTINUOUS
 62
     7
 10
26.78700419405206
 20
355.1542979916899
 30
0.0
  0
VERTEX
  5
65E
  8
0
  6
CONTINUOUS
 62
     7
 10
26.79401103825271
 20
355.132490574261
 30
0.0
  0
VERTEX
  5
65F
  8
0
  6
CONTINUOUS
 62
     7
 10
26.80200928505019
 20
355.1110269452869
 30
0.0
  0
VERTEX
  5
660
  8
0
  6
CONTINUOUS
 62
     7
 10
26.81098214902556
 20
355.0899521491396
 30
0.0
  0
VERTEX
  5
661
  8
0
  6
CONTINUOUS
 62
     7
 10
26.82091079939197
 20
355.069310414172
 30
0.0
  0
VERTEX
  5
662
  8
0
  6
CONTINUOUS
 62
     7
 10
26.83177439951358
 20
355.0491450598988
 30
0.0
  0
VERTEX
  5
663
  8
0
  6
CONTINUOUS
 62
     7
 10
26.84355015063417
 20
355.029498406084
 30
0.0
  0
VERTEX
  5
664
  8
0
  6
CONTINUOUS
 62
     7
 10
26.8562133397234
 20
355.0104116839281
 30
0.0
  0
VERTEX
  5
665
  8
0
  6
CONTINUOUS
 62
     7
 10
26.86973739134054
 20
354.9919249495375
 30
0.0
  0
VERTEX
  5
666
  8
0
  6
CONTINUOUS
 62
     7
 10
26.88409392340665
 20
354.9740769998624
 30
0.0
  0
VERTEX
  5
667
  8
0
  6
CONTINUOUS
 62
     7
 10
26.89925280676831
 20
354.9569052912753
 30
0.0
  0
VERTEX
  5
668
  8
0
  6
CONTINUOUS
 62
     7
 10
26.91518222842773
 20
354.9404458609643
 30
0.0
  0
VERTEX
  5
669
  8
0
  6
CONTINUOUS
 62
     7
 10
26.93184875830672
 20
354.9247332513031
 30
0.0
  0
VERTEX
  5
66A
  8
0
  6
CONTINUOUS
 62
     7
 10
26.94921741940433
 20
354.9098004373604
 30
0.0
  0
VERTEX
  5
66B
  8
0
  6
CONTINUOUS
 62
     7
 10
26.96725176120082
 20
354.8956787576963
 30
0.0
  0
VERTEX
  5
66C
  8
0
  6
CONTINUOUS
 62
     7
 10
26.98591393615415
 20
354.8823978485941
 30
0.0
  0
VERTEX
  5
66D
  8
0
  6
CONTINUOUS
 62
     7
 10
27.00516477912818
 20
354.8699855818649
 30
0.0
  0
VERTEX
  5
66E
  8
0
  6
CONTINUOUS
 62
     7
 10
27.02496388958614
 20
354.8584680063541
 30
0.0
  0
VERTEX
  5
66F
  8
0
  6
CONTINUOUS
 62
     7
 10
27.04526971637665
 20
354.8478692932755
 30
0.0
  0
VERTEX
  5
670
  8
0
  6
CONTINUOUS
 62
     7
 10
27.06603964493458
 20
354.8382116854833
 30
0.0
  0
VERTEX
  5
671
  8
0
  6
CONTINUOUS
 62
     7
 10
27.0872300867135
 20
354.8295154507933
 30
0.0
  0
VERTEX
  5
672
  8
0
  6
CONTINUOUS
 62
     7
 10
27.10879657066227
 20
354.8217988394478
 30
0.0
  0
VERTEX
  5
673
  8
0
  6
CONTINUOUS
 62
     7
 10
27.13069383655361
 20
354.815078045815
 30
0.0
  0
VERTEX
  5
674
  8
0
  6
CONTINUOUS
 62
     7
 10
27.15287592996897
 20
354.8093671744032
 30
0.0
  0
VERTEX
  5
675
  8
0
  6
CONTINUOUS
 62
     7
 10
27.17529629874008
 20
354.8046782102599
 30
0.0
  0
VERTEX
  5
676
  8
0
  6
CONTINUOUS
 62
     7
 10
27.19790789064517
 20
354.80102099382
 30
0.0
  0
VERTEX
  5
677
  8
0
  6
CONTINUOUS
 62
     7
 10
27.22066325215445
 20
354.7984032002545
 30
0.0
  0
VERTEX
  5
678
  8
0
  6
CONTINUOUS
 62
     7
 10
27.24351462801789
 20
354.7968303233624
 30
0.0
  0
VERTEX
  5
679
  8
0
  6
CONTINUOUS
 62
     7
 10
27.26641406148616
 20
354.7963056640418
 30
0.0
  0
SEQEND
  5
910
  8
0
  6
CONTINUOUS
 62
     7
  0
POLYLINE
  5
17F
  8
0
  6
CONTINUOUS
 62
     9
 66
     1
 10
0.0
 20
0.0
 30
0.0
  0
VERTEX
  5
67A
  8
0
  6
CONTINUOUS
 62
     9
 10
40.18518661213422
 20
356.3224736421633
 30
0.0
  0
VERTEX
  5
67B
  8
0
  6
CONTINUOUS
 62
     9
 10
40.17535938525879
 20
356.3270549698323
 30
0.0
  0
VERTEX
  5
67C
  8
0
  6
CONTINUOUS
 62
     9
 10
40.14678676147081
 20
356.3304587232136
 30
0.0
  0
VERTEX
  5
67D
  8
0
  6
CONTINUOUS
 62
     9
 10
40.10056295692374
 20
356.3325545522924
 30
0.0
  0
VERTEX
  5
67E
  8
0
  6
CONTINUOUS
 62
     9
 10
40.03845815674252
 20
356.3332621952754
 30
0.0
  0
VERTEX
  5
67F
  8
0
  6
CONTINUOUS
 62
     9
 10
39.96285072407893
 20
356.3325545522925
 30
0.0
  0
VERTEX
  5
680
  8
0
  6
CONTINUOUS
 62
     9
 10
39.87663611840341
 20
356.3304587232136
 30
0.0
  0
VERTEX
  5
681
  8
0
  6
CONTINUOUS
 62
     9
 10
39.78311601109535
 20
356.3270549698323
 30
0.0
  0
VERTEX
  5
682
  8
0
  6
CONTINUOUS
 62
     9
 10
39.68587184475696
 20
356.3224736421633
 30
0.0
  0
SEQEND
  5
911
  8
0
  6
CONTINUOUS
 62
     9
  0
LINE
  5
180
  8
0
  6
CONTINUOUS
 62
     7
 10
40.18518661213423
 20
356.3224736421633
 30
0.0
 11
40.26516968668047
 21
354.7963056640418
 31
0.0
  0
POLYLINE
  5
181
  8
0
  6
CONTINUOUS
 62
     9
 66
     1
 10
0.0
 20
0.0
 30
0.0
  0
VERTEX
  5
683
  8
0
  6
CONTINUOUS
 62
     9
 10
88.20435514970232
 20
364.3224736421633
 30
0.0
  0
VERTEX
  5
684
  8
0
  6
CONTINUOUS
 62
     9
 10
88.10767643445497
 20
364.332107826808
 30
0.0
  0
VERTEX
  5
685
  8
0
  6
CONTINUOUS
 62
     9
 10
88.01468727688558
 20
364.3403756906014
 30
0.0
  0
VERTEX
  5
686
  8
0
  6
CONTINUOUS
 62
     9
 10
87.92893642978215
 20
364.3469617063847
 30
0.0
  0
VERTEX
  5
687
  8
0
  6
CONTINUOUS
 62
     9
 10
87.85369640970136
 20
364.3516145315015
 30
0.0
  0
VERTEX
  5
688
  8
0
  6
CONTINUOUS
 62
     9
 10
87.79183860765274
 20
364.3541565998082
 30
0.0
  0
VERTEX
  5
689
  8
0
  6
CONTINUOUS
 62
     9
 10
87.74572370797003
 20
364.3544908981452
 30
0.0
  0
VERTEX
  5
68A
  8
0
  6
CONTINUOUS
 62
     9
 10
87.71711159732281
 20
364.3526046686579
 30
0.0
  0
VERTEX
  5
68B
  8
0
  6
CONTINUOUS
 62
     9
 10
87.7070942020182
 20
364.3485698956757
 30
0.0
  0
SEQEND
  5
912
  8
0
  6
CONTINUOUS
 62
     9
  0
LINE
  5
182
  8
0
  6
CONTINUOUS
 62
     7
 10
87.36352126757696
 20
356.3224736421633
 30
0.0
 11
86.91387182232046
 21
356.7963056640418
 31
0.0
  0
LINE
  5
183
  8
0
  6
CONTINUOUS
 62
     7
 10
86.91331924542803
 20
356.7963056640418
 30
0.0
 11
87.70709420201823
 21
364.3485698956757
 31
0.0
  0
LINE
  5
184
  8
0
  6
CONTINUOUS
 62
     9
 10
75.77827902755946
 20
356.7963056640418
 30
0.0
 11
75.77827902755946
 21
356.3224736421633
 31
0.0
  0
LINE
  5
185
  8
0
  6
CONTINUOUS
 62
     7
 10
75.77827902755946
 20
356.7963056640418
 30
0.0
 11
86.91387182232046
 21
356.7963056640418
 31
0.0
  0
ARC
  5
186
  8
0
  6
CONTINUOUS
 62
     7
 10
75.77827902755946
 20
356.2963056640418
 30
0.0
 40
0.5000000000000004
 50
90.0
 51
179.5
  0
LINE
  5
187
  8
0
  6
CONTINUOUS
 62
     9
 10
39.68587184475694
 20
356.3224736421633
 30
0.0
 11
39.68587184475694
 21
356.7963056640418
 31
0.0
  0
ARC
  5
188
  8
0
  6
CONTINUOUS
 62
     7
 10
39.68587184475694
 20
356.2963056640418
 30
0.0
 40
0.5000000000000017
 50
3.000000000000166
 51
90.00000000000011
  0
LINE
  5
189
  8
0
  6
CONTINUOUS
 62
     7
 10
28.61646755104048
 20
356.7963056640418
 30
0.0
 11
39.68587184475694
 21
356.7963056640418
 31
0.0
  0
LINE
  5
18A
  8
0
  6
CONTINUOUS
 62
     7
 10
28.61646755104048
 20
356.7963056640418
 30
0.0
 11
28.16681810578399
 21
356.3224736421633
 31
0.0
  0
LINE
  5
18B
  8
0
  6
CONTINUOUS
 62
     7
 10
27.82324517134272
 20
364.3485698956757
 30
0.0
 11
28.61702012793291
 21
356.7963056640418
 31
0.0
  0
POLYLINE
  5
18C
  8
0
  6
CONTINUOUS
 62
     9
 66
     1
 10
0.0
 20
0.0
 30
0.0
  0
VERTEX
  5
68C
  8
0
  6
CONTINUOUS
 62
     9
 10
27.82324517134271
 20
364.3485698956757
 30
0.0
  0
VERTEX
  5
68D
  8
0
  6
CONTINUOUS
 62
     9
 10
27.81322777603799
 20
364.3526046686579
 30
0.0
  0
VERTEX
  5
68E
  8
0
  6
CONTINUOUS
 62
     9
 10
27.78461566539067
 20
364.3544908981452
 30
0.0
  0
VERTEX
  5
68F
  8
0
  6
CONTINUOUS
 62
     9
 10
27.73850076570793
 20
364.3541565998082
 30
0.0
  0
VERTEX
  5
690
  8
0
  6
CONTINUOUS
 62
     9
 10
27.6766429636593
 20
364.3516145315014
 30
0.0
  0
VERTEX
  5
691
  8
0
  6
CONTINUOUS
 62
     9
 10
27.60140294357852
 20
364.3469617063846
 30
0.0
  0
VERTEX
  5
692
  8
0
  6
CONTINUOUS
 62
     9
 10
27.51565209647515
 20
364.3403756906014
 30
0.0
  0
VERTEX
  5
693
  8
0
  6
CONTINUOUS
 62
     9
 10
27.42266293890581
 20
364.332107826808
 30
0.0
  0
VERTEX
  5
694
  8
0
  6
CONTINUOUS
 62
     9
 10
27.32598422365854
 20
364.3224736421633
 30
0.0
  0
SEQEND
  5
913
  8
0
  6
CONTINUOUS
 62
     9
  0
LINE
  5
18D
  8
0
  6
CONTINUOUS
 62
     9
 10
88.20435514970235
 20
364.3224736421633
 30
0.0
 11
88.20435514970234
 21
364.7963056640419
 31
0.0
  0
LINE
  5
18E
  8
0
  6
CONTINUOUS
 62
     7
 10
88.20435514970234
 20
364.7963056640419
 30
0.0
 11
89.76516968668045
 21
364.7963056640419
 31
0.0
  0
LINE
  5
18F
  8
0
  6
CONTINUOUS
 62
     7
 10
89.76516968668047
 20
364.7963056640419
 30
0.0
 11
89.71536793437653
 21
364.3224736421633
 31
0.0
  0
LINE
  5
190
  8
0
  6
CONTINUOUS
 62
     7
 10
25.76516968668048
 20
364.7963056640419
 30
0.0
 11
27.32598422365857
 21
364.7963056640419
 31
0.0
  0
LINE
  5
191
  8
0
  6
CONTINUOUS
 62
     9
 10
27.32598422365857
 20
364.7963056640419
 30
0.0
 11
27.32598422365857
 21
364.3224736421633
 31
0.0
  0
LINE
  5
192
  8
0
  6
CONTINUOUS
 62
     7
 10
25.8149714389844
 20
364.3224736421633
 30
0.0
 11
25.76516968668047
 21
364.7963056640419
 31
0.0
  0
ARC
  5
193
  8
0
  6
CONTINUOUS
 62
     7
 10
27.32598422365858
 20
364.2963056640419
 30
0.0
 40
0.4999999999999951
 50
5.999999999999965
 51
90.00000000000198
  0
ARC
  5
194
  8
0
  6
CONTINUOUS
 62
     7
 10
88.20435514970234
 20
364.2963056640419
 30
0.0
 40
0.5000000000000004
 50
90.0
 51
174.0000000000002
  0
LINE
  5
195
  8
0
  6
CONTINUOUS
 62
     9
 10
76.91614455213805
 20
367.8050318672605
 30
0.0
 11
38.61419482122287
 21
367.8050318672605
 31
0.0
  0
LINE
  5
196
  8
0
  6
CONTINUOUS
 62
     9
 10
77.25651831823829
 20
387.3050318672605
 30
0.0
 11
76.91614455213805
 21
367.8050318672605
 31
0.0
  0
LINE
  5
197
  8
0
  6
CONTINUOUS
 62
     9
 10
90.48290624943391
 20
387.3050318672605
 30
0.0
 11
77.25651831823829
 21
387.3050318672605
 31
0.0
  0
LINE
  5
198
  8
0
  6
CONTINUOUS
 62
     7
 10
89.76516968668048
 20
364.7963056640419
 30
0.0
 11
90.22333527368917
 21
364.7963056640419
 31
0.0
  0
LINE
  5
199
  8
0
  6
CONTINUOUS
 62
     7
 10
25.76516968668044
 20
364.7963056640419
 30
0.0
 11
25.30700409967177
 21
364.7963056640419
 31
0.0
  0
LINE
  5
19A
  8
0
  6
CONTINUOUS
 62
     9
 10
38.27382105512262
 20
387.3050318672605
 30
0.0
 11
25.04743312392704
 21
387.3050318672605
 31
0.0
  0
LINE
  5
19B
  8
0
  6
CONTINUOUS
 62
     9
 10
38.61419482122287
 20
367.8050318672605
 30
0.0
 11
38.27382105512262
 21
387.3050318672605
 31
0.0
  0
LINE
  5
19C
  8
0
  6
CONTINUOUS
 62
     7
 10
58.14801239915499
 20
354.7963056640418
 30
0.0
 11
57.38232697420599
 21
354.7963056640418
 31
0.0
  0
LINE
  5
19D
  8
0
  6
CONTINUOUS
 62
     9
 10
26.59860139160978
 20
355.2701376859204
 30
0.0
 11
26.76641028703328
 21
355.2701376859204
 31
0.0
  0
LINE
  5
19E
  8
0
  6
CONTINUOUS
 62
     9
 10
88.76392908632762
 20
355.2701376859204
 30
0.0
 11
88.93173798175116
 21
355.2701376859204
 31
0.0
  0
LINE
  5
19F
  8
0
  6
CONTINUOUS
 62
     7
 10
38.61419482122287
 20
367.8050318672605
 30
0.0
 11
39.10546992385402
 21
368.2963056640419
 31
0.0
  0
POLYLINE
  5
1A0
  8
0
  6
CONTINUOUS
 62
     9
 66
     1
 10
0.0
 20
0.0
 30
0.0
  0
VERTEX
  5
695
  8
0
  6
CONTINUOUS
 62
     9
 10
38.77374490270083
 20
387.3050318672605
 30
0.0
  0
VERTEX
  5
696
  8
0
  6
CONTINUOUS
 62
     9
 10
38.76411301836773
 20
387.306565814116
 30
0.0
  0
VERTEX
  5
697
  8
0
  6
CONTINUOUS
 62
     9
 10
38.73564677166621
 20
387.3077056215629
 30
0.0
  0
VERTEX
  5
698
  8
0
  6
CONTINUOUS
 62
     9
 10
38.68943968165396
 20
387.308407504371
 30
0.0
  0
VERTEX
  5
699
  8
0
  6
CONTINUOUS
 62
     9
 10
38.62726677452459
 20
387.3086445000034
 30
0.0
  0
VERTEX
  5
69A
  8
0
  6
CONTINUOUS
 62
     9
 10
38.55151639671279
 20
387.308407504371
 30
0.0
  0
VERTEX
  5
69B
  8
0
  6
CONTINUOUS
 62
     9
 10
38.46509846755686
 20
387.3077056215629
 30
0.0
  0
VERTEX
  5
69C
  8
0
  6
CONTINUOUS
 62
     9
 10
38.37133269595449
 20
387.306565814116
 30
0.0
  0
VERTEX
  5
69D
  8
0
  6
CONTINUOUS
 62
     9
 10
38.27382105512265
 20
387.3050318672605
 30
0.0
  0
SEQEND
  5
914
  8
0
  6
CONTINUOUS
 62
     9
  0
LINE
  5
1A1
  8
0
  6
CONTINUOUS
 62
     7
 10
38.77374490270083
 20
387.3050318672605
 30
0.0
 11
39.10554345278071
 21
368.2963056640419
 31
0.0
  0
LINE
  5
1A2
  8
0
  6
CONTINUOUS
 62
     7
 10
76.91614455213805
 20
367.8050318672605
 30
0.0
 11
76.42486944950691
 21
368.2963056640419
 31
0.0
  0
LINE
  5
1A3
  8
0
  6
CONTINUOUS
 62
     7
 10
39.10546992385401
 20
368.2963056640419
 30
0.0
 11
76.42486944950691
 21
368.2963056640419
 31
0.0
  0
LINE
  5
1A4
  8
0
  6
CONTINUOUS
 62
     7
 10
76.42479592058021
 20
368.2963056640419
 30
0.0
 11
76.7565944706601
 21
387.3050318672605
 31
0.0
  0
POLYLINE
  5
1A5
  8
0
  6
CONTINUOUS
 62
     9
 66
     1
 10
0.0
 20
0.0
 30
0.0
  0
VERTEX
  5
69E
  8
0
  6
CONTINUOUS
 62
     9
 10
77.2565183182383
 20
387.3050318672605
 30
0.0
  0
VERTEX
  5
69F
  8
0
  6
CONTINUOUS
 62
     9
 10
77.15900667740675
 20
387.306565814116
 30
0.0
  0
VERTEX
  5
6A0
  8
0
  6
CONTINUOUS
 62
     9
 10
77.06524090580459
 20
387.3077056215629
 30
0.0
  0
VERTEX
  5
6A1
  8
0
  6
CONTINUOUS
 62
     9
 10
76.97882297664883
 20
387.308407504371
 30
0.0
  0
VERTEX
  5
6A2
  8
0
  6
CONTINUOUS
 62
     9
 10
76.90307259883711
 20
387.3086445000034
 30
0.0
  0
VERTEX
  5
6A3
  8
0
  6
CONTINUOUS
 62
     9
 10
76.84089969170772
 20
387.308407504371
 30
0.0
  0
VERTEX
  5
6A4
  8
0
  6
CONTINUOUS
 62
     9
 10
76.79469260169533
 20
387.307705621563
 30
0.0
  0
VERTEX
  5
6A5
  8
0
  6
CONTINUOUS
 62
     9
 10
76.76622635499356
 20
387.3065658141161
 30
0.0
  0
VERTEX
  5
6A6
  8
0
  6
CONTINUOUS
 62
     9
 10
76.7565944706601
 20
387.3050318672605
 30
0.0
  0
SEQEND
  5
915
  8
0
  6
CONTINUOUS
 62
     9
  0
ARC
  5
1A6
  8
0
  6
CONTINUOUS
 62
     7
 10
77.25651831823829
 20
387.2963056640418
 30
0.0
 40
0.4999999999999925
 50
89.99999999999888
 51
178.9999999999998
  0
LINE
  5
1A7
  8
0
  6
CONTINUOUS
 62
     9
 10
77.25651831823829
 20
387.3050318672605
 30
0.0
 11
77.25651831823829
 21
387.7963056640419
 31
0.0
  0
LINE
  5
1A8
  8
0
  6
CONTINUOUS
 62
     7
 10
77.2565183182383
 20
387.7963056640419
 30
0.0
 11
90.47861896796033
 21
387.7963056640419
 31
0.0
  0
LINE
  5
1A9
  8
0
  6
CONTINUOUS
 62
     9
 10
38.27382105512262
 20
387.3050318672605
 30
0.0
 11
38.27382105512262
 21
387.7963056640419
 31
0.0
  0
ARC
  5
1AA
  8
0
  6
CONTINUOUS
 62
     7
 10
38.27382105512262
 20
387.2963056640418
 30
0.0
 40
0.4999999999999994
 50
1.000000000000237
 51
89.99999999999962
  0
LINE
  5
1AB
  8
0
  6
CONTINUOUS
 62
     7
 10
25.05172040540061
 20
387.7963056640419
 30
0.0
 11
38.27382105512262
 21
387.7963056640419
 31
0.0
  0
LINE
  5
1AC
  8
0
  6
CONTINUOUS
 62
     9
 10
27.48222636500745
 20
388.2919423962927
 30
0.0
 11
31.76516968668044
 21
388.2919423962927
 31
0.0
  0
LINE
  5
1AD
  8
0
  6
CONTINUOUS
 62
     9
 10
31.76516968668044
 20
388.2919423962927
 30
0.0
 11
36.04811300835343
 21
388.2919423962927
 31
0.0
  0
LINE
  5
1AE
  8
0
  6
CONTINUOUS
 62
     9
 10
79.48222636500749
 20
388.2919423962927
 30
0.0
 11
83.7651696866805
 21
388.2919423962927
 31
0.0
  0
LINE
  5
1AF
  8
0
  6
CONTINUOUS
 62
     9
 10
83.7651696866805
 20
388.2919423962927
 30
0.0
 11
88.04811300835348
 21
388.2919423962927
 31
0.0
  0
LINE
  5
1B0
  8
0
  6
CONTINUOUS
 62
     7
 10
35.96516968668045
 20
397.7963056640418
 30
0.0
 11
27.56516968668044
 21
397.7963056640418
 31
0.0
  0
LINE
  5
1B1
  8
0
  6
CONTINUOUS
 62
     7
 10
79.56516968668048
 20
397.7963056640418
 30
0.0
 11
87.9651696866805
 21
397.7963056640418
 31
0.0
  0
LINE
  5
1B2
  8
0
  6
CONTINUOUS
 62
     9
 10
38.77374490270081
 20
387.3050318672609
 30
0.0
 11
76.75659447066012
 21
387.3050318672605
 31
0.0
  0
LINE
  5
1B3
  8
0
  6
CONTINUOUS
 62
     7
 10
77.2565183182383
 20
387.7963056640419
 30
0.0
 11
38.27382105512262
 21
387.7963056640419
 31
0.0
  0
LINE
  5
1B4
  8
0
  6
CONTINUOUS
 62
     9
 10
53.48222636500748
 20
388.2919423962927
 30
0.0
 11
62.04811300835346
 21
388.2919423962927
 31
0.0
  0
LINE
  5
1B5
  8
0
  6
CONTINUOUS
 62
     7
 10
61.96516968668047
 20
397.7963056640418
 30
0.0
 11
53.56516968668046
 21
397.7963056640418
 31
0.0
  0
LINE
  5
1B6
  8
0
  6
CONTINUOUS
 62
     7
 10
42.76516968668047
 20
352.7963056640418
 30
0.0
 11
41.76516968668047
 21
352.7963056640418
 31
0.0
  0
LINE
  5
1B7
  8
0
  6
CONTINUOUS
 62
     7
 10
41.76516968668047
 20
352.7963056640418
 30
0.0
 11
41.77829806602738
 21
354.300668931791
 31
0.0
  0
LINE
  5
1B8
  8
0
  6
CONTINUOUS
 62
     9
 10
42.76516968668047
 20
354.300668931791
 30
0.0
 11
41.77829806602739
 21
354.300668931791
 31
0.0
  0
LINE
  5
1B9
  8
0
  6
CONTINUOUS
 62
     9
 10
42.76516968668047
 20
354.300668931791
 30
0.0
 11
42.76516968668047
 21
352.7963056640418
 31
0.0
  0
LINE
  5
1BA
  8
0
  6
CONTINUOUS
 62
     7
 10
46.76516968668047
 20
352.7963056640418
 30
0.0
 11
45.76516968668047
 21
352.7963056640418
 31
0.0
  0
LINE
  5
1BB
  8
0
  6
CONTINUOUS
 62
     9
 10
45.76516968668047
 20
352.7963056640418
 30
0.0
 11
45.76516968668047
 21
354.300668931791
 31
0.0
  0
LINE
  5
1BC
  8
0
  6
CONTINUOUS
 62
     9
 10
46.75204130733355
 20
354.300668931791
 30
0.0
 11
45.76516968668047
 21
354.300668931791
 31
0.0
  0
LINE
  5
1BD
  8
0
  6
CONTINUOUS
 62
     7
 10
46.75204130733355
 20
354.300668931791
 30
0.0
 11
46.76516968668047
 21
352.7963056640418
 31
0.0
  0
LINE
  5
1BE
  8
0
  6
CONTINUOUS
 62
     7
 10
73.76516968668047
 20
352.7963056640418
 30
0.0
 11
72.76516968668047
 21
352.7963056640418
 31
0.0
  0
LINE
  5
1BF
  8
0
  6
CONTINUOUS
 62
     9
 10
72.76516968668047
 20
352.7963056640418
 30
0.0
 11
72.76516968668047
 21
354.300668931791
 31
0.0
  0
LINE
  5
1C0
  8
0
  6
CONTINUOUS
 62
     9
 10
73.75204130733354
 20
354.300668931791
 30
0.0
 11
72.76516968668047
 21
354.300668931791
 31
0.0
  0
LINE
  5
1C1
  8
0
  6
CONTINUOUS
 62
     7
 10
73.75204130733356
 20
354.300668931791
 30
0.0
 11
73.76516968668047
 21
352.7963056640418
 31
0.0
  0
LINE
  5
1C2
  8
0
  6
CONTINUOUS
 62
     7
 10
68.76516968668048
 20
352.7963056640418
 30
0.0
 11
68.77829806602739
 21
354.300668931791
 31
0.0
  0
LINE
  5
1C3
  8
0
  6
CONTINUOUS
 62
     9
 10
69.76516968668048
 20
354.300668931791
 30
0.0
 11
68.77829806602739
 21
354.300668931791
 31
0.0
  0
LINE
  5
1C4
  8
0
  6
CONTINUOUS
 62
     9
 10
69.76516968668048
 20
354.300668931791
 30
0.0
 11
69.76516968668048
 21
352.7963056640418
 31
0.0
  0
LINE
  5
1C5
  8
0
  6
CONTINUOUS
 62
     7
 10
69.76516968668048
 20
352.7963056640418
 30
0.0
 11
68.76516968668047
 21
352.7963056640418
 31
0.0
  0
LINE
  5
1C6
  8
0
  6
CONTINUOUS
 62
     9
 10
72.76516968668047
 20
354.300668931791
 30
0.0
 11
69.76516968668048
 21
354.300668931791
 31
0.0
  0
LINE
  5
1C7
  8
0
  6
CONTINUOUS
 62
     7
 10
69.76516968668048
 20
352.7963056640418
 30
0.0
 11
72.76516968668047
 21
352.7963056640418
 31
0.0
  0
LINE
  5
1C8
  8
0
  6
CONTINUOUS
 62
     9
 10
45.76516968668047
 20
354.300668931791
 30
0.0
 11
42.76516968668047
 21
354.300668931791
 31
0.0
  0
LINE
  5
1C9
  8
0
  6
CONTINUOUS
 62
     7
 10
45.76516968668047
 20
352.7963056640418
 30
0.0
 11
42.76516968668047
 21
352.7963056640418
 31
0.0
  0
LINE
  5
1CA
  8
0
  6
CONTINUOUS
 62
     7
 10
72.76516968668047
 20
354.7963056640418
 30
0.0
 11
73.25206034580147
 21
354.7963056640418
 31
0.0
  0
ARC
  5
1CB
  8
0
  6
CONTINUOUS
 62
     7
 10
73.25206034580147
 20
354.2963056640418
 30
0.0
 40
0.5000000000000004
 50
0.5
 51
90.0
  0
LINE
  5
1CC
  8
0
  6
CONTINUOUS
 62
     9
 10
72.76516968668047
 20
354.7963056640418
 30
0.0
 11
72.76516968668047
 21
354.300668931791
 31
0.0
  0
LINE
  5
1CD
  8
0
  6
CONTINUOUS
 62
     7
 10
69.27827902755948
 20
354.7963056640418
 30
0.0
 11
69.76516968668048
 21
354.7963056640418
 31
0.0
  0
LINE
  5
1CE
  8
0
  6
CONTINUOUS
 62
     9
 10
69.76516968668048
 20
354.7963056640418
 30
0.0
 11
69.76516968668048
 21
354.300668931791
 31
0.0
  0
ARC
  5
1CF
  8
0
  6
CONTINUOUS
 62
     7
 10
69.27827902755948
 20
354.2963056640418
 30
0.0
 40
0.5000000000000004
 50
90.0000000000008
 51
179.5
  0
LINE
  5
1D0
  8
0
  6
CONTINUOUS
 62
     7
 10
45.76516968668047
 20
354.7963056640418
 30
0.0
 11
46.25206034580146
 21
354.7963056640418
 31
0.0
  0
ARC
  5
1D1
  8
0
  6
CONTINUOUS
 62
     7
 10
46.25206034580146
 20
354.2963056640418
 30
0.0
 40
0.5000000000000004
 50
0.5
 51
90.0
  0
LINE
  5
1D2
  8
0
  6
CONTINUOUS
 62
     9
 10
45.76516968668047
 20
354.7963056640418
 30
0.0
 11
45.76516968668047
 21
354.300668931791
 31
0.0
  0
LINE
  5
1D3
  8
0
  6
CONTINUOUS
 62
     7
 10
42.27827902755947
 20
354.7963056640418
 30
0.0
 11
42.76516968668047
 21
354.7963056640418
 31
0.0
  0
LINE
  5
1D4
  8
0
  6
CONTINUOUS
 62
     9
 10
42.76516968668047
 20
354.7963056640418
 30
0.0
 11
42.76516968668047
 21
354.300668931791
 31
0.0
  0
ARC
  5
1D5
  8
0
  6
CONTINUOUS
 62
     7
 10
42.27827902755947
 20
354.2963056640418
 30
0.0
 40
0.5000000000000004
 50
90.0
 51
179.5
  0
LINE
  5
1D6
  8
0
  6
CONTINUOUS
 62
     7
 10
42.76516968668047
 20
354.7963056640418
 30
0.0
 11
45.76516968668047
 21
354.7963056640418
 31
0.0
  0
LINE
  5
1D7
  8
0
  6
CONTINUOUS
 62
     7
 10
69.76516968668048
 20
354.7963056640418
 30
0.0
 11
72.76516968668047
 21
354.7963056640418
 31
0.0
  0
LINE
  5
1D8
  8
0
  6
CONTINUOUS
 62
     7
 10
90.23883477284438
 20
354.3050318672605
 30
0.0
 11
90.26516968668047
 21
352.7963056640418
 31
0.0
  0
LINE
  5
1D9
  8
0
  6
CONTINUOUS
 62
     9
 10
89.76516968378037
 20
352.7963056640418
 30
0.0
 11
89.73891092526618
 21
354.300668931791
 31
0.0
  0
POLYLINE
  5
1DA
  8
0
  6
CONTINUOUS
 62
     9
 66
     1
 10
0.0
 20
0.0
 30
0.0
  0
VERTEX
  5
6A7
  8
0
  6
CONTINUOUS
 62
     9
 10
90.23883477284438
 20
354.3050318672605
 30
0.0
  0
VERTEX
  5
6A8
  8
0
  6
CONTINUOUS
 62
     9
 10
90.2292158805754
 20
354.3057151187222
 30
0.0
  0
VERTEX
  5
6A9
  8
0
  6
CONTINUOUS
 62
     9
 10
90.20075848565953
 20
354.3060368400077
 30
0.0
  0
VERTEX
  5
6AA
  8
0
  6
CONTINUOUS
 62
     9
 10
90.15455597845242
 20
354.305984669938
 30
0.0
  0
VERTEX
  5
6AB
  8
0
  6
CONTINUOUS
 62
     9
 10
90.09238355221872
 20
354.3055606129922
 30
0.0
  0
VERTEX
  5
6AC
  8
0
  6
CONTINUOUS
 62
     9
 10
90.01662999663617
 20
354.304780962291
 30
0.0
  0
VERTEX
  5
6AD
  8
0
  6
CONTINUOUS
 62
     9
 10
89.9302059156909
 20
354.3036756735829
 30
0.0
  0
VERTEX
  5
6AE
  8
0
  6
CONTINUOUS
 62
     9
 10
89.83643189641761
 20
354.3022872142831
 30
0.0
  0
VERTEX
  5
6AF
  8
0
  6
CONTINUOUS
 62
     9
 10
89.73891092526617
 20
354.3006689317911
 30
0.0
  0
SEQEND
  5
916
  8
0
  6
CONTINUOUS
 62
     9
  0
LINE
  5
1DB
  8
0
  6
CONTINUOUS
 62
     7
 10
90.26516968668048
 20
352.7963056640418
 30
0.0
 11
89.76516968378037
 21
352.7963056640418
 31
0.0
  0
LINE
  5
1DC
  8
0
  6
CONTINUOUS
 62
     9
 10
25.79142844809476
 20
354.300668931791
 30
0.0
 11
25.76516968958058
 21
352.7963056640418
 31
0.0
  0
LINE
  5
1DD
  8
0
  6
CONTINUOUS
 62
     9
 10
41.77829806602739
 20
354.300668931791
 30
0.0
 11
25.79142844809476
 21
354.300668931791
 31
0.0
  0
LINE
  5
1DE
  8
0
  6
CONTINUOUS
 62
     7
 10
41.76516968668047
 20
352.7963056640418
 30
0.0
 11
25.76516968958058
 21
352.7963056640418
 31
0.0
  0
LINE
  5
1DF
  8
0
  6
CONTINUOUS
 62
     9
 10
89.73891092526618
 20
354.300668931791
 30
0.0
 11
73.75204130733354
 21
354.300668931791
 31
0.0
  0
LINE
  5
1E0
  8
0
  6
CONTINUOUS
 62
     7
 10
89.76516968378037
 20
352.7963056640418
 30
0.0
 11
73.76516968668047
 21
352.7963056640418
 31
0.0
  0
LINE
  5
1E1
  8
0
  6
CONTINUOUS
 62
     7
 10
25.26516968668048
 20
352.7963056640418
 30
0.0
 11
25.29150460051656
 21
354.3050318672605
 31
0.0
  0
POLYLINE
  5
1E2
  8
0
  6
CONTINUOUS
 62
     9
 66
     1
 10
0.0
 20
0.0
 30
0.0
  0
VERTEX
  5
6B0
  8
0
  6
CONTINUOUS
 62
     9
 10
25.79142844809478
 20
354.3006689317911
 30
0.0
  0
VERTEX
  5
6B1
  8
0
  6
CONTINUOUS
 62
     9
 10
25.69390747694308
 20
354.3022872142831
 30
0.0
  0
VERTEX
  5
6B2
  8
0
  6
CONTINUOUS
 62
     9
 10
25.60013345766956
 20
354.3036756735829
 30
0.0
  0
VERTEX
  5
6B3
  8
0
  6
CONTINUOUS
 62
     9
 10
25.51370937672413
 20
354.3047809622911
 30
0.0
  0
VERTEX
  5
6B4
  8
0
  6
CONTINUOUS
 62
     9
 10
25.43795582114149
 20
354.3055606129922
 30
0.0
  0
VERTEX
  5
6B5
  8
0
  6
CONTINUOUS
 62
     9
 10
25.37578339490782
 20
354.305984669938
 30
0.0
  0
VERTEX
  5
6B6
  8
0
  6
CONTINUOUS
 62
     9
 10
25.32958088770083
 20
354.3060368400077
 30
0.0
  0
VERTEX
  5
6B7
  8
0
  6
CONTINUOUS
 62
     9
 10
25.30112349278521
 20
354.3057151187222
 30
0.0
  0
VERTEX
  5
6B8
  8
0
  6
CONTINUOUS
 62
     9
 10
25.29150460051658
 20
354.3050318672605
 30
0.0
  0
SEQEND
  5
917
  8
0
  6
CONTINUOUS
 62
     9
  0
LINE
  5
1E3
  8
0
  6
CONTINUOUS
 62
     7
 10
25.76516968958058
 20
352.7963056640418
 30
0.0
 11
25.26516968668047
 21
352.7963056640418
 31
0.0
  0
LINE
  5
1E4
  8
0
  6
CONTINUOUS
 62
     9
 10
57.67970901355648
 20
354.300668931791
 30
0.0
 11
46.75204130733355
 21
354.300668931791
 31
0.0
  0
LINE
  5
1E5
  8
0
  6
CONTINUOUS
 62
     9
 10
57.76516968668051
 20
354.215208258667
 30
0.0
 11
57.67970901355648
 21
354.300668931791
 31
0.0
  0
LINE
  5
1E6
  8
0
  6
CONTINUOUS
 62
     9
 10
57.85063035980453
 20
354.300668931791
 30
0.0
 11
57.76516968668051
 21
354.215208258667
 31
0.0
  0
LINE
  5
1E7
  8
0
  6
CONTINUOUS
 62
     9
 10
68.77829806602739
 20
354.300668931791
 30
0.0
 11
57.85063035980453
 21
354.300668931791
 31
0.0
  0
LINE
  5
1E8
  8
0
  6
CONTINUOUS
 62
     7
 10
68.76516968668048
 20
352.7963056640418
 30
0.0
 11
46.76516968668047
 21
352.7963056640418
 31
0.0
  0
LINE
  5
1E9
  8
0
  6
CONTINUOUS
 62
     7
 10
57.76516968668049
 20
354.385768392792
 30
0.0
 11
57.76516968668049
 21
354.215208258667
 31
0.0
  0
POLYLINE
  5
1EA
  8
0
  6
CONTINUOUS
 62
     9
 66
     1
 10
0.0
 20
0.0
 30
0.0
  0
VERTEX
  5
6B9
  8
0
  6
CONTINUOUS
 62
     9
 10
57.76516968667862
 20
354.3857683927902
 30
0.0
  0
VERTEX
  5
6BA
  8
0
  6
CONTINUOUS
 62
     9
 10
57.73899606014624
 20
354.3597906982407
 30
0.0
  0
VERTEX
  5
6BB
  8
0
  6
CONTINUOUS
 62
     9
 10
57.7100596974861
 20
354.3309766393795
 30
0.0
  0
VERTEX
  5
6BC
  8
0
  6
CONTINUOUS
 62
     9
 10
57.67970901355651
 20
354.3006689317911
 30
0.0
  0
SEQEND
  5
918
  8
0
  6
CONTINUOUS
 62
     9
  0
POLYLINE
  5
1EB
  8
0
  6
CONTINUOUS
 62
     9
 66
     1
 10
0.0
 20
0.0
 30
0.0
  0
VERTEX
  5
6BD
  8
0
  6
CONTINUOUS
 62
     9
 10
57.85063035980455
 20
354.3006689317909
 30
0.0
  0
VERTEX
  5
6BE
  8
0
  6
CONTINUOUS
 62
     9
 10
57.82027967587479
 20
354.3309766393796
 30
0.0
  0
VERTEX
  5
6BF
  8
0
  6
CONTINUOUS
 62
     9
 10
57.7913433132145
 20
354.3597906982409
 30
0.0
  0
VERTEX
  5
6C0
  8
0
  6
CONTINUOUS
 62
     9
 10
57.76516968668201
 20
354.3857683927906
 30
0.0
  0
SEQEND
  5
919
  8
0
  6
CONTINUOUS
 62
     9
  0
LINE
  5
1EC
  8
0
  6
CONTINUOUS
 62
     9
 10
58.148012399155
 20
354.7963056640418
 30
0.0
 11
57.85063035980452
 21
354.3006689317911
 31
0.0
  0
LINE
  5
1ED
  8
0
  6
CONTINUOUS
 62
     7
 10
58.14801239915499
 20
354.7963056640418
 30
0.0
 11
69.27827902755948
 21
354.7963056640418
 31
0.0
  0
LINE
  5
1EE
  8
0
  6
CONTINUOUS
 62
     9
 10
89.73891092526617
 20
354.300668931791
 30
0.0
 11
89.73891092526617
 21
354.7963056640418
 31
0.0
  0
ARC
  5
1EF
  8
0
  6
CONTINUOUS
 62
     7
 10
89.73891092526618
 20
354.2963056640418
 30
0.0
 40
0.5000000000000004
 50
1.0
 51
90.0
  0
LINE
  5
1F0
  8
0
  6
CONTINUOUS
 62
     9
 10
57.67970901355648
 20
354.300668931791
 30
0.0
 11
57.38232697420599
 21
354.7963056640418
 31
0.0
  0
LINE
  5
1F1
  8
0
  6
CONTINUOUS
 62
     7
 10
46.25206034580146
 20
354.7963056640418
 30
0.0
 11
57.38232697420599
 21
354.7963056640418
 31
0.0
  0
ARC
  5
1F2
  8
0
  6
CONTINUOUS
 62
     7
 10
25.79142844809476
 20
354.2963056640418
 30
0.0
 40
0.4999999999999985
 50
90.0
 51
179.0
  0
LINE
  5
1F3
  8
0
  6
CONTINUOUS
 62
     9
 10
25.79142844809476
 20
354.7963056640418
 30
0.0
 11
25.79142844809477
 21
354.300668931791
 31
0.0
  0
LINE
  5
1F4
  8
0
  6
CONTINUOUS
 62
     7
 10
25.79142844809476
 20
354.7963056640418
 30
0.0
 11
42.27827902755947
 21
354.7963056640418
 31
0.0
  0
ARC
  5
1F5
  8
0
  6
CONTINUOUS
 62
     7
 10
58.14801239915499
 20
354.5963056640419
 30
0.0
 40
0.1999999999999663
 50
106.87350499576
 51
110.1484352341284
  0
ARC
  5
1F6
  8
0
  6
CONTINUOUS
 62
     7
 10
58.14801239915499
 20
354.5963056640419
 30
0.0
 40
0.1999999999999775
 50
110.1484352341282
 51
134.9999999999748
  0
ARC
  5
1F7
  8
0
  6
CONTINUOUS
 62
     7
 10
58.14801239915499
 20
354.5963056640419
 30
0.0
 40
0.199999999999978
 50
89.99999999999949
 51
106.87350499576
  0
LINE
  5
1F8
  8
0
  6
CONTINUOUS
 62
     7
 10
57.76516968668052
 20
354.4963056640419
 30
0.0
 11
57.76516968668049
 21
354.385768392792
 31
0.0
  0
LINE
  5
1F9
  8
0
  6
CONTINUOUS
 62
     7
 10
57.76516968668054
 20
354.496305664042
 30
0.0
 11
57.96053625172859
 21
354.69167222909
 31
0.0
  0
LINE
  5
1FA
  8
0
  6
CONTINUOUS
 62
     7
 10
73.25206034580147
 20
354.7963056640418
 30
0.0
 11
89.73891092526618
 21
354.7963056640418
 31
0.0
  0
LINE
  5
1FB
  8
0
  6
CONTINUOUS
 62
     7
 10
57.5237483304433
 20
354.7377270202792
 30
0.0
 11
57.76516968668049
 21
354.496305664042
 31
0.0
  0
ARC
  5
1FC
  8
0
  6
CONTINUOUS
 62
     7
 10
57.38232697420599
 20
354.5963056640419
 30
0.0
 40
0.1999999999999905
 50
45.00000000000002
 51
90.00000000000004
  0
LINE
  5
1FD
  8
0
  6
CONTINUOUS
 62
     9
 10
25.22037826080899
 20
354.3050318672605
 30
0.0
 11
25.29150460051656
 21
354.3050318672605
 31
0.0
  0
POLYLINE
  5
1FE
  8
0
  6
CONTINUOUS
 62
     9
 66
     1
 10
0.0
 20
0.0
 30
0.0
  0
VERTEX
  5
6C1
  8
0
  6
CONTINUOUS
 62
     9
 10
25.65274483168743
 20
354.7963056640418
 30
0.0
  0
VERTEX
  5
6C2
  8
0
  6
CONTINUOUS
 62
     9
 10
25.56930694287299
 20
354.7869099475557
 30
0.0
  0
VERTEX
  5
6C3
  8
0
  6
CONTINUOUS
 62
     9
 10
25.48900488904854
 20
354.7590759160506
 30
0.0
  0
VERTEX
  5
6C4
  8
0
  6
CONTINUOUS
 62
     9
 10
25.41485665153802
 20
354.7138496522012
 30
0.0
  0
VERTEX
  5
6C5
  8
0
  6
CONTINUOUS
 62
     9
 10
25.34964893361181
 20
354.6529308886189
 30
0.0
  0
VERTEX
  5
6C6
  8
0
  6
CONTINUOUS
 62
     9
 10
25.29583242819126
 20
354.578609127029
 30
0.0
  0
VERTEX
  5
6C7
  8
0
  6
CONTINUOUS
 62
     9
 10
25.2554297137852
 20
354.493677592234
 30
0.0
  0
VERTEX
  5
6C8
  8
0
  6
CONTINUOUS
 62
     9
 10
25.22995924019292
 20
354.4013282547205
 30
0.0
  0
VERTEX
  5
6C9
  8
0
  6
CONTINUOUS
 62
     9
 10
25.22037826080899
 20
354.3050318672604
 30
0.0
  0
SEQEND
  5
91A
  8
0
  6
CONTINUOUS
 62
     9
  0
LINE
  5
1FF
  8
0
  6
CONTINUOUS
 62
     7
 10
25.79142844809476
 20
354.7963056640418
 30
0.0
 11
25.65274483168743
 21
354.7963056640418
 31
0.0
  0
LINE
  5
200
  8
0
  6
CONTINUOUS
 62
     9
 10
25.19760211911291
 20
352.7963056640418
 30
0.0
 11
25.22037826080899
 21
354.3050318672605
 31
0.0
  0
LINE
  5
201
  8
0
  6
CONTINUOUS
 62
     7
 10
25.19760211911291
 20
352.7963056640418
 30
0.0
 11
25.26516968668048
 21
352.7963056640418
 31
0.0
  0
POLYLINE
  5
202
  8
0
  6
CONTINUOUS
 62
     9
 66
     1
 10
0.0
 20
0.0
 30
0.0
  0
VERTEX
  5
6CA
  8
0
  6
CONTINUOUS
 62
     9
 10
90.30996111255199
 20
354.3050318672604
 30
0.0
  0
VERTEX
  5
6CB
  8
0
  6
CONTINUOUS
 62
     9
 10
90.30038013316806
 20
354.4013282547205
 30
0.0
  0
VERTEX
  5
6CC
  8
0
  6
CONTINUOUS
 62
     9
 10
90.27490965957578
 20
354.493677592234
 30
0.0
  0
VERTEX
  5
6CD
  8
0
  6
CONTINUOUS
 62
     9
 10
90.23450694516971
 20
354.578609127029
 30
0.0
  0
VERTEX
  5
6CE
  8
0
  6
CONTINUOUS
 62
     9
 10
90.18069043974917
 20
354.6529308886189
 30
0.0
  0
VERTEX
  5
6CF
  8
0
  6
CONTINUOUS
 62
     9
 10
90.11548272182296
 20
354.7138496522012
 30
0.0
  0
VERTEX
  5
6D0
  8
0
  6
CONTINUOUS
 62
     9
 10
90.04133448431244
 20
354.7590759160506
 30
0.0
  0
VERTEX
  5
6D1
  8
0
  6
CONTINUOUS
 62
     9
 10
89.96103243048799
 20
354.7869099475557
 30
0.0
  0
VERTEX
  5
6D2
  8
0
  6
CONTINUOUS
 62
     9
 10
89.87759454167355
 20
354.7963056640418
 30
0.0
  0
SEQEND
  5
91B
  8
0
  6
CONTINUOUS
 62
     9
  0
LINE
  5
203
  8
0
  6
CONTINUOUS
 62
     9
 10
90.23883477284438
 20
354.3050318672605
 30
0.0
 11
90.30996111255197
 21
354.3050318672605
 31
0.0
  0
LINE
  5
204
  8
0
  6
CONTINUOUS
 62
     7
 10
89.87759454167355
 20
354.7963056640418
 30
0.0
 11
89.7389109252662
 21
354.7963056640418
 31
0.0
  0
LINE
  5
205
  8
0
  6
CONTINUOUS
 62
     9
 10
90.30996111255197
 20
354.3050318672605
 30
0.0
 11
90.33273725424804
 21
352.7963056640418
 31
0.0
  0
LINE
  5
206
  8
0
  6
CONTINUOUS
 62
     7
 10
90.26516968668047
 20
352.7963056640418
 30
0.0
 11
90.33273725424804
 21
352.7963056640418
 31
0.0
  0
LINE
  5
207
  8
0
  6
CONTINUOUS
 62
     9
 10
25.22037826080899
 20
354.3050318672605
 30
0.0
 11
24.75944648683199
 21
354.3050318672605
 31
0.0
  0
LINE
  5
208
  8
0
  6
CONTINUOUS
 62
     7
 10
25.19760211911293
 20
352.7963056640418
 30
0.0
 11
24.74628003272408
 21
352.7963056640418
 31
0.0
  0
LINE
  5
209
  8
0
  6
CONTINUOUS
 62
     9
 10
90.77089288652894
 20
354.3050318672605
 30
0.0
 11
90.30996111255197
 21
354.3050318672605
 31
0.0
  0
LINE
  5
20A
  8
0
  6
CONTINUOUS
 62
     7
 10
90.33273725424803
 20
352.7963056640418
 30
0.0
 11
90.78405934063687
 21
352.7963056640418
 31
0.0
  0
LINE
  5
20B
  8
0
  6
CONTINUOUS
 62
     7
 10
24.76373376830558
 20
354.7963056640418
 30
0.0
 11
25.65274483168747
 21
354.7963056640418
 31
0.0
  0
LINE
  5
20C
  8
0
  6
CONTINUOUS
 62
     7
 10
89.87759454167352
 20
354.7963056640418
 30
0.0
 11
90.76660560505536
 21
354.7963056640418
 31
0.0
  0
LINE
  5
20D
  8
0
  6
CONTINUOUS
 62
     7
 10
25.84846404401661
 20
363.8442468031648
 30
0.0
 11
26.64005632193971
 21
354.7963056640418
 31
0.0
  0
LINE
  5
20E
  8
0
  6
CONTINUOUS
 62
     9
 10
26.13852813963202
 20
354.7963056640418
 30
0.0
 11
25.35036669497074
 21
363.8050321995402
 31
0.0
  0
POLYLINE
  5
20F
  8
0
  6
CONTINUOUS
 62
     9
 66
     1
 10
0.0
 20
0.0
 30
0.0
  0
VERTEX
  5
6D3
  8
0
  6
CONTINUOUS
 62
     9
 10
25.84846404401661
 20
363.8442468031648
 30
0.0
  0
VERTEX
  5
6D4
  8
0
  6
CONTINUOUS
 62
     9
 10
25.83882860725917
 20
363.8442546363835
 30
0.0
  0
VERTEX
  5
6D5
  8
0
  6
CONTINUOUS
 62
     9
 10
25.81043996823733
 20
363.8425891118366
 30
0.0
  0
VERTEX
  5
6D6
  8
0
  6
CONTINUOUS
 62
     9
 10
25.76438803360747
 20
363.839314172931
 30
0.0
  0
VERTEX
  5
6D7
  8
0
  6
CONTINUOUS
 62
     9
 10
25.70244084550972
 20
363.8345555522778
 30
0.0
  0
VERTEX
  5
6D8
  8
0
  6
CONTINUOUS
 62
     9
 10
25.62697670226968
 20
363.8284959445219
 30
0.0
  0
VERTEX
  5
6D9
  8
0
  6
CONTINUOUS
 62
     9
 10
25.54089284992903
 20
363.8213679922646
 30
0.0
  0
VERTEX
  5
6DA
  8
0
  6
CONTINUOUS
 62
     9
 10
25.44749425015218
 20
363.8134453543665
 30
0.0
  0
VERTEX
  5
6DB
  8
0
  6
CONTINUOUS
 62
     9
 10
25.35036669497074
 20
363.8050321995402
 30
0.0
  0
SEQEND
  5
91C
  8
0
  6
CONTINUOUS
 62
     9
  0
LINE
  5
210
  8
0
  6
CONTINUOUS
 62
     9
 10
90.1799726783902
 20
363.8050321995402
 30
0.0
 11
89.39181123372889
 21
354.7963056640418
 31
0.0
  0
LINE
  5
211
  8
0
  6
CONTINUOUS
 62
     9
 10
90.68798763961698
 20
363.8050321995402
 30
0.0
 11
90.1799726783902
 21
363.8050321995402
 31
0.0
  0
LINE
  5
212
  8
0
  6
CONTINUOUS
 62
     9
 10
25.35036669497074
 20
363.8050321995402
 30
0.0
 11
24.84235173374395
 21
363.8050321995402
 31
0.0
  0
LINE
  5
213
  8
0
  6
CONTINUOUS
 62
     7
 10
88.8902830514212
 20
354.7963056640418
 30
0.0
 11
89.68187532934432
 21
363.8442468031648
 31
0.0
  0
POLYLINE
  5
214
  8
0
  6
CONTINUOUS
 62
     9
 66
     1
 10
0.0
 20
0.0
 30
0.0
  0
VERTEX
  5
6DC
  8
0
  6
CONTINUOUS
 62
     9
 10
90.1799726783902
 20
363.8050321995402
 30
0.0
  0
VERTEX
  5
6DD
  8
0
  6
CONTINUOUS
 62
     9
 10
90.08284512320871
 20
363.8134453543665
 30
0.0
  0
VERTEX
  5
6DE
  8
0
  6
CONTINUOUS
 62
     9
 10
89.98944652343181
 20
363.8213679922646
 30
0.0
  0
VERTEX
  5
6DF
  8
0
  6
CONTINUOUS
 62
     9
 10
89.90336267109112
 20
363.8284959445219
 30
0.0
  0
VERTEX
  5
6E0
  8
0
  6
CONTINUOUS
 62
     9
 10
89.82789852785106
 20
363.8345555522778
 30
0.0
  0
VERTEX
  5
6E1
  8
0
  6
CONTINUOUS
 62
     9
 10
89.76595133975333
 20
363.839314172931
 30
0.0
  0
VERTEX
  5
6E2
  8
0
  6
CONTINUOUS
 62
     9
 10
89.71989940512348
 20
363.8425891118366
 30
0.0
  0
VERTEX
  5
6E3
  8
0
  6
CONTINUOUS
 62
     9
 10
89.6915107661017
 20
363.8442546363835
 30
0.0
  0
VERTEX
  5
6E4
  8
0
  6
CONTINUOUS
 62
     9
 10
89.68187532934434
 20
363.8442468031648
 30
0.0
  0
SEQEND
  5
91D
  8
0
  6
CONTINUOUS
 62
     9
  0
LINE
  5
215
  8
0
  6
CONTINUOUS
 62
     9
 10
90.22333527368917
 20
364.7963056640419
 30
0.0
 11
90.17997267839019
 21
363.8050321995402
 31
0.0
  0
LINE
  5
216
  8
0
  6
CONTINUOUS
 62
     7
 10
90.22333527368917
 20
364.7963056640419
 30
0.0
 11
90.6793369271478
 21
364.7963056640419
 31
0.0
  0
LINE
  5
217
  8
0
  6
CONTINUOUS
 62
     7
 10
25.80510144871764
 20
364.3398835354157
 30
0.0
 11
25.84846404401662
 21
363.8442468031648
 31
0.0
  0
LINE
  5
218
  8
0
  6
CONTINUOUS
 62
     9
 10
25.35036669497075
 20
363.8050321995402
 30
0.0
 11
25.30700409967177
 21
364.7963056640419
 31
0.0
  0
ARC
  5
219
  8
0
  6
CONTINUOUS
 62
     7
 10
25.30700409967177
 20
364.2963056640419
 30
0.0
 40
0.4999999999999982
 50
4.999999999999992
 51
90.00000000000004
  0
LINE
  5
21A
  8
0
  6
CONTINUOUS
 62
     7
 10
24.85100244621315
 20
364.7963056640419
 30
0.0
 11
25.30700409967177
 21
364.7963056640419
 31
0.0
  0
LINE
  5
21B
  8
0
  6
CONTINUOUS
 62
     7
 10
89.71588296705862
 20
364.2329558809328
 30
0.0
 11
89.7252379246433
 21
364.3398835354157
 31
0.0
  0
ARC
  5
21C
  8
0
  6
CONTINUOUS
 62
     7
 10
90.22333527368917
 20
364.2963056640419
 30
0.0
 40
0.4999999999999967
 50
139.6209522597182
 51
175.0000000000001
  0
LINE
  5
21D
  8
0
  6
CONTINUOUS
 62
     7
 10
89.68187532934432
 20
363.8442468031648
 30
0.0
 11
89.71588296705862
 21
364.2329558809328
 31
0.0
  0
ARC
  5
21E
  8
0
  6
CONTINUOUS
 62
     7
 10
90.22333527368917
 20
364.2963056640419
 30
0.0
 40
0.5000000000000004
 50
90.0
 51
121.8582205219896
  0
LINE
  5
21F
  8
0
  6
CONTINUOUS
 62
     7
 10
52.35153332304409
 20
355.0963056640419
 30
0.0
 11
51.55607877758955
 21
355.0963056640419
 31
0.0
  0
LINE
  5
220
  8
0
  6
CONTINUOUS
 62
     7
 10
51.55607877758955
 20
355.0963056640419
 30
0.0
 11
45.82880605031682
 21
355.0963056640419
 31
0.0
  0
LINE
  5
221
  8
0
  6
CONTINUOUS
 62
     7
 10
72.69743916392262
 20
354.7963056640418
 30
0.0
 11
72.69743916392262
 21
355.0963056640419
 31
0.0
  0
LINE
  5
222
  8
0
  6
CONTINUOUS
 62
     7
 10
72.69743916392254
 20
355.0963056640419
 30
0.0
 11
72.96502428664563
 21
355.0963056640419
 31
0.0
  0
LINE
  5
223
  8
0
  6
CONTINUOUS
 62
     7
 10
72.96502428664562
 20
354.7963056640418
 30
0.0
 11
72.96502428664562
 21
355.0963056640419
 31
0.0
  0
LINE
  5
224
  8
0
  6
CONTINUOUS
 62
     7
 10
74.76516968668048
 20
354.7963056640418
 30
0.0
 11
74.76516968668048
 21
355.0963056640419
 31
0.0
  0
LINE
  5
225
  8
0
  6
CONTINUOUS
 62
     7
 10
72.96502428664562
 20
355.0963056640419
 30
0.0
 11
74.76516968668048
 21
355.0963056640419
 31
0.0
  0
LINE
  5
226
  8
0
  6
CONTINUOUS
 62
     7
 10
52.35153332304409
 20
354.7963056640418
 30
0.0
 11
52.35153332304409
 21
355.0963056640419
 31
0.0
  0
LINE
  5
227
  8
0
  6
CONTINUOUS
 62
     9
 10
71.7189816651453
 20
354.7963056640418
 30
0.0
 11
71.7189816651453
 21
355.0963056640419
 31
0.0
  0
LINE
  5
228
  8
0
  6
CONTINUOUS
 62
     7
 10
65.76516968668048
 20
354.7963056640418
 30
0.0
 11
65.76516968668048
 21
355.0963056640419
 31
0.0
  0
LINE
  5
229
  8
0
  6
CONTINUOUS
 62
     7
 10
65.76516968668048
 20
355.0963056640419
 30
0.0
 11
71.7189816651453
 21
355.0963056640419
 31
0.0
  0
LINE
  5
22A
  8
0
  6
CONTINUOUS
 62
     7
 10
72.49920883851426
 20
355.0963056640419
 30
0.0
 11
72.27664855902654
 21
355.0963056640419
 31
0.0
  0
LINE
  5
22B
  8
0
  6
CONTINUOUS
 62
     7
 10
72.49920883851426
 20
354.7963056640418
 30
0.0
 11
72.49920883851361
 21
355.0963056640419
 31
0.0
  0
LINE
  5
22C
  8
0
  6
CONTINUOUS
 62
     7
 10
72.27664855902654
 20
354.7963056640418
 30
0.0
 11
72.27664855902654
 21
355.0963056640419
 31
0.0
  0
LINE
  5
22D
  8
0
  6
CONTINUOUS
 62
     7
 10
72.69743916392262
 20
355.0963056640419
 30
0.0
 11
72.49920883851361
 21
355.0963056640419
 31
0.0
  0
LINE
  5
22E
  8
0
  6
CONTINUOUS
 62
     7
 10
71.95301306275067
 20
354.7963056640418
 30
0.0
 11
71.95301306275037
 21
355.0963056640419
 31
0.0
  0
LINE
  5
22F
  8
0
  6
CONTINUOUS
 62
     7
 10
72.27664855902654
 20
355.0963056640419
 30
0.0
 11
71.95301306275037
 21
355.0963056640419
 31
0.0
  0
LINE
  5
230
  8
0
  6
CONTINUOUS
 62
     7
 10
71.8554717859587
 20
354.7963056640418
 30
0.0
 11
71.8554717859587
 21
355.0963056640419
 31
0.0
  0
LINE
  5
231
  8
0
  6
CONTINUOUS
 62
     7
 10
71.95301306275067
 20
355.0963056640419
 30
0.0
 11
71.8554717859587
 21
355.0963056640419
 31
0.0
  0
LINE
  5
232
  8
0
  6
CONTINUOUS
 62
     7
 10
71.8017373982119
 20
354.7963056640418
 30
0.0
 11
71.801737398216
 21
355.0963056640419
 31
0.0
  0
LINE
  5
233
  8
0
  6
CONTINUOUS
 62
     7
 10
71.80173739821188
 20
355.0963056640419
 30
0.0
 11
71.85386949195275
 21
355.0963056640419
 31
0.0
  0
LINE
  5
234
  8
0
  6
CONTINUOUS
 62
     7
 10
71.85386949195447
 20
354.7963056640418
 30
0.0
 11
71.85386949195447
 21
355.0963056640419
 31
0.0
  0
LINE
  5
235
  8
0
  6
CONTINUOUS
 62
     7
 10
71.85386949195447
 20
355.0963056640419
 30
0.0
 11
71.8554717859587
 21
355.0963056640419
 31
0.0
  0
LINE
  5
236
  8
0
  6
CONTINUOUS
 62
     9
 10
65.46516968668048
 20
354.7963056640418
 30
0.0
 11
65.46516968668048
 21
355.0963056640419
 31
0.0
  0
LINE
  5
237
  8
0
  6
CONTINUOUS
 62
     7
 10
65.76516968668048
 20
355.0963056640419
 30
0.0
 11
65.46516968668048
 21
355.0963056640419
 31
0.0
  0
LINE
  5
238
  8
0
  6
CONTINUOUS
 62
     7
 10
62.76516968668047
 20
354.7963056640418
 30
0.0
 11
62.76516968668047
 21
355.0963056640419
 31
0.0
  0
LINE
  5
239
  8
0
  6
CONTINUOUS
 62
     7
 10
62.76516968668047
 20
355.0963056640419
 30
0.0
 11
65.46516968668048
 21
355.0963056640419
 31
0.0
  0
LINE
  5
23A
  8
0
  6
CONTINUOUS
 62
     7
 10
71.7189816651453
 20
355.0963056640419
 30
0.0
 11
71.73588765437773
 21
355.0963056640419
 31
0.0
  0
LINE
  5
23B
  8
0
  6
CONTINUOUS
 62
     7
 10
71.76516968668048
 20
354.7963056640418
 30
0.0
 11
71.76516968668048
 21
355.0963056640419
 31
0.0
  0
LINE
  5
23C
  8
0
  6
CONTINUOUS
 62
     7
 10
71.76516968668048
 20
355.0963056640419
 30
0.0
 11
71.801737398216
 21
355.0963056640419
 31
0.0
  0
LINE
  5
23D
  8
0
  6
CONTINUOUS
 62
     7
 10
45.82880605031682
 20
354.7963056640418
 30
0.0
 11
45.82880605031682
 21
355.0963056640419
 31
0.0
  0
LINE
  5
23E
  8
0
  6
CONTINUOUS
 62
     9
 10
92.08479393599458
 20
352.7963056640418
 30
0.0
 11
91.70647538339044
 21
396.1473179258276
 31
0.0
  0
POLYLINE
  5
23F
  8
0
  6
CONTINUOUS
 62
     9
 66
     1
 10
0.0
 20
0.0
 30
0.0
  0
VERTEX
  5
6E5
  8
0
  6
CONTINUOUS
 62
     9
 10
93.20641826798669
 20
396.0819037947107
 30
0.0
  0
VERTEX
  5
6E6
  8
0
  6
CONTINUOUS
 62
     9
 10
93.17748038268522
 20
396.0969622214257
 30
0.0
  0
VERTEX
  5
6E7
  8
0
  6
CONTINUOUS
 62
     9
 10
93.09204536214868
 20
396.1109395543609
 30
0.0
  0
VERTEX
  5
6E8
  8
0
  6
CONTINUOUS
 62
     9
 10
92.95339452351159
 20
396.1232989637506
 30
0.0
  0
VERTEX
  5
6E9
  8
0
  6
CONTINUOUS
 62
     9
 10
92.76685305274178
 20
396.1335657596895
 30
0.0
  0
VERTEX
  5
6EA
  8
0
  6
CONTINUOUS
 62
     9
 10
92.53958547933176
 20
396.1413456236276
 30
0.0
  0
VERTEX
  5
6EB
  8
0
  6
CONTINUOUS
 62
     9
 10
92.28032050701512
 20
396.1463397530283
 30
0.0
  0
VERTEX
  5
6EC
  8
0
  6
CONTINUOUS
 62
     9
 10
91.9990157689812
 20
396.1483563375278
 30
0.0
  0
VERTEX
  5
6ED
  8
0
  6
CONTINUOUS
 62
     9
 10
91.70647538339044
 20
396.1473179258276
 30
0.0
  0
SEQEND
  5
91E
  8
0
  6
CONTINUOUS
 62
     9
  0
LINE
  5
240
  8
0
  6
CONTINUOUS
 62
     7
 10
93.20641826798669
 20
396.0819037947107
 30
0.0
 11
93.58416596011698
 21
352.7963056640418
 31
0.0
  0
LINE
  5
241
  8
0
  6
CONTINUOUS
 62
     7
 10
93.58416596011695
 20
352.7963056640418
 30
0.0
 11
92.08479393599458
 21
352.7963056640418
 31
0.0
  0
LINE
  5
242
  8
0
  6
CONTINUOUS
 62
     7
 10
90.406524883407
 20
396.0574694953153
 30
0.0
 11
90.7840593406369
 21
352.7963056640418
 31
0.0
  0
ARC
  5
243
  8
0
  6
CONTINUOUS
 62
     7
 10
78.40698180663696
 20
395.9527510693348
 30
0.0
 40
12.0
 50
0.4999999999999432
 51
43.5999164104
  0
LINE
  5
244
  8
0
  6
CONTINUOUS
 62
     7
 10
74.76516968668045
 20
417.1779673257928
 30
0.0
 11
87.09705621702246
 21
404.2281729161027
 31
0.0
  0
ARC
  5
245
  8
0
  6
CONTINUOUS
 62
     7
 10
57.76516968668047
 20
183.7963056640418
 30
0.0
 40
234.0
 50
85.83381578248017
 51
94.16618421751991
  0
LINE
  5
246
  8
0
  6
CONTINUOUS
 62
     7
 10
40.76516968668049
 20
417.1779673257928
 30
0.0
 11
28.43328315633848
 21
404.2281729161027
 31
0.0
  0
ARC
  5
247
  8
0
  6
CONTINUOUS
 62
     7
 10
37.12335756672397
 20
395.9527510693348
 30
0.0
 40
12.0
 50
136.4000835896
 51
179.5000000000001
  0
LINE
  5
248
  8
0
  6
CONTINUOUS
 62
     7
 10
25.12381448995393
 20
396.0574694953153
 30
0.0
 11
24.74628003272403
 21
352.7963056640418
 31
0.0
  0
LINE
  5
249
  8
0
  6
CONTINUOUS
 62
     9
 10
23.8238639899705
 20
396.1473179258276
 30
0.0
 11
23.44554543736636
 21
352.7963056640418
 31
0.0
  0
ARC
  5
24A
  8
0
  6
CONTINUOUS
 62
     9
 10
37.12335756672397
 20
396.0312550036992
 30
0.0
 40
13.3
 50
136.4000835895999
 51
179.5000000000001
  0
LINE
  5
24B
  8
0
  6
CONTINUOUS
 62
     9
 10
40.16943095433447
 20
418.5159824101339
 30
0.0
 11
27.49185842854673
 21
405.203180883867
 31
0.0
  0
ARC
  5
24C
  8
0
  6
CONTINUOUS
 62
     9
 10
57.76516968668047
 20
183.8748095984063
 30
0.0
 40
235.3
 50
85.71141710851516
 51
94.28858289148485
  0
LINE
  5
24D
  8
0
  6
CONTINUOUS
 62
     9
 10
88.0384809448142
 20
405.203180883867
 30
0.0
 11
75.36090841902647
 21
418.5159824101339
 31
0.0
  0
ARC
  5
24E
  8
0
  6
CONTINUOUS
 62
     9
 10
78.40698180663696
 20
396.0312550036992
 30
0.0
 40
13.3
 50
0.4999999999998825
 51
43.59991641040009
  0
LINE
  5
24F
  8
0
  6
CONTINUOUS
 62
     7
 10
24.74628003272403
 20
352.7963056640418
 30
0.0
 11
23.44554543736636
 21
352.7963056640418
 31
0.0
  0
LINE
  5
250
  8
0
  6
CONTINUOUS
 62
     7
 10
90.7840593406369
 20
352.7963056640418
 30
0.0
 11
92.08479393599458
 21
352.7963056640418
 31
0.0
  0
LINE
  5
251
  8
0
  6
CONTINUOUS
 62
     7
 10
21.94617341324396
 20
352.7963056640418
 30
0.0
 11
22.32392110537425
 21
396.0819037947107
 31
0.0
  0
POLYLINE
  5
252
  8
0
  6
CONTINUOUS
 62
     9
 66
     1
 10
0.0
 20
0.0
 30
0.0
  0
VERTEX
  5
6EE
  8
0
  6
CONTINUOUS
 62
     9
 10
23.82386398997051
 20
396.1473179258276
 30
0.0
  0
VERTEX
  5
6EF
  8
0
  6
CONTINUOUS
 62
     9
 10
23.53132360437978
 20
396.1483563375278
 30
0.0
  0
VERTEX
  5
6F0
  8
0
  6
CONTINUOUS
 62
     9
 10
23.25001886634589
 20
396.1463397530283
 30
0.0
  0
VERTEX
  5
6F1
  8
0
  6
CONTINUOUS
 62
     9
 10
22.99075389402926
 20
396.1413456236276
 30
0.0
  0
VERTEX
  5
6F2
  8
0
  6
CONTINUOUS
 62
     9
 10
22.76348632061925
 20
396.1335657596895
 30
0.0
  0
VERTEX
  5
6F3
  8
0
  6
CONTINUOUS
 62
     9
 10
22.57694484984944
 20
396.1232989637506
 30
0.0
  0
VERTEX
  5
6F4
  8
0
  6
CONTINUOUS
 62
     9
 10
22.43829401121232
 20
396.1109395543609
 30
0.0
  0
VERTEX
  5
6F5
  8
0
  6
CONTINUOUS
 62
     9
 10
22.35285899067577
 20
396.0969622214257
 30
0.0
  0
VERTEX
  5
6F6
  8
0
  6
CONTINUOUS
 62
     9
 10
22.32392110537424
 20
396.0819037947107
 30
0.0
  0
SEQEND
  5
91F
  8
0
  6
CONTINUOUS
 62
     9
  0
LINE
  5
253
  8
0
  6
CONTINUOUS
 62
     7
 10
23.44554543736636
 20
352.7963056640418
 30
0.0
 11
21.94617341324398
 21
352.7963056640418
 31
0.0
  0
POLYLINE
  5
254
  8
0
  6
CONTINUOUS
 62
     9
 66
     1
 10
0.0
 20
0.0
 30
0.0
  0
VERTEX
  5
6F7
  8
0
  6
CONTINUOUS
 62
     9
 10
89.1247402461124
 20
406.1591046803485
 30
0.0
  0
VERTEX
  5
6F8
  8
0
  6
CONTINUOUS
 62
     9
 10
89.09733368333227
 20
406.1479833616952
 30
0.0
  0
VERTEX
  5
6F9
  8
0
  6
CONTINUOUS
 62
     9
 10
89.03107914617262
 20
406.0993182186391
 30
0.0
  0
VERTEX
  5
6FA
  8
0
  6
CONTINUOUS
 62
     9
 10
88.92840743021858
 20
406.0148947140326
 30
0.0
  0
VERTEX
  5
6FB
  8
0
  6
CONTINUOUS
 62
     9
 10
88.79308543151322
 20
405.8978102400101
 30
0.0
  0
VERTEX
  5
6FC
  8
0
  6
CONTINUOUS
 62
     9
 10
88.63007794388237
 20
405.7523604785696
 30
0.0
  0
VERTEX
  5
6FD
  8
0
  6
CONTINUOUS
 62
     9
 10
88.44536550689762
 20
405.5838817984053
 30
0.0
  0
VERTEX
  5
6FE
  8
0
  6
CONTINUOUS
 62
     9
 10
88.24572498740595
 20
405.3985554702574
 30
0.0
  0
VERTEX
  5
6FF
  8
0
  6
CONTINUOUS
 62
     9
 10
88.0384809448142
 20
405.2031808838669
 30
0.0
  0
SEQEND
  5
920
  8
0
  6
CONTINUOUS
 62
     9
  0
ARC
  5
255
  8
0
  6
CONTINUOUS
 62
     7
 10
78.40698180663696
 20
395.9527510693348
 30
0.0
 40
14.8
 50
0.5000000000000568
 51
43.59991641040011
  0
ARC
  5
256
  8
0
  6
CONTINUOUS
 62
     7
 10
37.12335756672397
 20
395.9527510693348
 30
0.0
 40
14.8
 50
136.4000835895999
 51
179.5
  0
POLYLINE
  5
257
  8
0
  6
CONTINUOUS
 62
     9
 66
     1
 10
0.0
 20
0.0
 30
0.0
  0
VERTEX
  5
700
  8
0
  6
CONTINUOUS
 62
     9
 10
27.49185842854672
 20
405.2031808838669
 30
0.0
  0
VERTEX
  5
701
  8
0
  6
CONTINUOUS
 62
     9
 10
27.28461438595496
 20
405.3985554702574
 30
0.0
  0
VERTEX
  5
702
  8
0
  6
CONTINUOUS
 62
     9
 10
27.08497386646328
 20
405.5838817984053
 30
0.0
  0
VERTEX
  5
703
  8
0
  6
CONTINUOUS
 62
     9
 10
26.90026142947849
 20
405.7523604785696
 30
0.0
  0
VERTEX
  5
704
  8
0
  6
CONTINUOUS
 62
     9
 10
26.73725394184764
 20
405.8978102400102
 30
0.0
  0
VERTEX
  5
705
  8
0
  6
CONTINUOUS
 62
     9
 10
26.60193194314228
 20
406.0148947140327
 30
0.0
  0
VERTEX
  5
706
  8
0
  6
CONTINUOUS
 62
     9
 10
26.49926022718826
 20
406.0993182186392
 30
0.0
  0
VERTEX
  5
707
  8
0
  6
CONTINUOUS
 62
     9
 10
26.43300569002863
 20
406.1479833616952
 30
0.0
  0
VERTEX
  5
708
  8
0
  6
CONTINUOUS
 62
     9
 10
26.40559912724853
 20
406.1591046803485
 30
0.0
  0
SEQEND
  5
921
  8
0
  6
CONTINUOUS
 62
     9
  0
LINE
  5
258
  8
0
  6
CONTINUOUS
 62
     7
 10
75.36090841902647
 20
418.5159824101339
 30
0.0
 11
76.04936896928112
 21
419.8893552368621
 31
0.0
  0
LINE
  5
259
  8
0
  6
CONTINUOUS
 62
     7
 10
76.04936896928112
 20
419.8893552368621
 30
0.0
 11
76.04965892702266
 21
419.8893327809388
 31
0.0
  0
LINE
  5
25A
  8
0
  6
CONTINUOUS
 62
     7
 10
76.04965892702266
 20
419.8893327809388
 30
0.0
 11
89.12474024611238
 21
406.1591046803485
 31
0.0
  0
LINE
  5
25B
  8
0
  6
CONTINUOUS
 62
     7
 10
26.40559912724854
 20
406.1591046803485
 30
0.0
 11
39.48068044633828
 21
419.8893327809388
 31
0.0
  0
LINE
  5
25C
  8
0
  6
CONTINUOUS
 62
     7
 10
39.48068044633828
 20
419.8893327809388
 30
0.0
 11
39.48097040407972
 21
419.8893552368621
 31
0.0
  0
LINE
  5
25D
  8
0
  6
CONTINUOUS
 62
     7
 10
39.48097040407972
 20
419.8893552368621
 30
0.0
 11
40.16943095433447
 21
418.5159824101339
 31
0.0
  0
ARC
  5
25E
  8
0
  6
CONTINUOUS
 62
     7
 10
57.76516968668047
 20
183.7963056640418
 30
0.0
 40
236.8
 50
85.57157424968796
 51
94.42842575031216
  0
ARC
  5
25F
  8
0
  6
CONTINUOUS
 62
     7
 10
-342.0749483545852
 20
4.828418031370962
 30
0.0
 40
589.9079709079324
 50
43.0040584845479
 51
44.21728584775883
  0
ARC
  5
260
  8
0
  6
CONTINUOUS
 62
     9
 10
90.91335191343391
 20
406.059277812691
 30
0.0
 40
1.938799549815701
 50
144.8585225389236
 51
161.7507610264313
  0
POLYLINE
  5
261
  8
0
  6
CONTINUOUS
 62
     9
 66
     1
 10
0.0
 20
0.0
 30
0.0
  0
VERTEX
  5
709
  8
0
  6
CONTINUOUS
 62
     9
 10
89.07206761067899
 20
406.6664152030681
 30
0.0
  0
VERTEX
  5
70A
  8
0
  6
CONTINUOUS
 62
     9
 10
89.04061000409366
 20
406.5269717396438
 30
0.0
  0
VERTEX
  5
70B
  8
0
  6
CONTINUOUS
 62
     9
 10
89.03330819057715
 20
406.4016997579731
 30
0.0
  0
VERTEX
  5
70C
  8
0
  6
CONTINUOUS
 62
     9
 10
89.04977454261902
 20
406.2940277819684
 30
0.0
  0
VERTEX
  5
70D
  8
0
  6
CONTINUOUS
 62
     9
 10
89.10548914875484
 20
406.1814813630469
 30
0.0
  0
VERTEX
  5
70E
  8
0
  6
CONTINUOUS
 62
     9
 10
89.12474024611248
 20
406.1591046803484
 30
0.0
  0
SEQEND
  5
922
  8
0
  6
CONTINUOUS
 62
     9
  0
LINE
  5
262
  8
0
  6
CONTINUOUS
 62
     9
 10
80.71223823305542
 20
416.2192407267997
 30
0.0
 11
80.09620652895391
 21
415.6400267736947
 31
0.0
  0
POLYLINE
  5
263
  8
0
  6
CONTINUOUS
 62
     9
 66
     1
 10
0.0
 20
0.0
 30
0.0
  0
VERTEX
  5
70F
  8
0
  6
CONTINUOUS
 62
     9
 10
26.40559912724853
 20
406.1591046803485
 30
0.0
  0
VERTEX
  5
710
  8
0
  6
CONTINUOUS
 62
     9
 10
26.47006416816027
 20
406.2624691646617
 30
0.0
  0
VERTEX
  5
711
  8
0
  6
CONTINUOUS
 62
     9
 10
26.49412245039298
 20
406.3637173071305
 30
0.0
  0
VERTEX
  5
712
  8
0
  6
CONTINUOUS
 62
     9
 10
26.49485846141401
 20
406.4834480424079
 30
0.0
  0
SEQEND
  5
923
  8
0
  6
CONTINUOUS
 62
     9
  0
ARC
  5
264
  8
0
  6
CONTINUOUS
 62
     9
 10
24.95208047109963
 20
406.2389689389715
 30
0.0
 40
1.562028795962325
 50
9.00460376646546
 51
36.82678871063766
  0
ARC
  5
265
  8
0
  6
CONTINUOUS
 62
     7
 10
507.4530185847329
 20
-42.65864550415444
 30
0.0
 40
658.7508478973562
 50
135.8461102513268
 51
136.9325450440861
  0
LINE
  5
266
  8
0
  6
CONTINUOUS
 62
     9
 10
35.43413281432986
 20
415.6400267421105
 30
0.0
 11
34.81810113978737
 21
416.2192406674231
 31
0.0
  0
LINE
  5
267
  8
0
  6
CONTINUOUS
 62
     7
 10
76.80531432420996
 20
419.8295933422461
 30
0.0
 11
77.14053346060626
 21
419.5056652272198
 31
0.0
  0
ARC
  5
268
  8
0
  6
CONTINUOUS
 62
     9
 10
14.84495993430573
 20
348.2183961219518
 30
0.0
 40
94.67107909735479
 50
45.91309262413035
 51
48.85087055069403
  0
LINE
  5
269
  8
0
  6
CONTINUOUS
 62
     7
 10
76.04965892702273
 20
419.8893327809387
 30
0.0
 11
76.11908740030529
 21
419.8839455450011
 31
0.0
  0
LINE
  5
26A
  8
0
  6
CONTINUOUS
 62
     7
 10
76.11908740030529
 20
419.8839455450011
 30
0.0
 11
76.80531432421006
 21
419.8295933422461
 31
0.0
  0
ARC
  5
26B
  8
0
  6
CONTINUOUS
 62
     9
 10
100.6853890625713
 20
348.218386780283
 30
0.0
 40
94.67109246059803
 50
131.1491301118526
 51
134.0869076510336
  0
LINE
  5
26C
  8
0
  6
CONTINUOUS
 62
     7
 10
38.38980591863493
 20
419.5056652277031
 30
0.0
 11
38.72502505098041
 21
419.8295933423938
 31
0.0
  0
LINE
  5
26D
  8
0
  6
CONTINUOUS
 62
     7
 10
38.72502505098043
 20
419.8295933423938
 30
0.0
 11
39.45685235295072
 21
419.8874861778583
 31
0.0
  0
LINE
  5
26E
  8
0
  6
CONTINUOUS
 62
     7
 10
39.45685235295072
 20
419.8874861778582
 30
0.0
 11
39.47302993044177
 21
419.8887401534558
 31
0.0
  0
LINE
  5
26F
  8
0
  6
CONTINUOUS
 62
     7
 10
39.47302993044177
 20
419.8887401534558
 30
0.0
 11
39.47913631293319
 21
419.8892131899351
 31
0.0
  0
LINE
  5
270
  8
0
  6
CONTINUOUS
 62
     7
 10
39.47913766366707
 20
419.8892132933337
 30
0.0
 11
39.48068044633823
 21
419.8893327809387
 31
0.0
  0
ARC
  5
271
  8
0
  6
CONTINUOUS
 62
     7
 10
57.76509646538046
 20
183.7957319730869
 30
0.0
 40
237.000578086697
 50
81.01484536923562
 51
84.43825870147673
  0
ARC
  5
272
  8
0
  6
CONTINUOUS
 62
     7
 10
94.70141359478676
 20
417.3941735609062
 30
0.0
 40
0.5000000000000002
 50
0.500000000003638
 51
81.01484119282532
  0
ARC
  5
273
  8
0
  6
CONTINUOUS
 62
     9
 10
57.58795815406158
 20
171.968726135299
 30
0.0
 40
248.2953132360001
 50
81.2869074555631
 51
84.66217901128351
  0
LINE
  5
274
  8
0
  6
CONTINUOUS
 62
     9
 10
80.73479542340142
 20
419.6805914770544
 30
0.0
 11
80.73470698336754
 21
419.6799116153308
 31
0.0
  0
POLYLINE
  5
275
  8
0
  6
CONTINUOUS
 62
     9
 66
     1
 10
0.0
 20
0.0
 30
0.0
  0
VERTEX
  5
713
  8
0
  6
CONTINUOUS
 62
     9
 10
80.73470698336754
 20
419.6799116153307
 30
0.0
  0
VERTEX
  5
714
  8
0
  6
CONTINUOUS
 62
     9
 10
80.7332935422003
 20
419.6662098283217
 30
0.0
  0
VERTEX
  5
715
  8
0
  6
CONTINUOUS
 62
     9
 10
80.73021268530454
 20
419.6353476889299
 30
0.0
  0
VERTEX
  5
716
  8
0
  6
CONTINUOUS
 62
     9
 10
80.72557381154435
 20
419.5884210880415
 30
0.0
  0
VERTEX
  5
717
  8
0
  6
CONTINUOUS
 62
     9
 10
80.7195416437671
 20
419.527096353242
 30
0.0
  0
VERTEX
  5
718
  8
0
  6
CONTINUOUS
 62
     9
 10
80.7123303796214
 20
419.4535510788036
 30
0.0
  0
VERTEX
  5
719
  8
0
  6
CONTINUOUS
 62
     9
 10
80.70419608556313
 20
419.3703968009822
 30
0.0
  0
VERTEX
  5
71A
  8
0
  6
CONTINUOUS
 62
     9
 10
80.69542760413196
 20
419.2805862643705
 30
0.0
  0
VERTEX
  5
71B
  8
0
  6
CONTINUOUS
 62
     9
 10
80.68633629737458
 20
419.1873085722023
 30
0.0
  0
SEQEND
  5
924
  8
0
  6
CONTINUOUS
 62
     9
  0
LINE
  5
276
  8
0
  6
CONTINUOUS
 62
     9
 10
93.91669235504241
 20
396.061294968671
 30
0.0
 11
94.29426019663018
 21
352.7963056640418
 31
0.0
  0
ARC
  5
277
  8
0
  6
CONTINUOUS
 62
     9
 10
81.49071171922893
 20
397.726611684225
 30
0.0
 40
12.27593958305846
 50
14.25891199649516
 51
50.32581160768763
  0
ARC
  5
278
  8
0
  6
CONTINUOUS
 62
     9
 10
73.1369851795367
 20
396.0945793702195
 30
0.0
 40
20.77973383253863
 50
359.9082251696198
 51
12.94686984710449
  0
LINE
  5
279
  8
0
  6
CONTINUOUS
 62
     9
 10
80.71223823305542
 20
416.2192407267997
 30
0.0
 11
80.68633629737458
 21
419.1873085722023
 31
0.0
  0
LINE
  5
27A
  8
0
  6
CONTINUOUS
 62
     7
 10
95.20139455631885
 20
417.3985368286554
 30
0.0
 11
95.76516968668047
 21
352.7963056640418
 31
0.0
  0
LINE
  5
27B
  8
0
  6
CONTINUOUS
 62
     7
 10
95.76516968668047
 20
352.7963056640418
 30
0.0
 11
94.2942601966302
 21
352.7963056640418
 31
0.0
  0
ARC
  5
27C
  8
0
  6
CONTINUOUS
 62
     7
 10
35.18047067250902
 20
396.9640703168439
 30
0.0
 40
13.59682710757079
 50
131.323190939633
 51
183.8070129895433
  0
LINE
  5
27D
  8
0
  6
CONTINUOUS
 62
     9
 10
21.23607917666732
 20
352.7963056640418
 30
0.0
 11
21.61364701831851
 21
396.061294968671
 31
0.0
  0
LINE
  5
27E
  8
0
  6
CONTINUOUS
 62
     7
 10
19.76516968668047
 20
352.7963056640418
 30
0.0
 11
20.32894481704208
 21
417.3985368286554
 31
0.0
  0
ARC
  5
27F
  8
0
  6
CONTINUOUS
 62
     9
 10
58.00314499956664
 20
171.4756560642877
 30
0.0
 40
248.7918982660777
 50
95.34119045689047
 51
98.7097230762629
  0
LINE
  5
280
  8
0
  6
CONTINUOUS
 62
     9
 10
34.84400307598635
 20
419.1873085722023
 30
0.0
 11
34.81810113978735
 21
416.2192406674231
 31
0.0
  0
LINE
  5
281
  8
0
  6
CONTINUOUS
 62
     7
 10
21.2360791766673
 20
352.7963056640418
 30
0.0
 11
19.76516968668046
 21
352.7963056640418
 31
0.0
  0
ARC
  5
282
  8
0
  6
CONTINUOUS
 62
     7
 10
20.82892577857417
 20
417.3941735609062
 30
0.0
 40
0.5000000000000018
 50
98.9851588071747
 51
179.4999999999964
  0
ARC
  5
283
  8
0
  6
CONTINUOUS
 62
     7
 10
57.76516968668269
 20
183.79630566403
 30
0.0
 40
237.0000000000121
 50
95.56173712211283
 51
98.9851588071748
  0
POLYLINE
  5
284
  8
0
  6
CONTINUOUS
 62
     9
 66
     1
 10
0.0
 20
0.0
 30
0.0
  0
VERTEX
  5
71C
  8
0
  6
CONTINUOUS
 62
     9
 10
34.84400307598636
 20
419.1873085722022
 30
0.0
  0
VERTEX
  5
71D
  8
0
  6
CONTINUOUS
 62
     9
 10
34.83460042131389
 20
419.2837779281498
 30
0.0
  0
VERTEX
  5
71E
  8
0
  6
CONTINUOUS
 62
     9
 10
34.82555513313101
 20
419.3764149407836
 30
0.0
  0
VERTEX
  5
71F
  8
0
  6
CONTINUOUS
 62
     9
 10
34.81721099550695
 20
419.4616987571997
 30
0.0
  0
VERTEX
  5
720
  8
0
  6
CONTINUOUS
 62
     9
 10
34.80988514389709
 20
419.536387997261
 30
0.0
  0
VERTEX
  5
721
  8
0
  6
CONTINUOUS
 62
     9
 10
34.80385601178263
 20
419.5976439486614
 30
0.0
  0
VERTEX
  5
722
  8
0
  6
CONTINUOUS
 62
     9
 10
34.79935274825539
 20
419.6431384578016
 30
0.0
  0
VERTEX
  5
723
  8
0
  6
CONTINUOUS
 62
     9
 10
34.79654650875332
 20
419.6711424158723
 30
0.0
  0
VERTEX
  5
724
  8
0
  6
CONTINUOUS
 62
     9
 10
34.79554394995952
 20
419.6805914770543
 30
0.0
  0
SEQEND
  5
925
  8
0
  6
CONTINUOUS
 62
     9
  0
LINE
  5
285
  8
0
  6
CONTINUOUS
 62
     7
 10
38.72502505098043
 20
419.8295933423938
 30
0.0
 11
38.81605337164167
 21
420.0375615675761
 31
0.0
  0
LINE
  5
286
  8
0
  6
CONTINUOUS
 62
     7
 10
76.80531432421006
 20
419.8295933422461
 30
0.0
 11
76.71428600429
 21
420.0375615673698
 31
0.0
  0
ARC
  5
287
  8
0
  6
CONTINUOUS
 62
     7
 10
57.76516968668033
 20
183.7963056640557
 30
0.0
 40
236.9999999999862
 50
85.41407389723031
 51
94.58592610214612
  0
ARC
  5
288
  8
0
  6
CONTINUOUS
 62
     9
 10
57.76516968668047
 20
183.800668931791
 30
0.0
 40
236.5
 50
94.69924801804041
 51
95.56173712211235
  0
ARC
  5
289
  8
0
  6
CONTINUOUS
 62
     9
 10
57.76516968668047
 20
183.800668931791
 30
0.0
 40
236.5
 50
84.43826287788764
 51
85.30075198053022
  0
POLYLINE
  5
28A
  8
0
  6
CONTINUOUS
 62
     9
 66
     1
 10
0.0
 20
0.0
 30
0.0
  0
VERTEX
  5
725
  8
0
  6
CONTINUOUS
 62
     9
 10
77.18149617471595
 20
419.9996211905391
 30
0.0
  0
VERTEX
  5
726
  8
0
  6
CONTINUOUS
 62
     9
 10
77.18064862613315
 20
419.9901572107414
 30
0.0
  0
VERTEX
  5
727
  8
0
  6
CONTINUOUS
 62
     9
 10
77.17827644419381
 20
419.962113598707
 30
0.0
  0
VERTEX
  5
728
  8
0
  6
CONTINUOUS
 62
     9
 10
77.17446978701308
 20
419.9165561914027
 30
0.0
  0
VERTEX
  5
729
  8
0
  6
CONTINUOUS
 62
     9
 10
77.1693733319577
 20
419.8552164622474
 30
0.0
  0
VERTEX
  5
72A
  8
0
  6
CONTINUOUS
 62
     9
 10
77.16318077697893
 20
419.7804257140273
 30
0.0
  0
VERTEX
  5
72B
  8
0
  6
CONTINUOUS
 62
     9
 10
77.1561274788492
 20
419.6950264744497
 30
0.0
  0
VERTEX
  5
72C
  8
0
  6
CONTINUOUS
 62
     9
 10
77.14848150809642
 20
419.6022644618749
 30
0.0
  0
VERTEX
  5
72D
  8
0
  6
CONTINUOUS
 62
     9
 10
77.14053346060626
 20
419.5056652272197
 30
0.0
  0
SEQEND
  5
926
  8
0
  6
CONTINUOUS
 62
     9
  0
ARC
  5
28B
  8
0
  6
CONTINUOUS
 62
     7
 10
57.76516968668047
 20
183.7963056640418
 30
0.0
 40
237.0
 50
84.43826287788767
 51
85.30075198053026
  0
POLYLINE
  5
28C
  8
0
  6
CONTINUOUS
 62
     9
 66
     1
 10
0.0
 20
0.0
 30
0.0
  0
VERTEX
  5
72E
  8
0
  6
CONTINUOUS
 62
     9
 10
38.38980591863493
 20
419.5056652277031
 30
0.0
  0
VERTEX
  5
72F
  8
0
  6
CONTINUOUS
 62
     9
 10
38.38185787114719
 20
419.6022644623582
 30
0.0
  0
VERTEX
  5
730
  8
0
  6
CONTINUOUS
 62
     9
 10
38.37421190039676
 20
419.6950264749327
 30
0.0
  0
VERTEX
  5
731
  8
0
  6
CONTINUOUS
 62
     9
 10
38.36715860226916
 20
419.7804257145103
 30
0.0
  0
VERTEX
  5
732
  8
0
  6
CONTINUOUS
 62
     9
 10
38.36096604729227
 20
419.8552164627303
 30
0.0
  0
VERTEX
  5
733
  8
0
  6
CONTINUOUS
 62
     9
 10
38.35586959223841
 20
419.9165561918857
 30
0.0
  0
VERTEX
  5
734
  8
0
  6
CONTINUOUS
 62
     9
 10
38.3520629350588
 20
419.9621135991903
 30
0.0
  0
VERTEX
  5
735
  8
0
  6
CONTINUOUS
 62
     9
 10
38.34969075312014
 20
419.9901572112252
 30
0.0
  0
VERTEX
  5
736
  8
0
  6
CONTINUOUS
 62
     9
 10
38.34884320453754
 20
419.9996211910234
 30
0.0
  0
SEQEND
  5
927
  8
0
  6
CONTINUOUS
 62
     9
  0
ARC
  5
28D
  8
0
  6
CONTINUOUS
 62
     7
 10
57.76516968668047
 20
183.7963056640418
 30
0.0
 40
237.0
 50
94.69924801804041
 51
95.56173712211235
  0
LINE
  5
28E
  8
0
  6
CONTINUOUS
 62
     7
 10
76.71428600429
 20
420.0375615673698
 30
0.0
 11
77.18149617471593
 21
419.9996211905391
 31
0.0
  0
LINE
  5
28F
  8
0
  6
CONTINUOUS
 62
     7
 10
38.34884320453753
 20
419.9996211910234
 30
0.0
 11
38.81605337164167
 21
420.0375615675761
 31
0.0
  0
LINE
  5
290
  8
0
  6
CONTINUOUS
 62
     9
 10
21.61364701831851
 20
396.061294968671
 30
0.0
 11
22.32392110537424
 21
396.0819037947107
 31
0.0
  0
LINE
  5
291
  8
0
  6
CONTINUOUS
 62
     9
 10
93.2064182679867
 20
396.0819037947107
 30
0.0
 11
93.91669235504243
 21
396.061294968671
 31
0.0
  0
LINE
  5
292
  8
0
  6
CONTINUOUS
 62
     7
 10
94.29426019663019
 20
352.7963056640418
 30
0.0
 11
93.62854684989904
 21
352.7963056640418
 31
0.0
  0
LINE
  5
293
  8
0
  6
CONTINUOUS
 62
     7
 10
93.62854684989904
 20
352.7963056640418
 30
0.0
 11
93.58416596011695
 21
352.7963056640418
 31
0.0
  0
LINE
  5
294
  8
0
  6
CONTINUOUS
 62
     7
 10
21.94617341324398
 20
352.7963056640418
 30
0.0
 11
21.90179252345795
 21
352.7963056640418
 31
0.0
  0
LINE
  5
295
  8
0
  6
CONTINUOUS
 62
     7
 10
21.90179252345795
 20
352.7963056640418
 30
0.0
 11
21.23607917666731
 21
352.7963056640418
 31
0.0
  0
LINE
  5
296
  8
0
  6
CONTINUOUS
 62
     9
 10
85.76516968668047
 20
420.7963056640418
 30
0.0
 11
57.76516968668047
 21
420.7963056640418
 31
0.0
  0
LINE
  5
297
  8
0
  6
CONTINUOUS
 62
     9
 10
57.76516968668047
 20
420.7963056640418
 30
0.0
 11
29.76516968668047
 21
420.7963056640418
 31
0.0
  0
LINE
  5
298
  8
0
  6
CONTINUOUS
 62
     7
 10
30.26516968668047
 20
421.2963056640418
 30
0.0
 11
85.26516968668047
 21
421.2963056640418
 31
0.0
  0
LINE
  5
299
  8
0
  6
CONTINUOUS
 62
     9
 10
34.65753985659548
 20
397.7963056640418
 30
0.0
 11
34.77175657421836
 21
410.8842451586482
 31
0.0
  0
LINE
  5
29A
  8
0
  6
CONTINUOUS
 62
     9
 10
80.75858279914256
 20
410.8842451586482
 30
0.0
 11
80.87279951676544
 21
397.7963056640418
 31
0.0
  0
ARC
  5
29B
  8
0
  6
CONTINUOUS
 62
     7
 10
36.54809396988552
 20
388.2963056640418
 30
0.0
 40
0.4999999999999449
 50
180.5000000000004
 51
270.0
  0
ARC
  5
29C
  8
0
  6
CONTINUOUS
 62
     7
 10
26.98224540347536
 20
388.2963056640418
 30
0.0
 40
0.5000000000000013
 50
270.0
 51
359.4999999999995
  0
ARC
  5
29D
  8
0
  6
CONTINUOUS
 62
     7
 10
88.54809396988557
 20
388.2963056640418
 30
0.0
 40
0.4999999999999449
 50
180.5000000000004
 51
270.0
  0
ARC
  5
29E
  8
0
  6
CONTINUOUS
 62
     7
 10
78.98224540347542
 20
388.2963056640418
 30
0.0
 40
0.5000000000000013
 50
270.0
 51
359.4999999999995
  0
LINE
  5
29F
  8
0
  6
CONTINUOUS
 62
     7
 10
36.04811300835343
 20
388.2919423962927
 30
0.0
 11
35.96516968668045
 21
397.7963056640418
 31
0.0
  0
LINE
  5
2A0
  8
0
  6
CONTINUOUS
 62
     7
 10
27.56516968668044
 20
397.7963056640418
 30
0.0
 11
27.48222636500745
 21
388.2919423962927
 31
0.0
  0
LINE
  5
2A1
  8
0
  6
CONTINUOUS
 62
     7
 10
88.04811300835348
 20
388.2919423962927
 30
0.0
 11
87.9651696866805
 21
397.7963056640418
 31
0.0
  0
LINE
  5
2A2
  8
0
  6
CONTINUOUS
 62
     7
 10
79.56516968668048
 20
397.7963056640418
 30
0.0
 11
79.48222636500749
 21
388.2919423962927
 31
0.0
  0
ARC
  5
2A3
  8
0
  6
CONTINUOUS
 62
     7
 10
62.54809396988554
 20
388.2963056640418
 30
0.0
 40
0.4999999999999449
 50
180.5000000000004
 51
270.0000000000002
  0
ARC
  5
2A4
  8
0
  6
CONTINUOUS
 62
     7
 10
52.98224540347539
 20
388.2963056640418
 30
0.0
 40
0.5000000000000013
 50
269.9999999999998
 51
359.4999999999995
  0
LINE
  5
2A5
  8
0
  6
CONTINUOUS
 62
     7
 10
62.04811300835346
 20
388.2919423962927
 30
0.0
 11
61.96516968668047
 21
397.7963056640418
 31
0.0
  0
LINE
  5
2A6
  8
0
  6
CONTINUOUS
 62
     7
 10
53.56516968668046
 20
397.7963056640418
 30
0.0
 11
53.48222636500748
 21
388.2919423962927
 31
0.0
  0
LINE
  5
2A7
  8
0
  6
CONTINUOUS
 62
     7
 10
58.08996045693257
 20
354.7876952457895
 30
0.0
 11
57.96054290224168
 21
354.6916788766239
 31
0.0
  0
POLYLINE
  5
2A8
  8
0
  6
CONTINUOUS
 62
     7
 66
     1
 10
0.0
 20
0.0
 30
0.0
  0
VERTEX
  5
737
  8
0
  6
CONTINUOUS
 62
     7
 10
89.95945276851528
 20
364.7210008763637
 30
0.0
  0
VERTEX
  5
738
  8
0
  6
CONTINUOUS
 62
     7
 10
89.94756303440838
 20
364.7133776487901
 30
0.0
  0
VERTEX
  5
739
  8
0
  6
CONTINUOUS
 62
     7
 10
89.93096706558653
 20
364.7019120748682
 30
0.0
  0
VERTEX
  5
73A
  8
0
  6
CONTINUOUS
 62
     7
 10
89.91467120518442
 20
364.6896430707855
 30
0.0
  0
VERTEX
  5
73B
  8
0
  6
CONTINUOUS
 62
     7
 10
89.89563613202333
 20
364.6739090675375
 30
0.0
  0
VERTEX
  5
73C
  8
0
  6
CONTINUOUS
 62
     7
 10
89.87730174951712
 20
364.6571455077588
 30
0.0
  0
VERTEX
  5
73D
  8
0
  6
CONTINUOUS
 62
     7
 10
89.8597961432051
 20
364.6394473421025
 30
0.0
  0
VERTEX
  5
73E
  8
0
  6
CONTINUOUS
 62
     7
 10
89.84323154309453
 20
364.6209257848785
 30
0.0
  0
VERTEX
  5
73F
  8
0
  6
CONTINUOUS
 62
     7
 10
89.82770250016719
 20
364.6017064012697
 30
0.0
  0
VERTEX
  5
740
  8
0
  6
CONTINUOUS
 62
     7
 10
89.81560769421588
 20
364.5852562379563
 30
0.0
  0
VERTEX
  5
741
  8
0
  6
CONTINUOUS
 62
     7
 10
89.80431773835781
 20
364.5685019356716
 30
0.0
  0
VERTEX
  5
742
  8
0
  6
CONTINUOUS
 62
     7
 10
89.79385563406348
 20
364.5515321816713
 30
0.0
  0
VERTEX
  5
743
  8
0
  6
CONTINUOUS
 62
     7
 10
89.78423431819584
 20
364.534438317362
 30
0.0
  0
VERTEX
  5
744
  8
0
  6
CONTINUOUS
 62
     7
 10
89.77545674069215
 20
364.5173132944814
 30
0.0
  0
VERTEX
  5
745
  8
0
  6
CONTINUOUS
 62
     7
 10
89.76751610408517
 20
364.5002506479643
 30
0.0
  0
VERTEX
  5
746
  8
0
  6
CONTINUOUS
 62
     7
 10
89.7603962605046
 20
364.4833435038665
 30
0.0
  0
VERTEX
  5
747
  8
0
  6
CONTINUOUS
 62
     7
 10
89.75407225884332
 20
364.4666836385943
 30
0.0
  0
VERTEX
  5
748
  8
0
  6
CONTINUOUS
 62
     7
 10
89.7485110322853
 20
364.4503606029879
 30
0.0
  0
VERTEX
  5
749
  8
0
  6
CONTINUOUS
 62
     7
 10
89.7436722144522
 20
364.4344609216128
 30
0.0
  0
VERTEX
  5
74A
  8
0
  6
CONTINUOUS
 62
     7
 10
89.73950907109587
 20
364.4190673739624
 30
0.0
  0
VERTEX
  5
74B
  8
0
  6
CONTINUOUS
 62
     7
 10
89.73596953357715
 20
364.40425836023
 30
0.0
  0
VERTEX
  5
74C
  8
0
  6
CONTINUOUS
 62
     7
 10
89.73343716665325
 20
364.3923244208929
 30
0.0
  0
VERTEX
  5
74D
  8
0
  6
CONTINUOUS
 62
     7
 10
89.73127009844508
 20
364.3808954789508
 30
0.0
  0
VERTEX
  5
74E
  8
0
  6
CONTINUOUS
 62
     7
 10
89.72943229280017
 20
364.3700092850934
 30
0.0
  0
VERTEX
  5
74F
  8
0
  6
CONTINUOUS
 62
     7
 10
89.72788727889943
 20
364.3597005696846
 30
0.0
  0
VERTEX
  5
750
  8
0
  6
CONTINUOUS
 62
     7
 10
89.7268550462123
 20
364.35202666149
 30
0.0
  0
VERTEX
  5
751
  8
0
  6
CONTINUOUS
 62
     7
 10
89.72596376278238
 20
364.3447427007697
 30
0.0
  0
VERTEX
  5
752
  8
0
  6
CONTINUOUS
 62
     7
 10
89.72519651733789
 20
364.3378612781061
 30
0.0
  0
VERTEX
  5
753
  8
0
  6
CONTINUOUS
 62
     7
 10
89.72453701934607
 20
364.3313936407948
 30
0.0
  0
VERTEX
  5
754
  8
0
  6
CONTINUOUS
 62
     7
 10
89.72409961939543
 20
364.3267754765174
 30
0.0
  0
VERTEX
  5
755
  8
0
  6
CONTINUOUS
 62
     7
 10
89.72370878274943
 20
364.322404209374
 30
0.0
  0
VERTEX
  5
756
  8
0
  6
CONTINUOUS
 62
     7
 10
89.72335819930656
 20
364.3182791378696
 30
0.0
  0
VERTEX
  5
757
  8
0
  6
CONTINUOUS
 62
     7
 10
89.72304122209873
 20
364.3143875924231
 30
0.0
  0
VERTEX
  5
758
  8
0
  6
CONTINUOUS
 62
     7
 10
89.72275186236864
 20
364.3107146442435
 30
0.0
  0
VERTEX
  5
759
  8
0
  6
CONTINUOUS
 62
     7
 10
89.72248491740606
 20
364.3072452937471
 30
0.0
  0
VERTEX
  5
75A
  8
0
  6
CONTINUOUS
 62
     7
 10
89.7221168884523
 20
364.3023901277958
 30
0.0
  0
VERTEX
  5
75B
  8
0
  6
CONTINUOUS
 62
     7
 10
89.72177685561299
 20
364.2979085343836
 30
0.0
  0
VERTEX
  5
75C
  8
0
  6
CONTINUOUS
 62
     7
 10
89.7214551121864
 20
364.2937500680712
 30
0.0
  0
VERTEX
  5
75D
  8
0
  6
CONTINUOUS
 62
     7
 10
89.7211442799821
 20
364.2898647703427
 30
0.0
  0
VERTEX
  5
75E
  8
0
  6
CONTINUOUS
 62
     7
 10
89.72016849716066
 20
364.2787002317546
 30
0.0
  0
VERTEX
  5
75F
  8
0
  6
CONTINUOUS
 62
     7
 10
89.71916182800285
 20
364.2683033686609
 30
0.0
  0
VERTEX
  5
760
  8
0
  6
CONTINUOUS
 62
     7
 10
89.7180888236575
 20
364.2573128989716
 30
0.0
  0
VERTEX
  5
761
  8
0
  6
CONTINUOUS
 62
     7
 10
89.716913030426
 20
364.2446087527911
 30
0.0
  0
VERTEX
  5
762
  8
0
  6
CONTINUOUS
 62
     7
 10
89.71590197747659
 20
364.2331722516414
 30
0.0
  0
SEQEND
  5
928
  8
0
  6
CONTINUOUS
 62
     7
  0
LINE
  5
2A9
  8
0
  6
CONTINUOUS
 62
     7
 10
52.35153332304409
 20
354.7963056640418
 30
0.0
 11
52.35153332304409
 21
355.0963056640418
 31
0.0
  0
LINE
  5
2AA
  8
0
  6
CONTINUOUS
 62
     7
 10
45.82880605031682
 20
355.0963056640418
 30
0.0
 11
45.82880605031682
 21
354.7963056640418
 31
0.0
  0
LINE
  5
2AB
  8
0
  6
CONTINUOUS
 62
     7
 10
71.73588765437773
 20
354.7963056640418
 30
0.0
 11
71.73588765437773
 21
355.0963056640418
 31
0.0
  0
LINE
  5
2AC
  8
0
  6
CONTINUOUS
 62
     7
 10
45.860624232135
 20
355.1338056640419
 30
0.0
 11
45.860624232135
 21
355.0963056640418
 31
0.0
  0
LINE
  5
2AD
  8
0
  6
CONTINUOUS
 62
     7
 10
52.35153332304409
 20
355.0963056640418
 30
0.0
 11
52.35153332304409
 21
355.1338056640419
 31
0.0
  0
LINE
  5
2AE
  8
0
  6
CONTINUOUS
 62
     7
 10
45.81825039874706
 20
355.0963056640418
 30
0.0
 11
45.81825039874706
 21
354.7963056640418
 31
0.0
  0
LINE
  5
2AF
  8
0
  6
CONTINUOUS
 62
     7
 10
85.76516968668047
 20
419.1364849790071
 30
0.0
 11
85.76516968668047
 21
420.7963056640418
 31
0.0
  0
LINE
  5
2B0
  8
0
  6
CONTINUOUS
 62
     7
 10
29.76516968668047
 20
420.7963056640418
 30
0.0
 11
29.76516968668047
 21
419.1370824687789
 31
0.0
  0
ARC
  5
2B1
  8
0
  6
CONTINUOUS
 62
     7
 10
85.26516968668047
 20
420.7963056640418
 30
0.0
 40
0.5000000000000004
 50
0.0
 51
90.0
  0
ARC
  5
2B2
  8
0
  6
CONTINUOUS
 62
     7
 10
30.26516968668047
 20
420.7963056640418
 30
0.0
 40
0.5000000000000004
 50
90.0
 51
180.0
  0
ENDBLK
  8
0
  0
BLOCK
  8
0
  2
D_FRAME_VIEW_2250
 70
     0
 10
0.0
 20
0.0
 30
0.0
  0
LINE
  5
2B7
  8
0
  6
CONTINUOUS
 62
     7
 10
209.7246345318652
 20
485.7781702571929
 30
0.0
 11
209.7246345318652
 21
479.4147593048426
 31
0.0
  0
LINE
  5
2B8
  8
0
  6
CONTINUOUS
 62
     9
 10
166.459645227236
 20
479.7923271465594
 30
0.0
 11
209.7246345318652
 21
479.4147593048426
 31
0.0
  0
ARC
  5
2B9
  8
0
  6
CONTINUOUS
 62
     9
 10
179.5669376900258
 20
446.7775517705977
 30
0.0
 40
36.8376758312377
 50
120.4425334243131
 51
131.1104592132888
  0
ARC
  5
2BA
  8
0
  6
CONTINUOUS
 62
     9
 10
166.3498009212636
 20
467.3521508390101
 30
0.0
 40
12.44066124988801
 50
89.49410270189293
 51
115.9688779211031
  0
ARC
  5
2BB
  8
0
  6
CONTINUOUS
 62
     7
 10
146.4015974558128
 20
487.9923562983917
 30
0.0
 40
16.16045912560415
 50
269.6458164072388
 51
303.6044077765166
  0
LINE
  5
2BC
  8
0
  6
CONTINUOUS
 62
     7
 10
146.3016994691073
 20
471.832205941957
 30
0.0
 11
143.3336316237048
 21
471.8581078776378
 31
0.0
  0
ARC
  5
2BD
  8
0
  6
CONTINUOUS
 62
     9
 10
91.50246452560442
 20
484.7446508154368
 30
0.0
 40
53.64372462210381
 50
346.5265097926189
 51
1.706290291144683
  0
POLYLINE
  5
2BE
  8
0
  6
CONTINUOUS
 62
     9
 66
     1
 10
0.0
 20
0.0
 30
0.0
  0
VERTEX
  5
763
  8
0
  6
CONTINUOUS
 62
     9
 10
143.6697973079747
 20
472.2459076103967
 30
0.0
  0
VERTEX
  5
764
  8
0
  6
CONTINUOUS
 62
     9
 10
143.5916480810566
 20
472.0917464361607
 30
0.0
  0
VERTEX
  5
765
  8
0
  6
CONTINUOUS
 62
     9
 10
143.5230162287314
 20
471.9865888662673
 30
0.0
  0
VERTEX
  5
766
  8
0
  6
CONTINUOUS
 62
     9
 10
143.3939350332161
 20
471.8714599351591
 30
0.0
  0
VERTEX
  5
767
  8
0
  6
CONTINUOUS
 62
     9
 10
143.3336316237048
 20
471.8581078776378
 30
0.0
  0
SEQEND
  5
929
  8
0
  6
CONTINUOUS
 62
     9
  0
LINE
  5
2BF
  8
0
  6
CONTINUOUS
 62
     9
 10
145.1224033672516
 20
486.3419453875545
 30
0.0
 11
209.7246345318652
 21
485.7781702571929
 31
0.0
  0
POLYLINE
  5
2C0
  8
0
  6
CONTINUOUS
 62
     9
 66
     1
 10
0.0
 20
0.0
 30
0.0
  0
VERTEX
  5
768
  8
0
  6
CONTINUOUS
 62
     9
 10
142.8403487188527
 20
472.3580888391699
 30
0.0
  0
VERTEX
  5
769
  8
0
  6
CONTINUOUS
 62
     9
 10
142.9571809427216
 20
472.405729235377
 30
0.0
  0
VERTEX
  5
76A
  8
0
  6
CONTINUOUS
 62
     9
 10
143.0798255246249
 20
472.5515749824289
 30
0.0
  0
SEQEND
  5
92A
  8
0
  6
CONTINUOUS
 62
     9
  0
ARC
  5
2C1
  8
0
  6
CONTINUOUS
 62
     9
 10
103.2851852954454
 20
483.9333293394205
 30
0.0
 40
41.39030953270009
 50
344.0388220156948
 51
2.642546558393746
  0
LINE
  5
2C2
  8
0
  6
CONTINUOUS
 62
     9
 10
144.6314807385189
 20
485.8416208126516
 30
0.0
 11
144.6329022208426
 21
486.3419453875545
 31
0.0
  0
LINE
  5
2C3
  8
0
  6
CONTINUOUS
 62
     9
 10
144.6329022208426
 20
486.3419453875545
 30
0.0
 11
145.1224033672516
 21
486.3419453875545
 31
0.0
  0
POLYLINE
  5
2C4
  8
0
  6
CONTINUOUS
 62
     9
 66
     1
 10
0.0
 20
0.0
 30
0.0
  0
VERTEX
  5
76B
  8
0
  6
CONTINUOUS
 62
     9
 10
142.8403487188527
 20
472.3580888391699
 30
0.0
  0
VERTEX
  5
76C
  8
0
  6
CONTINUOUS
 62
     9
 10
142.8497977800331
 20
472.2610761872797
 30
0.0
  0
VERTEX
  5
76D
  8
0
  6
CONTINUOUS
 62
     9
 10
142.8778017381028
 20
472.1677506931188
 30
0.0
  0
VERTEX
  5
76E
  8
0
  6
CONTINUOUS
 62
     9
 10
142.9232962472425
 20
472.0816593766936
 30
0.0
  0
VERTEX
  5
76F
  8
0
  6
CONTINUOUS
 62
     9
 10
142.9845521986428
 20
472.0060743087762
 30
0.0
  0
VERTEX
  5
770
  8
0
  6
CONTINUOUS
 62
     9
 10
143.0592414387045
 20
471.9438682493825
 30
0.0
  0
VERTEX
  5
771
  8
0
  6
CONTINUOUS
 62
     9
 10
143.1445252551213
 20
471.8974054628454
 30
0.0
  0
VERTEX
  5
772
  8
0
  6
CONTINUOUS
 62
     9
 10
143.2371622677561
 20
471.8684518592722
 30
0.0
  0
VERTEX
  5
773
  8
0
  6
CONTINUOUS
 62
     9
 10
143.3336316237048
 20
471.8581078776378
 30
0.0
  0
SEQEND
  5
92B
  8
0
  6
CONTINUOUS
 62
     9
  0
LINE
  5
2C5
  8
0
  6
CONTINUOUS
 62
     7
 10
209.7246345318652
 20
596.2787223727624
 30
0.0
 11
209.7246345318652
 21
581.779274488332
 31
0.0
  0
LINE
  5
2C6
  8
0
  6
CONTINUOUS
 62
     9
 10
209.7246345318652
 20
581.779274488332
 30
0.0
 11
145.1224033672516
 21
581.2154993579703
 31
0.0
  0
POLYLINE
  5
2C7
  8
0
  6
CONTINUOUS
 62
     9
 66
     1
 10
0.0
 20
0.0
 30
0.0
  0
VERTEX
  5
774
  8
0
  6
CONTINUOUS
 62
     9
 10
143.3336316237048
 20
595.699336867887
 30
0.0
  0
VERTEX
  5
775
  8
0
  6
CONTINUOUS
 62
     9
 10
143.4544142007063
 20
595.6460734616118
 30
0.0
  0
VERTEX
  5
776
  8
0
  6
CONTINUOUS
 62
     9
 10
143.538322939913
 20
595.5499310221418
 30
0.0
  0
SEQEND
  5
92C
  8
0
  6
CONTINUOUS
 62
     9
  0
ARC
  5
2C8
  8
0
  6
CONTINUOUS
 62
     9
 10
108.133339067446
 20
585.1028443350697
 30
0.0
 40
36.91415044744827
 50
359.760594087549
 51
16.43995435096764
  0
ARC
  5
2C9
  8
0
  6
CONTINUOUS
 62
     9
 10
51.73615295616725
 20
581.2007235759392
 30
0.0
 40
93.3862515800131
 50
0.009065466689151
 51
2.300074087152382
  0
LINE
  5
2CA
  8
0
  6
CONTINUOUS
 62
     7
 10
143.3336316237048
 20
595.699336867887
 30
0.0
 11
209.7246345318652
 21
596.2787223727624
 31
0.0
  0
ARC
  5
2CB
  8
0
  6
CONTINUOUS
 62
     9
 10
99.40101138232795
 20
583.1719044989807
 30
0.0
 40
45.27418105171067
 50
357.52334178181
 51
15.06668242763232
  0
POLYLINE
  5
2CC
  8
0
  6
CONTINUOUS
 62
     9
 66
     1
 10
0.0
 20
0.0
 30
0.0
  0
VERTEX
  5
777
  8
0
  6
CONTINUOUS
 62
     9
 10
143.1188449839041
 20
594.9406128005734
 30
0.0
  0
VERTEX
  5
778
  8
0
  6
CONTINUOUS
 62
     9
 10
143.0616215897637
 20
595.0332718695959
 30
0.0
  0
VERTEX
  5
779
  8
0
  6
CONTINUOUS
 62
     9
 10
142.9491928454042
 20
595.1579255615266
 30
0.0
  0
VERTEX
  5
77A
  8
0
  6
CONTINUOUS
 62
     9
 10
142.8403487188527
 20
595.199355906355
 30
0.0
  0
SEQEND
  5
92D
  8
0
  6
CONTINUOUS
 62
     9
  0
POLYLINE
  5
2CD
  8
0
  6
CONTINUOUS
 62
     9
 66
     1
 10
0.0
 20
0.0
 30
0.0
  0
VERTEX
  5
77B
  8
0
  6
CONTINUOUS
 62
     9
 10
143.3336316237047
 20
595.6993368678872
 30
0.0
  0
VERTEX
  5
77C
  8
0
  6
CONTINUOUS
 62
     9
 10
143.2371622677561
 20
595.6889928862527
 30
0.0
  0
VERTEX
  5
77D
  8
0
  6
CONTINUOUS
 62
     9
 10
143.1445252551213
 20
595.6600392826795
 30
0.0
  0
VERTEX
  5
77E
  8
0
  6
CONTINUOUS
 62
     9
 10
143.0592414387045
 20
595.6135764961424
 30
0.0
  0
VERTEX
  5
77F
  8
0
  6
CONTINUOUS
 62
     9
 10
142.9845521986427
 20
595.5513704367488
 30
0.0
  0
VERTEX
  5
780
  8
0
  6
CONTINUOUS
 62
     9
 10
142.9232962472424
 20
595.4757853688312
 30
0.0
  0
VERTEX
  5
781
  8
0
  6
CONTINUOUS
 62
     9
 10
142.8778017381027
 20
595.3896940524061
 30
0.0
  0
VERTEX
  5
782
  8
0
  6
CONTINUOUS
 62
     9
 10
142.849797780033
 20
595.296368558245
 30
0.0
  0
VERTEX
  5
783
  8
0
  6
CONTINUOUS
 62
     9
 10
142.8403487188526
 20
595.199355906355
 30
0.0
  0
SEQEND
  5
92E
  8
0
  6
CONTINUOUS
 62
     9
  0
LINE
  5
2CE
  8
0
  6
CONTINUOUS
 62
     9
 10
144.6329022208426
 20
581.2154993579703
 30
0.0
 11
145.1224033672516
 21
581.2154993579703
 31
0.0
  0
LINE
  5
2CF
  8
0
  6
CONTINUOUS
 62
     9
 10
145.1224033672516
 20
581.2154993579703
 30
0.0
 11
145.1224033672516
 21
486.3419453875545
 31
0.0
  0
LINE
  5
2D0
  8
0
  6
CONTINUOUS
 62
     7
 10
209.7246345318652
 20
485.7781702571929
 30
0.0
 11
209.7246345318652
 21
581.779274488332
 31
0.0
  0
LINE
  5
2D1
  8
0
  6
CONTINUOUS
 62
     9
 10
141.7246345319636
 20
472.270404008975
 30
0.0
 11
142.4833786285372
 21
472.2637882347794
 31
0.0
  0
ARC
  5
2D2
  8
0
  6
CONTINUOUS
 62
     7
 10
-93.61725757536345
 20
561.2787223727626
 30
0.0
 40
237.0017007968729
 50
353.2150804571581
 51
6.784919542841806
  0
LINE
  5
2D3
  8
0
  6
CONTINUOUS
 62
     9
 10
142.5213190053682
 20
472.3608670956086
 30
0.0
 11
142.840348718853
 21
472.35808883917
 31
0.0
  0
LINE
  5
2D4
  8
0
  6
CONTINUOUS
 62
     9
 10
142.4833786285372
 20
472.2637882347795
 30
0.0
 11
142.521319005368
 21
472.3608670956086
 31
0.0
  0
LINE
  5
2D5
  8
0
  6
CONTINUOUS
 62
     9
 10
142.840348718853
 20
595.199355906355
 30
0.0
 11
141.7246345318655
 21
595.1896397576934
 31
0.0
  0
LINE
  5
2D6
  8
0
  6
CONTINUOUS
 62
     9
 10
144.6329022208426
 20
486.3419453875545
 30
0.0
 11
144.6329022208426
 21
581.2154993579703
 31
0.0
  0
LINE
  5
2D7
  8
0
  6
CONTINUOUS
 62
     9
 10
209.7246345318648
 20
476.3427678106962
 30
0.0
 11
166.4390364011963
 21
476.7205155028633
 31
0.0
  0
LINE
  5
2D8
  8
0
  6
CONTINUOUS
 62
     9
 10
166.4390364011963
 20
476.7205155028632
 30
0.0
 11
166.459645227236
 21
479.7923271465594
 31
0.0
  0
LINE
  5
2D9
  8
0
  6
CONTINUOUS
 62
     7
 10
209.7246345318652
 20
479.4147593048426
 30
0.0
 11
209.7246345318652
 21
476.3427678106962
 31
0.0
  0
ARC
  5
2DA
  8
0
  6
CONTINUOUS
 62
     9
 10
167.7797742715245
 20
459.1636573668462
 30
0.0
 40
17.60797676183041
 50
94.36694389017345
 51
115.7714105103361
  0
ARC
  5
2DB
  8
0
  6
CONTINUOUS
 62
     9
 10
163.8666048595699
 20
461.7244666227196
 30
0.0
 40
13.81247331211381
 50
105.7206709053135
 51
122.9108042382602
  0
ARC
  5
2DC
  8
0
  6
CONTINUOUS
 62
     9
 10
154.2363489063072
 20
472.5708452510376
 30
0.0
 40
2.25373993941227
 50
19.42233382427253
 51
60.51311704037039
  0
LINE
  5
2DD
  8
0
  6
CONTINUOUS
 62
     9
 10
166.4390364011963
 20
450.0485969572064
 30
0.0
 11
209.7246345318652
 21
447.7800948842399
 31
0.0
  0
LINE
  5
2DE
  8
0
  6
CONTINUOUS
 62
     9
 10
166.4390364011963
 20
450.0485969572064
 30
0.0
 11
166.4390364011963
 21
476.7205155028633
 31
0.0
  0
LINE
  5
2DF
  8
0
  6
CONTINUOUS
 62
     7
 10
209.7246345318652
 20
447.7800948842399
 30
0.0
 11
209.7246345318652
 21
476.3427678106962
 31
0.0
  0
LINE
  5
2E0
  8
0
  6
CONTINUOUS
 62
     7
 10
209.7246345318652
 20
446.2787223727624
 30
0.0
 11
166.3736222700795
 21
448.5506526550745
 31
0.0
  0
POLYLINE
  5
2E1
  8
0
  6
CONTINUOUS
 62
     9
 66
     1
 10
0.0
 20
0.0
 30
0.0
  0
VERTEX
  5
784
  8
0
  6
CONTINUOUS
 62
     9
 10
166.4390364011963
 20
450.0485969572064
 30
0.0
  0
VERTEX
  5
785
  8
0
  6
CONTINUOUS
 62
     9
 10
166.4239779744813
 20
449.7564463638476
 30
0.0
  0
VERTEX
  5
786
  8
0
  6
CONTINUOUS
 62
     9
 10
166.4100006415461
 20
449.4755164472301
 30
0.0
  0
VERTEX
  5
787
  8
0
  6
CONTINUOUS
 62
     9
 10
166.3976412321565
 20
449.2165969296856
 30
0.0
  0
VERTEX
  5
788
  8
0
  6
CONTINUOUS
 62
     9
 10
166.3873744362175
 20
448.989632176464
 30
0.0
  0
VERTEX
  5
789
  8
0
  6
CONTINUOUS
 62
     9
 10
166.3795945722794
 20
448.8033392608334
 30
0.0
  0
VERTEX
  5
78A
  8
0
  6
CONTINUOUS
 62
     9
 10
166.3746004428787
 20
448.6648731659872
 30
0.0
  0
VERTEX
  5
78B
  8
0
  6
CONTINUOUS
 62
     9
 10
166.3725838583792
 20
448.5795519824078
 30
0.0
  0
VERTEX
  5
78C
  8
0
  6
CONTINUOUS
 62
     9
 10
166.3736222700794
 20
448.5506526550745
 30
0.0
  0
SEQEND
  5
92F
  8
0
  6
CONTINUOUS
 62
     9
  0
LINE
  5
2E2
  8
0
  6
CONTINUOUS
 62
     7
 10
209.7246345318652
 20
447.7800948842399
 30
0.0
 11
209.7246345318652
 21
446.2787223727624
 31
0.0
  0
LINE
  5
2E3
  8
0
  6
CONTINUOUS
 62
     9
 10
156.3618355155585
 20
450.5231946243288
 30
0.0
 11
166.4390364011963
 21
450.0485969572064
 31
0.0
  0
LINE
  5
2E4
  8
0
  6
CONTINUOUS
 62
     9
 10
156.3618355155585
 20
450.5231946243288
 30
0.0
 11
156.3618355155585
 21
473.3202786292608
 31
0.0
  0
LINE
  5
2E5
  8
0
  6
CONTINUOUS
 62
     7
 10
166.3736222700795
 20
448.5506526550745
 30
0.0
 11
157.3177593120401
 21
449.0252503221969
 31
0.0
  0
POLYLINE
  5
2E6
  8
0
  6
CONTINUOUS
 62
     9
 66
     1
 10
0.0
 20
0.0
 30
0.0
  0
VERTEX
  5
78D
  8
0
  6
CONTINUOUS
 62
     9
 10
156.3618355155585
 20
450.5231946243288
 30
0.0
  0
VERTEX
  5
78E
  8
0
  6
CONTINUOUS
 62
     9
 10
156.3729568342118
 20
450.237406477447
 30
0.0
  0
VERTEX
  5
78F
  8
0
  6
CONTINUOUS
 62
     9
 10
156.4216219772679
 20
449.9621035380017
 30
0.0
  0
VERTEX
  5
790
  8
0
  6
CONTINUOUS
 62
     9
 10
156.5060454818744
 20
449.7073863243644
 30
0.0
  0
VERTEX
  5
791
  8
0
  6
CONTINUOUS
 62
     9
 10
156.6231299558968
 20
449.4826000905346
 30
0.0
  0
VERTEX
  5
792
  8
0
  6
CONTINUOUS
 62
     9
 10
156.7685797173374
 20
449.2959919605314
 30
0.0
  0
VERTEX
  5
793
  8
0
  6
CONTINUOUS
 62
     9
 10
156.9370583975017
 20
449.1544083517931
 30
0.0
  0
VERTEX
  5
794
  8
0
  6
CONTINUOUS
 62
     9
 10
157.1223847256497
 20
449.063043788737
 30
0.0
  0
VERTEX
  5
795
  8
0
  6
CONTINUOUS
 62
     9
 10
157.3177593120401
 20
449.0252503221969
 30
0.0
  0
SEQEND
  5
930
  8
0
  6
CONTINUOUS
 62
     9
  0
ARC
  5
2E7
  8
0
  6
CONTINUOUS
 62
     9
 10
148.1231993796168
 20
486.3322158956482
 30
0.0
 40
15.40083234130049
 50
265.3732918296669
 51
302.3403483198957
  0
POLYLINE
  5
2E8
  8
0
  6
CONTINUOUS
 62
     9
 66
     1
 10
0.0
 20
0.0
 30
0.0
  0
VERTEX
  5
796
  8
0
  6
CONTINUOUS
 62
     9
 10
146.3016994691074
 20
471.832205941957
 30
0.0
  0
VERTEX
  5
797
  8
0
  6
CONTINUOUS
 62
     9
 10
146.4209847935275
 20
471.8133437526812
 30
0.0
  0
VERTEX
  5
798
  8
0
  6
CONTINUOUS
 62
     9
 10
146.5163874974942
 20
471.7710157059326
 30
0.0
  0
VERTEX
  5
799
  8
0
  6
CONTINUOUS
 62
     9
 10
146.6204429042089
 20
471.691749523682
 30
0.0
  0
VERTEX
  5
79A
  8
0
  6
CONTINUOUS
 62
     9
 10
146.6913603656084
 20
471.6115457568123
 30
0.0
  0
VERTEX
  5
79B
  8
0
  6
CONTINUOUS
 62
     9
 10
146.7531085780809
 20
471.5160346732681
 30
0.0
  0
VERTEX
  5
79C
  8
0
  6
CONTINUOUS
 62
     9
 10
146.8035619207251
 20
471.4086776358178
 30
0.0
  0
SEQEND
  5
931
  8
0
  6
CONTINUOUS
 62
     9
  0
ARC
  5
2E9
  8
0
  6
CONTINUOUS
 62
     9
 10
145.7225849089803
 20
470.9923486234543
 30
0.0
 40
1.158378671443953
 50
359.4668063800765
 51
21.06376162220431
  0
LINE
  5
2EA
  8
0
  6
CONTINUOUS
 62
     9
 10
142.6316074149683
 20
451.2427653881304
 30
0.0
 11
156.3618355155585
 21
450.5231946243288
 31
0.0
  0
LINE
  5
2EB
  8
0
  6
CONTINUOUS
 62
     7
 10
142.6316074149683
 20
451.2427653881304
 30
0.0
 11
142.6316074149683
 21
471.3672241166217
 31
0.0
  0
ARC
  5
2EC
  8
0
  6
CONTINUOUS
 62
     9
 10
1623.046265948168
 20
16759.57591189824
 30
0.0
 40
16355.34682658623
 50
264.8067279276971
 51
264.8216752077273
  0
LINE
  5
2ED
  8
0
  6
CONTINUOUS
 62
     7
 10
144.0049577857732
 20
449.7229446862244
 30
0.0
 11
143.8370992288977
 21
449.7418987497593
 31
0.0
  0
ARC
  5
2EE
  8
0
  6
CONTINUOUS
 62
     7
 10
144.1123539221586
 20
451.1970198274889
 30
0.0
 40
1.480926229430508
 50
179.1649881878537
 51
259.2883399241856
  0
LINE
  5
2EF
  8
0
  6
CONTINUOUS
 62
     7
 10
142.631584959045
 20
451.2186016461083
 30
0.0
 11
142.6316074149682
 21
451.2427653881304
 31
0.0
  0
LINE
  5
2F0
  8
0
  6
CONTINUOUS
 62
     7
 10
157.3177593120401
 20
449.0252503221969
 30
0.0
 11
144.0049577857732
 21
449.7229446862244
 31
0.0
  0
LINE
  5
2F1
  8
0
  6
CONTINUOUS
 62
     9
 10
141.7246345318652
 20
589.2787223727624
 30
0.0
 11
141.7246345318652
 21
533.2787223727624
 31
0.0
  0
LINE
  5
2F2
  8
0
  6
CONTINUOUS
 62
     7
 10
141.2246345318652
 20
533.7787223727624
 30
0.0
 11
141.2246345318652
 21
588.7787223727624
 31
0.0
  0
POLYLINE
  5
2F3
  8
0
  6
CONTINUOUS
 62
     9
 66
     1
 10
0.0
 20
0.0
 30
0.0
  0
VERTEX
  5
79D
  8
0
  6
CONTINUOUS
 62
     9
 10
142.5213190053679
 20
472.3608670956086
 30
0.0
  0
VERTEX
  5
79E
  8
0
  6
CONTINUOUS
 62
     9
 10
142.5307829851668
 20
472.2638551540716
 30
0.0
  0
VERTEX
  5
79F
  8
0
  6
CONTINUOUS
 62
     9
 10
142.5588265972019
 20
472.1705302879862
 30
0.0
  0
VERTEX
  5
7A0
  8
0
  6
CONTINUOUS
 62
     9
 10
142.6043840045067
 20
472.084439440309
 30
0.0
  0
VERTEX
  5
7A1
  8
0
  6
CONTINUOUS
 62
     9
 10
142.6657237336619
 20
472.0088546149403
 30
0.0
  0
VERTEX
  5
7A2
  8
0
  6
CONTINUOUS
 62
     9
 10
142.7405144818817
 20
471.9466485196075
 30
0.0
  0
VERTEX
  5
7A3
  8
0
  6
CONTINUOUS
 62
     9
 10
142.8259137214588
 20
471.9001853845632
 30
0.0
  0
VERTEX
  5
7A4
  8
0
  6
CONTINUOUS
 62
     9
 10
142.9186757340327
 20
471.8712311066847
 30
0.0
  0
VERTEX
  5
7A5
  8
0
  6
CONTINUOUS
 62
     9
 10
143.0152749686872
 20
471.8608861340765
 30
0.0
  0
SEQEND
  5
932
  8
0
  6
CONTINUOUS
 62
     9
  0
LINE
  5
2F4
  8
0
  6
CONTINUOUS
 62
     7
 10
143.3336316237048
 20
471.8581078776379
 30
0.0
 11
143.0152749686873
 21
471.8608861340766
 31
0.0
  0
LINE
  5
2F5
  8
0
  6
CONTINUOUS
 62
     7
 10
142.220271264116
 20
595.6896207192254
 30
0.0
 11
143.3336316237047
 21
595.699336867887
 31
0.0
  0
LINE
  5
2F6
  8
0
  6
CONTINUOUS
 62
     7
 10
142.6913468536609
 20
471.86371301191
 30
0.0
 11
143.0152749686873
 21
471.8608861340765
 31
0.0
  0
LINE
  5
2F7
  8
0
  6
CONTINUOUS
 62
     7
 10
142.6316074149683
 20
471.3672241166217
 30
0.0
 11
142.6913468536609
 21
471.86371301191
 31
0.0
  0
POLYLINE
  5
2F8
  8
0
  6
CONTINUOUS
 62
     7
 66
     1
 10
0.0
 20
0.0
 30
0.0
  0
VERTEX
  5
7A6
  8
0
  6
CONTINUOUS
 62
     7
 10
142.6913468536609
 20
471.86371301191
 30
0.0
  0
VERTEX
  5
7A7
  8
0
  6
CONTINUOUS
 62
     7
 10
142.6756462334932
 20
471.8757568698526
 30
0.0
  0
VERTEX
  5
7A8
  8
0
  6
CONTINUOUS
 62
     7
 10
142.660427173828
 20
471.8883880682226
 30
0.0
  0
VERTEX
  5
7A9
  8
0
  6
CONTINUOUS
 62
     7
 10
142.6457221062893
 20
471.9015772665927
 30
0.0
  0
VERTEX
  5
7AA
  8
0
  6
CONTINUOUS
 62
     7
 10
142.6281765784431
 20
471.9187335499387
 30
0.0
  0
VERTEX
  5
7AB
  8
0
  6
CONTINUOUS
 62
     7
 10
142.6114861207886
 20
471.9366872795661
 30
0.0
  0
VERTEX
  5
7AC
  8
0
  6
CONTINUOUS
 62
     7
 10
142.5972121732993
 20
471.9535103875465
 30
0.0
  0
VERTEX
  5
7AD
  8
0
  6
CONTINUOUS
 62
     7
 10
142.5836857647987
 20
471.9709151114254
 30
0.0
  0
VERTEX
  5
7AE
  8
0
  6
CONTINUOUS
 62
     7
 10
142.570857786009
 20
471.9889770377452
 30
0.0
  0
VERTEX
  5
7AF
  8
0
  6
CONTINUOUS
 62
     7
 10
142.5601479783707
 20
472.005441341682
 30
0.0
  0
VERTEX
  5
7B0
  8
0
  6
CONTINUOUS
 62
     7
 10
142.5500812048271
 20
472.0222985717211
 30
0.0
  0
VERTEX
  5
7B1
  8
0
  6
CONTINUOUS
 62
     7
 10
142.5406787241808
 20
472.0395121366084
 30
0.0
  0
VERTEX
  5
7B2
  8
0
  6
CONTINUOUS
 62
     7
 10
142.5299320283672
 20
472.0613802255347
 30
0.0
  0
VERTEX
  5
7B3
  8
0
  6
CONTINUOUS
 62
     7
 10
142.5202503864241
 20
472.0837208841274
 30
0.0
  0
VERTEX
  5
7B4
  8
0
  6
CONTINUOUS
 62
     7
 10
142.512460773609
 20
472.1042063187124
 30
0.0
  0
VERTEX
  5
7B5
  8
0
  6
CONTINUOUS
 62
     7
 10
142.5055670553783
 20
472.1249976539109
 30
0.0
  0
VERTEX
  5
7B6
  8
0
  6
CONTINUOUS
 62
     7
 10
142.4995505190823
 20
472.1461809214874
 30
0.0
  0
VERTEX
  5
7B7
  8
0
  6
CONTINUOUS
 62
     7
 10
142.4962159858252
 20
472.1597423178154
 30
0.0
  0
VERTEX
  5
7B8
  8
0
  6
CONTINUOUS
 62
     7
 10
142.4932589595536
 20
472.1733872937173
 30
0.0
  0
VERTEX
  5
7B9
  8
0
  6
CONTINUOUS
 62
     7
 10
142.4889806752089
 20
472.197565477354
 30
0.0
  0
VERTEX
  5
7BA
  8
0
  6
CONTINUOUS
 62
     7
 10
142.4858891251529
 20
472.2219152975794
 30
0.0
  0
VERTEX
  5
7BB
  8
0
  6
CONTINUOUS
 62
     7
 10
142.4844058009044
 20
472.2394928245438
 30
0.0
  0
VERTEX
  5
7BC
  8
0
  6
CONTINUOUS
 62
     7
 10
142.4835429636989
 20
472.2571089164424
 30
0.0
  0
VERTEX
  5
7BD
  8
0
  6
CONTINUOUS
 62
     7
 10
142.4833786285372
 20
472.2637882347795
 30
0.0
  0
SEQEND
  5
933
  8
0
  6
CONTINUOUS
 62
     7
  0
LINE
  5
2F9
  8
0
  6
CONTINUOUS
 62
     7
 10
141.9246345318652
 20
471.8704040089759
 30
0.0
 11
142.6913468536609
 21
471.86371301191
 31
0.0
  0
LINE
  5
2FA
  8
0
  6
CONTINUOUS
 62
     9
 10
141.9246345318652
 20
451.255416658225
 30
0.0
 11
142.631584959045
 21
451.2186016461083
 31
0.0
  0
LINE
  5
2FB
  8
0
  6
CONTINUOUS
 62
     7
 10
144.0049577857731
 20
449.7229446862244
 30
0.0
 11
143.3461305975007
 21
449.7574723560931
 31
0.0
  0
LINE
  5
2FC
  8
0
  6
CONTINUOUS
 62
     7
 10
141.7246345318652
 20
533.2787223727624
 30
0.0
 11
141.7246345318652
 21
472.2704040089811
 31
0.0
  0
LINE
  5
2FD
  8
0
  6
CONTINUOUS
 62
     7
 10
141.7246345318652
 20
472.2704040089811
 30
0.0
 11
141.7246345318652
 21
472.2701841061131
 31
0.0
  0
LINE
  5
2FE
  8
0
  6
CONTINUOUS
 62
     7
 10
141.7246345318652
 20
595.1896397576934
 30
0.0
 11
141.7246345318652
 21
589.2787223727624
 31
0.0
  0
ARC
  5
2FF
  8
0
  6
CONTINUOUS
 62
     7
 10
141.7246345318652
 20
588.7787223727624
 30
0.0
 40
0.500000000000056
 50
90.0
 51
180.0
  0
ARC
  5
300
  8
0
  6
CONTINUOUS
 62
     7
 10
141.7246345318652
 20
533.7787223727624
 30
0.0
 40
0.5000000000000004
 50
180.0
 51
270.0
  0
ARC
  5
301
  8
0
  6
CONTINUOUS
 62
     7
 10
142.2246345318652
 20
595.1896397576934
 30
0.0
 40
0.5000000000000571
 50
90.5000000000005
 51
180.0
  0
LINE
  5
302
  8
0
  6
CONTINUOUS
 62
     7
 10
141.9246345318652
 20
471.8704040089759
 30
0.0
 11
141.9246345318652
 21
451.255416658225
 31
0.0
  0
ARC
  5
303
  8
0
  6
CONTINUOUS
 62
     7
 10
142.2246345318652
 20
472.2704040089808
 30
0.0
 40
0.5000000000000004
 50
180.0
 51
233.1301023544947
  0
ARC
  5
304
  8
0
  6
CONTINUOUS
 62
     7
 10
143.4246345318652
 20
451.255416658225
 30
0.0
 40
1.500000000000001
 50
180.0
 51
267.0000000000001
  0
ENDBLK
  8
0
  0
BLOCK
  8
0
  2
D_FRAME_VIEW_1713
 70
     0
 10
0.0
 20
0.0
 30
0.0
  0
CIRCLE
  5
30E
  8
0
  6
CONTINUOUS
 62
     9
 10
57.76516968668047
 20
561.2787223727624
 30
0.0
 40
14.99142478397965
  0
CIRCLE
  5
30F
  8
0
  6
CONTINUOUS
 62
     9
 10
57.76516968668047
 20
561.2787223727624
 30
0.0
 40
15.49134863155784
  0
CIRCLE
  5
310
  8
0
  6
CONTINUOUS
 62
     7
 10
57.76516968668047
 20
561.2787223727624
 30
0.0
 40
14.72944649361263
  0
ARC
  5
311
  8
0
  6
CONTINUOUS
 62
     7
 10
57.76516968668047
 20
561.2787223727624
 30
0.0
 40
28.0
 50
90.0
 51
270.0
  0
ARC
  5
312
  8
0
  6
CONTINUOUS
 62
     7
 10
57.76516968668047
 20
561.2787223727624
 30
0.0
 40
27.99999999999999
 50
270.0
 51
90.0
  0
CIRCLE
  5
313
  8
0
  6
CONTINUOUS
 62
     9
 10
57.76516968668047
 20
561.2787223727624
 30
0.0
 40
27.5
  0
CIRCLE
  5
314
  8
0
  6
CONTINUOUS
 62
     7
 10
57.76516968668047
 20
561.2787223727624
 30
0.0
 40
17.64674178199252
  0
CIRCLE
  5
315
  8
0
  6
CONTINUOUS
 62
     7
 10
57.76516968668047
 20
561.2787223727624
 30
0.0
 40
17.49999999999999
  0
LINE
  5
316
  8
0
  6
CONTINUOUS
 62
     7
 10
76.80531432421
 20
471.86371301191
 30
0.0
 11
38.72502505098043
 21
471.8637130119113
 31
0.0
  0
LINE
  5
317
  8
0
  6
CONTINUOUS
 62
     7
 10
38.72502505098043
 20
471.8637130119113
 30
0.0
 11
38.81605337164167
 21
472.2637882347806
 31
0.0
  0
LINE
  5
318
  8
0
  6
CONTINUOUS
 62
     9
 10
38.81605337164167
 20
472.2637882347806
 30
0.0
 11
76.71428600429
 21
472.2637882347796
 31
0.0
  0
LINE
  5
319
  8
0
  6
CONTINUOUS
 62
     7
 10
76.80531432421006
 20
471.86371301191
 30
0.0
 11
76.71428600429
 21
472.2637882347795
 31
0.0
  0
LINE
  5
31A
  8
0
  6
CONTINUOUS
 62
     9
 10
80.7347954234015
 20
472.35808883917
 30
0.0
 11
77.18149617471579
 21
472.3608670956086
 31
0.0
  0
LINE
  5
31B
  8
0
  6
CONTINUOUS
 62
     9
 10
76.71428600429
 20
472.2637882347795
 30
0.0
 11
77.18149617471595
 21
472.3608670956086
 31
0.0
  0
LINE
  5
31C
  8
0
  6
CONTINUOUS
 62
     9
 10
38.34884320453753
 20
472.3608670956128
 30
0.0
 11
38.81605337164166
 21
472.2637882347806
 31
0.0
  0
LINE
  5
31D
  8
0
  6
CONTINUOUS
 62
     9
 10
38.34884320453762
 20
472.3608670956128
 30
0.0
 11
34.79554394995995
 21
472.35808883917
 31
0.0
  0
ARC
  5
31E
  8
0
  6
CONTINUOUS
 62
     9
 10
34.75788976251346
 20
486.3651106778253
 30
0.0
 40
14.00707245024455
 50
180.0947574144042
 51
270.1540242350989
  0
LINE
  5
31F
  8
0
  6
CONTINUOUS
 62
     9
 10
20.75083646798617
 20
581.2154993579703
 30
0.0
 11
20.75083646798621
 21
486.3419453875545
 31
0.0
  0
ARC
  5
320
  8
0
  6
CONTINUOUS
 62
     9
 10
34.75923056494312
 20
581.1909874307509
 30
0.0
 40
14.00841554245997
 50
89.85147456361675
 51
179.89974378688
  0
LINE
  5
321
  8
0
  6
CONTINUOUS
 62
     9
 10
34.79554394995964
 20
595.199355906355
 30
0.0
 11
80.73479542340132
 21
595.199355906355
 31
0.0
  0
ARC
  5
322
  8
0
  6
CONTINUOUS
 62
     9
 10
80.77244961084745
 20
581.1923340676997
 30
0.0
 40
14.00707245024458
 50
0.0947574144042283
 51
90.15402423509886
  0
LINE
  5
323
  8
0
  6
CONTINUOUS
 62
     9
 10
94.77950290537473
 20
486.3419453875546
 30
0.0
 11
94.77950290537473
 21
581.2154993579703
 31
0.0
  0
ARC
  5
324
  8
0
  6
CONTINUOUS
 62
     9
 10
80.7711088084178
 20
486.3664573147742
 30
0.0
 40
14.00841554245996
 50
269.8514745636168
 51
359.89974378688
  0
POLYLINE
  5
325
  8
0
  6
CONTINUOUS
 62
     9
 66
     1
 10
0.0
 20
0.0
 30
0.0
  0
VERTEX
  5
7C0
  8
0
  6
CONTINUOUS
 62
     9
 10
34.84400307598634
 20
595.6993368678872
 30
0.0
  0
VERTEX
  5
7C1
  8
0
  6
CONTINUOUS
 62
     9
 10
34.83460042131378
 20
595.6889928862528
 30
0.0
  0
VERTEX
  5
7C2
  8
0
  6
CONTINUOUS
 62
     9
 10
34.8255551331308
 20
595.6600392826796
 30
0.0
  0
VERTEX
  5
7C3
  8
0
  6
CONTINUOUS
 62
     9
 10
34.81721099550666
 20
595.6135764961425
 30
0.0
  0
VERTEX
  5
7C4
  8
0
  6
CONTINUOUS
 62
     9
 10
34.80988514389677
 20
595.5513704367488
 30
0.0
  0
VERTEX
  5
7C5
  8
0
  6
CONTINUOUS
 62
     9
 10
34.80385601178232
 20
595.4757853688315
 30
0.0
  0
VERTEX
  5
7C6
  8
0
  6
CONTINUOUS
 62
     9
 10
34.79935274825513
 20
595.3896940524062
 30
0.0
  0
VERTEX
  5
7C7
  8
0
  6
CONTINUOUS
 62
     9
 10
34.79654650875315
 20
595.2963685582453
 30
0.0
  0
VERTEX
  5
7C8
  8
0
  6
CONTINUOUS
 62
     9
 10
34.7955439499595
 20
595.1993559063551
 30
0.0
  0
SEQEND
  5
934
  8
0
  6
CONTINUOUS
 62
     9
  0
LINE
  5
326
  8
0
  6
CONTINUOUS
 62
     9
 10
34.84400307598648
 20
595.6993368678869
 30
0.0
 11
80.68633629737437
 21
595.6993368678869
 31
0.0
  0
POLYLINE
  5
327
  8
0
  6
CONTINUOUS
 62
     9
 66
     1
 10
0.0
 20
0.0
 30
0.0
  0
VERTEX
  5
7C9
  8
0
  6
CONTINUOUS
 62
     9
 10
80.73479542340141
 20
595.199355906355
 30
0.0
  0
VERTEX
  5
7CA
  8
0
  6
CONTINUOUS
 62
     9
 10
80.73379286460775
 20
595.2963685582451
 30
0.0
  0
VERTEX
  5
7CB
  8
0
  6
CONTINUOUS
 62
     9
 10
80.73098662510579
 20
595.3896940524061
 30
0.0
  0
VERTEX
  5
7CC
  8
0
  6
CONTINUOUS
 62
     9
 10
80.72648336157859
 20
595.4757853688313
 30
0.0
  0
VERTEX
  5
7CD
  8
0
  6
CONTINUOUS
 62
     9
 10
80.72045422946414
 20
595.5513704367487
 30
0.0
  0
VERTEX
  5
7CE
  8
0
  6
CONTINUOUS
 62
     9
 10
80.71312837785425
 20
595.6135764961424
 30
0.0
  0
VERTEX
  5
7CF
  8
0
  6
CONTINUOUS
 62
     9
 10
80.70478424023011
 20
595.6600392826795
 30
0.0
  0
VERTEX
  5
7D0
  8
0
  6
CONTINUOUS
 62
     9
 10
80.69573895204714
 20
595.6889928862527
 30
0.0
  0
VERTEX
  5
7D1
  8
0
  6
CONTINUOUS
 62
     9
 10
80.68633629737457
 20
595.699336867887
 30
0.0
  0
SEQEND
  5
935
  8
0
  6
CONTINUOUS
 62
     9
  0
LINE
  5
328
  8
0
  6
CONTINUOUS
 62
     7
 10
39.48068044633828
 20
451.2427653881304
 30
0.0
 11
39.48097040407971
 21
451.2186016461083
 31
0.0
  0
LINE
  5
329
  8
0
  6
CONTINUOUS
 62
     7
 10
39.48068044633828
 20
451.2427653881304
 30
0.0
 11
39.48068044633828
 21
471.3672241166217
 31
0.0
  0
POLYLINE
  5
32A
  8
0
  6
CONTINUOUS
 62
     7
 66
     1
 10
0.0
 20
0.0
 30
0.0
  0
VERTEX
  5
7D2
  8
0
  6
CONTINUOUS
 62
     7
 10
38.72502505098043
 20
471.8637130119113
 30
0.0
  0
VERTEX
  5
7D3
  8
0
  6
CONTINUOUS
 62
     7
 10
38.78023274423112
 20
471.862502287172
 30
0.0
  0
VERTEX
  5
7D4
  8
0
  6
CONTINUOUS
 62
     7
 10
38.83553017077035
 20
471.8587344722727
 30
0.0
  0
VERTEX
  5
7D5
  8
0
  6
CONTINUOUS
 62
     7
 10
38.89068179993193
 20
471.852322439639
 30
0.0
  0
VERTEX
  5
7D6
  8
0
  6
CONTINUOUS
 62
     7
 10
38.94545210104967
 20
471.8431790616972
 30
0.0
  0
VERTEX
  5
7D7
  8
0
  6
CONTINUOUS
 62
     7
 10
38.99960554345741
 20
471.8312172108734
 30
0.0
  0
VERTEX
  5
7D8
  8
0
  6
CONTINUOUS
 62
     7
 10
39.05290659648891
 20
471.8163497595934
 30
0.0
  0
VERTEX
  5
7D9
  8
0
  6
CONTINUOUS
 62
     7
 10
39.10511972947803
 20
471.7984895802834
 30
0.0
  0
VERTEX
  5
7DA
  8
0
  6
CONTINUOUS
 62
     7
 10
39.13862264786409
 20
471.7851116528574
 30
0.0
  0
VERTEX
  5
7DB
  8
0
  6
CONTINUOUS
 62
     7
 10
39.17161503765652
 20
471.7702872120065
 30
0.0
  0
VERTEX
  5
7DC
  8
0
  6
CONTINUOUS
 62
     7
 10
39.20393935320968
 20
471.7539847833516
 30
0.0
  0
VERTEX
  5
7DD
  8
0
  6
CONTINUOUS
 62
     7
 10
39.23543804887795
 20
471.7361728925131
 30
0.0
  0
VERTEX
  5
7DE
  8
0
  6
CONTINUOUS
 62
     7
 10
39.26595357901572
 20
471.7168200651115
 30
0.0
  0
VERTEX
  5
7DF
  8
0
  6
CONTINUOUS
 62
     7
 10
39.29532839797735
 20
471.6958948267675
 30
0.0
  0
VERTEX
  5
7E0
  8
0
  6
CONTINUOUS
 62
     7
 10
39.31407134985987
 20
471.681150819069
 30
0.0
  0
VERTEX
  5
7E1
  8
0
  6
CONTINUOUS
 62
     7
 10
39.33226359601076
 20
471.6656203257119
 30
0.0
  0
VERTEX
  5
7E2
  8
0
  6
CONTINUOUS
 62
     7
 10
39.34981547447397
 20
471.6493187132907
 30
0.0
  0
VERTEX
  5
7E3
  8
0
  6
CONTINUOUS
 62
     7
 10
39.36663732329342
 20
471.6322613483997
 30
0.0
  0
VERTEX
  5
7E4
  8
0
  6
CONTINUOUS
 62
     7
 10
39.38263948051307
 20
471.6144635976331
 30
0.0
  0
VERTEX
  5
7E5
  8
0
  6
CONTINUOUS
 62
     7
 10
39.39773228417688
 20
471.5959408275852
 30
0.0
  0
VERTEX
  5
7E6
  8
0
  6
CONTINUOUS
 62
     7
 10
39.41182607232876
 20
471.5767084048504
 30
0.0
  0
VERTEX
  5
7E7
  8
0
  6
CONTINUOUS
 62
     7
 10
39.42191290802334
 20
471.5614613135784
 30
0.0
  0
VERTEX
  5
7E8
  8
0
  6
CONTINUOUS
 62
     7
 10
39.43136117532642
 20
471.5457450149981
 30
0.0
  0
VERTEX
  5
7E9
  8
0
  6
CONTINUOUS
 62
     7
 10
39.44012060801411
 20
471.5296014047432
 30
0.0
  0
VERTEX
  5
7EA
  8
0
  6
CONTINUOUS
 62
     7
 10
39.4481409398625
 20
471.513072378448
 30
0.0
  0
VERTEX
  5
7EB
  8
0
  6
CONTINUOUS
 62
     7
 10
39.45537190464775
 20
471.4961998317463
 30
0.0
  0
VERTEX
  5
7EC
  8
0
  6
CONTINUOUS
 62
     7
 10
39.46176323614595
 20
471.4790256602722
 30
0.0
  0
VERTEX
  5
7ED
  8
0
  6
CONTINUOUS
 62
     7
 10
39.46726466813322
 20
471.4615917596597
 30
0.0
  0
VERTEX
  5
7EE
  8
0
  6
CONTINUOUS
 62
     7
 10
39.47130287854031
 20
471.446206435176
 30
0.0
  0
VERTEX
  5
7EF
  8
0
  6
CONTINUOUS
 62
     7
 10
39.47463972764799
 20
471.4306168504324
 30
0.0
  0
VERTEX
  5
7F0
  8
0
  6
CONTINUOUS
 62
     7
 10
39.47726056221897
 20
471.4148734158172
 30
0.0
  0
VERTEX
  5
7F1
  8
0
  6
CONTINUOUS
 62
     7
 10
39.47915072901588
 20
471.3990265417182
 30
0.0
  0
VERTEX
  5
7F2
  8
0
  6
CONTINUOUS
 62
     7
 10
39.4802955748014
 20
471.3831266385237
 30
0.0
  0
VERTEX
  5
7F3
  8
0
  6
CONTINUOUS
 62
     7
 10
39.48068044633828
 20
471.3672241166217
 30
0.0
  0
SEQEND
  5
936
  8
0
  6
CONTINUOUS
 62
     7
  0
POLYLINE
  5
32B
  8
0
  6
CONTINUOUS
 62
     7
 66
     1
 10
0.0
 20
0.0
 30
0.0
  0
VERTEX
  5
7F4
  8
0
  6
CONTINUOUS
 62
     7
 10
76.04965892702266
 20
471.3672241166217
 30
0.0
  0
VERTEX
  5
7F5
  8
0
  6
CONTINUOUS
 62
     7
 10
76.05005792861101
 20
471.3832746982236
 30
0.0
  0
VERTEX
  5
7F6
  8
0
  6
CONTINUOUS
 62
     7
 10
76.05124194176273
 20
471.3993354212864
 30
0.0
  0
VERTEX
  5
7F7
  8
0
  6
CONTINUOUS
 62
     7
 10
76.05319147905779
 20
471.4153571654846
 30
0.0
  0
VERTEX
  5
7F8
  8
0
  6
CONTINUOUS
 62
     7
 10
76.05588705307616
 20
471.4312908104931
 30
0.0
  0
VERTEX
  5
7F9
  8
0
  6
CONTINUOUS
 62
     7
 10
76.05930917639786
 20
471.4470872359863
 30
0.0
  0
VERTEX
  5
7FA
  8
0
  6
CONTINUOUS
 62
     7
 10
76.06343836160286
 20
471.4626973216392
 30
0.0
  0
VERTEX
  5
7FB
  8
0
  6
CONTINUOUS
 62
     7
 10
76.06825512127116
 20
471.4780719471261
 30
0.0
  0
VERTEX
  5
7FC
  8
0
  6
CONTINUOUS
 62
     7
 10
76.07373996798272
 20
471.493161992122
 30
0.0
  0
VERTEX
  5
7FD
  8
0
  6
CONTINUOUS
 62
     7
 10
76.08202306557895
 20
471.5127602981471
 30
0.0
  0
VERTEX
  5
7FE
  8
0
  6
CONTINUOUS
 62
     7
 10
76.0914003397187
 20
471.5319140110659
 30
0.0
  0
VERTEX
  5
7FF
  8
0
  6
CONTINUOUS
 62
     7
 10
76.10179149785317
 20
471.5505738493916
 30
0.0
  0
VERTEX
  5
800
  8
0
  6
CONTINUOUS
 62
     7
 10
76.11311624743364
 20
471.5686905316372
 30
0.0
  0
VERTEX
  5
801
  8
0
  6
CONTINUOUS
 62
     7
 10
76.12529429591133
 20
471.586214776316
 30
0.0
  0
VERTEX
  5
802
  8
0
  6
CONTINUOUS
 62
     7
 10
76.1382453507375
 20
471.6030973019411
 30
0.0
  0
VERTEX
  5
803
  8
0
  6
CONTINUOUS
 62
     7
 10
76.15530558414912
 20
471.6231560807901
 30
0.0
  0
VERTEX
  5
804
  8
0
  6
CONTINUOUS
 62
     7
 10
76.17343409679141
 20
471.6423314454477
 30
0.0
  0
VERTEX
  5
805
  8
0
  6
CONTINUOUS
 62
     7
 10
76.1925253781957
 20
471.6606163032484
 30
0.0
  0
VERTEX
  5
806
  8
0
  6
CONTINUOUS
 62
     7
 10
76.21247391789329
 20
471.678003561527
 30
0.0
  0
VERTEX
  5
807
  8
0
  6
CONTINUOUS
 62
     7
 10
76.23317420541554
 20
471.6944861276179
 30
0.0
  0
VERTEX
  5
808
  8
0
  6
CONTINUOUS
 62
     7
 10
76.25452073029375
 20
471.710056908856
 30
0.0
  0
VERTEX
  5
809
  8
0
  6
CONTINUOUS
 62
     7
 10
76.27640798205927
 20
471.7247088125758
 30
0.0
  0
VERTEX
  5
80A
  8
0
  6
CONTINUOUS
 62
     7
 10
76.30945946993943
 20
471.7446606222117
 30
0.0
  0
VERTEX
  5
80B
  8
0
  6
CONTINUOUS
 62
     7
 10
76.34358035898292
 20
471.7628930874087
 30
0.0
  0
VERTEX
  5
80C
  8
0
  6
CONTINUOUS
 62
     7
 10
76.37862166826432
 20
471.7794483742393
 30
0.0
  0
VERTEX
  5
80D
  8
0
  6
CONTINUOUS
 62
     7
 10
76.41443441685819
 20
471.794368648776
 30
0.0
  0
VERTEX
  5
80E
  8
0
  6
CONTINUOUS
 62
     7
 10
76.45086962383907
 20
471.8076960770915
 30
0.0
  0
VERTEX
  5
80F
  8
0
  6
CONTINUOUS
 62
     7
 10
76.48777830828153
 20
471.8194728252582
 30
0.0
  0
VERTEX
  5
810
  8
0
  6
CONTINUOUS
 62
     7
 10
76.52501148926014
 20
471.8297410593485
 30
0.0
  0
VERTEX
  5
811
  8
0
  6
CONTINUOUS
 62
     7
 10
76.58015480953325
 20
471.8422167691009
 30
0.0
  0
VERTEX
  5
812
  8
0
  6
CONTINUOUS
 62
     7
 10
76.6359792453663
 20
471.851771566708
 30
0.0
  0
VERTEX
  5
813
  8
0
  6
CONTINUOUS
 62
     7
 10
76.6922623045578
 20
471.8584857046949
 30
0.0
  0
VERTEX
  5
814
  8
0
  6
CONTINUOUS
 62
     7
 10
76.74878149490618
 20
471.8624394355872
 30
0.0
  0
VERTEX
  5
815
  8
0
  6
CONTINUOUS
 62
     7
 10
76.80531432421006
 20
471.86371301191
 30
0.0
  0
SEQEND
  5
937
  8
0
  6
CONTINUOUS
 62
     7
  0
LINE
  5
32C
  8
0
  6
CONTINUOUS
 62
     7
 10
76.04965892702266
 20
451.2427653881304
 30
0.0
 11
76.04965892702266
 21
471.3672241166217
 31
0.0
  0
LINE
  5
32D
  8
0
  6
CONTINUOUS
 62
     7
 10
76.04936896928112
 20
451.2186016461083
 30
0.0
 11
76.04965892702266
 21
451.2427653881304
 31
0.0
  0
LINE
  5
32E
  8
0
  6
CONTINUOUS
 62
     9
 10
76.04936896928112
 20
451.2186016461083
 30
0.0
 11
39.48097040407984
 21
451.2186016461083
 31
0.0
  0
POLYLINE
  5
32F
  8
0
  6
CONTINUOUS
 62
     7
 66
     1
 10
0.0
 20
0.0
 30
0.0
  0
VERTEX
  5
816
  8
0
  6
CONTINUOUS
 62
     7
 10
75.36090841902647
 20
449.7229446862245
 30
0.0
  0
VERTEX
  5
817
  8
0
  6
CONTINUOUS
 62
     7
 10
75.47893212195167
 20
449.7581346441124
 30
0.0
  0
VERTEX
  5
818
  8
0
  6
CONTINUOUS
 62
     7
 10
75.57920786401034
 20
449.8243062682206
 30
0.0
  0
VERTEX
  5
819
  8
0
  6
CONTINUOUS
 62
     7
 10
75.67029643555931
 20
449.9166705222468
 30
0.0
  0
SEQEND
  5
938
  8
0
  6
CONTINUOUS
 62
     7
  0
ARC
  5
330
  8
0
  6
CONTINUOUS
 62
     7
 10
73.82721108630845
 20
451.1594577343366
 30
0.0
 40
2.222944816939281
 50
326.0083240560278
 51
1.524597655889238
  0
LINE
  5
331
  8
0
  6
CONTINUOUS
 62
     9
 10
75.36090841902647
 20
449.7229446862245
 30
0.0
 11
40.16943095433433
 21
449.7229446862245
 31
0.0
  0
ARC
  5
332
  8
0
  6
CONTINUOUS
 62
     7
 10
41.95311326904348
 20
451.2059069375232
 30
0.0
 40
2.472175459067851
 50
179.7057828488706
 51
208.308407126235
  0
POLYLINE
  5
333
  8
0
  6
CONTINUOUS
 62
     7
 66
     1
 10
0.0
 20
0.0
 30
0.0
  0
VERTEX
  5
81A
  8
0
  6
CONTINUOUS
 62
     7
 10
39.77659076109796
 20
450.0335583234908
 30
0.0
  0
VERTEX
  5
81B
  8
0
  6
CONTINUOUS
 62
     7
 10
39.86004293780164
 20
449.9166705222468
 30
0.0
  0
VERTEX
  5
81C
  8
0
  6
CONTINUOUS
 62
     7
 10
39.9511315093506
 20
449.8243062682205
 30
0.0
  0
VERTEX
  5
81D
  8
0
  6
CONTINUOUS
 62
     7
 10
40.05140725141089
 20
449.7581346441124
 30
0.0
  0
VERTEX
  5
81E
  8
0
  6
CONTINUOUS
 62
     7
 10
40.16537980892652
 20
449.723417780677
 30
0.0
  0
VERTEX
  5
81F
  8
0
  6
CONTINUOUS
 62
     7
 10
40.16943095433447
 20
449.7229446862245
 30
0.0
  0
SEQEND
  5
939
  8
0
  6
CONTINUOUS
 62
     7
  0
LINE
  5
334
  8
0
  6
CONTINUOUS
 62
     9
 10
20.75083646798618
 20
581.2154993579703
 30
0.0
 11
20.32894481704208
 21
581.2154993579703
 31
0.0
  0
ARC
  5
335
  8
0
  6
CONTINUOUS
 62
     9
 10
34.82273320440868
 20
581.2055606798936
 30
0.0
 40
14.4937917949405
 50
89.9159174957905
 51
179.960711154098
  0
LINE
  5
336
  8
0
  6
CONTINUOUS
 62
     9
 10
94.77950290537473
 20
486.3419453875546
 30
0.0
 11
95.20139455631886
 21
486.3419453875546
 31
0.0
  0
ARC
  5
337
  8
0
  6
CONTINUOUS
 62
     9
 10
80.7076061689523
 20
486.3518840656313
 30
0.0
 40
14.49379179494047
 50
269.9159174957904
 51
359.9607111540981
  0
POLYLINE
  5
338
  8
0
  6
CONTINUOUS
 62
     9
 66
     1
 10
0.0
 20
0.0
 30
0.0
  0
VERTEX
  5
820
  8
0
  6
CONTINUOUS
 62
     9
 10
80.68633629737458
 20
471.8581078776379
 30
0.0
  0
VERTEX
  5
821
  8
0
  6
CONTINUOUS
 62
     9
 10
80.69573895204715
 20
471.8684518592723
 30
0.0
  0
VERTEX
  5
822
  8
0
  6
CONTINUOUS
 62
     9
 10
80.70478424023013
 20
471.8974054628455
 30
0.0
  0
VERTEX
  5
823
  8
0
  6
CONTINUOUS
 62
     9
 10
80.71312837785426
 20
471.9438682493826
 30
0.0
  0
VERTEX
  5
824
  8
0
  6
CONTINUOUS
 62
     9
 10
80.72045422946415
 20
472.0060743087762
 30
0.0
  0
VERTEX
  5
825
  8
0
  6
CONTINUOUS
 62
     9
 10
80.7264833615786
 20
472.0816593766936
 30
0.0
  0
VERTEX
  5
826
  8
0
  6
CONTINUOUS
 62
     9
 10
80.7309866251058
 20
472.1677506931189
 30
0.0
  0
VERTEX
  5
827
  8
0
  6
CONTINUOUS
 62
     9
 10
80.73379286460776
 20
472.2610761872798
 30
0.0
  0
VERTEX
  5
828
  8
0
  6
CONTINUOUS
 62
     9
 10
80.73479542340142
 20
472.35808883917
 30
0.0
  0
SEQEND
  5
93A
  8
0
  6
CONTINUOUS
 62
     9
  0
ARC
  5
339
  8
0
  6
CONTINUOUS
 62
     9
 10
34.82339844169058
 20
486.3525507368707
 30
0.0
 40
14.49445750452635
 50
180.0419223561905
 51
270.081448993921
  0
LINE
  5
33A
  8
0
  6
CONTINUOUS
 62
     9
 10
20.32894481704209
 20
486.3419453875546
 30
0.0
 11
20.75083646798621
 21
486.3419453875546
 31
0.0
  0
POLYLINE
  5
33B
  8
0
  6
CONTINUOUS
 62
     9
 66
     1
 10
0.0
 20
0.0
 30
0.0
  0
VERTEX
  5
829
  8
0
  6
CONTINUOUS
 62
     9
 10
34.79554394995951
 20
472.35808883917
 30
0.0
  0
VERTEX
  5
82A
  8
0
  6
CONTINUOUS
 62
     9
 10
34.79654650875316
 20
472.2610761872798
 30
0.0
  0
VERTEX
  5
82B
  8
0
  6
CONTINUOUS
 62
     9
 10
34.79935274825514
 20
472.1677506931189
 30
0.0
  0
VERTEX
  5
82C
  8
0
  6
CONTINUOUS
 62
     9
 10
34.80385601178232
 20
472.0816593766936
 30
0.0
  0
VERTEX
  5
82D
  8
0
  6
CONTINUOUS
 62
     9
 10
34.80988514389678
 20
472.0060743087762
 30
0.0
  0
VERTEX
  5
82E
  8
0
  6
CONTINUOUS
 62
     9
 10
34.81721099550668
 20
471.9438682493826
 30
0.0
  0
VERTEX
  5
82F
  8
0
  6
CONTINUOUS
 62
     9
 10
34.82555513313081
 20
471.8974054628455
 30
0.0
  0
VERTEX
  5
830
  8
0
  6
CONTINUOUS
 62
     9
 10
34.83460042131378
 20
471.8684518592723
 30
0.0
  0
VERTEX
  5
831
  8
0
  6
CONTINUOUS
 62
     9
 10
34.84400307598635
 20
471.8581078776379
 30
0.0
  0
SEQEND
  5
93B
  8
0
  6
CONTINUOUS
 62
     9
  0
ARC
  5
33C
  8
0
  6
CONTINUOUS
 62
     9
 10
80.70694093167039
 20
581.2048940086543
 30
0.0
 40
14.49445750452631
 50
0.0419223561904118
 51
90.08144899392107
  0
LINE
  5
33D
  8
0
  6
CONTINUOUS
 62
     9
 10
94.77950290537473
 20
581.2154993579703
 30
0.0
 11
95.20139455631883
 21
581.2154993579703
 31
0.0
  0
LINE
  5
33E
  8
0
  6
CONTINUOUS
 62
     7
 10
81.26572180224997
 20
596.2787223727624
 30
0.0
 11
34.26461757111094
 21
596.2787223727624
 31
0.0
  0
LINE
  5
33F
  8
0
  6
CONTINUOUS
 62
     9
 10
80.68633629737457
 20
595.6993368678872
 30
0.0
 11
81.26572180224997
 21
596.2787223727624
 31
0.0
  0
LINE
  5
340
  8
0
  6
CONTINUOUS
 62
     9
 10
34.26461757111095
 20
596.2787223727624
 30
0.0
 11
34.84400307598635
 21
595.6993368678872
 31
0.0
  0
LINE
  5
341
  8
0
  6
CONTINUOUS
 62
     7
 10
76.80531432420996
 20
471.86371301191
 30
0.0
 11
77.14053346060626
 21
471.8608861340765
 31
0.0
  0
LINE
  5
342
  8
0
  6
CONTINUOUS
 62
     9
 10
77.14053346060628
 20
471.8608861340765
 30
0.0
 11
80.71223823305543
 21
471.8322059419571
 31
0.0
  0
POLYLINE
  5
343
  8
0
  6
CONTINUOUS
 62
     9
 66
     1
 10
0.0
 20
0.0
 30
0.0
  0
VERTEX
  5
832
  8
0
  6
CONTINUOUS
 62
     9
 10
80.71223823305542
 20
471.832205941957
 30
0.0
  0
VERTEX
  5
833
  8
0
  6
CONTINUOUS
 62
     9
 10
80.61234670649414
 20
471.820118593169
 30
0.0
  0
VERTEX
  5
834
  8
0
  6
CONTINUOUS
 62
     9
 10
80.51126129411858
 20
471.7839953539021
 30
0.0
  0
VERTEX
  5
835
  8
0
  6
CONTINUOUS
 62
     9
 10
80.40292591582613
 20
471.7146398717263
 30
0.0
  0
VERTEX
  5
836
  8
0
  6
CONTINUOUS
 62
     9
 10
80.32517790175991
 20
471.640122906933
 30
0.0
  0
VERTEX
  5
837
  8
0
  6
CONTINUOUS
 62
     9
 10
80.25600873275856
 20
471.5493780337754
 30
0.0
  0
VERTEX
  5
838
  8
0
  6
CONTINUOUS
 62
     9
 10
80.197925129272
 20
471.445531249757
 30
0.0
  0
VERTEX
  5
839
  8
0
  6
CONTINUOUS
 62
     9
 10
80.15262459418726
 20
471.3325709154143
 30
0.0
  0
SEQEND
  5
93C
  8
0
  6
CONTINUOUS
 62
     9
  0
ARC
  5
344
  8
0
  6
CONTINUOUS
 62
     9
 10
81.23547931021253
 20
470.9784838473004
 30
0.0
 40
1.139276958348447
 50
161.8925623300961
 51
179.8448470585815
  0
ARC
  5
345
  8
0
  6
CONTINUOUS
 62
     9
 10
1487.006765785951
 20
15254.6336973743
 30
0.0
 40
14850.44671303662
 50
264.5480419767632
 51
264.5637250515446
  0
ARC
  5
346
  8
0
  6
CONTINUOUS
 62
     9
 10
-1371.476461423639
 20
15254.63571922908
 30
0.0
 40
14850.44872907141
 50
275.4362743437998
 51
275.4519574165528
  0
POLYLINE
  5
347
  8
0
  6
CONTINUOUS
 62
     9
 66
     1
 10
0.0
 20
0.0
 30
0.0
  0
VERTEX
  5
83A
  8
0
  6
CONTINUOUS
 62
     9
 10
35.43413281432986
 20
470.9815689657079
 30
0.0
  0
VERTEX
  5
83B
  8
0
  6
CONTINUOUS
 62
     9
 10
35.43349752831734
 20
471.0154138264573
 30
0.0
  0
VERTEX
  5
83C
  8
0
  6
CONTINUOUS
 62
     9
 10
35.4318545716903
 20
471.0497361489493
 30
0.0
  0
VERTEX
  5
83D
  8
0
  6
CONTINUOUS
 62
     9
 10
35.42916144826934
 20
471.084460009842
 30
0.0
  0
VERTEX
  5
83E
  8
0
  6
CONTINUOUS
 62
     9
 10
35.42537915140451
 20
471.1195024932999
 30
0.0
  0
VERTEX
  5
83F
  8
0
  6
CONTINUOUS
 62
     9
 10
35.42047280915833
 20
471.1547739775299
 30
0.0
  0
VERTEX
  5
840
  8
0
  6
CONTINUOUS
 62
     9
 10
35.41453082036039
 20
471.1895457361554
 30
0.0
  0
VERTEX
  5
841
  8
0
  6
CONTINUOUS
 62
     9
 10
35.40745207580971
 20
471.2243496090823
 30
0.0
  0
VERTEX
  5
842
  8
0
  6
CONTINUOUS
 62
     9
 10
35.39921868678493
 20
471.2590845779574
 30
0.0
  0
VERTEX
  5
843
  8
0
  6
CONTINUOUS
 62
     9
 10
35.38981882042825
 20
471.2936456083005
 30
0.0
  0
VERTEX
  5
844
  8
0
  6
CONTINUOUS
 62
     9
 10
35.37771475180362
 20
471.3325709388701
 30
0.0
  0
VERTEX
  5
845
  8
0
  6
CONTINUOUS
 62
     9
 10
35.36410065139437
 20
471.3709696291074
 30
0.0
  0
VERTEX
  5
846
  8
0
  6
CONTINUOUS
 62
     9
 10
35.34899141828809
 20
471.4086776556218
 30
0.0
  0
VERTEX
  5
847
  8
0
  6
CONTINUOUS
 62
     9
 10
35.33241421889254
 20
471.4455312677928
 30
0.0
  0
VERTEX
  5
848
  8
0
  6
CONTINUOUS
 62
     9
 10
35.31440857371717
 20
471.4813691610464
 30
0.0
  0
VERTEX
  5
849
  8
0
  6
CONTINUOUS
 62
     9
 10
35.29502620197314
 20
471.5160346879208
 30
0.0
  0
VERTEX
  5
84A
  8
0
  6
CONTINUOUS
 62
     9
 10
35.27433061819299
 20
471.5493780468282
 30
0.0
  0
VERTEX
  5
84B
  8
0
  6
CONTINUOUS
 62
     9
 10
35.25239648405469
 20
471.581258386704
 30
0.0
  0
VERTEX
  5
84C
  8
0
  6
CONTINUOUS
 62
     9
 10
35.229308727798
 20
471.6115457668821
 30
0.0
  0
VERTEX
  5
84D
  8
0
  6
CONTINUOUS
 62
     9
 10
35.20516145251058
 20
471.6401229156315
 30
0.0
  0
VERTEX
  5
84E
  8
0
  6
CONTINUOUS
 62
     9
 10
35.18005666259602
 20
471.6668867376299
 30
0.0
  0
VERTEX
  5
84F
  8
0
  6
CONTINUOUS
 62
     9
 10
35.15410284443031
 20
471.6917495299035
 30
0.0
  0
VERTEX
  5
850
  8
0
  6
CONTINUOUS
 62
     9
 10
35.12741344217493
 20
471.7146398768493
 30
0.0
  0
VERTEX
  5
851
  8
0
  6
CONTINUOUS
 62
     9
 10
35.10010527267357
 20
471.7355032072368
 30
0.0
  0
VERTEX
  5
852
  8
0
  6
CONTINUOUS
 62
     9
 10
35.07229692419825
 20
471.7543020087887
 30
0.0
  0
VERTEX
  5
853
  8
0
  6
CONTINUOUS
 62
     9
 10
35.04410718256104
 20
471.7710157083505
 30
0.0
  0
VERTEX
  5
854
  8
0
  6
CONTINUOUS
 62
     9
 10
35.01862159404646
 20
471.7842164038502
 30
0.0
  0
VERTEX
  5
855
  8
0
  6
CONTINUOUS
 62
     9
 10
34.99300686667225
 20
471.7957475401768
 30
0.0
  0
VERTEX
  5
856
  8
0
  6
CONTINUOUS
 62
     9
 10
34.96734321285565
 20
471.8056266107247
 30
0.0
  0
VERTEX
  5
857
  8
0
  6
CONTINUOUS
 62
     9
 10
34.94170769762814
 20
471.8138800701248
 30
0.0
  0
VERTEX
  5
858
  8
0
  6
CONTINUOUS
 62
     9
 10
34.91617366739214
 20
471.8205425833349
 30
0.0
  0
VERTEX
  5
859
  8
0
  6
CONTINUOUS
 62
     9
 10
34.89126131121296
 20
471.8255782035395
 30
0.0
  0
VERTEX
  5
85A
  8
0
  6
CONTINUOUS
 62
     9
 10
34.86657477203845
 20
471.8291657256831
 30
0.0
  0
VERTEX
  5
85B
  8
0
  6
CONTINUOUS
 62
     9
 10
34.8421707280614
 20
471.8313564027227
 30
0.0
  0
VERTEX
  5
85C
  8
0
  6
CONTINUOUS
 62
     9
 10
34.81810113978737
 20
471.8322059414389
 30
0.0
  0
SEQEND
  5
93D
  8
0
  6
CONTINUOUS
 62
     9
  0
LINE
  5
348
  8
0
  6
CONTINUOUS
 62
     9
 10
34.81810113978735
 20
471.8322059414389
 30
0.0
 11
38.38980591863491
 21
471.8608861340807
 31
0.0
  0
LINE
  5
349
  8
0
  6
CONTINUOUS
 62
     7
 10
38.38980591863493
 20
471.8608861340807
 30
0.0
 11
38.72502505098041
 21
471.8637130119113
 31
0.0
  0
POLYLINE
  5
34A
  8
0
  6
CONTINUOUS
 62
     9
 66
     1
 10
0.0
 20
0.0
 30
0.0
  0
VERTEX
  5
85D
  8
0
  6
CONTINUOUS
 62
     9
 10
77.14053346060626
 20
471.8608861340765
 30
0.0
  0
VERTEX
  5
85E
  8
0
  6
CONTINUOUS
 62
     9
 10
77.14848150809637
 20
471.8712311066847
 30
0.0
  0
VERTEX
  5
85F
  8
0
  6
CONTINUOUS
 62
     9
 10
77.15612747884906
 20
471.9001853845632
 30
0.0
  0
VERTEX
  5
860
  8
0
  6
CONTINUOUS
 62
     9
 10
77.16318077697876
 20
471.9466485196074
 30
0.0
  0
VERTEX
  5
861
  8
0
  6
CONTINUOUS
 62
     9
 10
77.16937333195752
 20
472.0088546149403
 30
0.0
  0
VERTEX
  5
862
  8
0
  6
CONTINUOUS
 62
     9
 10
77.1744697870129
 20
472.084439440309
 30
0.0
  0
VERTEX
  5
863
  8
0
  6
CONTINUOUS
 62
     9
 10
77.17827644419366
 20
472.1705302879863
 30
0.0
  0
VERTEX
  5
864
  8
0
  6
CONTINUOUS
 62
     9
 10
77.18064862613305
 20
472.2638551540717
 30
0.0
  0
VERTEX
  5
865
  8
0
  6
CONTINUOUS
 62
     9
 10
77.18149617471595
 20
472.3608670956086
 30
0.0
  0
SEQEND
  5
93E
  8
0
  6
CONTINUOUS
 62
     9
  0
POLYLINE
  5
34B
  8
0
  6
CONTINUOUS
 62
     9
 66
     1
 10
0.0
 20
0.0
 30
0.0
  0
VERTEX
  5
866
  8
0
  6
CONTINUOUS
 62
     9
 10
38.34884320453754
 20
472.3608670956128
 30
0.0
  0
VERTEX
  5
867
  8
0
  6
CONTINUOUS
 62
     9
 10
38.34969075312019
 20
472.2638551540759
 30
0.0
  0
VERTEX
  5
868
  8
0
  6
CONTINUOUS
 62
     9
 10
38.35206293505888
 20
472.1705302879905
 30
0.0
  0
VERTEX
  5
869
  8
0
  6
CONTINUOUS
 62
     9
 10
38.35586959223851
 20
472.0844394403133
 30
0.0
  0
VERTEX
  5
86A
  8
0
  6
CONTINUOUS
 62
     9
 10
38.36096604729237
 20
472.0088546149445
 30
0.0
  0
VERTEX
  5
86B
  8
0
  6
CONTINUOUS
 62
     9
 10
38.36715860226925
 20
471.9466485196118
 30
0.0
  0
VERTEX
  5
86C
  8
0
  6
CONTINUOUS
 62
     9
 10
38.37421190039684
 20
471.9001853845674
 30
0.0
  0
VERTEX
  5
86D
  8
0
  6
CONTINUOUS
 62
     9
 10
38.38185787114724
 20
471.8712311066889
 30
0.0
  0
VERTEX
  5
86E
  8
0
  6
CONTINUOUS
 62
     9
 10
38.38980591863494
 20
471.8608861340807
 30
0.0
  0
SEQEND
  5
93F
  8
0
  6
CONTINUOUS
 62
     9
  0
POLYLINE
  5
34C
  8
0
  6
CONTINUOUS
 62
     7
 66
     1
 10
0.0
 20
0.0
 30
0.0
  0
VERTEX
  5
86F
  8
0
  6
CONTINUOUS
 62
     7
 10
94.29426019663019
 20
479.4147593048426
 30
0.0
  0
VERTEX
  5
870
  8
0
  6
CONTINUOUS
 62
     7
 10
95.39265748461874
 20
482.5125440484787
 30
0.0
  0
VERTEX
  5
871
  8
0
  6
CONTINUOUS
 62
     7
 10
95.76516968668047
 20
485.7781702571929
 30
0.0
  0
SEQEND
  5
940
  8
0
  6
CONTINUOUS
 62
     7
  0
LINE
  5
34D
  8
0
  6
CONTINUOUS
 62
     9
 10
93.91669235504243
 20
479.7923271465594
 30
0.0
 11
94.2942601966302
 21
479.4147593048426
 31
0.0
  0
ARC
  5
34E
  8
0
  6
CONTINUOUS
 62
     9
 10
79.7043415677216
 20
487.5602333969517
 30
0.0
 40
16.1966441714555
 50
306.4536153020613
 51
331.3407366673804
  0
ARC
  5
34F
  8
0
  6
CONTINUOUS
 62
     7
 10
80.85712895304658
 20
486.4642035281308
 30
0.0
 40
14.63271494571446
 50
269.432657409085
 51
305.3728439365846
  0
LINE
  5
350
  8
0
  6
CONTINUOUS
 62
     9
 10
80.71223823305542
 20
471.8322059419571
 30
0.0
 11
80.68633629737458
 21
471.8581078776378
 31
0.0
  0
LINE
  5
351
  8
0
  6
CONTINUOUS
 62
     9
 10
95.20139455631885
 20
486.3419453875546
 30
0.0
 11
95.76516968668047
 21
485.7781702571929
 31
0.0
  0
POLYLINE
  5
352
  8
0
  6
CONTINUOUS
 62
     7
 66
     1
 10
0.0
 20
0.0
 30
0.0
  0
VERTEX
  5
872
  8
0
  6
CONTINUOUS
 62
     7
 10
34.26461757111096
 20
596.2787223727626
 30
0.0
  0
VERTEX
  5
873
  8
0
  6
CONTINUOUS
 62
     7
 10
31.43585678883038
 20
596.000125257429
 30
0.0
  0
VERTEX
  5
874
  8
0
  6
CONTINUOUS
 62
     7
 10
28.71583562252477
 20
595.1750392076048
 30
0.0
  0
VERTEX
  5
875
  8
0
  6
CONTINUOUS
 62
     7
 10
26.2090728578846
 20
593.8351687530511
 30
0.0
  0
VERTEX
  5
876
  8
0
  6
CONTINUOUS
 62
     7
 10
24.01189267187575
 20
592.0319993875672
 30
0.0
  0
VERTEX
  5
877
  8
0
  6
CONTINUOUS
 62
     7
 10
22.20872330639193
 20
589.8348192015584
 30
0.0
  0
VERTEX
  5
878
  8
0
  6
CONTINUOUS
 62
     7
 10
20.86885285183816
 20
587.3280564369182
 30
0.0
  0
VERTEX
  5
879
  8
0
  6
CONTINUOUS
 62
     7
 10
20.04376680201399
 20
584.6080352706125
 30
0.0
  0
VERTEX
  5
87A
  8
0
  6
CONTINUOUS
 62
     7
 10
19.76516968668046
 20
581.779274488332
 30
0.0
  0
SEQEND
  5
941
  8
0
  6
CONTINUOUS
 62
     7
  0
LINE
  5
353
  8
0
  6
CONTINUOUS
 62
     9
 10
20.32894481704208
 20
581.2154993579703
 30
0.0
 11
19.76516968668046
 21
581.779274488332
 31
0.0
  0
ARC
  5
354
  8
0
  6
CONTINUOUS
 62
     7
 10
34.6730412411107
 20
486.4636637646662
 30
0.0
 40
14.63217688544958
 50
234.626472699919
 51
270.5680259461697
  0
ARC
  5
355
  8
0
  6
CONTINUOUS
 62
     7
 10
36.04239327457259
 20
487.7490259795424
 30
0.0
 40
16.47718953117182
 50
208.8744374881799
 51
233.3312105423787
  0
LINE
  5
356
  8
0
  6
CONTINUOUS
 62
     9
 10
21.23607917666732
 20
479.4147593049725
 30
0.0
 11
21.61364701831851
 21
479.7923271465594
 31
0.0
  0
POLYLINE
  5
357
  8
0
  6
CONTINUOUS
 62
     7
 66
     1
 10
0.0
 20
0.0
 30
0.0
  0
VERTEX
  5
87B
  8
0
  6
CONTINUOUS
 62
     7
 10
19.76516968668047
 20
485.7781702571929
 30
0.0
  0
VERTEX
  5
87C
  8
0
  6
CONTINUOUS
 62
     7
 10
20.13768188872593
 20
482.5125440485491
 30
0.0
  0
VERTEX
  5
87D
  8
0
  6
CONTINUOUS
 62
     7
 10
21.23607917666731
 20
479.4147593049724
 30
0.0
  0
SEQEND
  5
942
  8
0
  6
CONTINUOUS
 62
     7
  0
LINE
  5
358
  8
0
  6
CONTINUOUS
 62
     9
 10
19.76516968668047
 20
485.7781702571929
 30
0.0
 11
20.32894481704208
 21
486.3419453875545
 31
0.0
  0
LINE
  5
359
  8
0
  6
CONTINUOUS
 62
     9
 10
34.84400307598635
 20
471.8581078776378
 30
0.0
 11
34.81810113978735
 21
471.8322059414389
 31
0.0
  0
POLYLINE
  5
35A
  8
0
  6
CONTINUOUS
 62
     7
 66
     1
 10
0.0
 20
0.0
 30
0.0
  0
VERTEX
  5
87E
  8
0
  6
CONTINUOUS
 62
     7
 10
95.76516968668047
 20
581.779274488332
 30
0.0
  0
VERTEX
  5
87F
  8
0
  6
CONTINUOUS
 62
     7
 10
95.48657257134693
 20
584.6080352706125
 30
0.0
  0
VERTEX
  5
880
  8
0
  6
CONTINUOUS
 62
     7
 10
94.66148652152278
 20
587.3280564369182
 30
0.0
  0
VERTEX
  5
881
  8
0
  6
CONTINUOUS
 62
     7
 10
93.321616066969
 20
589.8348192015584
 30
0.0
  0
VERTEX
  5
882
  8
0
  6
CONTINUOUS
 62
     7
 10
91.51844670148517
 20
592.0319993875672
 30
0.0
  0
VERTEX
  5
883
  8
0
  6
CONTINUOUS
 62
     7
 10
89.32126651547634
 20
593.8351687530511
 30
0.0
  0
VERTEX
  5
884
  8
0
  6
CONTINUOUS
 62
     7
 10
86.81450375083617
 20
595.1750392076048
 30
0.0
  0
VERTEX
  5
885
  8
0
  6
CONTINUOUS
 62
     7
 10
84.09448258453055
 20
596.000125257429
 30
0.0
  0
VERTEX
  5
886
  8
0
  6
CONTINUOUS
 62
     7
 10
81.26572180225
 20
596.2787223727626
 30
0.0
  0
SEQEND
  5
943
  8
0
  6
CONTINUOUS
 62
     7
  0
LINE
  5
35B
  8
0
  6
CONTINUOUS
 62
     9
 10
95.76516968668047
 20
581.779274488332
 30
0.0
 11
95.20139455631885
 21
581.2154993579703
 31
0.0
  0
LINE
  5
35C
  8
0
  6
CONTINUOUS
 62
     9
 10
38.38980591863492
 20
471.8608861340808
 30
0.0
 11
34.84400307598664
 21
471.8581078776379
 31
0.0
  0
LINE
  5
35D
  8
0
  6
CONTINUOUS
 62
     9
 10
80.68633629737448
 20
471.8581078776379
 30
0.0
 11
77.14053346060615
 21
471.8608861340766
 31
0.0
  0
POLYLINE
  5
35E
  8
0
  6
CONTINUOUS
 62
     9
 66
     1
 10
0.0
 20
0.0
 30
0.0
  0
VERTEX
  5
887
  8
0
  6
CONTINUOUS
 62
     9
 10
88.03848094481418
 20
449.0252503221969
 30
0.0
  0
VERTEX
  5
888
  8
0
  6
CONTINUOUS
 62
     9
 10
88.24572498740594
 20
449.063043788737
 30
0.0
  0
VERTEX
  5
889
  8
0
  6
CONTINUOUS
 62
     9
 10
88.44536550689762
 20
449.1544083517931
 30
0.0
  0
VERTEX
  5
88A
  8
0
  6
CONTINUOUS
 62
     9
 10
88.63007794388241
 20
449.2959919605314
 30
0.0
  0
VERTEX
  5
88B
  8
0
  6
CONTINUOUS
 62
     9
 10
88.79308543151328
 20
449.4826000905346
 30
0.0
  0
VERTEX
  5
88C
  8
0
  6
CONTINUOUS
 62
     9
 10
88.92840743021863
 20
449.7073863243644
 30
0.0
  0
VERTEX
  5
88D
  8
0
  6
CONTINUOUS
 62
     9
 10
89.03107914617266
 20
449.9621035380017
 30
0.0
  0
VERTEX
  5
88E
  8
0
  6
CONTINUOUS
 62
     9
 10
89.09733368333228
 20
450.2374064774471
 30
0.0
  0
VERTEX
  5
88F
  8
0
  6
CONTINUOUS
 62
     9
 10
89.12474024611238
 20
450.5231946243288
 30
0.0
  0
SEQEND
  5
944
  8
0
  6
CONTINUOUS
 62
     9
  0
LINE
  5
35F
  8
0
  6
CONTINUOUS
 62
     9
 10
88.0384809448142
 20
449.025250322197
 30
0.0
 11
75.36090841902649
 21
449.7229446862245
 31
0.0
  0
LINE
  5
360
  8
0
  6
CONTINUOUS
 62
     9
 10
76.04965892702266
 20
451.2427653881304
 30
0.0
 11
89.1247402461124
 21
450.5231946243288
 31
0.0
  0
LINE
  5
361
  8
0
  6
CONTINUOUS
 62
     9
 10
26.40559912724854
 20
450.5231946243288
 30
0.0
 11
39.48068044633828
 21
451.2427653881304
 31
0.0
  0
LINE
  5
362
  8
0
  6
CONTINUOUS
 62
     9
 10
40.16943095433447
 20
449.7229446862245
 30
0.0
 11
27.49185842854673
 21
449.025250322197
 31
0.0
  0
POLYLINE
  5
363
  8
0
  6
CONTINUOUS
 62
     9
 66
     1
 10
0.0
 20
0.0
 30
0.0
  0
VERTEX
  5
890
  8
0
  6
CONTINUOUS
 62
     9
 10
26.40559912724853
 20
450.5231946243288
 30
0.0
  0
VERTEX
  5
891
  8
0
  6
CONTINUOUS
 62
     9
 10
26.43300569002863
 20
450.2374064774471
 30
0.0
  0
VERTEX
  5
892
  8
0
  6
CONTINUOUS
 62
     9
 10
26.49926022718827
 20
449.9621035380017
 30
0.0
  0
VERTEX
  5
893
  8
0
  6
CONTINUOUS
 62
     9
 10
26.60193194314228
 20
449.7073863243644
 30
0.0
  0
VERTEX
  5
894
  8
0
  6
CONTINUOUS
 62
     9
 10
26.73725394184765
 20
449.4826000905346
 30
0.0
  0
VERTEX
  5
895
  8
0
  6
CONTINUOUS
 62
     9
 10
26.9002614294785
 20
449.2959919605315
 30
0.0
  0
VERTEX
  5
896
  8
0
  6
CONTINUOUS
 62
     9
 10
27.08497386646329
 20
449.1544083517931
 30
0.0
  0
VERTEX
  5
897
  8
0
  6
CONTINUOUS
 62
     9
 10
27.28461438595496
 20
449.063043788737
 30
0.0
  0
VERTEX
  5
898
  8
0
  6
CONTINUOUS
 62
     9
 10
27.49185842854673
 20
449.0252503221969
 30
0.0
  0
SEQEND
  5
945
  8
0
  6
CONTINUOUS
 62
     9
  0
LINE
  5
364
  8
0
  6
CONTINUOUS
 62
     9
 10
89.12474024611238
 20
450.5231946243288
 30
0.0
 11
89.12474024611238
 21
473.3202786292608
 31
0.0
  0
ARC
  5
365
  8
0
  6
CONTINUOUS
 62
     9
 10
81.26356445813074
 20
485.0715868539088
 30
0.0
 40
14.13829302851764
 50
265.2638616084221
 51
303.7810088495517
  0
LINE
  5
366
  8
0
  6
CONTINUOUS
 62
     9
 10
26.40559912724854
 20
450.5231946243288
 30
0.0
 11
26.40559912724854
 21
473.3202786292607
 31
0.0
  0
ARC
  5
367
  8
0
  6
CONTINUOUS
 62
     9
 10
34.34537919993308
 20
485.3750371052837
 30
0.0
 40
14.43458726524057
 50
236.6293887497625
 51
274.3257411789031
  0
LINE
  5
368
  8
0
  6
CONTINUOUS
 62
     7
 10
90.406524883407
 20
448.5459438983593
 30
0.0
 11
90.78405934063689
 21
446.2787223727624
 31
0.0
  0
POLYLINE
  5
369
  8
0
  6
CONTINUOUS
 62
     7
 66
     1
 10
0.0
 20
0.0
 30
0.0
  0
VERTEX
  5
899
  8
0
  6
CONTINUOUS
 62
     7
 10
90.40652488340702
 20
448.5459438983593
 30
0.0
  0
VERTEX
  5
89A
  8
0
  6
CONTINUOUS
 62
     7
 10
90.17538341633673
 20
448.6634157418521
 30
0.0
  0
VERTEX
  5
89B
  8
0
  6
CONTINUOUS
 62
     7
 10
89.52926424050906
 20
448.7765517697619
 30
0.0
  0
VERTEX
  5
89C
  8
0
  6
CONTINUOUS
 62
     7
 10
88.4909508284857
 20
448.8813625762888
 30
0.0
  0
VERTEX
  5
89D
  8
0
  6
CONTINUOUS
 62
     7
 10
87.09705621702247
 20
448.9741523198231
 30
0.0
  0
SEQEND
  5
946
  8
0
  6
CONTINUOUS
 62
     7
  0
LINE
  5
36A
  8
0
  6
CONTINUOUS
 62
     7
 10
74.76516968668045
 20
449.652822287007
 30
0.0
 11
87.09705621702246
 21
448.9741523198232
 31
0.0
  0
LINE
  5
36B
  8
0
  6
CONTINUOUS
 62
     7
 10
74.76516968668048
 20
449.6528222870069
 30
0.0
 11
40.76516968668034
 21
449.6528222870069
 31
0.0
  0
LINE
  5
36C
  8
0
  6
CONTINUOUS
 62
     7
 10
40.76516968668049
 20
449.652822287007
 30
0.0
 11
28.43328315633849
 21
448.9741523198232
 31
0.0
  0
POLYLINE
  5
36D
  8
0
  6
CONTINUOUS
 62
     7
 66
     1
 10
0.0
 20
0.0
 30
0.0
  0
VERTEX
  5
89E
  8
0
  6
CONTINUOUS
 62
     7
 10
28.4332831563385
 20
448.9741523198231
 30
0.0
  0
VERTEX
  5
89F
  8
0
  6
CONTINUOUS
 62
     7
 10
27.03938854487527
 20
448.8813625762888
 30
0.0
  0
VERTEX
  5
8A0
  8
0
  6
CONTINUOUS
 62
     7
 10
26.0010751328519
 20
448.7765517697619
 30
0.0
  0
VERTEX
  5
8A1
  8
0
  6
CONTINUOUS
 62
     7
 10
25.35495595702423
 20
448.6634157418521
 30
0.0
  0
VERTEX
  5
8A2
  8
0
  6
CONTINUOUS
 62
     7
 10
25.12381448995392
 20
448.5459438983593
 30
0.0
  0
SEQEND
  5
947
  8
0
  6
CONTINUOUS
 62
     7
  0
LINE
  5
36E
  8
0
  6
CONTINUOUS
 62
     7
 10
25.12381448995393
 20
448.5459438983593
 30
0.0
 11
24.74628003272403
 21
446.2787223727624
 31
0.0
  0
LINE
  5
36F
  8
0
  6
CONTINUOUS
 62
     7
 10
24.74628003272403
 20
446.2787223727624
 30
0.0
 11
23.44554543736636
 21
446.2787223727624
 31
0.0
  0
LINE
  5
370
  8
0
  6
CONTINUOUS
 62
     9
 10
23.8238639899705
 20
448.5506526550745
 30
0.0
 11
23.44554543736636
 21
446.2787223727625
 31
0.0
  0
POLYLINE
  5
371
  8
0
  6
CONTINUOUS
 62
     9
 66
     1
 10
0.0
 20
0.0
 30
0.0
  0
VERTEX
  5
8A3
  8
0
  6
CONTINUOUS
 62
     9
 10
27.49185842854674
 20
449.0252503221969
 30
0.0
  0
VERTEX
  5
8A4
  8
0
  6
CONTINUOUS
 62
     9
 10
25.94695856750833
 20
448.9224083564463
 30
0.0
  0
VERTEX
  5
8A5
  8
0
  6
CONTINUOUS
 62
     9
 10
24.79616120251576
 20
448.8062430458791
 30
0.0
  0
VERTEX
  5
8A6
  8
0
  6
CONTINUOUS
 62
     9
 10
24.0800457826401
 20
448.6808506149457
 30
0.0
  0
VERTEX
  5
8A7
  8
0
  6
CONTINUOUS
 62
     9
 10
23.8238639899705
 20
448.5506526550745
 30
0.0
  0
SEQEND
  5
948
  8
0
  6
CONTINUOUS
 62
     9
  0
POLYLINE
  5
372
  8
0
  6
CONTINUOUS
 62
     9
 66
     1
 10
0.0
 20
0.0
 30
0.0
  0
VERTEX
  5
8A8
  8
0
  6
CONTINUOUS
 62
     9
 10
91.70647538339044
 20
448.5506526550745
 30
0.0
  0
VERTEX
  5
8A9
  8
0
  6
CONTINUOUS
 62
     9
 10
91.45029359072088
 20
448.6808506149457
 30
0.0
  0
VERTEX
  5
8AA
  8
0
  6
CONTINUOUS
 62
     9
 10
90.73417817084521
 20
448.8062430458791
 30
0.0
  0
VERTEX
  5
8AB
  8
0
  6
CONTINUOUS
 62
     9
 10
89.58338080585263
 20
448.9224083564463
 30
0.0
  0
VERTEX
  5
8AC
  8
0
  6
CONTINUOUS
 62
     9
 10
88.03848094481418
 20
449.0252503221969
 30
0.0
  0
SEQEND
  5
949
  8
0
  6
CONTINUOUS
 62
     9
  0
LINE
  5
373
  8
0
  6
CONTINUOUS
 62
     9
 10
92.08479393599458
 20
446.2787223727624
 30
0.0
 11
91.70647538339043
 21
448.5506526550745
 31
0.0
  0
LINE
  5
374
  8
0
  6
CONTINUOUS
 62
     7
 10
90.7840593406369
 20
446.2787223727624
 30
0.0
 11
92.0847939359946
 21
446.2787223727624
 31
0.0
  0
LINE
  5
375
  8
0
  6
CONTINUOUS
 62
     9
 10
20.32894481704208
 20
486.3419453875546
 30
0.0
 11
20.32894481704208
 21
581.2154993579703
 31
0.0
  0
LINE
  5
376
  8
0
  6
CONTINUOUS
 62
     9
 10
95.20139455631885
 20
581.2154993579703
 30
0.0
 11
95.20139455631885
 21
486.3419453875545
 31
0.0
  0
LINE
  5
377
  8
0
  6
CONTINUOUS
 62
     7
 10
95.76516968668047
 20
485.7781702571929
 30
0.0
 11
95.76516968668047
 21
581.779274488332
 31
0.0
  0
LINE
  5
378
  8
0
  6
CONTINUOUS
 62
     7
 10
19.76516968668046
 20
581.779274488332
 30
0.0
 11
19.76516968668047
 21
485.778170257193
 31
0.0
  0
POLYLINE
  5
379
  8
0
  6
CONTINUOUS
 62
     9
 66
     1
 10
0.0
 20
0.0
 30
0.0
  0
VERTEX
  5
8AD
  8
0
  6
CONTINUOUS
 62
     9
 10
89.3279310636762
 20
474.5326546645051
 30
0.0
  0
VERTEX
  5
8AE
  8
0
  6
CONTINUOUS
 62
     9
 10
89.23080552881801
 20
474.442635046687
 30
0.0
  0
VERTEX
  5
8AF
  8
0
  6
CONTINUOUS
 62
     9
 10
89.14950816404016
 20
474.3284858375624
 30
0.0
  0
VERTEX
  5
8B0
  8
0
  6
CONTINUOUS
 62
     9
 10
89.08777488508296
 20
474.191870727079
 30
0.0
  0
VERTEX
  5
8B1
  8
0
  6
CONTINUOUS
 62
     9
 10
89.05893491080566
 20
474.0898336304132
 30
0.0
  0
SEQEND
  5
94A
  8
0
  6
CONTINUOUS
 62
     9
  0
ARC
  5
37A
  8
0
  6
CONTINUOUS
 62
     9
 10
90.47688590277741
 20
473.8234928487998
 30
0.0
 40
1.442748220440458
 50
169.361805314925
 51
200.4132420831458
  0
ARC
  5
37B
  8
0
  6
CONTINUOUS
 62
     9
 10
25.05500682092623
 20
473.8193425211159
 30
0.0
 40
1.439848723321524
 50
339.7199808182059
 51
12.94336974400818
  0
POLYLINE
  5
37C
  8
0
  6
CONTINUOUS
 62
     9
 66
     1
 10
0.0
 20
0.0
 30
0.0
  0
VERTEX
  5
8B2
  8
0
  6
CONTINUOUS
 62
     9
 10
26.45827176268204
 20
474.1418512020683
 30
0.0
  0
VERTEX
  5
8B3
  8
0
  6
CONTINUOUS
 62
     9
 10
26.42435838500352
 20
474.239738193158
 30
0.0
  0
VERTEX
  5
8B4
  8
0
  6
CONTINUOUS
 62
     9
 10
26.35573590601842
 20
474.3691462467701
 30
0.0
  0
VERTEX
  5
8B5
  8
0
  6
CONTINUOUS
 62
     9
 10
26.26871520512806
 20
474.4753598997328
 30
0.0
  0
VERTEX
  5
8B6
  8
0
  6
CONTINUOUS
 62
     9
 10
26.20240830968482
 20
474.5326546645051
 30
0.0
  0
SEQEND
  5
94B
  8
0
  6
CONTINUOUS
 62
     9
  0
ARC
  5
37D
  8
0
  6
CONTINUOUS
 62
     9
 10
31.84551551302211
 20
484.0792637999974
 30
0.0
 40
12.05605458632048
 50
218.7102413407476
 51
243.1781033520606
  0
POLYLINE
  5
37E
  8
0
  6
CONTINUOUS
 62
     9
 66
     1
 10
0.0
 20
0.0
 30
0.0
  0
VERTEX
  5
8B7
  8
0
  6
CONTINUOUS
 62
     9
 10
22.4379514450873
 20
476.5396225289526
 30
0.0
  0
VERTEX
  5
8B8
  8
0
  6
CONTINUOUS
 62
     9
 10
22.37467688762002
 20
476.6455983271577
 30
0.0
  0
VERTEX
  5
8B9
  8
0
  6
CONTINUOUS
 62
     9
 10
22.32392110537425
 20
476.7205155028633
 30
0.0
  0
SEQEND
  5
94C
  8
0
  6
CONTINUOUS
 62
     9
  0
ARC
  5
37F
  8
0
  6
CONTINUOUS
 62
     9
 10
15.32384269045247
 20
476.7199567840578
 30
0.0
 40
7.000078437219142
 50
0.0045731244029525
 51
26.03404521107188
  0
ARC
  5
380
  8
0
  6
CONTINUOUS
 62
     9
 10
87.0839613775738
 20
480.3921407822087
 30
0.0
 40
7.138999269287863
 50
291.8982880649027
 51
329.0489673218182
  0
POLYLINE
  5
381
  8
0
  6
CONTINUOUS
 62
     9
 66
     1
 10
0.0
 20
0.0
 30
0.0
  0
VERTEX
  5
8BA
  8
0
  6
CONTINUOUS
 62
     9
 10
89.74652297109529
 20
473.7682388862265
 30
0.0
  0
VERTEX
  5
8BB
  8
0
  6
CONTINUOUS
 62
     9
 10
89.53117520883602
 20
473.6209387126921
 30
0.0
  0
VERTEX
  5
8BC
  8
0
  6
CONTINUOUS
 62
     9
 10
89.32357549770283
 20
473.4716186270368
 30
0.0
  0
VERTEX
  5
8BD
  8
0
  6
CONTINUOUS
 62
     9
 10
89.12474024611248
 20
473.3202786292608
 30
0.0
  0
SEQEND
  5
94D
  8
0
  6
CONTINUOUS
 62
     9
  0
ARC
  5
382
  8
0
  6
CONTINUOUS
 62
     9
 10
100.2064966829084
 20
476.7199567840578
 30
0.0
 40
7.000078437219017
 50
153.9659547889278
 51
179.9954268755973
  0
POLYLINE
  5
383
  8
0
  6
CONTINUOUS
 62
     9
 66
     1
 10
0.0
 20
0.0
 30
0.0
  0
VERTEX
  5
8BE
  8
0
  6
CONTINUOUS
 62
     9
 10
26.40559912724851
 20
450.5231946243288
 30
0.0
  0
VERTEX
  5
8BF
  8
0
  6
CONTINUOUS
 62
     9
 10
24.68646243977722
 20
450.4203526585782
 30
0.0
  0
VERTEX
  5
8C0
  8
0
  6
CONTINUOUS
 62
     9
 10
23.40587589828174
 20
450.3041873480109
 30
0.0
  0
VERTEX
  5
8C1
  8
0
  6
CONTINUOUS
 62
     9
 10
22.60899558142762
 20
450.1787949170775
 30
0.0
  0
VERTEX
  5
8C2
  8
0
  6
CONTINUOUS
 62
     9
 10
22.32392110537424
 20
450.0485969572064
 30
0.0
  0
SEQEND
  5
94E
  8
0
  6
CONTINUOUS
 62
     9
  0
LINE
  5
384
  8
0
  6
CONTINUOUS
 62
     9
 10
22.32392110537425
 20
450.0485969572064
 30
0.0
 11
22.32392110537425
 21
476.7205155028633
 31
0.0
  0
POLYLINE
  5
385
  8
0
  6
CONTINUOUS
 62
     9
 66
     1
 10
0.0
 20
0.0
 30
0.0
  0
VERTEX
  5
8C3
  8
0
  6
CONTINUOUS
 62
     9
 10
93.20641826798669
 20
450.0485969572064
 30
0.0
  0
VERTEX
  5
8C4
  8
0
  6
CONTINUOUS
 62
     9
 10
92.92134379193334
 20
450.1787949170775
 30
0.0
  0
VERTEX
  5
8C5
  8
0
  6
CONTINUOUS
 62
     9
 10
92.12446347507921
 20
450.3041873480109
 30
0.0
  0
VERTEX
  5
8C6
  8
0
  6
CONTINUOUS
 62
     9
 10
90.84387693358373
 20
450.4203526585782
 30
0.0
  0
VERTEX
  5
8C7
  8
0
  6
CONTINUOUS
 62
     9
 10
89.1247402461124
 20
450.5231946243288
 30
0.0
  0
SEQEND
  5
94F
  8
0
  6
CONTINUOUS
 62
     9
  0
LINE
  5
386
  8
0
  6
CONTINUOUS
 62
     9
 10
93.20641826798669
 20
450.0485969572064
 30
0.0
 11
93.20641826798669
 21
476.7205155028633
 31
0.0
  0
POLYLINE
  5
387
  8
0
  6
CONTINUOUS
 62
     9
 66
     1
 10
0.0
 20
0.0
 30
0.0
  0
VERTEX
  5
8C8
  8
0
  6
CONTINUOUS
 62
     9
 10
22.32392110537424
 20
450.0485969572064
 30
0.0
  0
VERTEX
  5
8C9
  8
0
  6
CONTINUOUS
 62
     9
 10
22.35285899067577
 20
449.7564463638477
 30
0.0
  0
VERTEX
  5
8CA
  8
0
  6
CONTINUOUS
 62
     9
 10
22.43829401121232
 20
449.4755164472302
 30
0.0
  0
VERTEX
  5
8CB
  8
0
  6
CONTINUOUS
 62
     9
 10
22.57694484984944
 20
449.2165969296856
 30
0.0
  0
VERTEX
  5
8CC
  8
0
  6
CONTINUOUS
 62
     9
 10
22.76348632061924
 20
448.9896321764641
 30
0.0
  0
VERTEX
  5
8CD
  8
0
  6
CONTINUOUS
 62
     9
 10
22.99075389402925
 20
448.8033392608334
 30
0.0
  0
VERTEX
  5
8CE
  8
0
  6
CONTINUOUS
 62
     9
 10
23.25001886634588
 20
448.6648731659872
 30
0.0
  0
VERTEX
  5
8CF
  8
0
  6
CONTINUOUS
 62
     9
 10
23.53132360437977
 20
448.5795519824078
 30
0.0
  0
VERTEX
  5
8D0
  8
0
  6
CONTINUOUS
 62
     9
 10
23.8238639899705
 20
448.5506526550746
 30
0.0
  0
SEQEND
  5
950
  8
0
  6
CONTINUOUS
 62
     9
  0
POLYLINE
  5
388
  8
0
  6
CONTINUOUS
 62
     9
 66
     1
 10
0.0
 20
0.0
 30
0.0
  0
VERTEX
  5
8D1
  8
0
  6
CONTINUOUS
 62
     9
 10
91.70647538339043
 20
448.5506526550746
 30
0.0
  0
VERTEX
  5
8D2
  8
0
  6
CONTINUOUS
 62
     9
 10
91.99901576898117
 20
448.5795519824078
 30
0.0
  0
VERTEX
  5
8D3
  8
0
  6
CONTINUOUS
 62
     9
 10
92.28032050701506
 20
448.6648731659872
 30
0.0
  0
VERTEX
  5
8D4
  8
0
  6
CONTINUOUS
 62
     9
 10
92.53958547933168
 20
448.8033392608334
 30
0.0
  0
VERTEX
  5
8D5
  8
0
  6
CONTINUOUS
 62
     9
 10
92.7668530527417
 20
448.9896321764641
 30
0.0
  0
VERTEX
  5
8D6
  8
0
  6
CONTINUOUS
 62
     9
 10
92.95339452351149
 20
449.2165969296856
 30
0.0
  0
VERTEX
  5
8D7
  8
0
  6
CONTINUOUS
 62
     9
 10
93.09204536214861
 20
449.4755164472302
 30
0.0
  0
VERTEX
  5
8D8
  8
0
  6
CONTINUOUS
 62
     9
 10
93.17748038268516
 20
449.7564463638477
 30
0.0
  0
VERTEX
  5
8D9
  8
0
  6
CONTINUOUS
 62
     9
 10
93.2064182679867
 20
450.0485969572065
 30
0.0
  0
SEQEND
  5
951
  8
0
  6
CONTINUOUS
 62
     9
  0
LINE
  5
389
  8
0
  6
CONTINUOUS
 62
     9
 10
93.20641826798669
 20
450.0485969572064
 30
0.0
 11
93.58416596011696
 21
447.7800948842399
 31
0.0
  0
LINE
  5
38A
  8
0
  6
CONTINUOUS
 62
     9
 10
93.58416596011695
 20
476.3427678106962
 30
0.0
 11
93.2064182679867
 21
476.7205155028633
 31
0.0
  0
LINE
  5
38B
  8
0
  6
CONTINUOUS
 62
     7
 10
93.58416596011698
 20
447.7800948842399
 30
0.0
 11
93.58416596011698
 21
476.3427678106962
 31
0.0
  0
LINE
  5
38C
  8
0
  6
CONTINUOUS
 62
     9
 10
21.94617341324396
 20
447.7800948842399
 30
0.0
 11
22.32392110537425
 21
450.0485969572064
 31
0.0
  0
LINE
  5
38D
  8
0
  6
CONTINUOUS
 62
     7
 10
21.94617341324396
 20
447.7800948842399
 30
0.0
 11
21.94617341324396
 21
476.342767810737
 31
0.0
  0
LINE
  5
38E
  8
0
  6
CONTINUOUS
 62
     9
 10
22.32392110537424
 20
476.7205155028633
 30
0.0
 11
21.94617341324397
 21
476.342767810737
 31
0.0
  0
POLYLINE
  5
38F
  8
0
  6
CONTINUOUS
 62
     7
 66
     1
 10
0.0
 20
0.0
 30
0.0
  0
VERTEX
  5
8DA
  8
0
  6
CONTINUOUS
 62
     7
 10
92.0847939359946
 20
446.2787223727624
 30
0.0
  0
VERTEX
  5
8DB
  8
0
  6
CONTINUOUS
 62
     7
 10
92.37734338366694
 20
446.3075672792446
 30
0.0
  0
VERTEX
  5
8DC
  8
0
  6
CONTINUOUS
 62
     7
 10
92.65863052323452
 20
446.3929941475392
 30
0.0
  0
VERTEX
  5
8DD
  8
0
  6
CONTINUOUS
 62
     7
 10
92.91785191244414
 20
446.5317219736168
 30
0.0
  0
VERTEX
  5
8DE
  8
0
  6
CONTINUOUS
 62
     7
 10
93.14505159201013
 20
446.7184226146396
 30
0.0
  0
VERTEX
  5
8DF
  8
0
  6
CONTINUOUS
 62
     7
 10
93.33150346580913
 20
446.9459254278366
 30
0.0
  0
VERTEX
  5
8E0
  8
0
  6
CONTINUOUS
 62
     7
 10
93.47004644551455
 20
447.2054926745806
 30
0.0
  0
VERTEX
  5
8E1
  8
0
  6
CONTINUOUS
 62
     7
 10
93.55535948771451
 20
447.4871551121774
 30
0.0
  0
VERTEX
  5
8E2
  8
0
  6
CONTINUOUS
 62
     7
 10
93.58416596011696
 20
447.7800948842399
 30
0.0
  0
SEQEND
  5
952
  8
0
  6
CONTINUOUS
 62
     7
  0
POLYLINE
  5
390
  8
0
  6
CONTINUOUS
 62
     7
 66
     1
 10
0.0
 20
0.0
 30
0.0
  0
VERTEX
  5
8E3
  8
0
  6
CONTINUOUS
 62
     7
 10
21.94617341324398
 20
447.7800948842399
 30
0.0
  0
VERTEX
  5
8E4
  8
0
  6
CONTINUOUS
 62
     7
 10
21.97497988564643
 20
447.4871551121775
 30
0.0
  0
VERTEX
  5
8E5
  8
0
  6
CONTINUOUS
 62
     7
 10
22.06029292784639
 20
447.2054926745806
 30
0.0
  0
VERTEX
  5
8E6
  8
0
  6
CONTINUOUS
 62
     7
 10
22.1988359075518
 20
446.9459254278367
 30
0.0
  0
VERTEX
  5
8E7
  8
0
  6
CONTINUOUS
 62
     7
 10
22.38528778135081
 20
446.7184226146396
 30
0.0
  0
VERTEX
  5
8E8
  8
0
  6
CONTINUOUS
 62
     7
 10
22.61248746091681
 20
446.5317219736168
 30
0.0
  0
VERTEX
  5
8E9
  8
0
  6
CONTINUOUS
 62
     7
 10
22.87170885012643
 20
446.3929941475393
 30
0.0
  0
VERTEX
  5
8EA
  8
0
  6
CONTINUOUS
 62
     7
 10
23.15299598969401
 20
446.3075672792446
 30
0.0
  0
VERTEX
  5
8EB
  8
0
  6
CONTINUOUS
 62
     7
 10
23.44554543736636
 20
446.2787223727625
 30
0.0
  0
SEQEND
  5
953
  8
0
  6
CONTINUOUS
 62
     7
  0
ARC
  5
391
  8
0
  6
CONTINUOUS
 62
     7
 10
100.4953302443727
 20
476.3633098130725
 30
0.0
 40
6.911194812608961
 50
153.7989232868805
 51
180.170299319265
  0
ARC
  5
392
  8
0
  6
CONTINUOUS
 62
     7
 10
15.03500912945412
 20
476.3633098131813
 30
0.0
 40
6.911194812143338
 50
359.8297006801595
 51
26.20107671521293
  0
ENDBLK
  8
0
  0
ENDSEC
  0
SECTION
  2
ENTITIES
  0
LINE
  5
6F
  8
0
  6
CENTER
 62
     7
 10
306.5670820470343
 20
443.2787223727624
 30
0.0
 11
306.5670820470343
 21
599.2787223727624
 31
0.0
  0
LINE
  5
71
  8
0
  6
CENTER
 62
     7
 10
57.76516968668046
 20
443.2787223727624
 30
0.0
 11
57.76516968668047
 21
599.2787223727624
 31
0.0
  0
LINE
  5
72
  8
0
  6
CENTER
 62
     7
 10
57.76516968668047
 20
349.7963056640418
 30
0.0
 11
57.76516968668047
 21
424.2963056640419
 31
0.0
  0
POINT
  5
73
  8
0
 62
     7
 10
57.76516968668047
 20
521.4068209234972
 30
0.0
  0
POINT
  5
74
  8
0
 62
     7
 10
57.76516968668047
 20
386.8961444566299
 30
0.0
  0
POINT
  5
75
  8
0
 62
     7
 10
306.5670820470343
 20
521.4068209234972
 30
0.0
  0
INSERT
  5
16D
  8
0
  6
CENTER
 62
     7
  2
D_FRAME_VIEW_2501
 10
0.0
 20
0.0
 30
0.0
  0
INSERT
  5
2B3
  8
0
  6
CENTER
 62
     7
  2
D_FRAME_VIEW_2180
 10
0.0
 20
0.0
 30
0.0
  0
INSERT
  5
305
  8
0
  6
CENTER
 62
     7
  2
D_FRAME_VIEW_2250
 10
0.0
 20
0.0
 30
0.0
  0
TEXT
  5
306
  8
0
  6
CONTINUOUS
 62
     7
 10
301.5888870989288
 20
426.0920591378276
 30
0.0
 40
3.0
  1
RMEB-40
  0
LINE
  5
307
  8
0
  6
CENTER
 62
     1
 10
289.8376355534216
 20
561.2787223727624
 30
0.0
 11
323.2965285406469
 21
561.2787223727624
 31
0.0
  0
LINE
  5
308
  8
0
  6
CENTER
 62
     1
 10
306.5670820470343
 20
544.5492758791498
 30
0.0
 11
306.5670820470343
 21
578.0081688663751
 31
0.0
  0
LINE
  5
309
  8
0
  6
CENTER
 62
     1
 10
27.76516968668048
 20
561.2787223727624
 30
0.0
 11
87.76516968668047
 21
561.2787223727624
 31
0.0
  0
LINE
  5
30A
  8
0
  6
CENTER
 62
     1
 10
57.76516968668047
 20
531.2787223727624
 30
0.0
 11
57.76516968668047
 21
591.2787223727624
 31
0.0
  0
INSERT
  5
393
  8
0
  6
CENTER
 62
     7
  2
D_FRAME_VIEW_1713
 10
0.0
 20
0.0
 30
0.0
  0
ENDSEC
  0
EOF
