  0
SECTION
  2
HEADER
  9
$ACADVER
  1
AC1006
  9
$DWGCODEPAGE
  3
ansi_932
  9
$INSBASE
 10
0.0
 20
0.0
 30
0.0
  9
$EXTMIN
 10
3.499999999999978
 20
254.7499999999999
  9
$EXTMAX
 10
173.5998387925881
 20
515.1219014492652
  9
$LIMMIN
 10
0.0
 20
0.0
  9
$LIMMAX
 10
12.0
 20
9.0
  9
$ORTHOMODE
 70
     0
  9
$REGENMODE
 70
     1
  9
$FILLMODE
 70
     1
  9
$QTEXTMODE
 70
     0
  9
$MIRRTEXT
 70
     1
  9
$DRAGMODE
 70
     2
  9
$LTSCALE
 40
1.0
  9
$OSMODE
 70
    37
  9
$ATTMODE
 70
     1
  9
$TEXTSIZE
 40
0.2
  9
$TRACEWID
 40
0.05
  9
$TEXTSTYLE
  7
STANDARD
  9
$CLAYER
  8
0
  9
$CELTYPE
  6
BYLAYER
  9
$CECOLOR
 62
   256
  9
$DIMSCALE
 40
1.0
  9
$DIMASZ
 40
3.0
  9
$DIMEXO
 40
0.0625
  9
$DIMDLI
 40
0.38
  9
$DIMRND
 40
0.0
  9
$DIMDLE
 40
0.0
  9
$DIMEXE
 40
1.5
  9
$DIMTP
 40
0.0
  9
$DIMTM
 40
0.0
  9
$DIMTXT
 40
3.0
  9
$DIMCEN
 40
0.09
  9
$DIMTSZ
 40
0.0
  9
$DIMTOL
 70
     0
  9
$DIMLIM
 70
     0
  9
$DIMTIH
 70
     1
  9
$DIMTOH
 70
     1
  9
$DIMSE1
 70
     0
  9
$DIMSE2
 70
     0
  9
$DIMTAD
 70
     1
  9
$DIMZIN
 70
     0
  9
$DIMBLK
  1

  9
$DIMASO
 70
     1
  9
$DIMSHO
 70
     1
  9
$DIMPOST
  1

  9
$DIMAPOST
  1

  9
$DIMALT
 70
     0
  9
$DIMALTD
 70
     2
  9
$DIMALTF
 40
25.4
  9
$DIMLFAC
 40
1.0
  9
$DIMTOFL
 70
     0
  9
$DIMTVP
 40
0.0
  9
$DIMTIX
 70
     0
  9
$DIMSOXD
 70
     0
  9
$DIMSAH
 70
     0
  9
$DIMBLK1
  1

  9
$DIMBLK2
  1

  9
$LUNITS
 70
     2
  9
$LUPREC
 70
     4
  9
$SKETCHINC
 40
0.1
  9
$FILLETRAD
 40
0.5
  9
$AUNITS
 70
     0
  9
$AUPREC
 70
     0
  9
$MENU
  1
.
  9
$ELEVATION
 40
0.0
  9
$THICKNESS
 40
0.0
  9
$LIMCHECK
 70
     0
  9
$CHAMFERA
 40
0.0
  9
$CHAMFERB
 40
0.0
  9
$SKPOLY
 70
     0
  9
$TDCREATE
 40
2460690.654058877
  9
$TDUPDATE
 40
2460690.654059074
  9
$TDINDWG
 40
0.0000000116
  9
$TDUSRTIMER
 40
0.0000000116
  9
$USRTIMER
 70
     1
  9
$ANGBASE
 50
0.0
  9
$ANGDIR
 70
     0
  9
$PDMODE
 70
     0
  9
$PDSIZE
 40
0.0
  9
$PLINEWID
 40
0.0
  9
$COORDS
 70
     1
  9
$SPLFRAME
 70
     0
  9
$SPLINETYPE
 70
     6
  9
$SPLINESEGS
 70
     8
  9
$ATTDIA
 70
     0
  9
$ATTREQ
 70
     1
  9
$HANDLING
 70
     1
  9
$HANDSEED
  5
259
  9
$SURFTAB1
 70
     6
  9
$SURFTAB2
 70
     6
  9
$SURFTYPE
 70
     6
  9
$SURFU
 70
     6
  9
$SURFV
 70
     6
  9
$UCSNAME
  2

  9
$UCSORG
 10
0.0
 20
0.0
 30
0.0
  9
$UCSXDIR
 10
1.0
 20
0.0
 30
0.0
  9
$UCSYDIR
 10
0.0
 20
1.0
 30
0.0
  9
$USERI1
 70
     0
  9
$USERI2
 70
     0
  9
$USERI3
 70
     0
  9
$USERI4
 70
     0
  9
$USERI5
 70
     0
  9
$USERR1
 40
0.0
  9
$USERR2
 40
0.0
  9
$USERR3
 40
0.0
  9
$USERR4
 40
0.0
  9
$USERR5
 40
0.0
  9
$WORLDVIEW
 70
     1
  0
ENDSEC
  0
SECTION
  2
TABLES
  0
TABLE
  2
VPORT
 70
     1
  0
VPORT
  2
*ACTIVE
 70
     0
 10
0.0
 20
0.0
 11
1.0
 21
1.0
 12
88.54991939629402
 22
384.9359507246326
 13
0.0
 23
0.0
 14
0.5
 24
0.5
 15
0.5
 25
0.5
 16
0.0
 26
0.0
 36
1.0
 17
0.0
 27
0.0
 37
0.0
 40
260.3719014492654
 41
1.6
 42
50.0
 43
0.0
 44
0.0
 50
0.0
 51
0.0
 71
     0
 72
   100
 73
     1
 74
     3
 75
     0
 76
     0
 77
     0
 78
     0
  0
ENDTAB
  0
TABLE
  2
LTYPE
 70
     2
  0
LTYPE
  2
CONTINUOUS
 70
     0
  3
Solid line
 72
    65
 73
     0
 40
0.0
  0
LTYPE
  2
CENTER
 70
     0
  3

 72
    65
 73
     0
 40
0.0
  0
ENDTAB
  0
TABLE
  2
LAYER
 70
     2
  0
LAYER
  2
0
 70
     0
 62
     7
  6
CONTINUOUS
  0
LAYER
  2
1
 70
     0
 62
     7
  6
CONTINUOUS
  0
ENDTAB
  0
TABLE
  2
STYLE
 70
     2
  0
STYLE
  2
STANDARD
 70
     0
 40
0.0
 41
1.0
 50
0.0
 71
     0
 42
0.2
  3
txt
  4

  0
STYLE
  2
ＭＳ_ゴシック
 70
     0
 40
0.0
 41
1.0
 50
0.0
 71
     0
 42
0.2
  3
ＭＳ ゴシック.shx
  4

  0
ENDTAB
  0
TABLE
  2
VIEW
 70
     0
  0
ENDTAB
  0
TABLE
  2
UCS
 70
     0
  0
ENDTAB
  0
ENDSEC
  0
SECTION
  2
BLOCKS
  0
BLOCK
  8
0
  2
D_FRAME_VIEW_4433
 70
     0
 10
0.0
 20
0.0
 30
0.0
  0
LINE
  5
71
  8
1
  6
CONTINUOUS
 62
     7
 10
105.099838792588
 20
452.1219014492652
 30
0.0
 11
105.099838792588
 21
480.1219014492652
 31
0.0
  0
LINE
  5
72
  8
1
  6
CONTINUOUS
 62
     7
 10
105.099838792588
 20
480.1219014492652
 30
0.0
 11
105.099838792588
 21
508.1219014492652
 31
0.0
  0
LINE
  5
73
  8
1
  6
CONTINUOUS
 62
     7
 10
103.099838792588
 20
452.6350107901442
 30
0.0
 11
103.099838792588
 21
480.1219014492652
 31
0.0
  0
LINE
  5
74
  8
1
  6
CONTINUOUS
 62
     7
 10
103.099838792588
 20
480.1219014492652
 30
0.0
 11
103.099838792588
 21
507.6087921083861
 31
0.0
  0
LINE
  5
75
  8
1
  6
CONTINUOUS
 62
     7
 10
173.5998387925881
 20
404.6213493336957
 30
0.0
 11
173.5998387925881
 21
398.2579383813454
 31
0.0
  0
ARC
  5
76
  8
1
  6
CONTINUOUS
 62
     7
 10
110.2768017165356
 20
406.8355353748948
 30
0.0
 40
16.16045912560459
 50
269.645816407239
 51
303.6044077765159
  0
LINE
  5
77
  8
1
  6
CONTINUOUS
 62
     7
 10
110.1769037298302
 20
390.6753850184598
 30
0.0
 11
107.2088358844276
 21
390.7012869541406
 31
0.0
  0
LINE
  5
78
  8
1
  6
CONTINUOUS
 62
     7
 10
173.5998387925881
 20
515.1219014492651
 30
0.0
 11
173.5998387925881
 21
500.6224535648347
 31
0.0
  0
LINE
  5
79
  8
1
  6
CONTINUOUS
 62
     7
 10
107.2088358844276
 20
514.5425159443898
 30
0.0
 11
173.5998387925881
 21
515.1219014492651
 31
0.0
  0
LINE
  5
7A
  8
1
  6
CONTINUOUS
 62
     7
 10
173.5998387925881
 20
404.6213493336957
 30
0.0
 11
173.5998387925881
 21
500.6224535648347
 31
0.0
  0
ARC
  5
7B
  8
1
  6
CONTINUOUS
 62
     7
 10
-129.7417640048237
 20
480.1219014492652
 30
0.0
 40
237.0014135131998
 50
353.2150721940881
 51
6.784927805911876
  0
LINE
  5
7C
  8
1
  6
CONTINUOUS
 62
     7
 10
173.5998387925881
 20
398.2579383813454
 30
0.0
 11
173.5998387925881
 21
395.185946887199
 31
0.0
  0
LINE
  5
7D
  8
1
  6
CONTINUOUS
 62
     7
 10
173.5998387925881
 20
366.6232739607426
 30
0.0
 11
173.5998387925881
 21
395.185946887199
 31
0.0
  0
LINE
  5
7E
  8
1
  6
CONTINUOUS
 62
     7
 10
173.5998387925881
 20
365.1219014492652
 30
0.0
 11
130.2488265308023
 21
367.3938317315773
 31
0.0
  0
LINE
  5
7F
  8
1
  6
CONTINUOUS
 62
     7
 10
173.5998387925881
 20
366.6232739607426
 30
0.0
 11
173.5998387925881
 21
365.1219014492652
 31
0.0
  0
LINE
  5
80
  8
1
  6
CONTINUOUS
 62
     7
 10
130.2488265308023
 20
367.3938317315773
 30
0.0
 11
121.1929635727629
 21
367.8684293986997
 31
0.0
  0
LINE
  5
81
  8
1
  6
CONTINUOUS
 62
     7
 10
106.5068116756911
 20
370.085944464633
 30
0.0
 11
106.5068116756911
 21
390.2104031931244
 31
0.0
  0
POLYLINE
  5
82
  8
1
  6
CONTINUOUS
 62
     7
 66
     1
 10
0.0
 20
0.0
 30
0.0
  0
VERTEX
  5
17E
  8
1
  6
CONTINUOUS
 62
     7
 10
107.880162046496
 20
368.5661237627272
 30
0.0
  0
VERTEX
  5
17F
  8
1
  6
CONTINUOUS
 62
     7
 10
107.7124640313225
 20
368.585049864124
 30
0.0
  0
VERTEX
  5
180
  8
1
  6
CONTINUOUS
 62
     7
 10
107.5939104315733
 20
368.6109975023235
 30
0.0
  0
SEQEND
  5
24A
  8
1
  6
CONTINUOUS
 62
     7
  0
ARC
  5
83
  8
1
  6
CONTINUOUS
 62
     7
 10
107.9593218787841
 20
369.9888690025658
 30
0.0
 40
1.425501805306765
 50
233.9328084447135
 51
255.14706913278
  0
ARC
  5
84
  8
1
  6
CONTINUOUS
 62
     7
 10
108.017517814097
 20
370.0519183470178
 30
0.0
 40
1.510760785887754
 50
179.6259655953937
 51
233.5565094483309
  0
LINE
  5
85
  8
1
  6
CONTINUOUS
 62
     7
 10
106.5067892197679
 20
370.061780722611
 30
0.0
 11
106.5068116756911
 21
370.085944464633
 31
0.0
  0
LINE
  5
86
  8
1
  6
CONTINUOUS
 62
     7
 10
121.1929635727629
 20
367.8684293986997
 30
0.0
 11
107.880162046496
 21
368.5661237627272
 31
0.0
  0
LINE
  5
87
  8
1
  6
CONTINUOUS
 62
     7
 10
107.2088358844276
 20
390.7012869541406
 30
0.0
 11
106.8904792294102
 21
390.7040652105793
 31
0.0
  0
LINE
  5
88
  8
1
  6
CONTINUOUS
 62
     7
 10
106.0954755248388
 20
514.5327997957281
 30
0.0
 11
107.2088358844276
 21
514.5425159443898
 31
0.0
  0
LINE
  5
89
  8
1
  6
CONTINUOUS
 62
     7
 10
106.5665511143837
 20
390.7068920884128
 30
0.0
 11
106.8904792294101
 21
390.7040652105792
 31
0.0
  0
LINE
  5
8A
  8
1
  6
CONTINUOUS
 62
     7
 10
106.5068116756911
 20
390.2104031931244
 30
0.0
 11
106.5665511143837
 21
390.7068920884128
 31
0.0
  0
POLYLINE
  5
8B
  8
1
  6
CONTINUOUS
 62
     7
 66
     1
 10
0.0
 20
0.0
 30
0.0
  0
VERTEX
  5
181
  8
1
  6
CONTINUOUS
 62
     7
 10
106.5665511143837
 20
390.7068920884128
 30
0.0
  0
VERTEX
  5
182
  8
1
  6
CONTINUOUS
 62
     7
 10
106.5495053761689
 20
390.7200126348973
 30
0.0
  0
VERTEX
  5
183
  8
1
  6
CONTINUOUS
 62
     7
 10
106.5330376522013
 20
390.7338198144259
 30
0.0
  0
VERTEX
  5
184
  8
1
  6
CONTINUOUS
 62
     7
 10
106.5170661522758
 20
390.7483924454771
 30
0.0
  0
VERTEX
  5
185
  8
1
  6
CONTINUOUS
 62
     7
 10
106.5017348361219
 20
390.7636080413996
 30
0.0
  0
VERTEX
  5
186
  8
1
  6
CONTINUOUS
 62
     7
 10
106.4867562270448
 20
390.7797923701773
 30
0.0
  0
VERTEX
  5
187
  8
1
  6
CONTINUOUS
 62
     7
 10
106.4724983606182
 20
390.7965882955179
 30
0.0
  0
VERTEX
  5
188
  8
1
  6
CONTINUOUS
 62
     7
 10
106.4588901811052
 20
390.8140943284178
 30
0.0
  0
VERTEX
  5
189
  8
1
  6
CONTINUOUS
 62
     7
 10
106.4460620467319
 20
390.8321561142481
 30
0.0
  0
VERTEX
  5
18A
  8
1
  6
CONTINUOUS
 62
     7
 10
106.4344485214917
 20
390.8500745359057
 30
0.0
  0
VERTEX
  5
18B
  8
1
  6
CONTINUOUS
 62
     7
 10
106.4236008678655
 20
390.8684477917956
 30
0.0
  0
VERTEX
  5
18C
  8
1
  6
CONTINUOUS
 62
     7
 10
106.4134713844762
 20
390.8873749164891
 30
0.0
  0
VERTEX
  5
18D
  8
1
  6
CONTINUOUS
 62
     7
 10
106.404153564123
 20
390.9066982555233
 30
0.0
  0
VERTEX
  5
18E
  8
1
  6
CONTINUOUS
 62
     7
 10
106.395491059176
 20
390.9268106595123
 30
0.0
  0
VERTEX
  5
18F
  8
1
  6
CONTINUOUS
 62
     7
 10
106.3877075830591
 20
390.9472652230986
 30
0.0
  0
VERTEX
  5
190
  8
1
  6
CONTINUOUS
 62
     7
 10
106.3807714782403
 20
390.9681769187633
 30
0.0
  0
VERTEX
  5
191
  8
1
  6
CONTINUOUS
 62
     7
 10
106.3747547798051
 20
390.9893599979902
 30
0.0
  0
VERTEX
  5
192
  8
1
  6
CONTINUOUS
 62
     7
 10
106.3703934559517
 20
391.0074584932198
 30
0.0
  0
VERTEX
  5
193
  8
1
  6
CONTINUOUS
 62
     7
 10
106.3667031270541
 20
391.0257054522953
 30
0.0
  0
VERTEX
  5
194
  8
1
  6
CONTINUOUS
 62
     7
 10
106.363691652818
 20
391.0440649126679
 30
0.0
  0
VERTEX
  5
195
  8
1
  6
CONTINUOUS
 62
     7
 10
106.3613398481488
 20
391.0627412946761
 30
0.0
  0
VERTEX
  5
196
  8
1
  6
CONTINUOUS
 62
     7
 10
106.3596902926325
 20
391.0814950565049
 30
0.0
  0
VERTEX
  5
197
  8
1
  6
CONTINUOUS
 62
     7
 10
106.3587472244217
 20
391.1002879929451
 30
0.0
  0
VERTEX
  5
198
  8
1
  6
CONTINUOUS
 62
     7
 10
106.3585828892601
 20
391.1069673112822
 30
0.0
  0
SEQEND
  5
24B
  8
1
  6
CONTINUOUS
 62
     7
  0
LINE
  5
8C
  8
1
  6
CONTINUOUS
 62
     7
 10
105.7998387925881
 20
390.7135830854787
 30
0.0
 11
106.5665511143837
 21
390.7068920884128
 31
0.0
  0
LINE
  5
8D
  8
1
  6
CONTINUOUS
 62
     7
 10
107.8801620464959
 20
368.5661237627272
 30
0.0
 11
107.2213348582236
 21
368.6006514325958
 31
0.0
  0
LINE
  5
8E
  8
1
  6
CONTINUOUS
 62
     7
 10
105.099838792588
 20
508.1219014492652
 30
0.0
 11
103.5954755248389
 21
508.1087730699183
 31
0.0
  0
LINE
  5
8F
  8
1
  6
CONTINUOUS
 62
     7
 10
103.5954755248389
 20
452.1350298286121
 30
0.0
 11
105.099838792588
 21
452.1219014492652
 31
0.0
  0
ARC
  5
90
  8
1
  6
CONTINUOUS
 62
     7
 10
103.599838792588
 20
452.6350107901442
 30
0.0
 40
0.5000000000000004
 50
180.0
 51
269.5000000000011
  0
ARC
  5
91
  8
1
  6
CONTINUOUS
 62
     7
 10
103.599838792588
 20
507.6087921083861
 30
0.0
 40
0.5000000000000571
 50
90.5000000000005
 51
180.0
  0
LINE
  5
92
  8
1
  6
CONTINUOUS
 62
     7
 10
105.599838792588
 20
452.1219014492652
 30
0.0
 11
105.599838792588
 21
391.1135830854839
 31
0.0
  0
LINE
  5
93
  8
1
  6
CONTINUOUS
 62
     7
 10
105.599838792588
 20
391.1135830854839
 30
0.0
 11
105.599838792588
 21
391.1133631826158
 31
0.0
  0
LINE
  5
94
  8
1
  6
CONTINUOUS
 62
     7
 10
105.599838792588
 20
514.0328188341962
 30
0.0
 11
105.599838792588
 21
508.1219014492653
 31
0.0
  0
ARC
  5
95
  8
1
  6
CONTINUOUS
 62
     7
 10
105.599838792588
 20
507.6219014492652
 30
0.0
 40
0.4999999999999449
 50
90.0
 51
180.0
  0
ARC
  5
96
  8
1
  6
CONTINUOUS
 62
     7
 10
105.599838792588
 20
452.6219014492652
 30
0.0
 40
0.5000000000000004
 50
180.0
 51
270.0
  0
ARC
  5
97
  8
1
  6
CONTINUOUS
 62
     7
 10
106.099838792588
 20
514.0328188341962
 30
0.0
 40
0.499999999999946
 50
90.5000000000005
 51
180.0
  0
LINE
  5
98
  8
1
  6
CONTINUOUS
 62
     7
 10
105.7998387925881
 20
390.7135830854787
 30
0.0
 11
105.7998387925881
 21
370.0985957347277
 31
0.0
  0
ARC
  5
99
  8
1
  6
CONTINUOUS
 62
     7
 10
106.099838792588
 20
391.1135830854835
 30
0.0
 40
0.5000000000000004
 50
180.0
 51
233.1301023544947
  0
ARC
  5
9A
  8
1
  6
CONTINUOUS
 62
     7
 10
107.299838792588
 20
370.0985957347277
 30
0.0
 40
1.500000000000001
 50
180.0
 51
267.0000000000001
  0
ENDBLK
  8
0
  0
BLOCK
  8
0
  2
D_FRAME_VIEW_1474
 70
     0
 10
0.0
 20
0.0
 30
0.0
  0
LINE
  5
A0
  8
1
  6
CONTINUOUS
 62
     7
 10
13.49999999999999
 20
331.1501612074119
 30
0.0
 11
69.49999999999999
 21
331.1501612074119
 31
0.0
  0
LINE
  5
A1
  8
1
  6
CONTINUOUS
 62
     7
 10
14.01310934087902
 20
333.1501612074119
 30
0.0
 11
68.98689065912095
 21
333.1501612074119
 31
0.0
  0
LINE
  5
A2
  8
1
  6
CONTINUOUS
 62
     7
 10
72.49999999999999
 20
281.6501612074119
 30
0.0
 11
72.45200222715081
 21
287.1501612074119
 31
0.0
  0
LINE
  5
A3
  8
1
  6
CONTINUOUS
 62
     7
 10
72.0000190384679
 20
281.6501612074119
 30
0.0
 11
72.49999999999999
 21
281.6501612074119
 31
0.0
  0
LINE
  5
A4
  8
1
  6
CONTINUOUS
 62
     7
 10
72.45200222715081
 20
287.1501612074119
 30
0.0
 11
71.95202126561873
 21
287.1501612074119
 31
0.0
  0
LINE
  5
A5
  8
1
  6
CONTINUOUS
 62
     7
 10
41.49999999999999
 20
286.6501612074119
 30
0.0
 11
40.99999999999999
 21
287.1501612074119
 31
0.0
  0
LINE
  5
A6
  8
1
  6
CONTINUOUS
 62
     7
 10
41.49999999999999
 20
286.6501612074119
 30
0.0
 11
41.99999999999999
 21
287.1501612074119
 31
0.0
  0
LINE
  5
A7
  8
1
  6
CONTINUOUS
 62
     7
 10
41.99999999999999
 20
287.1501612074119
 30
0.0
 11
71.95202126561873
 21
287.1501612074119
 31
0.0
  0
LINE
  5
A8
  8
1
  6
CONTINUOUS
 62
     7
 10
71.99999999999999
 20
281.6501612074119
 30
0.0
 11
41.99999999999999
 21
281.6501612074119
 31
0.0
  0
LINE
  5
A9
  8
1
  6
CONTINUOUS
 62
     7
 10
41.99999999999999
 20
281.6501612074119
 30
0.0
 11
40.99999999999997
 21
281.6501612074119
 31
0.0
  0
LINE
  5
AA
  8
1
  6
CONTINUOUS
 62
     7
 10
40.99999999999997
 20
281.6501612074119
 30
0.0
 11
10.99999999999999
 21
281.6501612074119
 31
0.0
  0
LINE
  5
AB
  8
1
  6
CONTINUOUS
 62
     7
 10
40.99999999999999
 20
287.1501612074119
 30
0.0
 11
11.04797873438125
 21
287.1501612074119
 31
0.0
  0
LINE
  5
AC
  8
1
  6
CONTINUOUS
 62
     7
 10
10.49999999999999
 20
281.6501612074119
 30
0.0
 11
10.54799777284916
 21
287.1501612074119
 31
0.0
  0
LINE
  5
AD
  8
1
  6
CONTINUOUS
 62
     7
 10
10.54799777284916
 20
287.1501612074119
 30
0.0
 11
11.04797873438125
 21
287.1501612074119
 31
0.0
  0
LINE
  5
AE
  8
1
  6
CONTINUOUS
 62
     7
 10
10.99998096153208
 20
281.6501612074119
 30
0.0
 11
10.49999999999999
 21
281.6501612074119
 31
0.0
  0
LINE
  5
AF
  8
1
  6
CONTINUOUS
 62
     7
 10
72.45200222715081
 20
287.1501612074119
 30
0.0
 11
74.30508139308283
 21
287.1501612074119
 31
0.0
  0
LINE
  5
B0
  8
1
  6
CONTINUOUS
 62
     7
 10
72.49999999999999
 20
281.6501612074119
 30
0.0
 11
74.353079165932
 21
281.6501612074119
 31
0.0
  0
LINE
  5
B1
  8
1
  6
CONTINUOUS
 62
     7
 10
10.54799777284916
 20
287.1501612074119
 30
0.0
 11
8.694918606917158
 21
287.1501612074119
 31
0.0
  0
LINE
  5
B2
  8
1
  6
CONTINUOUS
 62
     7
 10
10.49999999999999
 20
281.6501612074119
 30
0.0
 11
8.646920834067977
 21
281.6501612074119
 31
0.0
  0
LINE
  5
B3
  8
1
  6
CONTINUOUS
 62
     7
 10
12.97167001354736
 20
272.6501612074119
 30
0.0
 11
12.49999999999999
 21
281.6501612074119
 31
0.0
  0
LINE
  5
B4
  8
1
  6
CONTINUOUS
 62
     7
 10
10.49999999999999
 20
281.6501612074119
 30
0.0
 11
10.49999999999999
 21
270.6501612074119
 31
0.0
  0
LINE
  5
B5
  8
1
  6
CONTINUOUS
 62
     7
 10
10.99999999999999
 20
281.6501612074119
 30
0.0
 11
10.49999999999999
 21
281.6501612074119
 31
0.0
  0
LINE
  5
B6
  8
1
  6
CONTINUOUS
 62
     7
 10
10.99931476737728
 20
270.6501612074119
 30
0.0
 11
11.0
 21
270.6501612074119
 31
0.0
  0
LINE
  5
B7
  8
1
  6
CONTINUOUS
 62
     7
 10
10.9993150021497
 20
270.6501522541186
 30
0.0
 11
10.50000046922226
 21
270.6501522541186
 31
0.0
  0
LINE
  5
B8
  8
1
  6
CONTINUOUS
 62
     7
 10
41.5
 20
281.1501612074119
 30
0.0
 11
42.00000000000001
 21
281.6501612074119
 31
0.0
  0
LINE
  5
B9
  8
1
  6
CONTINUOUS
 62
     7
 10
42.00000000000001
 20
281.6501612074119
 30
0.0
 11
55.99931382700103
 21
281.6501612074119
 31
0.0
  0
LINE
  5
BA
  8
1
  6
CONTINUOUS
 62
     7
 10
56.4709838405484
 20
272.6501612074119
 30
0.0
 11
70.52901615945157
 21
272.6501612074119
 31
0.0
  0
LINE
  5
BB
  8
1
  6
CONTINUOUS
 62
     7
 10
71.00068617299895
 20
281.6501612074119
 30
0.0
 11
71.99999999999999
 21
281.6501612074119
 31
0.0
  0
LINE
  5
BC
  8
1
  6
CONTINUOUS
 62
     7
 10
71.99999999999999
 20
270.6501612074119
 30
0.0
 11
70.49999999999997
 21
270.6501612074119
 31
0.0
  0
LINE
  5
BD
  8
1
  6
CONTINUOUS
 62
     7
 10
41.99999999999993
 20
270.6501612074119
 30
0.0
 11
70.49999999999997
 21
270.6501612074119
 31
0.0
  0
LINE
  5
BE
  8
1
  6
CONTINUOUS
 62
     7
 10
41.49999999999998
 20
271.1501612074119
 30
0.0
 11
41.99999999999993
 21
270.6501612074119
 31
0.0
  0
LINE
  5
BF
  8
1
  6
CONTINUOUS
 62
     7
 10
41.00000000000001
 20
270.6501612074119
 30
0.0
 11
41.49999999999998
 21
271.1501612074118
 31
0.0
  0
LINE
  5
C0
  8
1
  6
CONTINUOUS
 62
     7
 10
11.0
 20
270.6501612074119
 30
0.0
 11
12.49999999999999
 21
270.6501612074119
 31
0.0
  0
LINE
  5
C1
  8
1
  6
CONTINUOUS
 62
     7
 10
40.99999999999997
 20
281.6501612074119
 30
0.0
 11
41.5
 21
281.1501612074119
 31
0.0
  0
LINE
  5
C2
  8
1
  6
CONTINUOUS
 62
     7
 10
11.99931382700103
 20
281.6501612074119
 30
0.0
 11
10.99999999999999
 21
281.6501612074119
 31
0.0
  0
LINE
  5
C3
  8
1
  6
CONTINUOUS
 62
     7
 10
27.00068617299895
 20
281.6501612074119
 30
0.0
 11
40.99999999999997
 21
281.6501612074119
 31
0.0
  0
LINE
  5
C4
  8
1
  6
CONTINUOUS
 62
     7
 10
26.52901615945158
 20
272.6501612074119
 30
0.0
 11
12.4709838405484
 21
272.6501612074119
 31
0.0
  0
LINE
  5
C5
  8
1
  6
CONTINUOUS
 62
     7
 10
12.49999999999999
 20
270.6501612074119
 30
0.0
 11
41.00000000000001
 21
270.6501612074119
 31
0.0
  0
LINE
  5
C6
  8
1
  6
CONTINUOUS
 62
     7
 10
10.49999999999999
 20
270.6501612074119
 30
0.0
 11
10.81444667569823
 21
264.6501612074118
 31
0.0
  0
LINE
  5
C7
  8
1
  6
CONTINUOUS
 62
     7
 10
26.49999999999999
 20
281.6501612074119
 30
0.0
 11
26.02832998645261
 21
272.6501612074119
 31
0.0
  0
LINE
  5
C8
  8
1
  6
CONTINUOUS
 62
     7
 10
12.49999999999999
 20
270.6501612074119
 30
0.0
 11
12.18555332430174
 21
264.6501612074118
 31
0.0
  0
LINE
  5
C9
  8
1
  6
CONTINUOUS
 62
     7
 10
70.02832998645262
 20
272.6501612074119
 30
0.0
 11
70.49999999999997
 21
281.6501612074119
 31
0.0
  0
LINE
  5
CA
  8
1
  6
CONTINUOUS
 62
     7
 10
72.00068499785027
 20
270.6501522541186
 30
0.0
 11
72.49999953077771
 21
270.6501522541186
 31
0.0
  0
LINE
  5
CB
  8
1
  6
CONTINUOUS
 62
     7
 10
72.00068523262269
 20
270.6501612074119
 30
0.0
 11
71.99999999999999
 21
270.6501612074119
 31
0.0
  0
LINE
  5
CC
  8
1
  6
CONTINUOUS
 62
     7
 10
71.99999999999999
 20
281.6501612074119
 30
0.0
 11
72.49999999999999
 21
281.6501612074119
 31
0.0
  0
LINE
  5
CD
  8
1
  6
CONTINUOUS
 62
     7
 10
72.49999999999999
 20
281.6501612074119
 30
0.0
 11
72.49999999999999
 21
270.6501612074119
 31
0.0
  0
LINE
  5
CE
  8
1
  6
CONTINUOUS
 62
     7
 10
56.49999999999999
 20
281.6501612074119
 30
0.0
 11
56.97167001354736
 21
272.6501612074119
 31
0.0
  0
LINE
  5
CF
  8
1
  6
CONTINUOUS
 62
     7
 10
70.49999999999997
 20
270.6501612074119
 30
0.0
 11
70.81444667569824
 21
264.6501612074118
 31
0.0
  0
LINE
  5
D0
  8
1
  6
CONTINUOUS
 62
     7
 10
72.49999999999999
 20
270.6501612074119
 30
0.0
 11
72.18555332430174
 21
264.6501612074118
 31
0.0
  0
LINE
  5
D1
  8
1
  6
CONTINUOUS
 62
     7
 10
10.49999999999999
 20
270.6501612074119
 30
0.0
 11
9.849954654103689
 21
270.6501612074119
 31
0.0
  0
LINE
  5
D2
  8
1
  6
CONTINUOUS
 62
     7
 10
10.49999999999999
 20
281.6501612074119
 30
0.0
 11
8.646920834067977
 21
281.6501612074119
 31
0.0
  0
LINE
  5
D3
  8
1
  6
CONTINUOUS
 62
     7
 10
72.49999999999999
 20
270.6501612074119
 30
0.0
 11
73.15004534589627
 21
270.6501612074119
 31
0.0
  0
LINE
  5
D4
  8
1
  6
CONTINUOUS
 62
     7
 10
72.49999999999999
 20
281.6501612074119
 30
0.0
 11
74.353079165932
 21
281.6501612074119
 31
0.0
  0
LINE
  5
D5
  8
1
  6
CONTINUOUS
 62
     7
 10
52.49999999999999
 20
270.6501612074119
 30
0.0
 11
52.20127565808665
 21
264.950161207412
 31
0.0
  0
LINE
  5
D6
  8
1
  6
CONTINUOUS
 62
     7
 10
30.49999999999999
 20
270.6501612074119
 30
0.0
 11
30.79872434191332
 21
264.950161207412
 31
0.0
  0
LINE
  5
D7
  8
1
  6
CONTINUOUS
 62
     7
 10
41.99999999999993
 20
270.6501612074119
 30
0.0
 11
41.00000000000001
 21
270.6501612074119
 31
0.0
  0
LINE
  5
D8
  8
1
  6
CONTINUOUS
 62
     7
 10
41.11715728752552
 20
264.6501612074119
 30
0.0
 11
41.88284271247464
 21
264.6501612074119
 31
0.0
  0
LINE
  5
D9
  8
1
  6
CONTINUOUS
 62
     7
 10
76.94124858130621
 20
305.9357593380808
 30
0.0
 11
77.3189962734365
 21
262.6501612074119
 31
0.0
  0
LINE
  5
DA
  8
1
  6
CONTINUOUS
 62
     7
 10
77.31899627343648
 20
262.6501612074119
 30
0.0
 11
75.81962424931412
 21
262.6501612074119
 31
0.0
  0
ARC
  5
DB
  8
1
  6
CONTINUOUS
 62
     7
 10
62.14181211995648
 20
305.8066066127049
 30
0.0
 40
12.0
 50
0.5
 51
43.5999164104
  0
LINE
  5
DC
  8
1
  6
CONTINUOUS
 62
     7
 10
58.49999999999996
 20
327.0318228691629
 30
0.0
 11
70.83188653034198
 21
314.0820284594727
 31
0.0
  0
ARC
  5
DD
  8
1
  6
CONTINUOUS
 62
     7
 10
41.49999999999999
 20
93.65016120741187
 30
0.0
 40
234.0
 50
85.83381578248017
 51
94.16618421751987
  0
LINE
  5
DE
  8
1
  6
CONTINUOUS
 62
     7
 10
24.50000000000001
 20
327.0318228691629
 30
0.0
 11
12.168113469658
 21
314.0820284594727
 31
0.0
  0
ARC
  5
DF
  8
1
  6
CONTINUOUS
 62
     7
 10
20.85818788004349
 20
305.8066066127049
 30
0.0
 40
12.0
 50
136.4000835896
 51
179.5
  0
LINE
  5
E0
  8
1
  6
CONTINUOUS
 62
     7
 10
8.858644803273453
 20
305.9113250386853
 30
0.0
 11
8.481110346043554
 21
262.6501612074119
 31
0.0
  0
LINE
  5
E1
  8
1
  6
CONTINUOUS
 62
     7
 10
74.14135519672652
 20
305.9113250386853
 30
0.0
 11
74.51888965395642
 21
262.6501612074119
 31
0.0
  0
LINE
  5
E2
  8
1
  6
CONTINUOUS
 62
     7
 10
8.481110346043554
 20
262.6501612074119
 30
0.0
 11
7.180375750685884
 21
262.6501612074119
 31
0.0
  0
LINE
  5
E3
  8
1
  6
CONTINUOUS
 62
     7
 10
74.51888965395642
 20
262.6501612074118
 30
0.0
 11
75.81962424931412
 21
262.6501612074118
 31
0.0
  0
LINE
  5
E4
  8
1
  6
CONTINUOUS
 62
     7
 10
5.68100372656348
 20
262.6501612074119
 30
0.0
 11
6.058751418693769
 21
305.9357593380808
 31
0.0
  0
LINE
  5
E5
  8
1
  6
CONTINUOUS
 62
     7
 10
7.180375750685884
 20
262.6501612074119
 30
0.0
 11
5.6810037265635
 21
262.6501612074119
 31
0.0
  0
ARC
  5
E6
  8
1
  6
CONTINUOUS
 62
     7
 10
20.85818788004349
 20
305.8066066127049
 30
0.0
 40
14.8
 50
136.4000835895999
 51
179.5
  0
ARC
  5
E7
  8
1
  6
CONTINUOUS
 62
     7
 10
62.14181211995648
 20
305.8066066127049
 30
0.0
 40
14.8
 50
0.4999999999999432
 51
43.5999164104
  0
LINE
  5
E8
  8
1
  6
CONTINUOUS
 62
     7
 10
59.78419928260065
 20
329.7432107802321
 30
0.0
 11
59.78448924034217
 21
329.7431883243088
 31
0.0
  0
LINE
  5
E9
  8
1
  6
CONTINUOUS
 62
     7
 10
59.78448924034217
 20
329.7431883243088
 30
0.0
 11
72.85957055943192
 21
316.0129602237186
 31
0.0
  0
LINE
  5
EA
  8
1
  6
CONTINUOUS
 62
     7
 10
10.14042944056806
 20
316.0129602237186
 30
0.0
 11
23.2155107596578
 21
329.7431883243088
 31
0.0
  0
LINE
  5
EB
  8
1
  6
CONTINUOUS
 62
     7
 10
23.2155107596578
 20
329.7431883243088
 30
0.0
 11
23.21580071739924
 21
329.7432107802321
 31
0.0
  0
ARC
  5
EC
  8
1
  6
CONTINUOUS
 62
     7
 10
41.49999999999999
 20
93.65016120741187
 30
0.0
 40
236.8
 50
85.57157424968796
 51
94.42842575031216
  0
LINE
  5
ED
  8
1
  6
CONTINUOUS
 62
     7
 10
60.54014463752949
 20
329.6834488856162
 30
0.0
 11
60.87536377392577
 21
329.3595207705898
 31
0.0
  0
LINE
  5
EE
  8
1
  6
CONTINUOUS
 62
     7
 10
59.78448924034224
 20
329.7431883243087
 30
0.0
 11
59.85391771362482
 21
329.7378010883712
 31
0.0
  0
LINE
  5
EF
  8
1
  6
CONTINUOUS
 62
     7
 10
59.85391771362482
 20
329.7378010883712
 30
0.0
 11
60.54014463752957
 21
329.6834488856162
 31
0.0
  0
LINE
  5
F0
  8
1
  6
CONTINUOUS
 62
     7
 10
22.45985536429996
 20
329.6834488857638
 30
0.0
 11
23.14860474958201
 21
329.7379971760677
 31
0.0
  0
LINE
  5
F1
  8
1
  6
CONTINUOUS
 62
     7
 10
23.14860474958201
 20
329.7379971760677
 30
0.0
 11
23.20948918385148
 21
329.7427218993672
 31
0.0
  0
LINE
  5
F2
  8
1
  6
CONTINUOUS
 62
     7
 10
23.20948918385148
 20
329.7427218993672
 30
0.0
 11
23.21551075965775
 21
329.7431883243088
 31
0.0
  0
LINE
  5
F3
  8
1
  6
CONTINUOUS
 62
     7
 10
78.93622486963837
 20
327.2523923720254
 30
0.0
 11
79.49999999999999
 21
262.6501612074118
 31
0.0
  0
LINE
  5
F4
  8
1
  6
CONTINUOUS
 62
     7
 10
79.49999999999999
 20
262.6501612074119
 30
0.0
 11
78.02909050994971
 21
262.6501612074119
 31
0.0
  0
ARC
  5
F5
  8
1
  6
CONTINUOUS
 62
     7
 10
41.49992677870836
 20
93.6495875165191
 30
0.0
 40
237.0005780866343
 50
81.01484536923543
 51
84.43825870147731
  0
ARC
  5
F6
  8
1
  6
CONTINUOUS
 62
     7
 10
78.43624390810629
 20
327.2480291042762
 30
0.0
 40
0.4999999999999981
 50
0.500000000003638
 51
81.01484119282532
  0
LINE
  5
F7
  8
1
  6
CONTINUOUS
 62
     7
 10
3.499999999999989
 20
262.6501612074119
 30
0.0
 11
4.063775130361602
 21
327.2523923720254
 31
0.0
  0
LINE
  5
F8
  8
1
  6
CONTINUOUS
 62
     7
 10
4.970909489986824
 20
262.6501612074119
 30
0.0
 11
3.499999999999982
 21
262.6501612074119
 31
0.0
  0
ARC
  5
F9
  8
1
  6
CONTINUOUS
 62
     7
 10
4.563756091893696
 20
327.2480291042762
 30
0.0
 40
0.5000000000000018
 50
98.9851588071747
 51
179.4999999999964
  0
ARC
  5
FA
  8
1
  6
CONTINUOUS
 62
     7
 10
41.50000000000323
 20
93.65016120738831
 30
0.0
 40
237.0000000000238
 50
95.56173712211263
 51
98.98515880717461
  0
LINE
  5
FB
  8
1
  6
CONTINUOUS
 62
     7
 10
22.45985536429996
 20
329.6834488857638
 30
0.0
 11
22.55088368496118
 21
329.8914171109461
 31
0.0
  0
LINE
  5
FC
  8
1
  6
CONTINUOUS
 62
     7
 10
60.54014463752957
 20
329.6834488856162
 30
0.0
 11
60.44911631760952
 21
329.8914171107399
 31
0.0
  0
ARC
  5
FD
  8
1
  6
CONTINUOUS
 62
     7
 10
41.50000000000002
 20
93.63663473257472
 30
0.0
 40
237.0134831729462
 50
85.41433533890994
 51
94.5856646604667
  0
ARC
  5
FE
  8
1
  6
CONTINUOUS
 62
     7
 10
41.49999999999999
 20
93.65016120741187
 30
0.0
 40
237.0
 50
94.69924801804041
 51
95.56173712211235
  0
ARC
  5
FF
  8
1
  6
CONTINUOUS
 62
     7
 10
41.49999999999999
 20
93.65016120741187
 30
0.0
 40
237.0
 50
84.43826287788767
 51
85.30075198053026
  0
LINE
  5
100
  8
1
  6
CONTINUOUS
 62
     7
 10
60.44911631760952
 20
329.8914171107399
 30
0.0
 11
60.91632648803547
 21
329.8534767339091
 31
0.0
  0
LINE
  5
101
  8
1
  6
CONTINUOUS
 62
     7
 10
22.08367351785706
 20
329.8534767343934
 30
0.0
 11
22.55088368496118
 21
329.8914171109461
 31
0.0
  0
LINE
  5
102
  8
1
  6
CONTINUOUS
 62
     7
 10
78.02909050994971
 20
262.6501612074119
 30
0.0
 11
77.36337716321856
 21
262.6501612074119
 31
0.0
  0
LINE
  5
103
  8
1
  6
CONTINUOUS
 62
     7
 10
77.36337716321856
 20
262.6501612074119
 30
0.0
 11
77.31899627343648
 21
262.6501612074119
 31
0.0
  0
LINE
  5
104
  8
1
  6
CONTINUOUS
 62
     7
 10
5.6810037265635
 20
262.6501612074119
 30
0.0
 11
5.636622836777468
 21
262.6501612074119
 31
0.0
  0
LINE
  5
105
  8
1
  6
CONTINUOUS
 62
     7
 10
5.636622836777468
 20
262.6501612074119
 30
0.0
 11
4.970909489986831
 21
262.6501612074119
 31
0.0
  0
LINE
  5
106
  8
1
  6
CONTINUOUS
 62
     7
 10
30.48687162065307
 20
264.1545244751611
 30
0.0
 11
30.49999999999999
 21
262.6501612074119
 31
0.0
  0
LINE
  5
107
  8
1
  6
CONTINUOUS
 62
     7
 10
30.49999999999999
 20
262.6501612074119
 30
0.0
 11
29.49999999999998
 21
262.6501612074119
 31
0.0
  0
LINE
  5
108
  8
1
  6
CONTINUOUS
 62
     7
 10
52.49999999999999
 20
262.6501612074119
 30
0.0
 11
52.51312837934692
 21
264.1545244751611
 31
0.0
  0
LINE
  5
109
  8
1
  6
CONTINUOUS
 62
     7
 10
53.49999999999999
 20
262.6501612074119
 30
0.0
 11
52.49999999999999
 21
262.6501612074119
 31
0.0
  0
LINE
  5
10A
  8
1
  6
CONTINUOUS
 62
     7
 10
25.49999999999999
 20
262.6501612074119
 30
0.0
 11
25.51312837934691
 21
264.1545244751611
 31
0.0
  0
LINE
  5
10B
  8
1
  6
CONTINUOUS
 62
     7
 10
26.49999999999999
 20
262.6501612074119
 30
0.0
 11
25.49999999999999
 21
262.6501612074119
 31
0.0
  0
LINE
  5
10C
  8
1
  6
CONTINUOUS
 62
     7
 10
57.48687162065306
 20
264.1545244751611
 30
0.0
 11
57.49999999999999
 21
262.6501612074119
 31
0.0
  0
LINE
  5
10D
  8
1
  6
CONTINUOUS
 62
     7
 10
57.49999999999999
 20
262.6501612074119
 30
0.0
 11
56.49999999999999
 21
262.6501612074119
 31
0.0
  0
LINE
  5
10E
  8
1
  6
CONTINUOUS
 62
     7
 10
53.49999999999999
 20
262.6501612074119
 30
0.0
 11
56.49999999999999
 21
262.6501612074119
 31
0.0
  0
LINE
  5
10F
  8
1
  6
CONTINUOUS
 62
     7
 10
29.49999999999998
 20
262.6501612074119
 30
0.0
 11
26.49999999999999
 21
262.6501612074119
 31
0.0
  0
LINE
  5
110
  8
1
  6
CONTINUOUS
 62
     7
 10
29.49999999999998
 20
264.6501612074119
 30
0.0
 11
29.98689065912098
 21
264.6501612074119
 31
0.0
  0
ARC
  5
111
  8
1
  6
CONTINUOUS
 62
     7
 10
29.98689065912098
 20
264.1501612074118
 30
0.0
 40
0.5000000000000004
 50
0.5
 51
90.0
  0
LINE
  5
112
  8
1
  6
CONTINUOUS
 62
     7
 10
26.01310934087899
 20
264.6501612074119
 30
0.0
 11
26.49999999999999
 21
264.6501612074119
 31
0.0
  0
ARC
  5
113
  8
1
  6
CONTINUOUS
 62
     7
 10
26.01310934087899
 20
264.1501612074118
 30
0.0
 40
0.5000000000000004
 50
90.0
 51
179.5
  0
LINE
  5
114
  8
1
  6
CONTINUOUS
 62
     7
 10
56.49999999999999
 20
264.6501612074119
 30
0.0
 11
56.98689065912098
 21
264.6501612074119
 31
0.0
  0
ARC
  5
115
  8
1
  6
CONTINUOUS
 62
     7
 10
56.98689065912098
 20
264.1501612074118
 30
0.0
 40
0.5000000000000004
 50
0.5
 51
90.0
  0
LINE
  5
116
  8
1
  6
CONTINUOUS
 62
     7
 10
53.01310934087899
 20
264.6501612074119
 30
0.0
 11
53.49999999999999
 21
264.6501612074119
 31
0.0
  0
ARC
  5
117
  8
1
  6
CONTINUOUS
 62
     7
 10
53.013109340879
 20
264.1501612074118
 30
0.0
 40
0.5000000000000004
 50
90.0000000000008
 51
179.5
  0
LINE
  5
118
  8
1
  6
CONTINUOUS
 62
     7
 10
53.49999999999999
 20
264.6501612074119
 30
0.0
 11
56.49999999999999
 21
264.6501612074119
 31
0.0
  0
LINE
  5
119
  8
1
  6
CONTINUOUS
 62
     7
 10
26.49999999999999
 20
264.6501612074119
 30
0.0
 11
29.49999999999998
 21
264.6501612074119
 31
0.0
  0
LINE
  5
11A
  8
1
  6
CONTINUOUS
 62
     7
 10
74.00000000000001
 20
262.6501612074119
 30
0.0
 11
73.49999999709988
 21
262.6501612074119
 31
0.0
  0
LINE
  5
11B
  8
1
  6
CONTINUOUS
 62
     7
 10
25.49999999999999
 20
262.6501612074119
 30
0.0
 11
9.500000002900098
 21
262.6501612074119
 31
0.0
  0
LINE
  5
11C
  8
1
  6
CONTINUOUS
 62
     7
 10
73.49999999709988
 20
262.6501612074119
 30
0.0
 11
57.49999999999999
 21
262.6501612074119
 31
0.0
  0
LINE
  5
11D
  8
1
  6
CONTINUOUS
 62
     7
 10
9.500000002900098
 20
262.6501612074119
 30
0.0
 11
8.999999999999995
 21
262.6501612074119
 31
0.0
  0
LINE
  5
11E
  8
1
  6
CONTINUOUS
 62
     7
 10
52.49999999999999
 20
262.6501612074119
 30
0.0
 11
30.49999999999999
 21
262.6501612074119
 31
0.0
  0
LINE
  5
11F
  8
1
  6
CONTINUOUS
 62
     7
 10
41.50000000000001
 20
264.2396239361621
 30
0.0
 11
41.50000000000001
 21
264.0690638020371
 31
0.0
  0
LINE
  5
120
  8
1
  6
CONTINUOUS
 62
     7
 10
41.25857864376282
 20
264.5915825636492
 30
0.0
 11
41.50000000000001
 21
264.350161207412
 31
0.0
  0
LINE
  5
121
  8
1
  6
CONTINUOUS
 62
     7
 10
41.50000000000004
 20
264.3501612074119
 30
0.0
 11
41.50000000000001
 21
264.239623936162
 31
0.0
  0
ARC
  5
122
  8
1
  6
CONTINUOUS
 62
     7
 10
41.11715728752552
 20
264.4501612074119
 30
0.0
 40
0.1999999999999954
 50
45.00000000000002
 51
90.00000000000004
  0
LINE
  5
123
  8
1
  6
CONTINUOUS
 62
     7
 10
56.98689065912098
 20
264.6501612074119
 30
0.0
 11
73.47374123858572
 21
264.6501612074119
 31
0.0
  0
ARC
  5
124
  8
1
  6
CONTINUOUS
 62
     7
 10
41.88284271247451
 20
264.4501612074119
 30
0.0
 40
0.1999999999999995
 50
106.87350499576
 51
110.1484352341284
  0
ARC
  5
125
  8
1
  6
CONTINUOUS
 62
     7
 10
41.88284271247451
 20
264.4501612074119
 30
0.0
 40
0.1999999999999971
 50
110.1484352341282
 51
134.9999999999748
  0
ARC
  5
126
  8
1
  6
CONTINUOUS
 62
     7
 10
41.88284271247451
 20
264.4501612074119
 30
0.0
 40
0.1999999999999988
 50
89.99999999999949
 51
106.87350499576
  0
LINE
  5
127
  8
1
  6
CONTINUOUS
 62
     7
 10
41.50000000000006
 20
264.350161207412
 30
0.0
 11
41.69536656504811
 21
264.5455277724601
 31
0.0
  0
LINE
  5
128
  8
1
  6
CONTINUOUS
 62
     7
 10
9.526258761414281
 20
264.6501612074119
 30
0.0
 11
26.01310934087899
 21
264.6501612074119
 31
0.0
  0
LINE
  5
129
  8
1
  6
CONTINUOUS
 62
     7
 10
29.98689065912098
 20
264.6501612074119
 30
0.0
 11
41.11715728752552
 21
264.6501612074119
 31
0.0
  0
LINE
  5
12A
  8
1
  6
CONTINUOUS
 62
     7
 10
41.88284271247451
 20
264.6501612074119
 30
0.0
 11
53.013109340879
 21
264.6501612074119
 31
0.0
  0
LINE
  5
12B
  8
1
  6
CONTINUOUS
 62
     7
 10
9.526258761414281
 20
264.6501612074119
 30
0.0
 11
9.387575145006952
 21
264.6501612074119
 31
0.0
  0
LINE
  5
12C
  8
1
  6
CONTINUOUS
 62
     7
 10
8.932432432432433
 20
262.6501612074119
 30
0.0
 11
9.0
 21
262.6501612074119
 31
0.0
  0
LINE
  5
12D
  8
1
  6
CONTINUOUS
 62
     7
 10
73.61242485499305
 20
264.6501612074119
 30
0.0
 11
73.47374123858572
 21
264.6501612074119
 31
0.0
  0
LINE
  5
12E
  8
1
  6
CONTINUOUS
 62
     7
 10
74.0
 20
262.6501612074119
 30
0.0
 11
74.06756756756758
 21
262.6501612074119
 31
0.0
  0
LINE
  5
12F
  8
1
  6
CONTINUOUS
 62
     7
 10
8.932432432432448
 20
262.6501612074119
 30
0.0
 11
8.481110346043597
 21
262.6501612074119
 31
0.0
  0
LINE
  5
130
  8
1
  6
CONTINUOUS
 62
     7
 10
74.06756756756755
 20
262.6501612074119
 30
0.0
 11
74.51888965395642
 21
262.6501612074119
 31
0.0
  0
LINE
  5
131
  8
1
  6
CONTINUOUS
 62
     7
 10
8.498564081625103
 20
264.6501612074119
 30
0.0
 11
9.387575145006988
 21
264.6501612074119
 31
0.0
  0
LINE
  5
132
  8
1
  6
CONTINUOUS
 62
     7
 10
73.61242485499304
 20
264.6501612074119
 30
0.0
 11
74.50143591837488
 21
264.6501612074119
 31
0.0
  0
LINE
  5
133
  8
1
  6
CONTINUOUS
 62
     7
 10
72.62511336474073
 20
264.6501612074119
 30
0.0
 11
73.41670564266384
 21
273.6981023465349
 31
0.0
  0
LINE
  5
134
  8
1
  6
CONTINUOUS
 62
     7
 10
9.583294357336133
 20
273.6981023465349
 30
0.0
 11
10.37488663525923
 21
264.6501612074119
 31
0.0
  0
LINE
  5
135
  8
1
  6
CONTINUOUS
 62
     7
 10
73.95816558700868
 20
274.6501612074119
 30
0.0
 11
74.41416724046732
 21
274.6501612074119
 31
0.0
  0
LINE
  5
136
  8
1
  6
CONTINUOUS
 62
     7
 10
73.45071328037815
 20
274.0868114243028
 30
0.0
 11
73.46006823796282
 21
274.1937390787857
 31
0.0
  0
ARC
  5
137
  8
1
  6
CONTINUOUS
 62
     7
 10
73.95816558700868
 20
274.1501612074119
 30
0.0
 40
0.4999999999999997
 50
139.6209522597182
 51
175.0000000000001
  0
LINE
  5
138
  8
1
  6
CONTINUOUS
 62
     7
 10
73.41670564266384
 20
273.6981023465349
 30
0.0
 11
73.45071328037815
 21
274.0868114243029
 31
0.0
  0
ARC
  5
139
  8
1
  6
CONTINUOUS
 62
     7
 10
73.95816558700868
 20
274.1501612074119
 30
0.0
 40
0.5000000000000004
 50
90.0
 51
121.8582205219896
  0
LINE
  5
13A
  8
1
  6
CONTINUOUS
 62
     7
 10
8.585832759532668
 20
274.6501612074119
 30
0.0
 11
9.041834412991285
 21
274.6501612074119
 31
0.0
  0
LINE
  5
13B
  8
1
  6
CONTINUOUS
 62
     7
 10
9.539931762037156
 20
274.1937390787857
 30
0.0
 11
9.583294357336138
 21
273.6981023465348
 31
0.0
  0
ARC
  5
13C
  8
1
  6
CONTINUOUS
 62
     7
 10
9.041834412991285
 20
274.1501612074119
 30
0.0
 40
0.4999999999999988
 50
4.999999999999992
 51
90.00000000000004
  0
LINE
  5
13D
  8
1
  6
CONTINUOUS
 62
     7
 10
69.49999999999999
 20
331.1501612074119
 30
0.0
 11
69.48687162065306
 21
332.6545244751611
 31
0.0
  0
LINE
  5
13E
  8
1
  6
CONTINUOUS
 62
     7
 10
13.51312837934691
 20
332.6545244751611
 30
0.0
 11
13.49999999999999
 21
331.1501612074119
 31
0.0
  0
ARC
  5
13F
  8
1
  6
CONTINUOUS
 62
     7
 10
14.01310934087899
 20
332.6501612074119
 30
0.0
 40
0.5000000000000004
 50
90.0
 51
179.4999999999995
  0
ARC
  5
140
  8
1
  6
CONTINUOUS
 62
     7
 10
68.98689065912097
 20
332.6501612074119
 30
0.0
 40
0.5000000000000016
 50
0.5000000000004787
 51
90.0
  0
LINE
  5
141
  8
1
  6
CONTINUOUS
 62
     7
 10
69.49999999999999
 20
328.9903405223772
 30
0.0
 11
69.49999999999999
 21
330.6501612074119
 31
0.0
  0
ARC
  5
142
  8
1
  6
CONTINUOUS
 62
     7
 10
68.99999999999999
 20
330.6501612074119
 30
0.0
 40
0.5000000000000004
 50
0.0
 51
90.0
  0
ARC
  5
143
  8
1
  6
CONTINUOUS
 62
     7
 10
13.99999999999999
 20
330.6501612074119
 30
0.0
 40
0.5000000000000004
 50
90.0
 51
180.0
  0
LINE
  5
144
  8
1
  6
CONTINUOUS
 62
     7
 10
13.49999999999999
 20
330.6501612074119
 30
0.0
 11
13.49999999999999
 21
328.9909617366068
 31
0.0
  0
LINE
  5
145
  8
1
  6
CONTINUOUS
 62
     7
 10
41.82479077025209
 20
264.6415507891595
 30
0.0
 11
41.6953732155612
 21
264.5455344199939
 31
0.0
  0
POLYLINE
  5
146
  8
1
  6
CONTINUOUS
 62
     7
 66
     1
 10
0.0
 20
0.0
 30
0.0
  0
VERTEX
  5
199
  8
1
  6
CONTINUOUS
 62
     7
 10
73.69428308183478
 20
274.5748564197337
 30
0.0
  0
VERTEX
  5
19A
  8
1
  6
CONTINUOUS
 62
     7
 10
73.6823933477279
 20
274.5672331921602
 30
0.0
  0
VERTEX
  5
19B
  8
1
  6
CONTINUOUS
 62
     7
 10
73.66579737890606
 20
274.5557676182383
 30
0.0
  0
VERTEX
  5
19C
  8
1
  6
CONTINUOUS
 62
     7
 10
73.64950151850395
 20
274.5434986141555
 30
0.0
  0
VERTEX
  5
19D
  8
1
  6
CONTINUOUS
 62
     7
 10
73.63046644534285
 20
274.5277646109075
 30
0.0
  0
VERTEX
  5
19E
  8
1
  6
CONTINUOUS
 62
     7
 10
73.61213206283665
 20
274.5110010511289
 30
0.0
  0
VERTEX
  5
19F
  8
1
  6
CONTINUOUS
 62
     7
 10
73.59462645652462
 20
274.4933028854725
 30
0.0
  0
VERTEX
  5
1A0
  8
1
  6
CONTINUOUS
 62
     7
 10
73.57806185641405
 20
274.4747813282485
 30
0.0
  0
VERTEX
  5
1A1
  8
1
  6
CONTINUOUS
 62
     7
 10
73.56253281348671
 20
274.4555619446397
 30
0.0
  0
VERTEX
  5
1A2
  8
1
  6
CONTINUOUS
 62
     7
 10
73.5504380075354
 20
274.4391117813264
 30
0.0
  0
VERTEX
  5
1A3
  8
1
  6
CONTINUOUS
 62
     7
 10
73.53914805167733
 20
274.4223574790416
 30
0.0
  0
VERTEX
  5
1A4
  8
1
  6
CONTINUOUS
 62
     7
 10
73.52868594738298
 20
274.4053877250414
 30
0.0
  0
VERTEX
  5
1A5
  8
1
  6
CONTINUOUS
 62
     7
 10
73.51906463151538
 20
274.3882938607321
 30
0.0
  0
VERTEX
  5
1A6
  8
1
  6
CONTINUOUS
 62
     7
 10
73.51028705401167
 20
274.3711688378515
 30
0.0
  0
VERTEX
  5
1A7
  8
1
  6
CONTINUOUS
 62
     7
 10
73.5023464174047
 20
274.3541061913343
 30
0.0
  0
VERTEX
  5
1A8
  8
1
  6
CONTINUOUS
 62
     7
 10
73.49522657382413
 20
274.3371990472365
 30
0.0
  0
VERTEX
  5
1A9
  8
1
  6
CONTINUOUS
 62
     7
 10
73.48890257216284
 20
274.3205391819643
 30
0.0
  0
VERTEX
  5
1AA
  8
1
  6
CONTINUOUS
 62
     7
 10
73.4833413456048
 20
274.3042161463579
 30
0.0
  0
VERTEX
  5
1AB
  8
1
  6
CONTINUOUS
 62
     7
 10
73.47850252777171
 20
274.2883164649828
 30
0.0
  0
VERTEX
  5
1AC
  8
1
  6
CONTINUOUS
 62
     7
 10
73.4743393844154
 20
274.2729229173324
 30
0.0
  0
VERTEX
  5
1AD
  8
1
  6
CONTINUOUS
 62
     7
 10
73.47079984689668
 20
274.2581139036001
 30
0.0
  0
VERTEX
  5
1AE
  8
1
  6
CONTINUOUS
 62
     7
 10
73.46826747997275
 20
274.246179964263
 30
0.0
  0
VERTEX
  5
1AF
  8
1
  6
CONTINUOUS
 62
     7
 10
73.46610041176461
 20
274.2347510223208
 30
0.0
  0
VERTEX
  5
1B0
  8
1
  6
CONTINUOUS
 62
     7
 10
73.46426260611969
 20
274.2238648284634
 30
0.0
  0
VERTEX
  5
1B1
  8
1
  6
CONTINUOUS
 62
     7
 10
73.46271759221897
 20
274.2135561130546
 30
0.0
  0
VERTEX
  5
1B2
  8
1
  6
CONTINUOUS
 62
     7
 10
73.46168535953181
 20
274.20588220486
 30
0.0
  0
VERTEX
  5
1B3
  8
1
  6
CONTINUOUS
 62
     7
 10
73.46079407610189
 20
274.1985982441397
 30
0.0
  0
VERTEX
  5
1B4
  8
1
  6
CONTINUOUS
 62
     7
 10
73.46002683065741
 20
274.1917168214762
 30
0.0
  0
VERTEX
  5
1B5
  8
1
  6
CONTINUOUS
 62
     7
 10
73.45936733266558
 20
274.1852491841648
 30
0.0
  0
VERTEX
  5
1B6
  8
1
  6
CONTINUOUS
 62
     7
 10
73.45892993271497
 20
274.1806310198874
 30
0.0
  0
VERTEX
  5
1B7
  8
1
  6
CONTINUOUS
 62
     7
 10
73.45853909606895
 20
274.176259752744
 30
0.0
  0
VERTEX
  5
1B8
  8
1
  6
CONTINUOUS
 62
     7
 10
73.45818851262608
 20
274.1721346812396
 30
0.0
  0
VERTEX
  5
1B9
  8
1
  6
CONTINUOUS
 62
     7
 10
73.45787153541825
 20
274.1682431357931
 30
0.0
  0
VERTEX
  5
1BA
  8
1
  6
CONTINUOUS
 62
     7
 10
73.45758217568815
 20
274.1645701876135
 30
0.0
  0
VERTEX
  5
1BB
  8
1
  6
CONTINUOUS
 62
     7
 10
73.45731523072557
 20
274.1611008371171
 30
0.0
  0
VERTEX
  5
1BC
  8
1
  6
CONTINUOUS
 62
     7
 10
73.45694720177181
 20
274.1562456711659
 30
0.0
  0
VERTEX
  5
1BD
  8
1
  6
CONTINUOUS
 62
     7
 10
73.4566071689325
 20
274.1517640777537
 30
0.0
  0
VERTEX
  5
1BE
  8
1
  6
CONTINUOUS
 62
     7
 10
73.45628542550592
 20
274.1476056114412
 30
0.0
  0
VERTEX
  5
1BF
  8
1
  6
CONTINUOUS
 62
     7
 10
73.45597459330162
 20
274.1437203137128
 30
0.0
  0
VERTEX
  5
1C0
  8
1
  6
CONTINUOUS
 62
     7
 10
73.45499881048018
 20
274.1325557751246
 30
0.0
  0
VERTEX
  5
1C1
  8
1
  6
CONTINUOUS
 62
     7
 10
73.45399214132237
 20
274.122158912031
 30
0.0
  0
VERTEX
  5
1C2
  8
1
  6
CONTINUOUS
 62
     7
 10
73.45291913697702
 20
274.1111684423416
 30
0.0
  0
VERTEX
  5
1C3
  8
1
  6
CONTINUOUS
 62
     7
 10
73.45174334374553
 20
274.0984642961611
 30
0.0
  0
VERTEX
  5
1C4
  8
1
  6
CONTINUOUS
 62
     7
 10
73.45073229079611
 20
274.0870277950115
 30
0.0
  0
SEQEND
  5
24C
  8
1
  6
CONTINUOUS
 62
     7
  0
ENDBLK
  8
0
  0
BLOCK
  8
0
  2
D_FRAME_VIEW_1797
 70
     0
 10
0.0
 20
0.0
 30
0.0
  0
CIRCLE
  5
14B
  8
1
  6
CONTINUOUS
 62
     7
 10
41.49999999999999
 20
480.1219014492651
 30
0.0
 40
18.75
  0
CIRCLE
  5
14C
  8
1
  6
CONTINUOUS
 62
     7
 10
41.49999999999999
 20
480.1219014492651
 30
0.0
 40
28.0
  0
LINE
  5
14D
  8
1
  6
CONTINUOUS
 62
     7
 10
60.54014463752952
 20
390.7068920884128
 30
0.0
 11
22.45985536429995
 21
390.7068920884141
 31
0.0
  0
LINE
  5
14E
  8
1
  6
CONTINUOUS
 62
     7
 10
22.45985536429996
 20
390.7068920884141
 30
0.0
 11
22.55088368496118
 21
391.1069673112834
 31
0.0
  0
LINE
  5
14F
  8
1
  6
CONTINUOUS
 62
     7
 10
60.54014463752957
 20
390.7068920884128
 30
0.0
 11
60.44911631760952
 21
391.1069673112822
 31
0.0
  0
LINE
  5
150
  8
1
  6
CONTINUOUS
 62
     7
 10
23.2155107596578
 20
370.085944464633
 30
0.0
 11
23.21580071739924
 21
370.061780722611
 31
0.0
  0
LINE
  5
151
  8
1
  6
CONTINUOUS
 62
     7
 10
23.2155107596578
 20
370.085944464633
 30
0.0
 11
23.2155107596578
 21
390.2104031931244
 31
0.0
  0
POLYLINE
  5
152
  8
1
  6
CONTINUOUS
 62
     7
 66
     1
 10
0.0
 20
0.0
 30
0.0
  0
VERTEX
  5
1C7
  8
1
  6
CONTINUOUS
 62
     7
 10
22.45985536429996
 20
390.7068920884141
 30
0.0
  0
VERTEX
  5
1C8
  8
1
  6
CONTINUOUS
 62
     7
 10
22.50753472489457
 20
390.7059912000598
 30
0.0
  0
VERTEX
  5
1C9
  8
1
  6
CONTINUOUS
 62
     7
 10
22.55518069273323
 20
390.7031940075419
 30
0.0
  0
VERTEX
  5
1CA
  8
1
  6
CONTINUOUS
 62
     7
 10
22.60267123422152
 20
390.6984593638358
 30
0.0
  0
VERTEX
  5
1CB
  8
1
  6
CONTINUOUS
 62
     7
 10
22.64988431576502
 20
390.6917461219158
 30
0.0
  0
VERTEX
  5
1CC
  8
1
  6
CONTINUOUS
 62
     7
 10
22.69822699893594
 20
390.6826888814346
 30
0.0
  0
VERTEX
  5
1CD
  8
1
  6
CONTINUOUS
 62
     7
 10
22.74615454228161
 20
390.6713742915325
 30
0.0
  0
VERTEX
  5
1CE
  8
1
  6
CONTINUOUS
 62
     7
 10
22.79346340412712
 20
390.6577262505396
 30
0.0
  0
VERTEX
  5
1CF
  8
1
  6
CONTINUOUS
 62
     7
 10
22.83995004279755
 20
390.6416686567863
 30
0.0
  0
VERTEX
  5
1D0
  8
1
  6
CONTINUOUS
 62
     7
 10
22.87345296118361
 20
390.6282907293602
 30
0.0
  0
VERTEX
  5
1D1
  8
1
  6
CONTINUOUS
 62
     7
 10
22.90644535097604
 20
390.6134662885094
 30
0.0
  0
VERTEX
  5
1D2
  8
1
  6
CONTINUOUS
 62
     7
 10
22.9387696665292
 20
390.5971638598543
 30
0.0
  0
VERTEX
  5
1D3
  8
1
  6
CONTINUOUS
 62
     7
 10
22.97026836219748
 20
390.5793519690158
 30
0.0
  0
VERTEX
  5
1D4
  8
1
  6
CONTINUOUS
 62
     7
 10
23.00078389233524
 20
390.5599991416143
 30
0.0
  0
VERTEX
  5
1D5
  8
1
  6
CONTINUOUS
 62
     7
 10
23.03015871129687
 20
390.5390739032703
 30
0.0
  0
VERTEX
  5
1D6
  8
1
  6
CONTINUOUS
 62
     7
 10
23.05175587984932
 20
390.5219853456761
 30
0.0
  0
VERTEX
  5
1D7
  8
1
  6
CONTINUOUS
 62
     7
 10
23.07255107184118
 20
390.5039025323803
 30
0.0
  0
VERTEX
  5
1D8
  8
1
  6
CONTINUOUS
 62
     7
 10
23.0924249488692
 20
390.4848314604715
 30
0.0
  0
VERTEX
  5
1D9
  8
1
  6
CONTINUOUS
 62
     7
 10
23.10700967177835
 20
390.4694930939066
 30
0.0
  0
VERTEX
  5
1DA
  8
1
  6
CONTINUOUS
 62
     7
 10
23.12095676915692
 20
390.4535429615329
 30
0.0
  0
VERTEX
  5
1DB
  8
1
  6
CONTINUOUS
 62
     7
 10
23.1341958155864
 20
390.4370010838491
 30
0.0
  0
VERTEX
  5
1DC
  8
1
  6
CONTINUOUS
 62
     7
 10
23.14665638564829
 20
390.4198874813533
 30
0.0
  0
VERTEX
  5
1DD
  8
1
  6
CONTINUOUS
 62
     7
 10
23.15824802311331
 20
390.4022587402646
 30
0.0
  0
VERTEX
  5
1DE
  8
1
  6
CONTINUOUS
 62
     7
 10
23.1689609921837
 20
390.3840650756442
 30
0.0
  0
VERTEX
  5
1DF
  8
1
  6
CONTINUOUS
 62
     7
 10
23.1787163075021
 20
390.3653541058417
 30
0.0
  0
VERTEX
  5
1E0
  8
1
  6
CONTINUOUS
 62
     7
 10
23.18553333437777
 20
390.3506090342597
 30
0.0
  0
VERTEX
  5
1E1
  8
1
  6
CONTINUOUS
 62
     7
 10
23.1917243155304
 20
390.3355721763361
 30
0.0
  0
VERTEX
  5
1E2
  8
1
  6
CONTINUOUS
 62
     7
 10
23.19725596115655
 20
390.3202804657454
 30
0.0
  0
VERTEX
  5
1E3
  8
1
  6
CONTINUOUS
 62
     7
 10
23.20209498145275
 20
390.3047708361624
 30
0.0
  0
VERTEX
  5
1E4
  8
1
  6
CONTINUOUS
 62
     7
 10
23.20613319185982
 20
390.2893855116788
 30
0.0
  0
VERTEX
  5
1E5
  8
1
  6
CONTINUOUS
 62
     7
 10
23.20947004096751
 20
390.2737959269352
 30
0.0
  0
VERTEX
  5
1E6
  8
1
  6
CONTINUOUS
 62
     7
 10
23.21209087553849
 20
390.2580524923199
 30
0.0
  0
VERTEX
  5
1E7
  8
1
  6
CONTINUOUS
 62
     7
 10
23.2139810423354
 20
390.242205618221
 30
0.0
  0
VERTEX
  5
1E8
  8
1
  6
CONTINUOUS
 62
     7
 10
23.21512588812093
 20
390.2263057150265
 30
0.0
  0
VERTEX
  5
1E9
  8
1
  6
CONTINUOUS
 62
     7
 10
23.2155107596578
 20
390.2104031931245
 30
0.0
  0
SEQEND
  5
24D
  8
1
  6
CONTINUOUS
 62
     7
  0
POLYLINE
  5
153
  8
1
  6
CONTINUOUS
 62
     7
 66
     1
 10
0.0
 20
0.0
 30
0.0
  0
VERTEX
  5
1EA
  8
1
  6
CONTINUOUS
 62
     7
 10
59.78448924034217
 20
390.2104031931245
 30
0.0
  0
VERTEX
  5
1EB
  8
1
  6
CONTINUOUS
 62
     7
 10
59.78486538030327
 20
390.2262239529978
 30
0.0
  0
VERTEX
  5
1EC
  8
1
  6
CONTINUOUS
 62
     7
 10
59.78598730352464
 20
390.2420267516352
 30
0.0
  0
VERTEX
  5
1ED
  8
1
  6
CONTINUOUS
 62
     7
 10
59.78784526501347
 20
390.2577600054548
 30
0.0
  0
VERTEX
  5
1EE
  8
1
  6
CONTINUOUS
 62
     7
 10
59.79042951977698
 20
390.2733721308745
 30
0.0
  0
VERTEX
  5
1EF
  8
1
  6
CONTINUOUS
 62
     7
 10
59.79386608148185
 20
390.2894041362393
 30
0.0
  0
VERTEX
  5
1F0
  8
1
  6
CONTINUOUS
 62
     7
 10
59.79805444130754
 20
390.3052735704326
 30
0.0
  0
VERTEX
  5
1F1
  8
1
  6
CONTINUOUS
 62
     7
 10
59.80296553074925
 20
390.3209345192844
 30
0.0
  0
VERTEX
  5
1F2
  8
1
  6
CONTINUOUS
 62
     7
 10
59.80857028130224
 20
390.3363410686248
 30
0.0
  0
VERTEX
  5
1F3
  8
1
  6
CONTINUOUS
 62
     7
 10
59.81685337889849
 20
390.3559393746498
 30
0.0
  0
VERTEX
  5
1F4
  8
1
  6
CONTINUOUS
 62
     7
 10
59.82623065303822
 20
390.3750930875687
 30
0.0
  0
VERTEX
  5
1F5
  8
1
  6
CONTINUOUS
 62
     7
 10
59.83662181117271
 20
390.3937529258944
 30
0.0
  0
VERTEX
  5
1F6
  8
1
  6
CONTINUOUS
 62
     7
 10
59.84794656075317
 20
390.41186960814
 30
0.0
  0
VERTEX
  5
1F7
  8
1
  6
CONTINUOUS
 62
     7
 10
59.86012460923086
 20
390.4293938528188
 30
0.0
  0
VERTEX
  5
1F8
  8
1
  6
CONTINUOUS
 62
     7
 10
59.87307566405703
 20
390.4462763784439
 30
0.0
  0
VERTEX
  5
1F9
  8
1
  6
CONTINUOUS
 62
     7
 10
59.88777374408316
 20
390.4636878478555
 30
0.0
  0
VERTEX
  5
1FA
  8
1
  6
CONTINUOUS
 62
     7
 10
59.90326425648875
 20
390.4804245034023
 30
0.0
  0
VERTEX
  5
1FB
  8
1
  6
CONTINUOUS
 62
     7
 10
59.91946800780227
 20
390.4964726785658
 30
0.0
  0
VERTEX
  5
1FC
  8
1
  6
CONTINUOUS
 62
     7
 10
59.93630580455227
 20
390.5118187068275
 30
0.0
  0
VERTEX
  5
1FD
  8
1
  6
CONTINUOUS
 62
     7
 10
59.9603347117511
 20
390.531746328827
 30
0.0
  0
VERTEX
  5
1FE
  8
1
  6
CONTINUOUS
 62
     7
 10
59.98536145959823
 20
390.5504339036426
 30
0.0
  0
VERTEX
  5
1FF
  8
1
  6
CONTINUOUS
 62
     7
 10
60.01123829537878
 20
390.5678878890786
 30
0.0
  0
VERTEX
  5
200
  8
1
  6
CONTINUOUS
 62
     7
 10
60.03978362902246
 20
390.5852557492793
 30
0.0
  0
VERTEX
  5
201
  8
1
  6
CONTINUOUS
 62
     7
 10
60.06911791489121
 20
390.6013142100978
 30
0.0
  0
VERTEX
  5
202
  8
1
  6
CONTINUOUS
 62
     7
 10
60.09912153202112
 20
390.6160896613146
 30
0.0
  0
VERTEX
  5
203
  8
1
  6
CONTINUOUS
 62
     7
 10
60.12967485944827
 20
390.6296084927102
 30
0.0
  0
VERTEX
  5
204
  8
1
  6
CONTINUOUS
 62
     7
 10
60.17232493432538
 20
390.6461805241049
 30
0.0
  0
VERTEX
  5
205
  8
1
  6
CONTINUOUS
 62
     7
 10
60.21577892933488
 20
390.6605951171186
 30
0.0
  0
VERTEX
  5
206
  8
1
  6
CONTINUOUS
 62
     7
 10
60.25984180257965
 20
390.6729201358513
 30
0.0
  0
VERTEX
  5
207
  8
1
  6
CONTINUOUS
 62
     7
 10
60.31498512285277
 20
390.6853958456037
 30
0.0
  0
VERTEX
  5
208
  8
1
  6
CONTINUOUS
 62
     7
 10
60.37080955868583
 20
390.6949506432108
 30
0.0
  0
VERTEX
  5
209
  8
1
  6
CONTINUOUS
 62
     7
 10
60.42709261787732
 20
390.7016647811977
 30
0.0
  0
VERTEX
  5
20A
  8
1
  6
CONTINUOUS
 62
     7
 10
60.4836118082257
 20
390.7056185120899
 30
0.0
  0
VERTEX
  5
20B
  8
1
  6
CONTINUOUS
 62
     7
 10
60.54014463752957
 20
390.7068920884128
 30
0.0
  0
SEQEND
  5
24E
  8
1
  6
CONTINUOUS
 62
     7
  0
LINE
  5
154
  8
1
  6
CONTINUOUS
 62
     7
 10
59.78448924034217
 20
370.085944464633
 30
0.0
 11
59.78448924034217
 21
390.2104031931244
 31
0.0
  0
LINE
  5
155
  8
1
  6
CONTINUOUS
 62
     7
 10
59.78419928260065
 20
370.0617807226111
 30
0.0
 11
59.78448924034217
 21
370.0859444646331
 31
0.0
  0
POLYLINE
  5
156
  8
1
  6
CONTINUOUS
 62
     7
 66
     1
 10
0.0
 20
0.0
 30
0.0
  0
VERTEX
  5
20C
  8
1
  6
CONTINUOUS
 62
     7
 10
59.09573873234599
 20
368.5661237627272
 30
0.0
  0
VERTEX
  5
20D
  8
1
  6
CONTINUOUS
 62
     7
 10
59.21353452895962
 20
368.6011918253486
 30
0.0
  0
VERTEX
  5
20E
  8
1
  6
CONTINUOUS
 62
     7
 10
59.30549566655674
 20
368.6603920975978
 30
0.0
  0
VERTEX
  5
20F
  8
1
  6
CONTINUOUS
 62
     7
 10
59.38544466183446
 20
368.7369422782113
 30
0.0
  0
VERTEX
  5
210
  8
1
  6
CONTINUOUS
 62
     7
 10
59.46264067108248
 20
368.8365972133256
 30
0.0
  0
SEQEND
  5
24F
  8
1
  6
CONTINUOUS
 62
     7
  0
ARC
  5
157
  8
1
  6
CONTINUOUS
 62
     7
 10
57.38685867600143
 20
370.0361912749884
 30
0.0
 40
2.397477174840069
 50
329.9763899919903
 51
0.6115575172614172
  0
ARC
  5
158
  8
1
  6
CONTINUOUS
 62
     7
 10
25.63826312742636
 20
370.0497205482788
 30
0.0
 40
2.422492430493715
 50
179.714756613843
 51
211.0011631547227
  0
POLYLINE
  5
159
  8
1
  6
CONTINUOUS
 62
     7
 66
     1
 10
0.0
 20
0.0
 30
0.0
  0
VERTEX
  5
211
  8
1
  6
CONTINUOUS
 62
     7
 10
23.56180715915364
 20
368.8020025562534
 30
0.0
  0
VERTEX
  5
212
  8
1
  6
CONTINUOUS
 62
     7
 10
23.63845515665848
 20
368.7114204621876
 30
0.0
  0
VERTEX
  5
213
  8
1
  6
CONTINUOUS
 62
     7
 10
23.72063259652449
 20
368.6405858908449
 30
0.0
  0
VERTEX
  5
214
  8
1
  6
CONTINUOUS
 62
     7
 10
23.82365988887247
 20
368.5853114661721
 30
0.0
  0
VERTEX
  5
215
  8
1
  6
CONTINUOUS
 62
     7
 10
23.90426126765399
 20
368.5661237627272
 30
0.0
  0
SEQEND
  5
250
  8
1
  6
CONTINUOUS
 62
     7
  0
LINE
  5
15A
  8
1
  6
CONTINUOUS
 62
     7
 10
65.0005521155695
 20
515.1219014492652
 30
0.0
 11
17.99944788443047
 21
515.1219014492652
 31
0.0
  0
LINE
  5
15B
  8
1
  6
CONTINUOUS
 62
     7
 10
60.54014463752949
 20
390.7068920884128
 30
0.0
 11
60.87536377392577
 21
390.7040652105792
 31
0.0
  0
LINE
  5
15C
  8
1
  6
CONTINUOUS
 62
     7
 10
22.12463623195445
 20
390.7040652105834
 30
0.0
 11
22.45985536429994
 21
390.706892088414
 31
0.0
  0
POLYLINE
  5
15D
  8
1
  6
CONTINUOUS
 62
     7
 66
     1
 10
0.0
 20
0.0
 30
0.0
  0
VERTEX
  5
216
  8
1
  6
CONTINUOUS
 62
     7
 10
78.02909050994971
 20
398.2579383813454
 30
0.0
  0
VERTEX
  5
217
  8
1
  6
CONTINUOUS
 62
     7
 10
79.12748779793824
 20
401.3557231249814
 30
0.0
  0
VERTEX
  5
218
  8
1
  6
CONTINUOUS
 62
     7
 10
79.49999999999999
 20
404.6213493336957
 30
0.0
  0
SEQEND
  5
251
  8
1
  6
CONTINUOUS
 62
     7
  0
POLYLINE
  5
15E
  8
1
  6
CONTINUOUS
 62
     7
 66
     1
 10
0.0
 20
0.0
 30
0.0
  0
VERTEX
  5
219
  8
1
  6
CONTINUOUS
 62
     7
 10
17.99944788443047
 20
515.1219014492652
 30
0.0
  0
VERTEX
  5
21A
  8
1
  6
CONTINUOUS
 62
     7
 10
15.1706871021499
 20
514.8433043339317
 30
0.0
  0
VERTEX
  5
21B
  8
1
  6
CONTINUOUS
 62
     7
 10
12.4506659358443
 20
514.0182182841074
 30
0.0
  0
VERTEX
  5
21C
  8
1
  6
CONTINUOUS
 62
     7
 10
9.943903171204134
 20
512.6783478295537
 30
0.0
  0
VERTEX
  5
21D
  8
1
  6
CONTINUOUS
 62
     7
 10
7.746722985195301
 20
510.8751784640699
 30
0.0
  0
VERTEX
  5
21E
  8
1
  6
CONTINUOUS
 62
     7
 10
5.943553619711482
 20
508.6779982780611
 30
0.0
  0
VERTEX
  5
21F
  8
1
  6
CONTINUOUS
 62
     7
 10
4.60368316515771
 20
506.1712355134209
 30
0.0
  0
VERTEX
  5
220
  8
1
  6
CONTINUOUS
 62
     7
 10
3.778597115333534
 20
503.4512143471153
 30
0.0
  0
VERTEX
  5
221
  8
1
  6
CONTINUOUS
 62
     7
 10
3.499999999999985
 20
500.6224535648348
 30
0.0
  0
SEQEND
  5
252
  8
1
  6
CONTINUOUS
 62
     7
  0
POLYLINE
  5
15F
  8
1
  6
CONTINUOUS
 62
     7
 66
     1
 10
0.0
 20
0.0
 30
0.0
  0
VERTEX
  5
222
  8
1
  6
CONTINUOUS
 62
     7
 10
3.499999999999985
 20
404.6213493336957
 30
0.0
  0
VERTEX
  5
223
  8
1
  6
CONTINUOUS
 62
     7
 10
3.872512202045448
 20
401.3557231250518
 30
0.0
  0
VERTEX
  5
224
  8
1
  6
CONTINUOUS
 62
     7
 10
4.970909489986836
 20
398.2579383814752
 30
0.0
  0
SEQEND
  5
253
  8
1
  6
CONTINUOUS
 62
     7
  0
POLYLINE
  5
160
  8
1
  6
CONTINUOUS
 62
     7
 66
     1
 10
0.0
 20
0.0
 30
0.0
  0
VERTEX
  5
225
  8
1
  6
CONTINUOUS
 62
     7
 10
79.49999999999999
 20
500.6224535648347
 30
0.0
  0
VERTEX
  5
226
  8
1
  6
CONTINUOUS
 62
     7
 10
79.22140288466645
 20
503.4512143471153
 30
0.0
  0
VERTEX
  5
227
  8
1
  6
CONTINUOUS
 62
     7
 10
78.39631683484228
 20
506.1712355134209
 30
0.0
  0
VERTEX
  5
228
  8
1
  6
CONTINUOUS
 62
     7
 10
77.05644638028852
 20
508.677998278061
 30
0.0
  0
VERTEX
  5
229
  8
1
  6
CONTINUOUS
 62
     7
 10
75.2532770148047
 20
510.8751784640699
 30
0.0
  0
VERTEX
  5
22A
  8
1
  6
CONTINUOUS
 62
     7
 10
73.05609682879587
 20
512.6783478295538
 30
0.0
  0
VERTEX
  5
22B
  8
1
  6
CONTINUOUS
 62
     7
 10
70.54933406415572
 20
514.0182182841074
 30
0.0
  0
VERTEX
  5
22C
  8
1
  6
CONTINUOUS
 62
     7
 10
67.82931289785012
 20
514.8433043339317
 30
0.0
  0
VERTEX
  5
22D
  8
1
  6
CONTINUOUS
 62
     7
 10
65.00055211556949
 20
515.1219014492652
 30
0.0
  0
SEQEND
  5
254
  8
1
  6
CONTINUOUS
 62
     7
  0
LINE
  5
161
  8
1
  6
CONTINUOUS
 62
     7
 10
74.14135519672652
 20
367.3891229748621
 30
0.0
 11
74.51888965395642
 21
365.1219014492652
 31
0.0
  0
POLYLINE
  5
162
  8
1
  6
CONTINUOUS
 62
     7
 66
     1
 10
0.0
 20
0.0
 30
0.0
  0
VERTEX
  5
22E
  8
1
  6
CONTINUOUS
 62
     7
 10
74.14135519672654
 20
367.3891229748621
 30
0.0
  0
VERTEX
  5
22F
  8
1
  6
CONTINUOUS
 62
     7
 10
73.91021372965623
 20
367.5065948183549
 30
0.0
  0
VERTEX
  5
230
  8
1
  6
CONTINUOUS
 62
     7
 10
73.26409455382858
 20
367.6197308462647
 30
0.0
  0
VERTEX
  5
231
  8
1
  6
CONTINUOUS
 62
     7
 10
72.22578114180521
 20
367.7245416527916
 30
0.0
  0
VERTEX
  5
232
  8
1
  6
CONTINUOUS
 62
     7
 10
70.83188653034198
 20
367.8173313963259
 30
0.0
  0
SEQEND
  5
255
  8
1
  6
CONTINUOUS
 62
     7
  0
LINE
  5
163
  8
1
  6
CONTINUOUS
 62
     7
 10
58.49999999999996
 20
368.4960013635098
 30
0.0
 11
70.83188653034198
 21
367.817331396326
 31
0.0
  0
LINE
  5
164
  8
1
  6
CONTINUOUS
 62
     7
 10
58.5
 20
368.4960013635096
 30
0.0
 11
24.49999999999985
 21
368.4960013635096
 31
0.0
  0
LINE
  5
165
  8
1
  6
CONTINUOUS
 62
     7
 10
24.50000000000001
 20
368.4960013635098
 30
0.0
 11
12.168113469658
 21
367.817331396326
 31
0.0
  0
POLYLINE
  5
166
  8
1
  6
CONTINUOUS
 62
     7
 66
     1
 10
0.0
 20
0.0
 30
0.0
  0
VERTEX
  5
233
  8
1
  6
CONTINUOUS
 62
     7
 10
12.16811346965802
 20
367.8173313963259
 30
0.0
  0
VERTEX
  5
234
  8
1
  6
CONTINUOUS
 62
     7
 10
10.7742188581948
 20
367.7245416527916
 30
0.0
  0
VERTEX
  5
235
  8
1
  6
CONTINUOUS
 62
     7
 10
9.73590544617143
 20
367.6197308462647
 30
0.0
  0
VERTEX
  5
236
  8
1
  6
CONTINUOUS
 62
     7
 10
9.089786270343758
 20
367.5065948183549
 30
0.0
  0
VERTEX
  5
237
  8
1
  6
CONTINUOUS
 62
     7
 10
8.858644803273442
 20
367.3891229748621
 30
0.0
  0
SEQEND
  5
256
  8
1
  6
CONTINUOUS
 62
     7
  0
LINE
  5
167
  8
1
  6
CONTINUOUS
 62
     7
 10
8.858644803273453
 20
367.3891229748621
 30
0.0
 11
8.481110346043554
 21
365.1219014492652
 31
0.0
  0
LINE
  5
168
  8
1
  6
CONTINUOUS
 62
     7
 10
8.481110346043554
 20
365.1219014492651
 30
0.0
 11
7.180375750685884
 21
365.1219014492651
 31
0.0
  0
LINE
  5
169
  8
1
  6
CONTINUOUS
 62
     7
 10
74.51888965395642
 20
365.1219014492651
 30
0.0
 11
75.81962424931412
 21
365.1219014492651
 31
0.0
  0
LINE
  5
16A
  8
1
  6
CONTINUOUS
 62
     7
 10
79.49999999999999
 20
404.6213493336958
 30
0.0
 11
79.49999999999999
 21
500.6224535648348
 31
0.0
  0
LINE
  5
16B
  8
1
  6
CONTINUOUS
 62
     7
 10
3.499999999999982
 20
500.6224535648348
 30
0.0
 11
3.499999999999989
 21
404.6213493336958
 31
0.0
  0
LINE
  5
16C
  8
1
  6
CONTINUOUS
 62
     7
 10
77.3189962734365
 20
366.6232739607426
 30
0.0
 11
77.3189962734365
 21
395.1859468871989
 31
0.0
  0
LINE
  5
16D
  8
1
  6
CONTINUOUS
 62
     7
 10
5.68100372656348
 20
366.6232739607427
 30
0.0
 11
5.68100372656348
 21
395.1859468872398
 31
0.0
  0
POLYLINE
  5
16E
  8
1
  6
CONTINUOUS
 62
     7
 66
     1
 10
0.0
 20
0.0
 30
0.0
  0
VERTEX
  5
238
  8
1
  6
CONTINUOUS
 62
     7
 10
5.681003726563501
 20
366.6232739607427
 30
0.0
  0
VERTEX
  5
239
  8
1
  6
CONTINUOUS
 62
     7
 10
5.709810198965952
 20
366.3303341886802
 30
0.0
  0
VERTEX
  5
23A
  8
1
  6
CONTINUOUS
 62
     7
 10
5.795123241165915
 20
366.0486717510834
 30
0.0
  0
VERTEX
  5
23B
  8
1
  6
CONTINUOUS
 62
     7
 10
5.933666220871323
 20
365.7891045043394
 30
0.0
  0
VERTEX
  5
23C
  8
1
  6
CONTINUOUS
 62
     7
 10
6.120118094670334
 20
365.5616016911423
 30
0.0
  0
VERTEX
  5
23D
  8
1
  6
CONTINUOUS
 62
     7
 10
6.347317774236331
 20
365.3749010501195
 30
0.0
  0
VERTEX
  5
23E
  8
1
  6
CONTINUOUS
 62
     7
 10
6.606539163445952
 20
365.236173224042
 30
0.0
  0
VERTEX
  5
23F
  8
1
  6
CONTINUOUS
 62
     7
 10
6.887826303013529
 20
365.1507463557473
 30
0.0
  0
VERTEX
  5
240
  8
1
  6
CONTINUOUS
 62
     7
 10
7.180375750685883
 20
365.1219014492652
 30
0.0
  0
SEQEND
  5
257
  8
1
  6
CONTINUOUS
 62
     7
  0
POLYLINE
  5
16F
  8
1
  6
CONTINUOUS
 62
     7
 66
     1
 10
0.0
 20
0.0
 30
0.0
  0
VERTEX
  5
241
  8
1
  6
CONTINUOUS
 62
     7
 10
75.81962424931412
 20
365.1219014492651
 30
0.0
  0
VERTEX
  5
242
  8
1
  6
CONTINUOUS
 62
     7
 10
76.11217369698646
 20
365.1507463557472
 30
0.0
  0
VERTEX
  5
243
  8
1
  6
CONTINUOUS
 62
     7
 10
76.39346083655404
 20
365.2361732240419
 30
0.0
  0
VERTEX
  5
244
  8
1
  6
CONTINUOUS
 62
     7
 10
76.65268222576366
 20
365.3749010501194
 30
0.0
  0
VERTEX
  5
245
  8
1
  6
CONTINUOUS
 62
     7
 10
76.87988190532965
 20
365.5616016911422
 30
0.0
  0
VERTEX
  5
246
  8
1
  6
CONTINUOUS
 62
     7
 10
77.06633377912866
 20
365.7891045043393
 30
0.0
  0
VERTEX
  5
247
  8
1
  6
CONTINUOUS
 62
     7
 10
77.20487675883408
 20
366.0486717510832
 30
0.0
  0
VERTEX
  5
248
  8
1
  6
CONTINUOUS
 62
     7
 10
77.29018980103403
 20
366.3303341886801
 30
0.0
  0
VERTEX
  5
249
  8
1
  6
CONTINUOUS
 62
     7
 10
77.31899627343648
 20
366.6232739607426
 30
0.0
  0
SEQEND
  5
258
  8
1
  6
CONTINUOUS
 62
     7
  0
ARC
  5
170
  8
1
  6
CONTINUOUS
 62
     7
 10
84.23016055769179
 20
395.2064888895753
 30
0.0
 40
6.91119481260859
 50
153.7989232868796
 51
180.1702993192655
  0
ARC
  5
171
  8
1
  6
CONTINUOUS
 62
     7
 10
-1.230160557226356
 20
395.2064888896841
 30
0.0
 40
6.911194812143338
 50
359.8297006801596
 51
26.20107671521293
  0
ENDBLK
  8
0
  0
ENDSEC
  0
SECTION
  2
ENTITIES
  0
INSERT
  5
9B
  8
1
  6
CONTINUOUS
 62
     7
  2
D_FRAME_VIEW_4433
 10
0.0
 20
0.0
 30
0.0
  0
TEXT
  5
9C
  8
1
  6
CONTINUOUS
 62
     7
 10
134.1740777791672
 20
343.5784200325121
 30
0.0
 40
3.0
  1
RMEB-40MH
  0
INSERT
  5
147
  8
1
  6
CONTINUOUS
 62
     7
  2
D_FRAME_VIEW_1474
 10
0.0
 20
0.0
 30
0.0
  0
INSERT
  5
172
  8
1
  6
CONTINUOUS
 62
     7
  2
D_FRAME_VIEW_1797
 10
0.0
 20
0.0
 30
0.0
  0
LINE
  5
173
  8
1
  6
CENTER
 62
     1
 10
41.49999999999999
 20
254.7499999999999
 30
0.0
 11
41.49999999999999
 21
338.2499999999999
 31
0.0
  0
LINE
  5
175
  8
1
  6
CENTER
 62
     1
 10
11.49999999999998
 20
480.1219014492651
 30
0.0
 11
71.49999999999999
 21
480.1219014492651
 31
0.0
  0
LINE
  5
176
  8
1
  6
CENTER
 62
     1
 10
41.49999999999999
 20
450.1219014492651
 30
0.0
 11
41.49999999999999
 21
510.1219014492652
 31
0.0
  0
ENDSEC
  0
EOF
