  0
SECTION
  2
HEADER
  9
$ACADVER
  1
AC1014
  9
$ACADMAINTVER
 70
     9
  9
$DWGCODEPAGE
  3
ANSI_932
  9
$INSBASE
 10
0.0
 20
0.0
 30
0.0
  9
$EXTMIN
 10
4.049999999999998
 20
59.25000624999998
 30
0.0
  9
$EXTMAX
 10
235.8499875
 20
484.3166717074413
 30
0.0
  9
$LIMMIN
 10
0.0
 20
0.0
  9
$LIMMAX
 10
12.0
 20
9.0
  9
$ORTHOMODE
 70
     0
  9
$REGENMODE
 70
     1
  9
$FILLMODE
 70
     1
  9
$QTEXTMODE
 70
     0
  9
$MIRRTEXT
 70
     1
  9
$DRAGMODE
 70
     2
  9
$LTSCALE
 40
1.0
  9
$OSMODE
 70
    37
  9
$ATTMODE
 70
     1
  9
$TEXTSIZE
 40
0.2
  9
$TRACEWID
 40
0.05
  9
$TEXTSTYLE
  7
STANDARD
  9
$CLAYER
  8
0
  9
$CELTYPE
  6
BYLAYER
  9
$CECOLOR
 62
   256
  9
$CELTSCALE
 40
1.0
  9
$DELOBJ
 70
     1
  9
$DISPSILH
 70
     0
  9
$DIMSCALE
 40
1.0
  9
$DIMASZ
 40
3.0
  9
$DIMEXO
 40
0.0625
  9
$DIMDLI
 40
0.38
  9
$DIMRND
 40
0.0
  9
$DIMDLE
 40
0.0
  9
$DIMEXE
 40
1.5
  9
$DIMTP
 40
0.0
  9
$DIMTM
 40
0.0
  9
$DIMTXT
 40
3.0
  9
$DIMCEN
 40
0.09
  9
$DIMTSZ
 40
0.0
  9
$DIMTOL
 70
     0
  9
$DIMLIM
 70
     0
  9
$DIMTIH
 70
     1
  9
$DIMTOH
 70
     1
  9
$DIMSE1
 70
     0
  9
$DIMSE2
 70
     0
  9
$DIMTAD
 70
     1
  9
$DIMZIN
 70
     0
  9
$DIMBLK
  1

  9
$DIMASO
 70
     1
  9
$DIMSHO
 70
     1
  9
$DIMPOST
  1

  9
$DIMAPOST
  1

  9
$DIMALT
 70
     0
  9
$DIMALTD
 70
     2
  9
$DIMALTF
 40
25.4
  9
$DIMLFAC
 40
1.0
  9
$DIMTOFL
 70
     0
  9
$DIMTVP
 40
0.0
  9
$DIMTIX
 70
     0
  9
$DIMSOXD
 70
     0
  9
$DIMSAH
 70
     0
  9
$DIMBLK1
  1

  9
$DIMBLK2
  1

  9
$DIMSTYLE
  2
STANDARD
  9
$DIMCLRD
 70
     0
  9
$DIMCLRE
 70
     0
  9
$DIMCLRT
 70
     0
  9
$DIMTFAC
 40
1.0
  9
$DIMGAP
 40
1.5
  9
$DIMJUST
 70
     0
  9
$DIMSD1
 70
     0
  9
$DIMSD2
 70
     0
  9
$DIMTOLJ
 70
     1
  9
$DIMTZIN
 70
     0
  9
$DIMALTZ
 70
     0
  9
$DIMALTTZ
 70
     0
  9
$DIMFIT
 70
     3
  9
$DIMUPT
 70
     0
  9
$DIMUNIT
 70
     2
  9
$DIMDEC
 70
     2
  9
$DIMTDEC
 70
     4
  9
$DIMALTU
 70
     2
  9
$DIMALTTD
 70
     2
  9
$DIMTXSTY
  7
ＭＳ_ゴシック
  9
$DIMAUNIT
 70
     0
  9
$LUNITS
 70
     2
  9
$LUPREC
 70
     4
  9
$SKETCHINC
 40
0.1
  9
$FILLETRAD
 40
0.5
  9
$AUNITS
 70
     0
  9
$AUPREC
 70
     0
  9
$MENU
  1
.
  9
$ELEVATION
 40
0.0
  9
$PELEVATION
 40
0.0
  9
$THICKNESS
 40
0.0
  9
$LIMCHECK
 70
     0
  9
$CHAMFERA
 40
0.0
  9
$CHAMFERB
 40
0.0
  9
$CHAMFERC
 40
0.0
  9
$CHAMFERD
 40
0.0
  9
$SKPOLY
 70
     0
  9
$TDCREATE
 40
2459408.536787847
  9
$TDUPDATE
 40
2459408.536788206
  9
$TDINDWG
 40
0.0000000116
  9
$TDUSRTIMER
 40
0.0000000116
  9
$USRTIMER
 70
     1
  9
$ANGBASE
 50
0.0
  9
$ANGDIR
 70
     0
  9
$PDMODE
 70
     0
  9
$PDSIZE
 40
0.0
  9
$PLINEWID
 40
0.0
  9
$COORDS
 70
     1
  9
$SPLFRAME
 70
     0
  9
$SPLINETYPE
 70
     6
  9
$SPLINESEGS
 70
     8
  9
$ATTDIA
 70
     0
  9
$ATTREQ
 70
     1
  9
$HANDLING
 70
     1
  9
$HANDSEED
  5
380
  9
$SURFTAB1
 70
     6
  9
$SURFTAB2
 70
     6
  9
$SURFTYPE
 70
     6
  9
$SURFU
 70
     6
  9
$SURFV
 70
     6
  9
$UCSNAME
  2

  9
$UCSORG
 10
0.0
 20
0.0
 30
0.0
  9
$UCSXDIR
 10
1.0
 20
0.0
 30
0.0
  9
$UCSYDIR
 10
0.0
 20
1.0
 30
0.0
  9
$PUCSNAME
  2

  9
$PUCSORG
 10
0.0
 20
0.0
 30
0.0
  9
$PUCSXDIR
 10
1.0
 20
0.0
 30
0.0
  9
$PUCSYDIR
 10
0.0
 20
1.0
 30
0.0
  9
$USERI1
 70
     0
  9
$USERI2
 70
     0
  9
$USERI3
 70
     0
  9
$USERI4
 70
     0
  9
$USERI5
 70
     0
  9
$USERR1
 40
0.0
  9
$USERR2
 40
0.0
  9
$USERR3
 40
0.0
  9
$USERR4
 40
0.0
  9
$USERR5
 40
0.0
  9
$WORLDVIEW
 70
     1
  9
$SHADEDGE
 70
     3
  9
$SHADEDIF
 70
    70
  9
$TILEMODE
 70
     1
  9
$MAXACTVP
 70
    64
  9
$PINSBASE
 10
0.0
 20
0.0
 30
0.0
  9
$PLIMCHECK
 70
     0
  9
$PEXTMIN
 10
1.000000000000000E+20
 20
1.000000000000000E+20
 30
1.000000000000000E+20
  9
$PEXTMAX
 10
-1.000000000000000E+20
 20
-1.000000000000000E+20
 30
-1.000000000000000E+20
  9
$PLIMMIN
 10
0.0
 20
0.0
  9
$PLIMMAX
 10
12.0
 20
9.0
  9
$UNITMODE
 70
     0
  9
$VISRETAIN
 70
     1
  9
$PLINEGEN
 70
     0
  9
$PSLTSCALE
 70
     1
  9
$TREEDEPTH
 70
  3020
  9
$PICKSTYLE
 70
     1
  9
$CMLSTYLE
  2
STANDARD
  9
$CMLJUST
 70
     0
  9
$CMLSCALE
 40
1.0
  9
$PROXYGRAPHICS
 70
     1
  9
$MEASUREMENT
 70
     1
  0
ENDSEC
  0
SECTION
  2
CLASSES
  0
CLASS
  1
ACDBDICTIONARYWDFLT
  2
AcDbDictionaryWithDefault
  3
ObjectDBX Classes
 90
        0
280
     0
281
     0
  0
CLASS
  1
VISUALSTYLE
  2
AcDbVisualStyle
  3
ObjectDBX Classes
 90
     4095
280
     0
281
     0
  0
CLASS
  1
MATERIAL
  2
AcDbMaterial
  3
ObjectDBX Classes
 90
     1153
280
     0
281
     0
  0
CLASS
  1
SCALE
  2
AcDbScale
  3
ObjectDBX Classes
 90
     1153
280
     0
281
     0
  0
CLASS
  1
TABLESTYLE
  2
AcDbTableStyle
  3
ObjectDBX Classes
 90
     4095
280
     0
281
     0
  0
CLASS
  1
MLEADERSTYLE
  2
AcDbMLeaderStyle
  3
ACDB_MLEADERSTYLE_CLASS
 90
     4095
280
     0
281
     0
  0
CLASS
  1
SUN
  2
AcDbSun
  3
SCENEOE
 90
     1153
280
     0
281
     0
  0
CLASS
  1
DICTIONARYVAR
  2
AcDbDictionaryVar
  3
ObjectDBX Classes
 90
        0
280
     0
281
     0
  0
CLASS
  1
XRECORD
  2
AcDbXrecord
  3
ObjectDBX Classes
 90
        0
280
     0
281
     0
  0
CLASS
  1
LWPOLYLINE
  2
AcDbPolyline
  3
ObjectDBX Classes
 90
        0
280
     0
281
     1
  0
CLASS
  1
HATCH
  2
AcDbHatch
  3
ObjectDBX Classes
 90
        0
280
     0
281
     1
  0
CLASS
  1
ACDBPLACEHOLDER
  2
AcDbPlaceHolder
  3
ObjectDBX Classes
 90
        0
280
     0
281
     0
  0
CLASS
  1
LAYOUT
  2
AcDbLayout
  3
ObjectDBX Classes
 90
        0
280
     0
281
     0
  0
ENDSEC
  0
SECTION
  2
TABLES
  0
TABLE
  2
VPORT
  5
8
102
{ACAD_XDICTIONARY
360
375
102
}
330
0
100
AcDbSymbolTable
 70
     1
  0
VPORT
  5
29
330
8
100
AcDbSymbolTableRecord
100
AcDbViewportTableRecord
  2
*ACTIVE
 70
     0
 10
0.0
 20
0.0
 11
1.0
 21
1.0
 12
119.94999375
 22
271.7833389787206
 13
0.0
 23
0.0
 14
0.5
 24
0.5
 15
0.5
 25
0.5
 16
0.0
 26
0.0
 36
1.0
 17
0.0
 27
0.0
 37
0.0
 40
425.0666654574413
 41
1.6
 42
50.0
 43
0.0
 44
0.0
 50
0.0
 51
0.0
 71
     0
 72
   100
 73
     1
 74
     3
 75
     0
 76
     0
 77
     0
 78
     0
  0
ENDTAB
  0
TABLE
  2
LTYPE
  5
5
330
0
100
AcDbSymbolTable
 70
     1
  0
LTYPE
  5
14
330
5
100
AcDbSymbolTableRecord
100
AcDbLinetypeTableRecord
  2
BYBLOCK
 70
     0
  3

 72
    65
 73
     0
 40
0.0
  0
LTYPE
  5
15
330
5
100
AcDbSymbolTableRecord
100
AcDbLinetypeTableRecord
  2
BYLAYER
 70
     0
  3

 72
    65
 73
     0
 40
0.0
  0
LTYPE
  5
16
330
5
100
AcDbSymbolTableRecord
100
AcDbLinetypeTableRecord
  2
CONTINUOUS
 70
     0
  3
Solid line
 72
    65
 73
     0
 40
0.0
  0
ENDTAB
  0
TABLE
  2
LAYER
  5
2
330
0
100
AcDbSymbolTable
 70
     1
  0
LAYER
  5
10
330
2
100
AcDbSymbolTableRecord
100
AcDbLayerTableRecord
  2
0
 70
     0
 62
     7
  6
CONTINUOUS
  0
ENDTAB
  0
TABLE
  2
STYLE
  5
3
330
0
100
AcDbSymbolTable
 70
     2
  0
STYLE
  5
11
330
3
100
AcDbSymbolTableRecord
100
AcDbTextStyleTableRecord
  2
STANDARD
 70
     0
 40
0.0
 41
1.0
 50
0.0
 71
     0
 42
0.2
  3
txt
  4

  0
STYLE
  5
6E
330
3
100
AcDbSymbolTableRecord
100
AcDbTextStyleTableRecord
  2
ＭＳ_ゴシック
 70
     0
 40
0.0
 41
1.0
 50
0.0
 71
     0
 42
0.2
  3
ＭＳ ゴシック.shx
  4

  0
ENDTAB
  0
TABLE
  2
VIEW
  5
6
330
0
100
AcDbSymbolTable
 70
     0
  0
ENDTAB
  0
TABLE
  2
UCS
  5
7
330
0
100
AcDbSymbolTable
 70
     0
  0
ENDTAB
  0
TABLE
  2
APPID
  5
9
330
0
100
AcDbSymbolTable
 70
     2
  0
APPID
  5
12
330
9
100
AcDbSymbolTableRecord
100
AcDbRegAppTableRecord
  2
ACAD
 70
     0
  0
APPID
  5
37F
330
9
100
AcDbSymbolTableRecord
100
AcDbRegAppTableRecord
  2
ACAD_MLEADERVER
 70
     0
  0
ENDTAB
  0
TABLE
  2
DIMSTYLE
  5
A
330
0
100
AcDbSymbolTable
 70
     1
  0
DIMSTYLE
105
27
330
A
100
AcDbSymbolTableRecord
100
AcDbDimStyleTableRecord
  2
STANDARD
 70
     0
  3

  4

  5

  6

  7

 40
1.0
 41
0.18
 42
0.0625
 43
0.38
 44
0.18
 45
0.0
 46
0.0
 47
0.0
 48
0.0
140
0.18
141
0.09
142
0.0
143
25.4
144
1.0
145
0.0
146
1.0
147
0.09
 71
     0
 72
     0
 73
     1
 74
     1
 75
     0
 76
     0
 77
     0
 78
     0
170
     0
171
     2
172
     0
173
     0
174
     0
175
     0
176
     0
177
     0
178
     0
270
     2
271
     4
272
     4
273
     2
274
     2
340
11
275
     0
280
     0
281
     0
282
     0
283
     1
284
     0
285
     0
286
     0
287
     3
288
     0
  0
ENDTAB
  0
TABLE
  2
BLOCK_RECORD
  5
1
330
0
100
AcDbSymbolTable
 70
     0
  0
BLOCK_RECORD
  5
1F
330
1
100
AcDbSymbolTableRecord
100
AcDbBlockTableRecord
  2
*MODEL_SPACE
  0
BLOCK_RECORD
  5
1B
330
1
100
AcDbSymbolTableRecord
100
AcDbBlockTableRecord
  2
*PAPER_SPACE
  0
ENDTAB
  0
ENDSEC
  0
SECTION
  2
BLOCKS
  0
BLOCK
  5
20
330
1F
100
AcDbEntity
  8
0
100
AcDbBlockBegin
  2
*MODEL_SPACE
 70
     0
 10
0.0
 20
0.0
 30
0.0
  3
*MODEL_SPACE
  1

  0
ENDBLK
  5
21
330
1F
100
AcDbEntity
  8
0
100
AcDbBlockEnd
  0
BLOCK
  5
1C
330
1B
100
AcDbEntity
 67
     1
  8
0
100
AcDbBlockBegin
  2
*PAPER_SPACE
 70
     0
 10
0.0
 20
0.0
 30
0.0
  3
*PAPER_SPACE
  1

  0
ENDBLK
  5
1D
330
1B
100
AcDbEntity
 67
     1
  8
0
100
AcDbBlockEnd
  0
ENDSEC
  0
SECTION
  2
ENTITIES
  0
MTEXT
  5
6F
330
1F
100
AcDbEntity
  8
0
 62
     7
100
AcDbMText
 10
163.0126047267725
 20
113.0681755681818
 30
0.0
 40
6.0
 41
0.0
 71
     1
 72
     1
  1
{\fＭＳ ゴシック;ＲＭＦＣ－４０}
  0
LINE
  5
70
330
1F
100
AcDbEntity
  8
0
  6
CONTINUOUS
 62
     7
100
AcDbLine
 10
16.1
 20
289.8554200966426
 30
0.0
 11
80.60000000000001
 21
289.8554200966426
 31
0.0
  0
LINE
  5
71
330
1F
100
AcDbEntity
  8
0
  6
CONTINUOUS
 62
     7
100
AcDbLine
 10
16.1
 20
297.3554200966426
 30
0.0
 11
80.60000000000001
 21
297.3554200966426
 31
0.0
  0
LINE
  5
72
330
1F
100
AcDbEntity
  8
0
  6
CONTINUOUS
 62
     7
100
AcDbLine
 10
16.1
 20
289.8554200966426
 30
0.0
 11
80.60000000000001
 21
289.8554200966426
 31
0.0
  0
LINE
  5
73
330
1F
100
AcDbEntity
  8
0
  6
CONTINUOUS
 62
     7
100
AcDbLine
 10
16.1
 20
304.8554200966426
 30
0.0
 11
80.60000000000001
 21
304.8554200966426
 31
0.0
  0
LINE
  5
74
330
1F
100
AcDbEntity
  8
0
  6
CONTINUOUS
 62
     7
100
AcDbLine
 10
16.1
 20
297.3554200966426
 30
0.0
 11
80.60000000000001
 21
297.3554200966426
 31
0.0
  0
LINE
  5
75
330
1F
100
AcDbEntity
  8
0
  6
CONTINUOUS
 62
     7
100
AcDbLine
 10
16.1
 20
304.8554200966426
 30
0.0
 11
80.60000000000001
 21
304.8554200966426
 31
0.0
  0
LINE
  5
76
330
1F
100
AcDbEntity
  8
0
  6
CONTINUOUS
 62
     7
100
AcDbLine
 10
16.1
 20
312.3554200966426
 30
0.0
 11
80.60000000000001
 21
312.3554200966426
 31
0.0
  0
LINE
  5
77
330
1F
100
AcDbEntity
  8
0
  6
CONTINUOUS
 62
     7
100
AcDbLine
 10
16.1
 20
312.3554200966426
 30
0.0
 11
80.60000000000001
 21
312.3554200966426
 31
0.0
  0
LINE
  5
78
330
1F
100
AcDbEntity
  8
0
  6
CONTINUOUS
 62
     7
100
AcDbLine
 10
16.1
 20
319.8554200966427
 30
0.0
 11
80.60000000000001
 21
319.8554200966427
 31
0.0
  0
LINE
  5
79
330
1F
100
AcDbEntity
  8
0
  6
CONTINUOUS
 62
     7
100
AcDbLine
 10
16.1
 20
319.8554200966427
 30
0.0
 11
80.60000000000001
 21
319.8554200966427
 31
0.0
  0
LINE
  5
7A
330
1F
100
AcDbEntity
  8
0
  6
CONTINUOUS
 62
     7
100
AcDbLine
 10
16.1
 20
327.3554200966427
 30
0.0
 11
80.60000000000001
 21
327.3554200966427
 31
0.0
  0
LINE
  5
7B
330
1F
100
AcDbEntity
  8
0
  6
CONTINUOUS
 62
     7
100
AcDbLine
 10
16.1
 20
327.3554200966427
 30
0.0
 11
80.60000000000001
 21
327.3554200966427
 31
0.0
  0
LINE
  5
7C
330
1F
100
AcDbEntity
  8
0
  6
CONTINUOUS
 62
     7
100
AcDbLine
 10
16.1
 20
334.8554200966427
 30
0.0
 11
80.60000000000001
 21
334.8554200966427
 31
0.0
  0
LINE
  5
7D
330
1F
100
AcDbEntity
  8
0
  6
CONTINUOUS
 62
     7
100
AcDbLine
 10
16.1
 20
334.8554200966427
 30
0.0
 11
80.60000000000001
 21
334.8554200966427
 31
0.0
  0
LINE
  5
7E
330
1F
100
AcDbEntity
  8
0
  6
CONTINUOUS
 62
     7
100
AcDbLine
 10
66.62308035941538
 20
247.3554200966426
 30
0.0
 11
66.63448924034215
 21
217.3554200966427
 31
0.0
  0
LINE
  5
7F
330
1F
100
AcDbEntity
  8
0
  6
CONTINUOUS
 62
     7
100
AcDbLine
 10
48.35000000000006
 20
217.3554200966427
 30
0.0
 11
66.6344892403422
 21
217.3554200966427
 31
0.0
  0
LINE
  5
80
330
1F
100
AcDbEntity
  8
0
  6
CONTINUOUS
 62
     7
100
AcDbLine
 10
66.62308035941538
 20
247.3554200966426
 30
0.0
 11
48.34999999999997
 21
247.3554200966426
 31
0.0
  0
LINE
  5
81
330
1F
100
AcDbEntity
  8
0
  6
CONTINUOUS
 62
     7
100
AcDbLine
 10
48.35000000000006
 20
217.3554200966427
 30
0.0
 11
30.06551075965794
 21
217.3554200966427
 31
0.0
  0
LINE
  5
82
330
1F
100
AcDbEntity
  8
0
  6
CONTINUOUS
 62
     7
100
AcDbLine
 10
30.07691964058465
 20
247.3554200966426
 30
0.0
 11
30.06551075965787
 21
217.3554200966427
 31
0.0
  0
LINE
  5
83
330
1F
100
AcDbEntity
  8
0
  6
CONTINUOUS
 62
     7
100
AcDbLine
 10
30.07691964058465
 20
247.3554200966426
 30
0.0
 11
48.35000000000006
 21
247.3554200966426
 31
0.0
  0
LINE
  5
84
330
1F
100
AcDbEntity
  8
0
  6
CONTINUOUS
 62
     7
100
AcDbLine
 10
66.62308035941535
 20
286.2266721639082
 30
0.0
 11
66.62308035941538
 21
247.3554200966426
 31
0.0
  0
LINE
  5
85
330
1F
100
AcDbEntity
  8
0
  6
CONTINUOUS
 62
     7
100
AcDbLine
 10
30.07691964058465
 20
286.2266721639082
 30
0.0
 11
30.07691964058465
 21
247.3554200966426
 31
0.0
  0
LINE
  5
86
330
1F
100
AcDbEntity
  8
0
  6
CONTINUOUS
 62
     7
100
AcDbLine
 10
30.07691964058465
 20
286.2280167789783
 30
0.0
 11
30.07691964058465
 21
286.2266721639082
 31
0.0
  0
LINE
  5
87
330
1F
100
AcDbEntity
  8
0
  6
CONTINUOUS
 62
     7
100
AcDbLine
 10
66.62308035941535
 20
286.2280167789783
 30
0.0
 11
66.62308035941535
 21
286.2266721639082
 31
0.0
  0
LINE
  5
88
330
1F
100
AcDbEntity
  8
0
  6
CONTINUOUS
 62
     7
100
AcDbLine
 10
30.07691964058465
 20
286.2280167789783
 30
0.0
 11
30.30458243948391
 21
286.7278850025486
 31
0.0
  0
LINE
  5
89
330
1F
100
AcDbEntity
  8
0
  6
CONTINUOUS
 62
     7
100
AcDbLine
 10
66.62308035941535
 20
286.2280167789783
 30
0.0
 11
66.39541756051612
 21
286.7278850025486
 31
0.0
  0
LINE
  5
8A
330
1F
100
AcDbEntity
  8
0
  6
CONTINUOUS
 62
     7
100
AcDbLine
 10
13.17736416163352
 20
287.0281625544892
 30
0.0
 11
12.85010661948006
 21
287.3554200966426
 31
0.0
  0
LINE
  5
8B
330
1F
100
AcDbEntity
  8
0
  6
CONTINUOUS
 62
     7
100
AcDbLine
 10
13.17736416163352
 20
287.0281625544892
 30
0.0
 11
15.9
 21
287.0281625544892
 31
0.0
  0
LWPOLYLINE
  5
8C
330
1F
100
AcDbEntity
  8
0
  6
CONTINUOUS
 62
     7
100
AcDbPolyline
 90
       17
 70
     0
 43
0.0
 10
15.9
 20
287.0281625544892
 10
16.52351765091516
 20
286.972915538818
 10
18.37010917000872
 20
286.9197916349764
 10
21.36881108078235
 20
286.8708323647965
 10
25.40438495049645
 20
286.8279192055744
 10
30.3217459385138
 20
286.7927012859536
 10
35.93192261975267
 20
286.7665320108344
 10
42.01931905057643
 20
286.7504170507838
 10
48.34999999999978
 20
286.7449756946791
 10
54.68068094942311
 20
286.7504170507838
 10
60.76807738024689
 20
286.7665320108344
 10
66.37825406148582
 20
286.7927012859536
 10
71.29561504950324
 20
286.8279192055744
 10
75.33118891921738
 20
286.8708323647965
 10
78.32989082999111
 20
286.9197916349764
 10
80.17648234908475
 20
286.972915538818
 10
80.79999999999998
 20
287.0281625544892
  0
LINE
  5
8D
330
1F
100
AcDbEntity
  8
0
  6
CONTINUOUS
 62
     7
100
AcDbLine
 10
83.84989338051996
 20
287.3554200966426
 30
0.0
 11
86.15001903846792
 21
287.3554200966426
 31
0.0
  0
LINE
  5
8E
330
1F
100
AcDbEntity
  8
0
  6
CONTINUOUS
 62
     7
100
AcDbLine
 10
12.85010661948006
 20
287.3554200966426
 30
0.0
 11
10.5499809615321
 21
287.3554200966426
 31
0.0
  0
LINE
  5
8F
330
1F
100
AcDbEntity
  8
0
  6
CONTINUOUS
 62
     7
100
AcDbLine
 10
30.06551075965774
 20
217.3554200966427
 30
0.0
 11
16.99042944056805
 21
217.3554200966427
 31
0.0
  0
LINE
  5
90
330
1F
100
AcDbEntity
  8
0
  6
CONTINUOUS
 62
     7
100
AcDbLine
 10
15.07771278062181
 20
247.3554200966426
 30
0.0
 11
30.07691964058465
 21
247.3554200966426
 31
0.0
  0
LINE
  5
91
330
1F
100
AcDbEntity
  8
0
  6
CONTINUOUS
 62
     7
100
AcDbLine
 10
81.6222872193782
 20
247.3554200966426
 30
0.0
 11
66.62308035941538
 21
247.3554200966426
 31
0.0
  0
LINE
  5
92
330
1F
100
AcDbEntity
  8
0
  6
CONTINUOUS
 62
     7
100
AcDbLine
 10
66.63448924034226
 20
217.3554200966427
 30
0.0
 11
79.70957055943195
 21
217.3554200966427
 31
0.0
  0
LINE
  5
93
330
1F
100
AcDbEntity
  8
0
  6
CONTINUOUS
 62
     7
100
AcDbLine
 10
66.63448924034226
 20
192.3194631120104
 30
0.0
 11
66.63448924034218
 21
217.3554200966427
 31
0.0
  0
LINE
  5
94
330
1F
100
AcDbEntity
  8
0
  6
CONTINUOUS
 62
     7
100
AcDbLine
 10
66.63419928260065
 20
192.2952993699884
 30
0.0
 11
66.63448924034226
 21
192.3194631120104
 31
0.0
  0
LINE
  5
95
330
1F
100
AcDbEntity
  8
0
  6
CONTINUOUS
 62
     7
100
AcDbLine
 10
30.06551075965774
 20
192.3194631120104
 30
0.0
 11
30.06580071739927
 21
192.2952993699884
 31
0.0
  0
LINE
  5
96
330
1F
100
AcDbEntity
  8
0
  6
CONTINUOUS
 62
     7
100
AcDbLine
 10
30.06551075965774
 20
192.3194631120104
 30
0.0
 11
30.06551075965784
 21
217.3554200966427
 31
0.0
  0
LWPOLYLINE
  5
97
330
1F
100
AcDbEntity
  8
0
  6
CONTINUOUS
 62
     7
100
AcDbPolyline
 90
        5
 70
     0
 43
0.0
 10
-30.75426126765405
 20
190.7996424101046
 10
-30.56722154788848
 20
190.8765806818818
 10
-30.41573046933155
 20
191.0302742749535
 10
-30.28793566916044
 20
191.2462130531494
 10
-30.20356570938799
 20
191.457533934228
210
0.0
220
0.0
230
-1.0
  0
ARC
  5
98
330
1F
100
AcDbEntity
  8
0
  6
CONTINUOUS
 62
     7
100
AcDbCircle
 10
33.02726299418914
 20
192.3520822899086
 30
0.0
 40
2.962006603106082
100
AcDbArc
 50
181.0984516254152
 51
197.5782211718284
  0
LWPOLYLINE
  5
99
330
1F
100
AcDbEntity
  8
0
  6
CONTINUOUS
 62
     7
100
AcDbPolyline
 90
        5
 70
     0
 43
0.0
 10
65.94573873234599
 20
190.7996424101046
 10
66.13277845211157
 20
190.8765806818818
 10
66.28426953066845
 20
191.0302742749535
 10
66.41206433083957
 20
191.2462130531494
 10
66.49643429061203
 20
191.457533934228
  0
ARC
  5
9A
330
1F
100
AcDbEntity
  8
0
  6
CONTINUOUS
 62
     7
100
AcDbCircle
 10
63.67273700581605
 20
192.3520822899074
 30
0.0
 40
2.962006603100809
100
AcDbArc
 50
342.421778828164
 51
358.9015483746063
  0
LINE
  5
9B
330
1F
100
AcDbEntity
  8
0
  6
CONTINUOUS
 62
     7
100
AcDbLine
 10
82.66962424931415
 20
187.3554200966426
 30
0.0
 11
81.36888965395644
 21
187.3554200966426
 31
0.0
  0
LINE
  5
9C
330
1F
100
AcDbEntity
  8
0
  6
CONTINUOUS
 62
     7
100
AcDbLine
 10
81.36888965395644
 20
187.3554200966426
 30
0.0
 11
80.99135519672656
 21
189.6226416222394
 31
0.0
  0
LWPOLYLINE
  5
9D
330
1F
100
AcDbEntity
  8
0
  6
CONTINUOUS
 62
     7
100
AcDbPolyline
 90
        5
 70
     0
 43
0.0
 10
80.99135519672656
 20
189.6226416222394
 10
80.76021372965627
 20
189.7401134657322
 10
80.11409455382862
 20
189.853249493642
 10
79.07578114180525
 20
189.9580603001688
 10
77.68188653034203
 20
190.0508500437032
  0
LINE
  5
9E
330
1F
100
AcDbEntity
  8
0
  6
CONTINUOUS
 62
     7
100
AcDbLine
 10
77.68188653034203
 20
190.0508500437032
 30
0.0
 11
65.35000000000005
 21
190.729520010887
 31
0.0
  0
LINE
  5
9F
330
1F
100
AcDbEntity
  8
0
  6
CONTINUOUS
 62
     7
100
AcDbLine
 10
65.35000000000008
 20
190.729520010887
 30
0.0
 11
31.34999999999995
 21
190.729520010887
 31
0.0
  0
LINE
  5
A0
330
1F
100
AcDbEntity
  8
0
  6
CONTINUOUS
 62
     7
100
AcDbLine
 10
19.018113469658
 20
190.0508500437032
 30
0.0
 11
31.34999999999999
 21
190.729520010887
 31
0.0
  0
LWPOLYLINE
  5
A1
330
1F
100
AcDbEntity
  8
0
  6
CONTINUOUS
 62
     7
100
AcDbPolyline
 90
        5
 70
     0
 43
0.0
 10
19.01811346965798
 20
190.0508500437032
 10
17.62421885819475
 20
189.9580603001688
 10
16.58590544617139
 20
189.853249493642
 10
15.93978627034373
 20
189.7401134657322
 10
15.70864480327343
 20
189.6226416222394
  0
LINE
  5
A2
330
1F
100
AcDbEntity
  8
0
  6
CONTINUOUS
 62
     7
100
AcDbLine
 10
15.33111034604356
 20
187.3554200966426
 30
0.0
 11
15.70864480327345
 21
189.6226416222394
 31
0.0
  0
LINE
  5
A3
330
1F
100
AcDbEntity
  8
0
  6
CONTINUOUS
 62
     7
100
AcDbLine
 10
14.03037575068589
 20
187.3554200966426
 30
0.0
 11
15.33111034604356
 21
187.3554200966426
 31
0.0
  0
LINE
  5
A4
330
1F
100
AcDbEntity
  8
0
  6
CONTINUOUS
 62
     7
100
AcDbLine
 10
16.99042944056805
 20
217.3554200966427
 30
0.0
 11
12.90875141869377
 21
217.3554200966427
 31
0.0
  0
LINE
  5
A5
330
1F
100
AcDbEntity
  8
0
  6
CONTINUOUS
 62
     7
100
AcDbLine
 10
10.44445664768341
 20
247.3554200966426
 30
0.0
 11
15.07771278062181
 21
247.3554200966426
 31
0.0
  0
LINE
  5
A6
330
1F
100
AcDbEntity
  8
0
  6
CONTINUOUS
 62
     7
100
AcDbLine
 10
86.25554335231658
 20
247.3554200966426
 30
0.0
 11
81.6222872193782
 21
247.3554200966426
 31
0.0
  0
LINE
  5
A7
330
1F
100
AcDbEntity
  8
0
  6
CONTINUOUS
 62
     7
100
AcDbLine
 10
79.70957055943195
 20
217.3554200966427
 30
0.0
 11
83.79124858130623
 21
217.3554200966427
 31
0.0
  0
LINE
  5
A8
330
1F
100
AcDbEntity
  8
0
  6
CONTINUOUS
 62
     7
100
AcDbLine
 10
10.05
 20
247.3554200966426
 30
0.0
 11
10.44445664768344
 21
247.3554200966426
 31
0.0
  0
LINE
  5
A9
330
1F
100
AcDbEntity
  8
0
  6
CONTINUOUS
 62
     7
100
AcDbLine
 10
10.05
 20
286.8554391351104
 30
0.0
 11
10.05
 21
247.3554200966426
 31
0.0
  0
LINE
  5
AA
330
1F
100
AcDbEntity
  8
0
  6
CONTINUOUS
 62
     7
100
AcDbLine
 10
12.90875141869377
 20
217.3554200966427
 30
0.0
 11
12.53100372656352
 21
217.3554200966427
 31
0.0
  0
LINE
  5
AB
330
1F
100
AcDbEntity
  8
0
  6
CONTINUOUS
 62
     7
100
AcDbLine
 10
10.05
 20
247.3554200966426
 30
0.0
 11
12.53100372656352
 21
217.3554200966427
 31
0.0
  0
LINE
  5
AC
330
1F
100
AcDbEntity
  8
0
  6
CONTINUOUS
 62
     7
100
AcDbLine
 10
86.65
 20
247.3554200966426
 30
0.0
 11
84.16899627343649
 21
217.3554200966427
 31
0.0
  0
LINE
  5
AD
330
1F
100
AcDbEntity
  8
0
  6
CONTINUOUS
 62
     7
100
AcDbLine
 10
83.79124858130623
 20
217.3554200966427
 30
0.0
 11
84.16899627343649
 21
217.3554200966427
 31
0.0
  0
LINE
  5
AE
330
1F
100
AcDbEntity
  8
0
  6
CONTINUOUS
 62
     7
100
AcDbLine
 10
86.65
 20
247.3554200966426
 30
0.0
 11
86.25554335231658
 21
247.3554200966426
 31
0.0
  0
LINE
  5
AF
330
1F
100
AcDbEntity
  8
0
  6
CONTINUOUS
 62
     7
100
AcDbLine
 10
86.65
 20
286.8554391351104
 30
0.0
 11
86.65
 21
247.3554200966426
 31
0.0
  0
LWPOLYLINE
  5
B0
330
1F
100
AcDbEntity
  8
0
  6
CONTINUOUS
 62
     7
100
AcDbPolyline
 90
        9
 70
     0
 43
0.0
 10
10.5499809615321
 20
287.3554200966426
 10
10.45243748628102
 20
287.3458132995621
 10
10.35864365296016
 20
287.3173620564646
 10
10.27220355762774
 20
287.2711596269974
 10
10.19643872362744
 20
287.2089813730153
 10
10.13426046964524
 20
287.1332165390148
 10
10.08805804017786
 20
287.0467764436824
 10
10.05960679708048
 20
286.9529826103616
 10
10.05
 20
286.8554391351104
  0
LWPOLYLINE
  5
B1
330
1F
100
AcDbEntity
  8
0
  6
CONTINUOUS
 62
     7
100
AcDbPolyline
 90
        9
 70
     0
 43
0.0
 10
86.65
 20
286.8554391351104
 10
86.64039320291955
 20
286.9529826103616
 10
86.61194195982216
 20
287.0467764436824
 10
86.56573953035479
 20
287.1332165390148
 10
86.50356127637262
 20
287.2089813730153
 10
86.4277964423723
 20
287.2711596269974
 10
86.3413563470399
 20
287.3173620564646
 10
86.247562513719
 20
287.3458132995622
 10
86.15001903846795
 20
287.3554200966426
  0
LWPOLYLINE
  5
B2
330
1F
100
AcDbEntity
  8
0
  6
CONTINUOUS
 62
     7
100
AcDbPolyline
 90
        9
 70
     0
 43
0.0
 10
12.53100372656354
 20
188.85679260812
 10
12.55981019896599
 20
188.5638528360576
 10
12.64512324116596
 20
188.2821903984606
 10
12.78366622087135
 20
188.0226231517168
 10
12.97011809467036
 20
187.7951203385196
 10
13.19731777423634
 20
187.6084196974968
 10
13.45653916344595
 20
187.4696918714194
 10
13.73782630301354
 20
187.3842650031246
 10
14.03037575068589
 20
187.3554200966426
  0
LWPOLYLINE
  5
B3
330
1F
100
AcDbEntity
  8
0
  6
CONTINUOUS
 62
     7
100
AcDbPolyline
 90
        9
 70
     0
 43
0.0
 10
82.66962424931415
 20
187.3554200966426
 10
82.9621736969865
 20
187.3842650031246
 10
83.24346083655409
 20
187.4696918714194
 10
83.50268222576368
 20
187.6084196974968
 10
83.72988190532968
 20
187.7951203385196
 10
83.91633377912866
 20
188.0226231517168
 10
84.05487675883408
 20
188.2821903984606
 10
84.14018980103403
 20
188.5638528360576
 10
84.16899627343649
 20
188.85679260812
  0
LINE
  5
B4
330
1F
100
AcDbEntity
  8
0
  6
CONTINUOUS
 62
     7
100
AcDbLine
 10
12.53100372656352
 20
188.85679260812
 30
0.0
 11
12.53100372656352
 21
217.3554200966427
 31
0.0
  0
LINE
  5
B5
330
1F
100
AcDbEntity
  8
0
  6
CONTINUOUS
 62
     7
100
AcDbLine
 10
84.16899627343649
 20
188.85679260812
 30
0.0
 11
84.16899627343649
 21
217.3554200966427
 31
0.0
  0
LINE
  5
B6
330
1F
100
AcDbEntity
  8
0
  6
CONTINUOUS
 62
     7
100
AcDbLine
 10
83.80000000000001
 20
287.3055267161226
 30
0.0
 11
83.80000000000001
 21
287.3554200966426
 31
0.0
  0
LINE
  5
B7
330
1F
100
AcDbEntity
  8
0
  6
CONTINUOUS
 62
     7
100
AcDbLine
 10
83.47274245784655
 20
287.0281625544892
 30
0.0
 11
83.80000000000001
 21
287.3554200966426
 31
0.0
  0
LINE
  5
B8
330
1F
100
AcDbEntity
  8
0
  6
CONTINUOUS
 62
     7
100
AcDbLine
 10
83.47274245784655
 20
287.0281625544892
 30
0.0
 11
80.80000000000001
 21
287.0281625544892
 31
0.0
  0
LINE
  5
B9
330
1F
100
AcDbEntity
  8
0
  6
CONTINUOUS
 62
     7
100
AcDbLine
 10
83.80000000000001
 20
287.3554200966426
 30
0.0
 11
78.50428571428571
 21
287.3554200966426
 31
0.0
  0
LINE
  5
BA
330
1F
100
AcDbEntity
  8
0
  6
CONTINUOUS
 62
     7
100
AcDbLine
 10
18.19571428571429
 20
287.3554200966426
 30
0.0
 11
12.90000000000002
 21
287.3554200966426
 31
0.0
  0
LINE
  5
BB
330
1F
100
AcDbEntity
  8
0
  6
CONTINUOUS
 62
     7
100
AcDbLine
 10
15.9
 20
287.0281625544892
 30
0.0
 11
13.22725754215345
 21
287.0281625544892
 31
0.0
  0
LINE
  5
BC
330
1F
100
AcDbEntity
  8
0
  6
CONTINUOUS
 62
     7
100
AcDbLine
 10
12.90000000000002
 20
287.3554200966426
 30
0.0
 11
12.90000000000002
 21
287.3055267161226
 31
0.0
  0
LINE
  5
BD
330
1F
100
AcDbEntity
  8
0
  6
CONTINUOUS
 62
     7
100
AcDbLine
 10
16.1
 20
289.8554200966426
 30
0.0
 11
16.1
 21
289.1346413098365
 31
0.0
  0
LINE
  5
BE
330
1F
100
AcDbEntity
  8
0
  6
CONTINUOUS
 62
     7
100
AcDbLine
 10
80.60000000000001
 20
289.1346413098365
 30
0.0
 11
80.60000000000001
 21
289.8554200966426
 31
0.0
  0
ARC
  5
BF
330
1F
100
AcDbEntity
  8
0
  6
CONTINUOUS
 62
     7
100
AcDbCircle
 10
17.85
 20
289.1346413098365
 30
0.0
 40
1.750000000000002
100
AcDbArc
 50
179.9999999999995
 51
265.9060565554254
  0
ARC
  5
C0
330
1F
100
AcDbEntity
  8
0
  6
CONTINUOUS
 62
     7
100
AcDbCircle
 10
78.85000000000001
 20
289.1346413098365
 30
0.0
 40
1.750000000000029
100
AcDbArc
 50
274.0939434445746
 51
0.0000000000004547
  0
LINE
  5
C1
330
1F
100
AcDbEntity
  8
0
  6
CONTINUOUS
 62
     7
100
AcDbLine
 10
17.72506398665336
 20
287.3891067233648
 30
0.0
 11
20.06139200762666
 21
287.2218848813728
 31
0.0
  0
LINE
  5
C2
330
1F
100
AcDbEntity
  8
0
  6
CONTINUOUS
 62
     7
100
AcDbLine
 10
76.63860799237335
 20
287.2218848813728
 30
0.0
 11
78.97493601334665
 21
287.3891067233648
 31
0.0
  0
ARC
  5
C3
330
1F
100
AcDbEntity
  8
0
  6
CONTINUOUS
 62
     7
100
AcDbCircle
 10
19.99000000000001
 20
286.2244365462462
 30
0.0
 40
1.000000000000015
100
AcDbArc
 50
40.90863436369375
 51
85.90605655542532
  0
ARC
  5
C4
330
1F
100
AcDbEntity
  8
0
  6
CONTINUOUS
 62
     7
100
AcDbCircle
 10
76.71
 20
286.2244365462462
 30
0.0
 40
1.000000000000001
100
AcDbArc
 50
94.09394344457473
 51
139.0913656363043
  0
ARC
  5
C5
330
1F
100
AcDbEntity
  8
0
  6
CONTINUOUS
 62
     7
100
AcDbCircle
 10
17.85
 20
296.6346413098365
 30
0.0
 40
1.750000000000002
100
AcDbArc
 50
179.9999999999995
 51
265.9060565554254
  0
ARC
  5
C6
330
1F
100
AcDbEntity
  8
0
  6
CONTINUOUS
 62
     7
100
AcDbCircle
 10
78.85000000000001
 20
296.6346413098365
 30
0.0
 40
1.750000000000029
100
AcDbArc
 50
274.0939434445746
 51
0.0000000000004547
  0
LINE
  5
C7
330
1F
100
AcDbEntity
  8
0
  6
CONTINUOUS
 62
     7
100
AcDbLine
 10
16.1
 20
297.3554200966426
 30
0.0
 11
16.1
 21
296.6346413098365
 31
0.0
  0
LINE
  5
C8
330
1F
100
AcDbEntity
  8
0
  6
CONTINUOUS
 62
     7
100
AcDbLine
 10
80.60000000000001
 20
296.6346413098365
 30
0.0
 11
80.60000000000001
 21
297.3554200966426
 31
0.0
  0
ARC
  5
C9
330
1F
100
AcDbEntity
  8
0
  6
CONTINUOUS
 62
     7
100
AcDbCircle
 10
17.85
 20
290.5761988834488
 30
0.0
 40
1.74999999999996
100
AcDbArc
 50
94.09394344457428
 51
180.0
  0
ARC
  5
CA
330
1F
100
AcDbEntity
  8
0
  6
CONTINUOUS
 62
     7
100
AcDbCircle
 10
78.85000000000001
 20
290.5761988834488
 30
0.0
 40
1.750000000000002
100
AcDbArc
 50
0.0
 51
85.90605655542574
  0
LINE
  5
CB
330
1F
100
AcDbEntity
  8
0
  6
CONTINUOUS
 62
     7
100
AcDbLine
 10
16.1
 20
290.5761988834488
 30
0.0
 11
16.1
 21
289.8554200966426
 31
0.0
  0
LINE
  5
CC
330
1F
100
AcDbEntity
  8
0
  6
CONTINUOUS
 62
     7
100
AcDbLine
 10
80.60000000000001
 20
289.8554200966426
 30
0.0
 11
80.60000000000001
 21
290.5761988834488
 31
0.0
  0
LINE
  5
CD
330
1F
100
AcDbEntity
  8
0
  6
CONTINUOUS
 62
     7
100
AcDbLine
 10
17.72506398665336
 20
294.8891067233648
 30
0.0
 11
20.06139200762666
 21
294.7218848813728
 31
0.0
  0
LINE
  5
CE
330
1F
100
AcDbEntity
  8
0
  6
CONTINUOUS
 62
     7
100
AcDbLine
 10
76.63860799237335
 20
294.7218848813728
 30
0.0
 11
78.97493601334665
 21
294.8891067233648
 31
0.0
  0
LINE
  5
CF
330
1F
100
AcDbEntity
  8
0
  6
CONTINUOUS
 62
     7
100
AcDbLine
 10
78.97493601334665
 20
292.3217334699204
 30
0.0
 11
76.63860799237338
 21
292.4889553119124
 31
0.0
  0
LINE
  5
D0
330
1F
100
AcDbEntity
  8
0
  6
CONTINUOUS
 62
     7
100
AcDbLine
 10
20.06139200762666
 20
292.4889553119124
 30
0.0
 11
17.72506398665337
 21
292.3217334699204
 31
0.0
  0
ARC
  5
D1
330
1F
100
AcDbEntity
  8
0
  6
CONTINUOUS
 62
     7
100
AcDbCircle
 10
19.99000000000001
 20
293.4864036470392
 30
0.0
 40
1.000000000000001
100
AcDbArc
 50
274.0939434445743
 51
0.0
  0
ARC
  5
D2
330
1F
100
AcDbEntity
  8
0
  6
CONTINUOUS
 62
     7
100
AcDbCircle
 10
76.71
 20
293.4864036470392
 30
0.0
 40
1.000000000000001
100
AcDbArc
 50
180.0000000000007
 51
265.9060565554257
  0
ARC
  5
D3
330
1F
100
AcDbEntity
  8
0
  6
CONTINUOUS
 62
     7
100
AcDbCircle
 10
19.99000000000001
 20
293.7244365462462
 30
0.0
 40
1.000000000000015
100
AcDbArc
 50
0.0
 51
85.90605655542532
  0
ARC
  5
D4
330
1F
100
AcDbEntity
  8
0
  6
CONTINUOUS
 62
     7
100
AcDbCircle
 10
76.71
 20
293.7244365462462
 30
0.0
 40
1.000000000000001
100
AcDbArc
 50
94.09394344457468
 51
180.0
  0
LINE
  5
D5
330
1F
100
AcDbEntity
  8
0
  6
CONTINUOUS
 62
     7
100
AcDbLine
 10
20.99000000000001
 20
293.7244365462462
 30
0.0
 11
20.99000000000001
 21
293.4864036470392
 31
0.0
  0
LINE
  5
D6
330
1F
100
AcDbEntity
  8
0
  6
CONTINUOUS
 62
     7
100
AcDbLine
 10
75.71
 20
293.4864036470392
 30
0.0
 11
75.71
 21
293.7244365462462
 31
0.0
  0
LINE
  5
D7
330
1F
100
AcDbEntity
  8
0
  6
CONTINUOUS
 62
     7
100
AcDbLine
 10
16.1
 20
304.8554200966426
 30
0.0
 11
16.1
 21
304.1346413098364
 31
0.0
  0
LINE
  5
D8
330
1F
100
AcDbEntity
  8
0
  6
CONTINUOUS
 62
     7
100
AcDbLine
 10
80.60000000000001
 20
304.1346413098364
 30
0.0
 11
80.60000000000001
 21
304.8554200966426
 31
0.0
  0
LINE
  5
D9
330
1F
100
AcDbEntity
  8
0
  6
CONTINUOUS
 62
     7
100
AcDbLine
 10
16.1
 20
298.0761988834486
 30
0.0
 11
16.1
 21
297.3554200966426
 31
0.0
  0
LINE
  5
DA
330
1F
100
AcDbEntity
  8
0
  6
CONTINUOUS
 62
     7
100
AcDbLine
 10
80.60000000000001
 20
297.3554200966426
 30
0.0
 11
80.60000000000001
 21
298.0761988834486
 31
0.0
  0
ARC
  5
DB
330
1F
100
AcDbEntity
  8
0
  6
CONTINUOUS
 62
     7
100
AcDbCircle
 10
17.85
 20
298.0761988834486
 30
0.0
 40
1.750000000000015
100
AcDbArc
 50
94.09394344457428
 51
180.0
  0
ARC
  5
DC
330
1F
100
AcDbEntity
  8
0
  6
CONTINUOUS
 62
     7
100
AcDbCircle
 10
78.85000000000001
 20
298.0761988834486
 30
0.0
 40
1.750000000000002
100
AcDbArc
 50
0.0
 51
85.90605655542574
  0
ARC
  5
DD
330
1F
100
AcDbEntity
  8
0
  6
CONTINUOUS
 62
     7
100
AcDbCircle
 10
17.85
 20
304.1346413098364
 30
0.0
 40
1.750000000000002
100
AcDbArc
 50
179.9999999999995
 51
265.9060565554254
  0
ARC
  5
DE
330
1F
100
AcDbEntity
  8
0
  6
CONTINUOUS
 62
     7
100
AcDbCircle
 10
78.85000000000001
 20
304.1346413098364
 30
0.0
 40
1.750000000000029
100
AcDbArc
 50
274.0939434445746
 51
0.0000000000004547
  0
LINE
  5
DF
330
1F
100
AcDbEntity
  8
0
  6
CONTINUOUS
 62
     7
100
AcDbLine
 10
17.72506398665336
 20
302.3891067233648
 30
0.0
 11
20.06139200762666
 21
302.2218848813728
 31
0.0
  0
LINE
  5
E0
330
1F
100
AcDbEntity
  8
0
  6
CONTINUOUS
 62
     7
100
AcDbLine
 10
76.63860799237335
 20
302.2218848813728
 30
0.0
 11
78.97493601334665
 21
302.3891067233648
 31
0.0
  0
LINE
  5
E1
330
1F
100
AcDbEntity
  8
0
  6
CONTINUOUS
 62
     7
100
AcDbLine
 10
78.97493601334665
 20
299.8217334699204
 30
0.0
 11
76.63860799237338
 21
299.9889553119124
 31
0.0
  0
LINE
  5
E2
330
1F
100
AcDbEntity
  8
0
  6
CONTINUOUS
 62
     7
100
AcDbLine
 10
20.06139200762666
 20
299.9889553119124
 30
0.0
 11
17.72506398665337
 21
299.8217334699204
 31
0.0
  0
ARC
  5
E3
330
1F
100
AcDbEntity
  8
0
  6
CONTINUOUS
 62
     7
100
AcDbCircle
 10
19.99000000000001
 20
301.2244365462462
 30
0.0
 40
1.000000000000015
100
AcDbArc
 50
0.0
 51
85.90605655542532
  0
ARC
  5
E4
330
1F
100
AcDbEntity
  8
0
  6
CONTINUOUS
 62
     7
100
AcDbCircle
 10
76.71
 20
301.2244365462462
 30
0.0
 40
1.000000000000001
100
AcDbArc
 50
94.09394344457468
 51
180.0
  0
ARC
  5
E5
330
1F
100
AcDbEntity
  8
0
  6
CONTINUOUS
 62
     7
100
AcDbCircle
 10
19.99000000000001
 20
300.986403647039
 30
0.0
 40
1.000000000000001
100
AcDbArc
 50
274.0939434445743
 51
0.0
  0
ARC
  5
E6
330
1F
100
AcDbEntity
  8
0
  6
CONTINUOUS
 62
     7
100
AcDbCircle
 10
76.71
 20
300.9864036470392
 30
0.0
 40
1.000000000000001
100
AcDbArc
 50
180.0000000000007
 51
265.9060565554257
  0
LINE
  5
E7
330
1F
100
AcDbEntity
  8
0
  6
CONTINUOUS
 62
     7
100
AcDbLine
 10
20.99000000000001
 20
301.2244365462462
 30
0.0
 11
20.99000000000001
 21
300.986403647039
 31
0.0
  0
LINE
  5
E8
330
1F
100
AcDbEntity
  8
0
  6
CONTINUOUS
 62
     7
100
AcDbLine
 10
75.71
 20
300.986403647039
 30
0.0
 11
75.71
 21
301.2244365462462
 31
0.0
  0
LINE
  5
E9
330
1F
100
AcDbEntity
  8
0
  6
CONTINUOUS
 62
     7
100
AcDbLine
 10
16.1
 20
305.5761988834486
 30
0.0
 11
16.1
 21
304.8554200966426
 31
0.0
  0
LINE
  5
EA
330
1F
100
AcDbEntity
  8
0
  6
CONTINUOUS
 62
     7
100
AcDbLine
 10
80.60000000000001
 20
304.8554200966426
 30
0.0
 11
80.60000000000001
 21
305.5761988834486
 31
0.0
  0
ARC
  5
EB
330
1F
100
AcDbEntity
  8
0
  6
CONTINUOUS
 62
     7
100
AcDbCircle
 10
17.85
 20
305.5761988834486
 30
0.0
 40
1.750000000000015
100
AcDbArc
 50
94.09394344457428
 51
180.0
  0
ARC
  5
EC
330
1F
100
AcDbEntity
  8
0
  6
CONTINUOUS
 62
     7
100
AcDbCircle
 10
78.85000000000001
 20
305.5761988834486
 30
0.0
 40
1.750000000000002
100
AcDbArc
 50
0.0
 51
85.90605655542574
  0
LINE
  5
ED
330
1F
100
AcDbEntity
  8
0
  6
CONTINUOUS
 62
     7
100
AcDbLine
 10
16.1
 20
312.3554200966426
 30
0.0
 11
16.1
 21
311.6346413098366
 31
0.0
  0
LINE
  5
EE
330
1F
100
AcDbEntity
  8
0
  6
CONTINUOUS
 62
     7
100
AcDbLine
 10
80.60000000000001
 20
311.6346413098366
 30
0.0
 11
80.60000000000001
 21
312.3554200966426
 31
0.0
  0
ARC
  5
EF
330
1F
100
AcDbEntity
  8
0
  6
CONTINUOUS
 62
     7
100
AcDbCircle
 10
17.85
 20
311.6346413098366
 30
0.0
 40
1.750000000000002
100
AcDbArc
 50
179.9999999999995
 51
265.9060565554254
  0
ARC
  5
F0
330
1F
100
AcDbEntity
  8
0
  6
CONTINUOUS
 62
     7
100
AcDbCircle
 10
78.85000000000001
 20
311.6346413098366
 30
0.0
 40
1.750000000000029
100
AcDbArc
 50
274.0939434445746
 51
0.0000000000004547
  0
LINE
  5
F1
330
1F
100
AcDbEntity
  8
0
  6
CONTINUOUS
 62
     7
100
AcDbLine
 10
17.72506398665336
 20
309.8891067233648
 30
0.0
 11
20.06139200762666
 21
309.7218848813728
 31
0.0
  0
LINE
  5
F2
330
1F
100
AcDbEntity
  8
0
  6
CONTINUOUS
 62
     7
100
AcDbLine
 10
76.63860799237335
 20
309.7218848813728
 30
0.0
 11
78.97493601334665
 21
309.8891067233648
 31
0.0
  0
LINE
  5
F3
330
1F
100
AcDbEntity
  8
0
  6
CONTINUOUS
 62
     7
100
AcDbLine
 10
78.97493601334665
 20
307.3217334699204
 30
0.0
 11
76.63860799237338
 21
307.4889553119124
 31
0.0
  0
LINE
  5
F4
330
1F
100
AcDbEntity
  8
0
  6
CONTINUOUS
 62
     7
100
AcDbLine
 10
20.06139200762666
 20
307.4889553119124
 30
0.0
 11
17.72506398665337
 21
307.3217334699204
 31
0.0
  0
ARC
  5
F5
330
1F
100
AcDbEntity
  8
0
  6
CONTINUOUS
 62
     7
100
AcDbCircle
 10
19.99000000000001
 20
308.486403647039
 30
0.0
 40
1.000000000000001
100
AcDbArc
 50
274.0939434445743
 51
0.0
  0
ARC
  5
F6
330
1F
100
AcDbEntity
  8
0
  6
CONTINUOUS
 62
     7
100
AcDbCircle
 10
76.71
 20
308.4864036470392
 30
0.0
 40
1.000000000000001
100
AcDbArc
 50
180.0000000000007
 51
265.9060565554257
  0
ARC
  5
F7
330
1F
100
AcDbEntity
  8
0
  6
CONTINUOUS
 62
     7
100
AcDbCircle
 10
19.99000000000001
 20
308.7244365462462
 30
0.0
 40
1.000000000000015
100
AcDbArc
 50
0.0
 51
85.90605655542532
  0
ARC
  5
F8
330
1F
100
AcDbEntity
  8
0
  6
CONTINUOUS
 62
     7
100
AcDbCircle
 10
76.71
 20
308.7244365462462
 30
0.0
 40
1.000000000000001
100
AcDbArc
 50
94.09394344457468
 51
180.0
  0
LINE
  5
F9
330
1F
100
AcDbEntity
  8
0
  6
CONTINUOUS
 62
     7
100
AcDbLine
 10
20.99000000000001
 20
308.7244365462462
 30
0.0
 11
20.99000000000001
 21
308.486403647039
 31
0.0
  0
LINE
  5
FA
330
1F
100
AcDbEntity
  8
0
  6
CONTINUOUS
 62
     7
100
AcDbLine
 10
75.71
 20
308.486403647039
 30
0.0
 11
75.71
 21
308.7244365462462
 31
0.0
  0
LINE
  5
FB
330
1F
100
AcDbEntity
  8
0
  6
CONTINUOUS
 62
     7
100
AcDbLine
 10
16.1
 20
313.0761988834486
 30
0.0
 11
16.1
 21
312.3554200966426
 31
0.0
  0
LINE
  5
FC
330
1F
100
AcDbEntity
  8
0
  6
CONTINUOUS
 62
     7
100
AcDbLine
 10
80.60000000000001
 20
312.3554200966426
 30
0.0
 11
80.60000000000001
 21
313.0761988834486
 31
0.0
  0
ARC
  5
FD
330
1F
100
AcDbEntity
  8
0
  6
CONTINUOUS
 62
     7
100
AcDbCircle
 10
17.85
 20
319.1346413098364
 30
0.0
 40
1.750000000000002
100
AcDbArc
 50
179.9999999999995
 51
265.9060565554254
  0
ARC
  5
FE
330
1F
100
AcDbEntity
  8
0
  6
CONTINUOUS
 62
     7
100
AcDbCircle
 10
78.85000000000001
 20
319.1346413098364
 30
0.0
 40
1.750000000000029
100
AcDbArc
 50
274.0939434445746
 51
0.0000000000004547
  0
ARC
  5
FF
330
1F
100
AcDbEntity
  8
0
  6
CONTINUOUS
 62
     7
100
AcDbCircle
 10
17.85
 20
313.0761988834486
 30
0.0
 40
1.750000000000015
100
AcDbArc
 50
94.09394344457428
 51
180.0
  0
ARC
  5
100
330
1F
100
AcDbEntity
  8
0
  6
CONTINUOUS
 62
     7
100
AcDbCircle
 10
78.85000000000001
 20
313.0761988834486
 30
0.0
 40
1.750000000000002
100
AcDbArc
 50
0.0
 51
85.90605655542574
  0
LINE
  5
101
330
1F
100
AcDbEntity
  8
0
  6
CONTINUOUS
 62
     7
100
AcDbLine
 10
16.1
 20
319.8554200966427
 30
0.0
 11
16.1
 21
319.1346413098364
 31
0.0
  0
LINE
  5
102
330
1F
100
AcDbEntity
  8
0
  6
CONTINUOUS
 62
     7
100
AcDbLine
 10
80.60000000000001
 20
319.1346413098364
 30
0.0
 11
80.60000000000001
 21
319.8554200966427
 31
0.0
  0
LINE
  5
103
330
1F
100
AcDbEntity
  8
0
  6
CONTINUOUS
 62
     7
100
AcDbLine
 10
17.72506398665336
 20
317.3891067233648
 30
0.0
 11
20.06139200762666
 21
317.2218848813728
 31
0.0
  0
LINE
  5
104
330
1F
100
AcDbEntity
  8
0
  6
CONTINUOUS
 62
     7
100
AcDbLine
 10
76.63860799237335
 20
317.2218848813728
 30
0.0
 11
78.97493601334665
 21
317.3891067233648
 31
0.0
  0
LINE
  5
105
330
1F
100
AcDbEntity
  8
0
  6
CONTINUOUS
 62
     7
100
AcDbLine
 10
78.97493601334665
 20
314.8217334699204
 30
0.0
 11
76.63860799237338
 21
314.9889553119124
 31
0.0
  0
LINE
  5
106
330
1F
100
AcDbEntity
  8
0
  6
CONTINUOUS
 62
     7
100
AcDbLine
 10
20.06139200762666
 20
314.9889553119124
 30
0.0
 11
17.72506398665337
 21
314.8217334699204
 31
0.0
  0
ARC
  5
107
330
1F
100
AcDbEntity
  8
0
  6
CONTINUOUS
 62
     7
100
AcDbCircle
 10
19.99000000000001
 20
316.2244365462461
 30
0.0
 40
1.000000000000015
100
AcDbArc
 50
0.0
 51
85.90605655542532
  0
ARC
  5
108
330
1F
100
AcDbEntity
  8
0
  6
CONTINUOUS
 62
     7
100
AcDbCircle
 10
76.71
 20
316.2244365462461
 30
0.0
 40
1.000000000000001
100
AcDbArc
 50
94.09394344457468
 51
180.0
  0
ARC
  5
109
330
1F
100
AcDbEntity
  8
0
  6
CONTINUOUS
 62
     7
100
AcDbCircle
 10
19.99000000000001
 20
315.986403647039
 30
0.0
 40
1.000000000000001
100
AcDbArc
 50
274.0939434445743
 51
0.0
  0
ARC
  5
10A
330
1F
100
AcDbEntity
  8
0
  6
CONTINUOUS
 62
     7
100
AcDbCircle
 10
76.71
 20
315.986403647039
 30
0.0
 40
1.000000000000001
100
AcDbArc
 50
180.0000000000007
 51
265.9060565554257
  0
LINE
  5
10B
330
1F
100
AcDbEntity
  8
0
  6
CONTINUOUS
 62
     7
100
AcDbLine
 10
20.99000000000001
 20
316.2244365462461
 30
0.0
 11
20.99000000000001
 21
315.986403647039
 31
0.0
  0
LINE
  5
10C
330
1F
100
AcDbEntity
  8
0
  6
CONTINUOUS
 62
     7
100
AcDbLine
 10
75.71
 20
315.986403647039
 30
0.0
 11
75.71
 21
316.2244365462461
 31
0.0
  0
LINE
  5
10D
330
1F
100
AcDbEntity
  8
0
  6
CONTINUOUS
 62
     7
100
AcDbLine
 10
16.1
 20
320.5761988834486
 30
0.0
 11
16.1
 21
319.8554200966427
 31
0.0
  0
LINE
  5
10E
330
1F
100
AcDbEntity
  8
0
  6
CONTINUOUS
 62
     7
100
AcDbLine
 10
80.60000000000001
 20
319.8554200966427
 30
0.0
 11
80.60000000000001
 21
320.5761988834486
 31
0.0
  0
ARC
  5
10F
330
1F
100
AcDbEntity
  8
0
  6
CONTINUOUS
 62
     7
100
AcDbCircle
 10
17.85
 20
320.5761988834486
 30
0.0
 40
1.750000000000015
100
AcDbArc
 50
94.09394344457428
 51
180.0
  0
ARC
  5
110
330
1F
100
AcDbEntity
  8
0
  6
CONTINUOUS
 62
     7
100
AcDbCircle
 10
78.85000000000001
 20
320.5761988834486
 30
0.0
 40
1.750000000000002
100
AcDbArc
 50
0.0
 51
85.90605655542574
  0
LINE
  5
111
330
1F
100
AcDbEntity
  8
0
  6
CONTINUOUS
 62
     7
100
AcDbLine
 10
16.1
 20
327.3554200966427
 30
0.0
 11
16.1
 21
326.6346413098366
 31
0.0
  0
LINE
  5
112
330
1F
100
AcDbEntity
  8
0
  6
CONTINUOUS
 62
     7
100
AcDbLine
 10
80.60000000000001
 20
326.6346413098366
 30
0.0
 11
80.60000000000001
 21
327.3554200966427
 31
0.0
  0
ARC
  5
113
330
1F
100
AcDbEntity
  8
0
  6
CONTINUOUS
 62
     7
100
AcDbCircle
 10
17.85
 20
326.6346413098364
 30
0.0
 40
1.750000000000002
100
AcDbArc
 50
179.9999999999995
 51
265.9060565554254
  0
ARC
  5
114
330
1F
100
AcDbEntity
  8
0
  6
CONTINUOUS
 62
     7
100
AcDbCircle
 10
78.85000000000001
 20
326.6346413098364
 30
0.0
 40
1.749999999999974
100
AcDbArc
 50
274.0939434445746
 51
0.0000000000004547
  0
LINE
  5
115
330
1F
100
AcDbEntity
  8
0
  6
CONTINUOUS
 62
     7
100
AcDbLine
 10
17.72506398665336
 20
324.8891067233648
 30
0.0
 11
20.06139200762666
 21
324.7218848813728
 31
0.0
  0
LINE
  5
116
330
1F
100
AcDbEntity
  8
0
  6
CONTINUOUS
 62
     7
100
AcDbLine
 10
76.63860799237335
 20
324.7218848813728
 30
0.0
 11
78.97493601334665
 21
324.8891067233648
 31
0.0
  0
LINE
  5
117
330
1F
100
AcDbEntity
  8
0
  6
CONTINUOUS
 62
     7
100
AcDbLine
 10
78.97493601334665
 20
322.3217334699204
 30
0.0
 11
76.63860799237338
 21
322.4889553119124
 31
0.0
  0
LINE
  5
118
330
1F
100
AcDbEntity
  8
0
  6
CONTINUOUS
 62
     7
100
AcDbLine
 10
20.06139200762666
 20
322.4889553119124
 30
0.0
 11
17.72506398665337
 21
322.3217334699204
 31
0.0
  0
ARC
  5
119
330
1F
100
AcDbEntity
  8
0
  6
CONTINUOUS
 62
     7
100
AcDbCircle
 10
19.99000000000001
 20
323.7244365462462
 30
0.0
 40
0.9999999999999593
100
AcDbArc
 50
0.0
 51
85.90605655542532
  0
ARC
  5
11A
330
1F
100
AcDbEntity
  8
0
  6
CONTINUOUS
 62
     7
100
AcDbCircle
 10
76.71
 20
323.7244365462462
 30
0.0
 40
1.000000000000001
100
AcDbArc
 50
94.09394344457468
 51
180.0
  0
ARC
  5
11B
330
1F
100
AcDbEntity
  8
0
  6
CONTINUOUS
 62
     7
100
AcDbCircle
 10
19.99000000000001
 20
323.486403647039
 30
0.0
 40
1.000000000000001
100
AcDbArc
 50
274.0939434445743
 51
0.0
  0
ARC
  5
11C
330
1F
100
AcDbEntity
  8
0
  6
CONTINUOUS
 62
     7
100
AcDbCircle
 10
76.71
 20
323.486403647039
 30
0.0
 40
0.9999999999999454
100
AcDbArc
 50
180.0000000000007
 51
265.9060565554257
  0
LINE
  5
11D
330
1F
100
AcDbEntity
  8
0
  6
CONTINUOUS
 62
     7
100
AcDbLine
 10
20.99000000000001
 20
323.7244365462462
 30
0.0
 11
20.99000000000001
 21
323.486403647039
 31
0.0
  0
LINE
  5
11E
330
1F
100
AcDbEntity
  8
0
  6
CONTINUOUS
 62
     7
100
AcDbLine
 10
75.71
 20
323.486403647039
 30
0.0
 11
75.71
 21
323.7244365462462
 31
0.0
  0
LINE
  5
11F
330
1F
100
AcDbEntity
  8
0
  6
CONTINUOUS
 62
     7
100
AcDbLine
 10
16.1
 20
328.0761988834486
 30
0.0
 11
16.1
 21
327.3554200966427
 31
0.0
  0
LINE
  5
120
330
1F
100
AcDbEntity
  8
0
  6
CONTINUOUS
 62
     7
100
AcDbLine
 10
80.60000000000001
 20
327.3554200966427
 30
0.0
 11
80.60000000000001
 21
328.0761988834486
 31
0.0
  0
ARC
  5
121
330
1F
100
AcDbEntity
  8
0
  6
CONTINUOUS
 62
     7
100
AcDbCircle
 10
17.85
 20
328.0761988834486
 30
0.0
 40
1.750000000000015
100
AcDbArc
 50
94.09394344457428
 51
180.0
  0
ARC
  5
122
330
1F
100
AcDbEntity
  8
0
  6
CONTINUOUS
 62
     7
100
AcDbCircle
 10
78.85000000000001
 20
328.0761988834486
 30
0.0
 40
1.750000000000002
100
AcDbArc
 50
0.0
 51
85.90605655542574
  0
ARC
  5
123
330
1F
100
AcDbEntity
  8
0
  6
CONTINUOUS
 62
     7
100
AcDbCircle
 10
17.85
 20
334.1346413098364
 30
0.0
 40
1.750000000000002
100
AcDbArc
 50
179.9999999999995
 51
265.9060565554254
  0
ARC
  5
124
330
1F
100
AcDbEntity
  8
0
  6
CONTINUOUS
 62
     7
100
AcDbCircle
 10
78.85000000000001
 20
334.1346413098364
 30
0.0
 40
1.750000000000029
100
AcDbArc
 50
274.0939434445746
 51
0.0000000000004547
  0
LINE
  5
125
330
1F
100
AcDbEntity
  8
0
  6
CONTINUOUS
 62
     7
100
AcDbLine
 10
16.1
 20
334.8554200966427
 30
0.0
 11
16.1
 21
334.1346413098364
 31
0.0
  0
LINE
  5
126
330
1F
100
AcDbEntity
  8
0
  6
CONTINUOUS
 62
     7
100
AcDbLine
 10
80.60000000000001
 20
334.1346413098364
 30
0.0
 11
80.60000000000001
 21
334.8554200966427
 31
0.0
  0
LINE
  5
127
330
1F
100
AcDbEntity
  8
0
  6
CONTINUOUS
 62
     7
100
AcDbLine
 10
17.72506398665336
 20
332.3891067233648
 30
0.0
 11
20.06139200762666
 21
332.2218848813728
 31
0.0
  0
LINE
  5
128
330
1F
100
AcDbEntity
  8
0
  6
CONTINUOUS
 62
     7
100
AcDbLine
 10
76.63860799237335
 20
332.2218848813728
 30
0.0
 11
78.97493601334665
 21
332.3891067233648
 31
0.0
  0
LINE
  5
129
330
1F
100
AcDbEntity
  8
0
  6
CONTINUOUS
 62
     7
100
AcDbLine
 10
78.97493601334665
 20
329.8217334699204
 30
0.0
 11
76.63860799237338
 21
329.9889553119124
 31
0.0
  0
LINE
  5
12A
330
1F
100
AcDbEntity
  8
0
  6
CONTINUOUS
 62
     7
100
AcDbLine
 10
20.06139200762666
 20
329.9889553119124
 30
0.0
 11
17.72506398665337
 21
329.8217334699204
 31
0.0
  0
ARC
  5
12B
330
1F
100
AcDbEntity
  8
0
  6
CONTINUOUS
 62
     7
100
AcDbCircle
 10
19.99000000000001
 20
330.986403647039
 30
0.0
 40
1.000000000000001
100
AcDbArc
 50
274.0939434445743
 51
0.0
  0
ARC
  5
12C
330
1F
100
AcDbEntity
  8
0
  6
CONTINUOUS
 62
     7
100
AcDbCircle
 10
76.71
 20
330.986403647039
 30
0.0
 40
1.000000000000001
100
AcDbArc
 50
180.0000000000007
 51
265.9060565554257
  0
ARC
  5
12D
330
1F
100
AcDbEntity
  8
0
  6
CONTINUOUS
 62
     7
100
AcDbCircle
 10
19.99000000000001
 20
331.2244365462461
 30
0.0
 40
1.000000000000015
100
AcDbArc
 50
0.0
 51
85.90605655542532
  0
ARC
  5
12E
330
1F
100
AcDbEntity
  8
0
  6
CONTINUOUS
 62
     7
100
AcDbCircle
 10
76.71
 20
331.2244365462461
 30
0.0
 40
1.000000000000001
100
AcDbArc
 50
94.09394344457468
 51
180.0
  0
LINE
  5
12F
330
1F
100
AcDbEntity
  8
0
  6
CONTINUOUS
 62
     7
100
AcDbLine
 10
20.99000000000001
 20
331.2244365462461
 30
0.0
 11
20.99000000000001
 21
330.986403647039
 31
0.0
  0
LINE
  5
130
330
1F
100
AcDbEntity
  8
0
  6
CONTINUOUS
 62
     7
100
AcDbLine
 10
75.71
 20
330.986403647039
 30
0.0
 11
75.71
 21
331.2244365462461
 31
0.0
  0
LINE
  5
131
330
1F
100
AcDbEntity
  8
0
  6
CONTINUOUS
 62
     7
100
AcDbLine
 10
16.1
 20
335.5761988834486
 30
0.0
 11
16.1
 21
334.8554200966427
 31
0.0
  0
LINE
  5
132
330
1F
100
AcDbEntity
  8
0
  6
CONTINUOUS
 62
     7
100
AcDbLine
 10
80.60000000000001
 20
334.8554200966427
 30
0.0
 11
80.60000000000001
 21
335.2807698191294
 31
0.0
  0
ARC
  5
133
330
1F
100
AcDbEntity
  8
0
  6
CONTINUOUS
 62
     7
100
AcDbCircle
 10
17.85
 20
335.5761988834486
 30
0.0
 40
1.750000000000015
100
AcDbArc
 50
94.09394344457428
 51
180.0
  0
ARC
  5
134
330
1F
100
AcDbEntity
  8
0
  6
CONTINUOUS
 62
     7
100
AcDbCircle
 10
17.85
 20
341.6346413098365
 30
0.0
 40
1.750000000000002
100
AcDbArc
 50
204.4597200046985
 51
265.9060565554254
  0
LINE
  5
135
330
1F
100
AcDbEntity
  8
0
  6
CONTINUOUS
 62
     7
100
AcDbLine
 10
17.72506398665336
 20
339.8891067233648
 30
0.0
 11
20.06139200762666
 21
339.7218848813728
 31
0.0
  0
LINE
  5
136
330
1F
100
AcDbEntity
  8
0
  6
CONTINUOUS
 62
     7
100
AcDbLine
 10
20.06139200762666
 20
337.4889553119124
 30
0.0
 11
17.72506398665337
 21
337.3217334699204
 31
0.0
  0
ARC
  5
137
330
1F
100
AcDbEntity
  8
0
  6
CONTINUOUS
 62
     7
100
AcDbCircle
 10
19.99000000000001
 20
338.486403647039
 30
0.0
 40
1.000000000000001
100
AcDbArc
 50
274.0939434445743
 51
0.0
  0
ARC
  5
138
330
1F
100
AcDbEntity
  8
0
  6
CONTINUOUS
 62
     7
100
AcDbCircle
 10
19.99000000000001
 20
338.7244365462461
 30
0.0
 40
1.000000000000015
100
AcDbArc
 50
0.0
 51
85.90605655542532
  0
LINE
  5
139
330
1F
100
AcDbEntity
  8
0
  6
CONTINUOUS
 62
     7
100
AcDbLine
 10
20.99000000000001
 20
338.7244365462461
 30
0.0
 11
20.99000000000001
 21
338.486403647039
 31
0.0
  0
LINE
  5
13A
330
1F
100
AcDbEntity
  8
0
  6
CONTINUOUS
 62
     7
100
AcDbLine
 10
16.1
 20
351.6445674033574
 30
0.0
 11
80.60000000000001
 21
351.6445674033574
 31
0.0
  0
LINE
  5
13B
330
1F
100
AcDbEntity
  8
0
  6
CONTINUOUS
 62
     7
100
AcDbLine
 10
16.1
 20
359.1445674033574
 30
0.0
 11
80.60000000000001
 21
359.1445674033574
 31
0.0
  0
LINE
  5
13C
330
1F
100
AcDbEntity
  8
0
  6
CONTINUOUS
 62
     7
100
AcDbLine
 10
16.1
 20
351.6445674033574
 30
0.0
 11
80.60000000000001
 21
351.6445674033574
 31
0.0
  0
LINE
  5
13D
330
1F
100
AcDbEntity
  8
0
  6
CONTINUOUS
 62
     7
100
AcDbLine
 10
16.1
 20
359.1445674033574
 30
0.0
 11
80.60000000000001
 21
359.1445674033574
 31
0.0
  0
LINE
  5
13E
330
1F
100
AcDbEntity
  8
0
  6
CONTINUOUS
 62
     7
100
AcDbLine
 10
16.1
 20
366.6445674033574
 30
0.0
 11
80.60000000000001
 21
366.6445674033574
 31
0.0
  0
LINE
  5
13F
330
1F
100
AcDbEntity
  8
0
  6
CONTINUOUS
 62
     7
100
AcDbLine
 10
16.1
 20
366.6445674033574
 30
0.0
 11
80.60000000000001
 21
366.6445674033574
 31
0.0
  0
LINE
  5
140
330
1F
100
AcDbEntity
  8
0
  6
CONTINUOUS
 62
     7
100
AcDbLine
 10
16.1
 20
374.1445674033574
 30
0.0
 11
80.60000000000001
 21
374.1445674033574
 31
0.0
  0
LINE
  5
141
330
1F
100
AcDbEntity
  8
0
  6
CONTINUOUS
 62
     7
100
AcDbLine
 10
16.1
 20
381.6445674033574
 30
0.0
 11
80.60000000000001
 21
381.6445674033574
 31
0.0
  0
LINE
  5
142
330
1F
100
AcDbEntity
  8
0
  6
CONTINUOUS
 62
     7
100
AcDbLine
 10
16.1
 20
374.1445674033574
 30
0.0
 11
80.60000000000001
 21
374.1445674033574
 31
0.0
  0
LINE
  5
143
330
1F
100
AcDbEntity
  8
0
  6
CONTINUOUS
 62
     7
100
AcDbLine
 10
16.1
 20
381.6445674033574
 30
0.0
 11
80.60000000000001
 21
381.6445674033574
 31
0.0
  0
LINE
  5
144
330
1F
100
AcDbEntity
  8
0
  6
CONTINUOUS
 62
     7
100
AcDbLine
 10
83.79999999999998
 20
384.1445674033574
 30
0.0
 11
83.79999999999998
 21
384.1944607838774
 31
0.0
  0
LINE
  5
145
330
1F
100
AcDbEntity
  8
0
  6
CONTINUOUS
 62
     7
100
AcDbLine
 10
13.22725754215345
 20
384.471824945511
 30
0.0
 11
12.9
 21
384.1445674033574
 31
0.0
  0
LINE
  5
146
330
1F
100
AcDbEntity
  8
0
  6
CONTINUOUS
 62
     7
100
AcDbLine
 10
13.22725754215345
 20
384.471824945511
 30
0.0
 11
15.89999999999998
 21
384.471824945511
 31
0.0
  0
LINE
  5
147
330
1F
100
AcDbEntity
  8
0
  6
CONTINUOUS
 62
     7
100
AcDbLine
 10
12.9
 20
384.1445674033574
 30
0.0
 11
18.19571428571384
 21
384.1445674033574
 31
0.0
  0
LINE
  5
148
330
1F
100
AcDbEntity
  8
0
  6
CONTINUOUS
 62
     7
100
AcDbLine
 10
78.5042857142862
 20
384.1445674033574
 30
0.0
 11
83.79999999999998
 21
384.1445674033574
 31
0.0
  0
LINE
  5
149
330
1F
100
AcDbEntity
  8
0
  6
CONTINUOUS
 62
     7
100
AcDbLine
 10
12.9
 20
384.1944607838774
 30
0.0
 11
12.9
 21
384.1445674033574
 31
0.0
  0
LINE
  5
14A
330
1F
100
AcDbEntity
  8
0
  6
CONTINUOUS
 62
     7
100
AcDbLine
 10
48.34999999999994
 20
454.1445674033574
 30
0.0
 11
66.63448924034206
 21
454.1445674033574
 31
0.0
  0
LINE
  5
14B
330
1F
100
AcDbEntity
  8
0
  6
CONTINUOUS
 62
     7
100
AcDbLine
 10
66.62308035941535
 20
424.1445674033574
 30
0.0
 11
66.63448924034212
 21
454.1445674033574
 31
0.0
  0
LINE
  5
14C
330
1F
100
AcDbEntity
  8
0
  6
CONTINUOUS
 62
     7
100
AcDbLine
 10
66.62308035941535
 20
424.1445674033574
 30
0.0
 11
48.34999999999994
 21
424.1445674033574
 31
0.0
  0
LINE
  5
14D
330
1F
100
AcDbEntity
  8
0
  6
CONTINUOUS
 62
     7
100
AcDbLine
 10
30.07691964058462
 20
424.1445674033574
 30
0.0
 11
30.06551075965787
 21
454.1445674033574
 31
0.0
  0
LINE
  5
14E
330
1F
100
AcDbEntity
  8
0
  6
CONTINUOUS
 62
     7
100
AcDbLine
 10
48.34999999999994
 20
454.1445674033574
 30
0.0
 11
30.06551075965777
 21
454.1445674033574
 31
0.0
  0
LINE
  5
14F
330
1F
100
AcDbEntity
  8
0
  6
CONTINUOUS
 62
     7
100
AcDbLine
 10
30.07691964058462
 20
424.1445674033574
 30
0.0
 11
48.35000000000003
 21
424.1445674033574
 31
0.0
  0
LINE
  5
150
330
1F
100
AcDbEntity
  8
0
  6
CONTINUOUS
 62
     7
100
AcDbLine
 10
30.07691964058463
 20
385.273315336092
 30
0.0
 11
30.07691964058462
 21
424.1445674033574
 31
0.0
  0
LINE
  5
151
330
1F
100
AcDbEntity
  8
0
  6
CONTINUOUS
 62
     7
100
AcDbLine
 10
66.62308035941533
 20
385.273315336092
 30
0.0
 11
66.62308035941535
 21
424.1445674033574
 31
0.0
  0
LINE
  5
152
330
1F
100
AcDbEntity
  8
0
  6
CONTINUOUS
 62
     7
100
AcDbLine
 10
66.62308035941533
 20
385.2719707210218
 30
0.0
 11
66.62308035941533
 21
385.273315336092
 31
0.0
  0
LINE
  5
153
330
1F
100
AcDbEntity
  8
0
  6
CONTINUOUS
 62
     7
100
AcDbLine
 10
30.07691964058463
 20
385.2719707210218
 30
0.0
 11
30.07691964058463
 21
385.273315336092
 31
0.0
  0
LINE
  5
154
330
1F
100
AcDbEntity
  8
0
  6
CONTINUOUS
 62
     7
100
AcDbLine
 10
66.62308035941533
 20
385.2719707210218
 30
0.0
 11
66.3954175605161
 21
384.7721024974514
 31
0.0
  0
LINE
  5
155
330
1F
100
AcDbEntity
  8
0
  6
CONTINUOUS
 62
     7
100
AcDbLine
 10
30.07691964058463
 20
385.2719707210218
 30
0.0
 11
30.30458243948389
 21
384.7721024974514
 31
0.0
  0
LINE
  5
156
330
1F
100
AcDbEntity
  8
0
  6
CONTINUOUS
 62
     7
100
AcDbLine
 10
83.5226358383665
 20
384.471824945511
 30
0.0
 11
80.80000000000001
 21
384.471824945511
 31
0.0
  0
LWPOLYLINE
  5
157
330
1F
100
AcDbEntity
  8
0
  6
CONTINUOUS
 62
     7
100
AcDbPolyline
 90
       17
 70
     0
 43
0.0
 10
80.79999999999998
 20
384.471824945511
 10
80.17648234908484
 20
384.527071961182
 10
78.32989082999129
 20
384.5801958650238
 10
75.33118891921764
 20
384.6291551352039
 10
71.29561504950354
 20
384.6720682944256
 10
66.37825406148623
 20
384.7072862140464
 10
60.76807738024733
 20
384.7334554891656
 10
54.68068094942358
 20
384.7495704492164
 10
48.35000000000022
 20
384.7550118053212
 10
42.01931905057688
 20
384.7495704492164
 10
35.9319226197531
 20
384.7334554891658
 10
30.32174593851417
 20
384.7072862140464
 10
25.40438495049675
 20
384.6720682944256
 10
21.36881108078259
 20
384.6291551352039
 10
18.37010917000888
 20
384.5801958650238
 10
16.52351765091524
 20
384.527071961182
 10
15.9
 20
384.471824945511
  0
LINE
  5
158
330
1F
100
AcDbEntity
  8
0
  6
CONTINUOUS
 62
     7
100
AcDbLine
 10
13.17736416163349
 20
384.471824945511
 30
0.0
 11
15.89999999999998
 21
384.471824945511
 31
0.0
  0
LINE
  5
159
330
1F
100
AcDbEntity
  8
0
  6
CONTINUOUS
 62
     7
100
AcDbLine
 10
13.17736416163349
 20
384.471824945511
 30
0.0
 11
12.85010661948006
 21
384.1445674033574
 31
0.0
  0
LINE
  5
15A
330
1F
100
AcDbEntity
  8
0
  6
CONTINUOUS
 62
     7
100
AcDbLine
 10
12.85010661948006
 20
384.1445674033574
 30
0.0
 11
10.54998096153208
 21
384.1445674033574
 31
0.0
  0
LINE
  5
15B
330
1F
100
AcDbEntity
  8
0
  6
CONTINUOUS
 62
     7
100
AcDbLine
 10
83.84989338051996
 20
384.1445674033574
 30
0.0
 11
86.15001903846792
 21
384.1445674033574
 31
0.0
  0
LINE
  5
15C
330
1F
100
AcDbEntity
  8
0
  6
CONTINUOUS
 62
     7
100
AcDbLine
 10
15.07771278062181
 20
424.1445674033574
 30
0.0
 11
30.07691964058463
 21
424.1445674033574
 31
0.0
  0
LINE
  5
15D
330
1F
100
AcDbEntity
  8
0
  6
CONTINUOUS
 62
     7
100
AcDbLine
 10
66.63448924034226
 20
454.1445674033574
 30
0.0
 11
79.70957055943195
 21
454.1445674033574
 31
0.0
  0
LINE
  5
15E
330
1F
100
AcDbEntity
  8
0
  6
CONTINUOUS
 62
     7
100
AcDbLine
 10
81.6222872193782
 20
424.1445674033574
 30
0.0
 11
66.62308035941535
 21
424.1445674033574
 31
0.0
  0
LINE
  5
15F
330
1F
100
AcDbEntity
  8
0
  6
CONTINUOUS
 62
     7
100
AcDbLine
 10
30.06551075965774
 20
454.1445674033574
 30
0.0
 11
16.99042944056805
 21
454.1445674033574
 31
0.0
  0
LINE
  5
160
330
1F
100
AcDbEntity
  8
0
  6
CONTINUOUS
 62
     7
100
AcDbLine
 10
30.06551075965774
 20
479.1805243879896
 30
0.0
 11
30.06551075965784
 21
454.1445674033574
 31
0.0
  0
LINE
  5
161
330
1F
100
AcDbEntity
  8
0
  6
CONTINUOUS
 62
     7
100
AcDbLine
 10
30.06580071739938
 20
479.2046881300116
 30
0.0
 11
30.06551075965774
 21
479.1805243879896
 31
0.0
  0
LINE
  5
162
330
1F
100
AcDbEntity
  8
0
  6
CONTINUOUS
 62
     7
100
AcDbLine
 10
66.63448924034226
 20
479.1805243879896
 30
0.0
 11
66.63419928260072
 21
479.2046881300116
 31
0.0
  0
LINE
  5
163
330
1F
100
AcDbEntity
  8
0
  6
CONTINUOUS
 62
     7
100
AcDbLine
 10
66.63448924034226
 20
479.1805243879896
 30
0.0
 11
66.63448924034218
 21
454.1445674033574
 31
0.0
  0
LWPOLYLINE
  5
164
330
1F
100
AcDbEntity
  8
0
  6
CONTINUOUS
 62
     7
100
AcDbPolyline
 90
        5
 70
     0
 43
0.0
 10
-65.94573873234596
 20
480.7003450898957
 10
-66.13277845211154
 20
480.6234068181182
 10
-66.28426953066845
 20
480.4697132250467
 10
-66.41206433083957
 20
480.2537744468508
 10
-66.496434290612
 20
480.042453565772
210
0.0
220
0.0
230
-1.0
  0
ARC
  5
165
330
1F
100
AcDbEntity
  8
0
  6
CONTINUOUS
 62
     7
100
AcDbCircle
 10
63.67273700581216
 20
479.1479052100916
 30
0.0
 40
2.962006603104805
100
AcDbArc
 50
1.098451625413588
 51
17.57822117183292
  0
LWPOLYLINE
  5
166
330
1F
100
AcDbEntity
  8
0
  6
CONTINUOUS
 62
     7
100
AcDbPolyline
 90
        5
 70
     0
 43
0.0
 10
30.75426126765402
 20
480.7003450898957
 10
30.56722154788845
 20
480.6234068181182
 10
30.41573046933155
 20
480.4697132250467
 10
30.28793566916042
 20
480.2537744468508
 10
30.20356570938799
 20
480.042453565772
  0
ARC
  5
167
330
1F
100
AcDbEntity
  8
0
  6
CONTINUOUS
 62
     7
100
AcDbCircle
 10
33.02726299418485
 20
479.1479052100924
 30
0.0
 40
2.962006603101683
100
AcDbArc
 50
162.421778828166
 51
178.9015483746024
  0
LINE
  5
168
330
1F
100
AcDbEntity
  8
0
  6
CONTINUOUS
 62
     7
100
AcDbLine
 10
14.03037575068586
 20
484.1445674033574
 30
0.0
 11
15.33111034604356
 21
484.1445674033574
 31
0.0
  0
LINE
  5
169
330
1F
100
AcDbEntity
  8
0
  6
CONTINUOUS
 62
     7
100
AcDbLine
 10
15.33111034604356
 20
484.1445674033574
 30
0.0
 11
15.70864480327343
 21
481.8773458777605
 31
0.0
  0
LWPOLYLINE
  5
16A
330
1F
100
AcDbEntity
  8
0
  6
CONTINUOUS
 62
     7
100
AcDbPolyline
 90
        5
 70
     0
 43
0.0
 10
15.70864480327343
 20
481.8773458777605
 10
15.93978627034373
 20
481.7598740342678
 10
16.58590544617139
 20
481.646738006358
 10
17.62421885819475
 20
481.5419271998312
 10
19.018113469658
 20
481.4491374562968
  0
LINE
  5
16B
330
1F
100
AcDbEntity
  8
0
  6
CONTINUOUS
 62
     7
100
AcDbLine
 10
19.018113469658
 20
481.449137456297
 30
0.0
 11
31.34999999999999
 21
480.770467489113
 31
0.0
  0
LINE
  5
16C
330
1F
100
AcDbEntity
  8
0
  6
CONTINUOUS
 62
     7
100
AcDbLine
 10
31.34999999999991
 20
480.770467489113
 30
0.0
 11
65.35000000000005
 21
480.770467489113
 31
0.0
  0
LINE
  5
16D
330
1F
100
AcDbEntity
  8
0
  6
CONTINUOUS
 62
     7
100
AcDbLine
 10
77.68188653034203
 20
481.4491374562968
 30
0.0
 11
65.35000000000002
 21
480.770467489113
 31
0.0
  0
LWPOLYLINE
  5
16E
330
1F
100
AcDbEntity
  8
0
  6
CONTINUOUS
 62
     7
100
AcDbPolyline
 90
        5
 70
     0
 43
0.0
 10
77.68188653034203
 20
481.4491374562968
 10
79.07578114180525
 20
481.5419271998312
 10
80.11409455382862
 20
481.646738006358
 10
80.76021372965627
 20
481.7598740342678
 10
80.99135519672656
 20
481.8773458777605
  0
LINE
  5
16F
330
1F
100
AcDbEntity
  8
0
  6
CONTINUOUS
 62
     7
100
AcDbLine
 10
81.36888965395644
 20
484.1445674033574
 30
0.0
 11
80.99135519672656
 21
481.8773458777605
 31
0.0
  0
LINE
  5
170
330
1F
100
AcDbEntity
  8
0
  6
CONTINUOUS
 62
     7
100
AcDbLine
 10
82.66962424931413
 20
484.1445674033574
 30
0.0
 11
81.36888965395644
 21
484.1445674033574
 31
0.0
  0
LINE
  5
171
330
1F
100
AcDbEntity
  8
0
  6
CONTINUOUS
 62
     7
100
AcDbLine
 10
86.25554335231658
 20
424.1445674033574
 30
0.0
 11
81.6222872193782
 21
424.1445674033574
 31
0.0
  0
LINE
  5
172
330
1F
100
AcDbEntity
  8
0
  6
CONTINUOUS
 62
     7
100
AcDbLine
 10
79.70957055943195
 20
454.1445674033574
 30
0.0
 11
83.79124858130623
 21
454.1445674033574
 31
0.0
  0
LINE
  5
173
330
1F
100
AcDbEntity
  8
0
  6
CONTINUOUS
 62
     7
100
AcDbLine
 10
10.44445664768341
 20
424.1445674033574
 30
0.0
 11
15.0777127806218
 21
424.1445674033574
 31
0.0
  0
LINE
  5
174
330
1F
100
AcDbEntity
  8
0
  6
CONTINUOUS
 62
     7
100
AcDbLine
 10
16.99042944056805
 20
454.1445674033574
 30
0.0
 11
12.90875141869377
 21
454.1445674033574
 31
0.0
  0
LINE
  5
175
330
1F
100
AcDbEntity
  8
0
  6
CONTINUOUS
 62
     7
100
AcDbLine
 10
86.65
 20
424.1445674033574
 30
0.0
 11
86.25554335231655
 21
424.1445674033574
 31
0.0
  0
LINE
  5
176
330
1F
100
AcDbEntity
  8
0
  6
CONTINUOUS
 62
     7
100
AcDbLine
 10
86.65
 20
384.6445483648897
 30
0.0
 11
86.65
 21
424.1445674033574
 31
0.0
  0
LINE
  5
177
330
1F
100
AcDbEntity
  8
0
  6
CONTINUOUS
 62
     7
100
AcDbLine
 10
10.04999999999998
 20
424.1445674033574
 30
0.0
 11
10.44445664768341
 21
424.1445674033574
 31
0.0
  0
LINE
  5
178
330
1F
100
AcDbEntity
  8
0
  6
CONTINUOUS
 62
     7
100
AcDbLine
 10
10.04999999999998
 20
384.6445483648897
 30
0.0
 11
10.04999999999998
 21
424.1445674033574
 31
0.0
  0
LINE
  5
179
330
1F
100
AcDbEntity
  8
0
  6
CONTINUOUS
 62
     7
100
AcDbLine
 10
83.79124858130623
 20
454.1445674033574
 30
0.0
 11
84.16899627343649
 21
454.1445674033574
 31
0.0
  0
LINE
  5
17A
330
1F
100
AcDbEntity
  8
0
  6
CONTINUOUS
 62
     7
100
AcDbLine
 10
86.65
 20
424.1445674033574
 30
0.0
 11
84.16899627343649
 21
454.1445674033574
 31
0.0
  0
LINE
  5
17B
330
1F
100
AcDbEntity
  8
0
  6
CONTINUOUS
 62
     7
100
AcDbLine
 10
10.04999999999998
 20
424.1445674033574
 30
0.0
 11
12.53100372656352
 21
454.1445674033574
 31
0.0
  0
LINE
  5
17C
330
1F
100
AcDbEntity
  8
0
  6
CONTINUOUS
 62
     7
100
AcDbLine
 10
12.90875141869377
 20
454.1445674033574
 30
0.0
 11
12.53100372656352
 21
454.1445674033574
 31
0.0
  0
LWPOLYLINE
  5
17D
330
1F
100
AcDbEntity
  8
0
  6
CONTINUOUS
 62
     7
100
AcDbPolyline
 90
        9
 70
     0
 43
0.0
 10
86.15001903846789
 20
384.1445674033574
 10
86.24756251371896
 20
384.154174200438
 10
86.34135634703982
 20
384.1826254435354
 10
86.42779644237223
 20
384.2288278730027
 10
86.50356127637254
 20
384.2910061269848
 10
86.56573953035473
 20
384.3667709609853
 10
86.6119419598221
 20
384.4532110563176
 10
86.64039320291953
 20
384.5470048896386
 10
86.64999999999998
 20
384.6445483648897
  0
LWPOLYLINE
  5
17E
330
1F
100
AcDbEntity
  8
0
  6
CONTINUOUS
 62
     7
100
AcDbPolyline
 90
        9
 70
     0
 43
0.0
 10
10.04999999999998
 20
384.6445483648897
 10
10.05960679708046
 20
384.5470048896386
 10
10.08805804017786
 20
384.4532110563176
 10
10.13426046964524
 20
384.3667709609853
 10
10.19643872362741
 20
384.291006126985
 10
10.27220355762774
 20
384.2288278730027
 10
10.35864365296016
 20
384.1826254435354
 10
10.45243748628102
 20
384.154174200438
 10
10.5499809615321
 20
384.1445674033574
  0
LWPOLYLINE
  5
17F
330
1F
100
AcDbEntity
  8
0
  6
CONTINUOUS
 62
     7
100
AcDbPolyline
 90
        9
 70
     0
 43
0.0
 10
84.16899627343646
 20
482.64319489188
 10
84.140189801034
 20
482.9361346639424
 10
84.05487675883406
 20
483.2177971015394
 10
83.91633377912866
 20
483.4773643482832
 10
83.72988190532962
 20
483.7048671614804
 10
83.50268222576368
 20
483.8915678025029
 10
83.24346083655406
 20
484.0302956285805
 10
82.96217369698647
 20
484.1157224968753
 10
82.66962424931413
 20
484.1445674033572
  0
LWPOLYLINE
  5
180
330
1F
100
AcDbEntity
  8
0
  6
CONTINUOUS
 62
     7
100
AcDbPolyline
 90
        9
 70
     0
 43
0.0
 10
14.03037575068589
 20
484.1445674033572
 10
13.73782630301354
 20
484.1157224968753
 10
13.45653916344597
 20
484.0302956285805
 10
13.19731777423637
 20
483.8915678025029
 10
12.97011809467037
 20
483.7048671614804
 10
12.78366622087137
 20
483.4773643482832
 10
12.645123241166
 20
483.2177971015394
 10
12.55981019896604
 20
482.9361346639424
 10
12.53100372656357
 20
482.64319489188
  0
LINE
  5
181
330
1F
100
AcDbEntity
  8
0
  6
CONTINUOUS
 62
     7
100
AcDbLine
 10
84.16899627343649
 20
482.64319489188
 30
0.0
 11
84.16899627343649
 21
454.1445674033574
 31
0.0
  0
LINE
  5
182
330
1F
100
AcDbEntity
  8
0
  6
CONTINUOUS
 62
     7
100
AcDbLine
 10
12.53100372656352
 20
482.64319489188
 30
0.0
 11
12.53100372656352
 21
454.1445674033574
 31
0.0
  0
ARC
  5
183
330
1F
100
AcDbEntity
  8
0
  6
CONTINUOUS
 62
     7
100
AcDbCircle
 10
78.85000000000001
 20
344.8653461901636
 30
0.0
 40
1.750000000000002
100
AcDbArc
 50
13.8830398139861
 51
85.90605655542569
  0
ARC
  5
184
330
1F
100
AcDbEntity
  8
0
  6
CONTINUOUS
 62
     7
100
AcDbCircle
 10
17.85
 20
350.9237886165514
 30
0.0
 40
1.750000000000002
100
AcDbArc
 50
180.0
 51
265.9060565554254
  0
ARC
  5
185
330
1F
100
AcDbEntity
  8
0
  6
CONTINUOUS
 62
     7
100
AcDbCircle
 10
78.85000000000001
 20
350.9237886165514
 30
0.0
 40
1.750000000000029
100
AcDbArc
 50
274.0939434445746
 51
0.0
  0
LINE
  5
186
330
1F
100
AcDbEntity
  8
0
  6
CONTINUOUS
 62
     7
100
AcDbLine
 10
16.1
 20
351.6445674033574
 30
0.0
 11
16.1
 21
350.9237886165514
 31
0.0
  0
LINE
  5
187
330
1F
100
AcDbEntity
  8
0
  6
CONTINUOUS
 62
     7
100
AcDbLine
 10
80.60000000000001
 20
350.9237886165514
 30
0.0
 11
80.60000000000001
 21
351.6445674033574
 31
0.0
  0
LINE
  5
188
330
1F
100
AcDbEntity
  8
0
  6
CONTINUOUS
 62
     7
100
AcDbLine
 10
76.63860799237335
 20
349.0110321880877
 30
0.0
 11
78.97493601334665
 21
349.1782540300796
 31
0.0
  0
LINE
  5
189
330
1F
100
AcDbEntity
  8
0
  6
CONTINUOUS
 62
     7
100
AcDbLine
 10
78.97493601334665
 20
346.6108807766353
 30
0.0
 11
76.63860799237335
 21
346.7781026186273
 31
0.0
  0
ARC
  5
18A
330
1F
100
AcDbEntity
  8
0
  6
CONTINUOUS
 62
     7
100
AcDbCircle
 10
76.71
 20
348.0135838529611
 30
0.0
 40
1.000000000000001
100
AcDbArc
 50
94.09394344457463
 51
180.0
  0
ARC
  5
18B
330
1F
100
AcDbEntity
  8
0
  6
CONTINUOUS
 62
     7
100
AcDbCircle
 10
76.71
 20
347.775550953754
 30
0.0
 40
1.000000000000001
100
AcDbArc
 50
180.0
 51
265.9060565554256
  0
LINE
  5
18C
330
1F
100
AcDbEntity
  8
0
  6
CONTINUOUS
 62
     7
100
AcDbLine
 10
75.71
 20
347.775550953754
 30
0.0
 11
75.71
 21
348.0135838529611
 31
0.0
  0
LINE
  5
18D
330
1F
100
AcDbEntity
  8
0
  6
CONTINUOUS
 62
     7
100
AcDbLine
 10
16.1
 20
359.1445674033574
 30
0.0
 11
16.1
 21
358.4237886165515
 31
0.0
  0
LINE
  5
18E
330
1F
100
AcDbEntity
  8
0
  6
CONTINUOUS
 62
     7
100
AcDbLine
 10
80.60000000000001
 20
358.4237886165515
 30
0.0
 11
80.60000000000001
 21
359.1445674033574
 31
0.0
  0
ARC
  5
18F
330
1F
100
AcDbEntity
  8
0
  6
CONTINUOUS
 62
     7
100
AcDbCircle
 10
17.85
 20
358.4237886165515
 30
0.0
 40
1.750000000000002
100
AcDbArc
 50
180.0
 51
265.9060565554254
  0
ARC
  5
190
330
1F
100
AcDbEntity
  8
0
  6
CONTINUOUS
 62
     7
100
AcDbCircle
 10
78.85000000000001
 20
358.4237886165515
 30
0.0
 40
1.749999999999974
100
AcDbArc
 50
274.0939434445746
 51
0.0
  0
ARC
  5
191
330
1F
100
AcDbEntity
  8
0
  6
CONTINUOUS
 62
     7
100
AcDbCircle
 10
17.85
 20
352.3653461901636
 30
0.0
 40
1.750000000000015
100
AcDbArc
 50
94.0939434445743
 51
180.0
  0
ARC
  5
192
330
1F
100
AcDbEntity
  8
0
  6
CONTINUOUS
 62
     7
100
AcDbCircle
 10
78.85000000000001
 20
352.3653461901636
 30
0.0
 40
1.750000000000002
100
AcDbArc
 50
0.0
 51
85.90605655542569
  0
LINE
  5
193
330
1F
100
AcDbEntity
  8
0
  6
CONTINUOUS
 62
     7
100
AcDbLine
 10
16.1
 20
352.3653461901636
 30
0.0
 11
16.1
 21
351.6445674033574
 31
0.0
  0
LINE
  5
194
330
1F
100
AcDbEntity
  8
0
  6
CONTINUOUS
 62
     7
100
AcDbLine
 10
80.60000000000001
 20
351.6445674033574
 30
0.0
 11
80.60000000000001
 21
352.3653461901636
 31
0.0
  0
LINE
  5
195
330
1F
100
AcDbEntity
  8
0
  6
CONTINUOUS
 62
     7
100
AcDbLine
 10
17.72506398665336
 20
356.6782540300796
 30
0.0
 11
20.06139200762666
 21
356.5110321880876
 31
0.0
  0
LINE
  5
196
330
1F
100
AcDbEntity
  8
0
  6
CONTINUOUS
 62
     7
100
AcDbLine
 10
76.63860799237335
 20
356.5110321880876
 30
0.0
 11
78.97493601334665
 21
356.6782540300796
 31
0.0
  0
LINE
  5
197
330
1F
100
AcDbEntity
  8
0
  6
CONTINUOUS
 62
     7
100
AcDbLine
 10
78.97493601334665
 20
354.1108807766353
 30
0.0
 11
76.63860799237335
 21
354.2781026186273
 31
0.0
  0
LINE
  5
198
330
1F
100
AcDbEntity
  8
0
  6
CONTINUOUS
 62
     7
100
AcDbLine
 10
20.06139200762665
 20
354.2781026186273
 30
0.0
 11
17.72506398665336
 21
354.1108807766353
 31
0.0
  0
ARC
  5
199
330
1F
100
AcDbEntity
  8
0
  6
CONTINUOUS
 62
     7
100
AcDbCircle
 10
19.99000000000001
 20
355.275550953754
 30
0.0
 40
1.000000000000001
100
AcDbArc
 50
274.0939434445743
 51
0.0
  0
ARC
  5
19A
330
1F
100
AcDbEntity
  8
0
  6
CONTINUOUS
 62
     7
100
AcDbCircle
 10
76.71
 20
355.275550953754
 30
0.0
 40
1.000000000000001
100
AcDbArc
 50
180.0
 51
265.9060565554256
  0
ARC
  5
19B
330
1F
100
AcDbEntity
  8
0
  6
CONTINUOUS
 62
     7
100
AcDbCircle
 10
19.99000000000001
 20
355.5135838529611
 30
0.0
 40
1.000000000000015
100
AcDbArc
 50
0.0
 51
85.90605655542527
  0
ARC
  5
19C
330
1F
100
AcDbEntity
  8
0
  6
CONTINUOUS
 62
     7
100
AcDbCircle
 10
76.71
 20
355.5135838529611
 30
0.0
 40
1.000000000000001
100
AcDbArc
 50
94.09394344457463
 51
180.0
  0
LINE
  5
19D
330
1F
100
AcDbEntity
  8
0
  6
CONTINUOUS
 62
     7
100
AcDbLine
 10
20.99000000000001
 20
355.5135838529611
 30
0.0
 11
20.99000000000001
 21
355.275550953754
 31
0.0
  0
LINE
  5
19E
330
1F
100
AcDbEntity
  8
0
  6
CONTINUOUS
 62
     7
100
AcDbLine
 10
75.71
 20
355.275550953754
 30
0.0
 11
75.71
 21
355.5135838529611
 31
0.0
  0
ARC
  5
19F
330
1F
100
AcDbEntity
  8
0
  6
CONTINUOUS
 62
     7
100
AcDbCircle
 10
17.85
 20
359.8653461901636
 30
0.0
 40
1.74999999999996
100
AcDbArc
 50
94.0939434445743
 51
180.0
  0
ARC
  5
1A0
330
1F
100
AcDbEntity
  8
0
  6
CONTINUOUS
 62
     7
100
AcDbCircle
 10
78.85000000000001
 20
359.8653461901636
 30
0.0
 40
1.750000000000002
100
AcDbArc
 50
0.0
 51
85.90605655542569
  0
LINE
  5
1A1
330
1F
100
AcDbEntity
  8
0
  6
CONTINUOUS
 62
     7
100
AcDbLine
 10
16.1
 20
359.8653461901636
 30
0.0
 11
16.1
 21
359.1445674033574
 31
0.0
  0
LINE
  5
1A2
330
1F
100
AcDbEntity
  8
0
  6
CONTINUOUS
 62
     7
100
AcDbLine
 10
80.60000000000001
 20
359.1445674033574
 30
0.0
 11
80.60000000000001
 21
359.8653461901636
 31
0.0
  0
LINE
  5
1A3
330
1F
100
AcDbEntity
  8
0
  6
CONTINUOUS
 62
     7
100
AcDbLine
 10
16.1
 20
366.6445674033574
 30
0.0
 11
16.1
 21
365.9237886165515
 31
0.0
  0
LINE
  5
1A4
330
1F
100
AcDbEntity
  8
0
  6
CONTINUOUS
 62
     7
100
AcDbLine
 10
80.60000000000001
 20
365.9237886165515
 30
0.0
 11
80.60000000000001
 21
366.6445674033574
 31
0.0
  0
ARC
  5
1A5
330
1F
100
AcDbEntity
  8
0
  6
CONTINUOUS
 62
     7
100
AcDbCircle
 10
17.85
 20
365.9237886165515
 30
0.0
 40
1.750000000000002
100
AcDbArc
 50
180.0
 51
265.9060565554254
  0
ARC
  5
1A6
330
1F
100
AcDbEntity
  8
0
  6
CONTINUOUS
 62
     7
100
AcDbCircle
 10
78.85000000000001
 20
365.9237886165515
 30
0.0
 40
1.750000000000029
100
AcDbArc
 50
274.0939434445746
 51
0.0
  0
LINE
  5
1A7
330
1F
100
AcDbEntity
  8
0
  6
CONTINUOUS
 62
     7
100
AcDbLine
 10
17.72506398665336
 20
364.1782540300796
 30
0.0
 11
20.06139200762666
 21
364.0110321880878
 31
0.0
  0
LINE
  5
1A8
330
1F
100
AcDbEntity
  8
0
  6
CONTINUOUS
 62
     7
100
AcDbLine
 10
76.63860799237335
 20
364.0110321880878
 30
0.0
 11
78.97493601334665
 21
364.1782540300796
 31
0.0
  0
LINE
  5
1A9
330
1F
100
AcDbEntity
  8
0
  6
CONTINUOUS
 62
     7
100
AcDbLine
 10
78.97493601334665
 20
361.6108807766354
 30
0.0
 11
76.63860799237335
 21
361.7781026186273
 31
0.0
  0
LINE
  5
1AA
330
1F
100
AcDbEntity
  8
0
  6
CONTINUOUS
 62
     7
100
AcDbLine
 10
20.06139200762665
 20
361.7781026186273
 30
0.0
 11
17.72506398665336
 21
361.6108807766354
 31
0.0
  0
ARC
  5
1AB
330
1F
100
AcDbEntity
  8
0
  6
CONTINUOUS
 62
     7
100
AcDbCircle
 10
19.99000000000001
 20
362.775550953754
 30
0.0
 40
1.000000000000001
100
AcDbArc
 50
274.0939434445743
 51
0.0
  0
ARC
  5
1AC
330
1F
100
AcDbEntity
  8
0
  6
CONTINUOUS
 62
     7
100
AcDbCircle
 10
76.71
 20
362.775550953754
 30
0.0
 40
1.000000000000001
100
AcDbArc
 50
180.0
 51
265.9060565554256
  0
ARC
  5
1AD
330
1F
100
AcDbEntity
  8
0
  6
CONTINUOUS
 62
     7
100
AcDbCircle
 10
19.99000000000001
 20
363.0135838529611
 30
0.0
 40
1.000000000000015
100
AcDbArc
 50
0.0
 51
85.90605655542527
  0
ARC
  5
1AE
330
1F
100
AcDbEntity
  8
0
  6
CONTINUOUS
 62
     7
100
AcDbCircle
 10
76.71
 20
363.0135838529611
 30
0.0
 40
1.000000000000001
100
AcDbArc
 50
94.09394344457463
 51
180.0
  0
LINE
  5
1AF
330
1F
100
AcDbEntity
  8
0
  6
CONTINUOUS
 62
     7
100
AcDbLine
 10
20.99000000000001
 20
363.0135838529611
 30
0.0
 11
20.99000000000001
 21
362.775550953754
 31
0.0
  0
LINE
  5
1B0
330
1F
100
AcDbEntity
  8
0
  6
CONTINUOUS
 62
     7
100
AcDbLine
 10
75.71
 20
362.775550953754
 30
0.0
 11
75.71
 21
363.0135838529611
 31
0.0
  0
LINE
  5
1B1
330
1F
100
AcDbEntity
  8
0
  6
CONTINUOUS
 62
     7
100
AcDbLine
 10
16.1
 20
367.3653461901636
 30
0.0
 11
16.1
 21
366.6445674033574
 31
0.0
  0
LINE
  5
1B2
330
1F
100
AcDbEntity
  8
0
  6
CONTINUOUS
 62
     7
100
AcDbLine
 10
80.60000000000001
 20
366.6445674033574
 30
0.0
 11
80.60000000000001
 21
367.3653461901636
 31
0.0
  0
ARC
  5
1B3
330
1F
100
AcDbEntity
  8
0
  6
CONTINUOUS
 62
     7
100
AcDbCircle
 10
17.85
 20
373.4237886165515
 30
0.0
 40
1.750000000000002
100
AcDbArc
 50
180.0
 51
265.9060565554254
  0
ARC
  5
1B4
330
1F
100
AcDbEntity
  8
0
  6
CONTINUOUS
 62
     7
100
AcDbCircle
 10
78.85000000000001
 20
373.4237886165515
 30
0.0
 40
1.749999999999974
100
AcDbArc
 50
274.0939434445746
 51
0.0
  0
ARC
  5
1B5
330
1F
100
AcDbEntity
  8
0
  6
CONTINUOUS
 62
     7
100
AcDbCircle
 10
17.85
 20
367.3653461901636
 30
0.0
 40
1.750000000000015
100
AcDbArc
 50
94.0939434445743
 51
180.0
  0
ARC
  5
1B6
330
1F
100
AcDbEntity
  8
0
  6
CONTINUOUS
 62
     7
100
AcDbCircle
 10
78.85000000000001
 20
367.3653461901636
 30
0.0
 40
1.750000000000002
100
AcDbArc
 50
0.0
 51
85.90605655542569
  0
LINE
  5
1B7
330
1F
100
AcDbEntity
  8
0
  6
CONTINUOUS
 62
     7
100
AcDbLine
 10
16.1
 20
374.1445674033574
 30
0.0
 11
16.1
 21
373.4237886165515
 31
0.0
  0
LINE
  5
1B8
330
1F
100
AcDbEntity
  8
0
  6
CONTINUOUS
 62
     7
100
AcDbLine
 10
80.60000000000001
 20
373.4237886165515
 30
0.0
 11
80.60000000000001
 21
374.1445674033574
 31
0.0
  0
LINE
  5
1B9
330
1F
100
AcDbEntity
  8
0
  6
CONTINUOUS
 62
     7
100
AcDbLine
 10
17.72506398665336
 20
371.6782540300796
 30
0.0
 11
20.06139200762666
 21
371.5110321880876
 31
0.0
  0
LINE
  5
1BA
330
1F
100
AcDbEntity
  8
0
  6
CONTINUOUS
 62
     7
100
AcDbLine
 10
76.63860799237335
 20
371.5110321880876
 30
0.0
 11
78.97493601334665
 21
371.6782540300796
 31
0.0
  0
LINE
  5
1BB
330
1F
100
AcDbEntity
  8
0
  6
CONTINUOUS
 62
     7
100
AcDbLine
 10
78.97493601334665
 20
369.1108807766354
 30
0.0
 11
76.63860799237335
 21
369.2781026186273
 31
0.0
  0
LINE
  5
1BC
330
1F
100
AcDbEntity
  8
0
  6
CONTINUOUS
 62
     7
100
AcDbLine
 10
20.06139200762665
 20
369.2781026186273
 30
0.0
 11
17.72506398665336
 21
369.1108807766354
 31
0.0
  0
ARC
  5
1BD
330
1F
100
AcDbEntity
  8
0
  6
CONTINUOUS
 62
     7
100
AcDbCircle
 10
19.99000000000001
 20
370.513583852961
 30
0.0
 40
1.000000000000015
100
AcDbArc
 50
0.0
 51
85.90605655542527
  0
ARC
  5
1BE
330
1F
100
AcDbEntity
  8
0
  6
CONTINUOUS
 62
     7
100
AcDbCircle
 10
76.71
 20
370.513583852961
 30
0.0
 40
1.000000000000001
100
AcDbArc
 50
94.09394344457463
 51
180.0
  0
ARC
  5
1BF
330
1F
100
AcDbEntity
  8
0
  6
CONTINUOUS
 62
     7
100
AcDbCircle
 10
19.99000000000001
 20
370.275550953754
 30
0.0
 40
1.000000000000001
100
AcDbArc
 50
274.0939434445743
 51
0.0
  0
ARC
  5
1C0
330
1F
100
AcDbEntity
  8
0
  6
CONTINUOUS
 62
     7
100
AcDbCircle
 10
76.71
 20
370.275550953754
 30
0.0
 40
1.000000000000001
100
AcDbArc
 50
180.0
 51
265.9060565554256
  0
LINE
  5
1C1
330
1F
100
AcDbEntity
  8
0
  6
CONTINUOUS
 62
     7
100
AcDbLine
 10
20.99000000000001
 20
370.513583852961
 30
0.0
 11
20.99000000000001
 21
370.275550953754
 31
0.0
  0
LINE
  5
1C2
330
1F
100
AcDbEntity
  8
0
  6
CONTINUOUS
 62
     7
100
AcDbLine
 10
75.71
 20
370.275550953754
 30
0.0
 11
75.71
 21
370.513583852961
 31
0.0
  0
LINE
  5
1C3
330
1F
100
AcDbEntity
  8
0
  6
CONTINUOUS
 62
     7
100
AcDbLine
 10
16.1
 20
381.6445674033574
 30
0.0
 11
16.1
 21
380.9237886165515
 31
0.0
  0
LINE
  5
1C4
330
1F
100
AcDbEntity
  8
0
  6
CONTINUOUS
 62
     7
100
AcDbLine
 10
80.60000000000001
 20
380.9237886165515
 30
0.0
 11
80.60000000000001
 21
381.6445674033574
 31
0.0
  0
ARC
  5
1C5
330
1F
100
AcDbEntity
  8
0
  6
CONTINUOUS
 62
     7
100
AcDbCircle
 10
17.85
 20
380.9237886165515
 30
0.0
 40
1.750000000000002
100
AcDbArc
 50
180.0
 51
265.9060565554254
  0
ARC
  5
1C6
330
1F
100
AcDbEntity
  8
0
  6
CONTINUOUS
 62
     7
100
AcDbCircle
 10
78.85000000000001
 20
380.9237886165515
 30
0.0
 40
1.750000000000029
100
AcDbArc
 50
274.0939434445746
 51
0.0
  0
ARC
  5
1C7
330
1F
100
AcDbEntity
  8
0
  6
CONTINUOUS
 62
     7
100
AcDbCircle
 10
17.85
 20
374.8653461901636
 30
0.0
 40
1.74999999999996
100
AcDbArc
 50
94.0939434445743
 51
180.0
  0
ARC
  5
1C8
330
1F
100
AcDbEntity
  8
0
  6
CONTINUOUS
 62
     7
100
AcDbCircle
 10
78.85000000000001
 20
374.8653461901636
 30
0.0
 40
1.750000000000002
100
AcDbArc
 50
0.0
 51
85.90605655542576
  0
LINE
  5
1C9
330
1F
100
AcDbEntity
  8
0
  6
CONTINUOUS
 62
     7
100
AcDbLine
 10
16.1
 20
374.8653461901636
 30
0.0
 11
16.1
 21
374.1445674033574
 31
0.0
  0
LINE
  5
1CA
330
1F
100
AcDbEntity
  8
0
  6
CONTINUOUS
 62
     7
100
AcDbLine
 10
80.60000000000001
 20
374.1445674033574
 30
0.0
 11
80.60000000000001
 21
374.8653461901636
 31
0.0
  0
LINE
  5
1CB
330
1F
100
AcDbEntity
  8
0
  6
CONTINUOUS
 62
     7
100
AcDbLine
 10
17.72506398665336
 20
379.1782540300796
 30
0.0
 11
20.06139200762666
 21
379.0110321880876
 31
0.0
  0
LINE
  5
1CC
330
1F
100
AcDbEntity
  8
0
  6
CONTINUOUS
 62
     7
100
AcDbLine
 10
76.63860799237335
 20
379.0110321880876
 30
0.0
 11
78.97493601334665
 21
379.1782540300796
 31
0.0
  0
LINE
  5
1CD
330
1F
100
AcDbEntity
  8
0
  6
CONTINUOUS
 62
     7
100
AcDbLine
 10
78.97493601334665
 20
376.6108807766352
 30
0.0
 11
76.63860799237335
 21
376.7781026186272
 31
0.0
  0
LINE
  5
1CE
330
1F
100
AcDbEntity
  8
0
  6
CONTINUOUS
 62
     7
100
AcDbLine
 10
20.06139200762665
 20
376.7781026186272
 30
0.0
 11
17.72506398665336
 21
376.6108807766352
 31
0.0
  0
ARC
  5
1CF
330
1F
100
AcDbEntity
  8
0
  6
CONTINUOUS
 62
     7
100
AcDbCircle
 10
19.99000000000001
 20
378.013583852961
 30
0.0
 40
1.000000000000015
100
AcDbArc
 50
0.0
 51
85.90605655542527
  0
ARC
  5
1D0
330
1F
100
AcDbEntity
  8
0
  6
CONTINUOUS
 62
     7
100
AcDbCircle
 10
76.71
 20
378.013583852961
 30
0.0
 40
1.000000000000001
100
AcDbArc
 50
94.09394344457463
 51
180.0
  0
ARC
  5
1D1
330
1F
100
AcDbEntity
  8
0
  6
CONTINUOUS
 62
     7
100
AcDbCircle
 10
19.99000000000001
 20
377.775550953754
 30
0.0
 40
1.000000000000001
100
AcDbArc
 50
274.0939434445743
 51
0.0
  0
ARC
  5
1D2
330
1F
100
AcDbEntity
  8
0
  6
CONTINUOUS
 62
     7
100
AcDbCircle
 10
76.71
 20
377.775550953754
 30
0.0
 40
1.000000000000001
100
AcDbArc
 50
180.0
 51
265.9060565554256
  0
LINE
  5
1D3
330
1F
100
AcDbEntity
  8
0
  6
CONTINUOUS
 62
     7
100
AcDbLine
 10
20.99000000000001
 20
378.013583852961
 30
0.0
 11
20.99000000000001
 21
377.775550953754
 31
0.0
  0
LINE
  5
1D4
330
1F
100
AcDbEntity
  8
0
  6
CONTINUOUS
 62
     7
100
AcDbLine
 10
75.71
 20
377.775550953754
 30
0.0
 11
75.71
 21
378.013583852961
 31
0.0
  0
ARC
  5
1D5
330
1F
100
AcDbEntity
  8
0
  6
CONTINUOUS
 62
     7
100
AcDbCircle
 10
17.85
 20
382.3653461901636
 30
0.0
 40
1.750000000000015
100
AcDbArc
 50
94.0939434445743
 51
180.0
  0
ARC
  5
1D6
330
1F
100
AcDbEntity
  8
0
  6
CONTINUOUS
 62
     7
100
AcDbCircle
 10
78.85000000000001
 20
382.3653461901636
 30
0.0
 40
1.750000000000002
100
AcDbArc
 50
0.0
 51
85.90605655542576
  0
LINE
  5
1D7
330
1F
100
AcDbEntity
  8
0
  6
CONTINUOUS
 62
     7
100
AcDbLine
 10
16.1
 20
382.3653461901636
 30
0.0
 11
16.1
 21
381.6445674033574
 31
0.0
  0
LINE
  5
1D8
330
1F
100
AcDbEntity
  8
0
  6
CONTINUOUS
 62
     7
100
AcDbLine
 10
80.60000000000001
 20
381.6445674033574
 30
0.0
 11
80.60000000000001
 21
382.3653461901636
 31
0.0
  0
LINE
  5
1D9
330
1F
100
AcDbEntity
  8
0
  6
CONTINUOUS
 62
     7
100
AcDbLine
 10
78.97493601334665
 20
384.1108807766354
 30
0.0
 11
76.63860799237335
 21
384.2781026186272
 31
0.0
  0
LINE
  5
1DA
330
1F
100
AcDbEntity
  8
0
  6
CONTINUOUS
 62
     7
100
AcDbLine
 10
20.06139200762665
 20
384.2781026186272
 30
0.0
 11
17.72506398665336
 21
384.1108807766354
 31
0.0
  0
ARC
  5
1DB
330
1F
100
AcDbEntity
  8
0
  6
CONTINUOUS
 62
     7
100
AcDbCircle
 10
19.99000000000001
 20
385.275550953754
 30
0.0
 40
0.999999999999987
100
AcDbArc
 50
274.0939434445744
 51
319.091365636001
  0
ARC
  5
1DC
330
1F
100
AcDbEntity
  8
0
  6
CONTINUOUS
 62
     7
100
AcDbCircle
 10
76.71
 20
385.275550953754
 30
0.0
 40
1.000000000000001
100
AcDbArc
 50
220.9086343640051
 51
265.9060565554256
  0
LINE
  5
1DD
330
1F
100
AcDbEntity
  8
0
  6
CONTINUOUS
 62
   253
100
AcDbLine
 10
92.65
 20
334.226531423642
 30
0.0
 11
4.049999999999998
 21
341.9780270120388
 31
0.0
  0
LINE
  5
1DE
330
1F
100
AcDbEntity
  8
0
  6
CONTINUOUS
 62
   253
100
AcDbLine
 10
92.65
 20
344.2265314236419
 30
0.0
 11
4.049999999999998
 21
351.9780270120388
 31
0.0
  0
LINE
  5
1DF
330
1F
100
AcDbEntity
  8
0
  6
CONTINUOUS
 62
     7
100
AcDbLine
 10
160.5999875
 20
289.6833157925589
 30
0.0
 11
225.0999875
 21
289.6833157925589
 31
0.0
  0
LINE
  5
1E0
330
1F
100
AcDbEntity
  8
0
  6
CONTINUOUS
 62
     7
100
AcDbLine
 10
160.5999875
 20
289.6833157925589
 30
0.0
 11
225.0999875
 21
289.6833157925589
 31
0.0
  0
LINE
  5
1E1
330
1F
100
AcDbEntity
  8
0
  6
CONTINUOUS
 62
     7
100
AcDbLine
 10
160.5999875
 20
297.1833157925589
 30
0.0
 11
225.0999875
 21
297.1833157925589
 31
0.0
  0
LINE
  5
1E2
330
1F
100
AcDbEntity
  8
0
  6
CONTINUOUS
 62
     7
100
AcDbLine
 10
160.5999875
 20
297.1833157925589
 30
0.0
 11
225.0999875
 21
297.1833157925589
 31
0.0
  0
LINE
  5
1E3
330
1F
100
AcDbEntity
  8
0
  6
CONTINUOUS
 62
     7
100
AcDbLine
 10
160.5999875
 20
304.6833157925589
 30
0.0
 11
225.0999875
 21
304.6833157925589
 31
0.0
  0
LINE
  5
1E4
330
1F
100
AcDbEntity
  8
0
  6
CONTINUOUS
 62
     7
100
AcDbLine
 10
160.5999875
 20
304.6833157925589
 30
0.0
 11
225.0999875
 21
304.6833157925589
 31
0.0
  0
LINE
  5
1E5
330
1F
100
AcDbEntity
  8
0
  6
CONTINUOUS
 62
     7
100
AcDbLine
 10
160.5999875
 20
312.1833157925588
 30
0.0
 11
225.0999875
 21
312.1833157925588
 31
0.0
  0
LINE
  5
1E6
330
1F
100
AcDbEntity
  8
0
  6
CONTINUOUS
 62
     7
100
AcDbLine
 10
160.5999875
 20
312.1833157925588
 30
0.0
 11
225.0999875
 21
312.1833157925588
 31
0.0
  0
LINE
  5
1E7
330
1F
100
AcDbEntity
  8
0
  6
CONTINUOUS
 62
     7
100
AcDbLine
 10
160.5999875
 20
319.6833157925588
 30
0.0
 11
225.0999875
 21
319.6833157925588
 31
0.0
  0
LINE
  5
1E8
330
1F
100
AcDbEntity
  8
0
  6
CONTINUOUS
 62
     7
100
AcDbLine
 10
160.5999875
 20
327.1833157925588
 30
0.0
 11
225.0999875
 21
327.1833157925588
 31
0.0
  0
LINE
  5
1E9
330
1F
100
AcDbEntity
  8
0
  6
CONTINUOUS
 62
     7
100
AcDbLine
 10
160.5999875
 20
319.6833157925588
 30
0.0
 11
225.0999875
 21
319.6833157925588
 31
0.0
  0
LINE
  5
1EA
330
1F
100
AcDbEntity
  8
0
  6
CONTINUOUS
 62
     7
100
AcDbLine
 10
160.5999875
 20
334.6833157925588
 30
0.0
 11
225.0999875
 21
334.6833157925588
 31
0.0
  0
LINE
  5
1EB
330
1F
100
AcDbEntity
  8
0
  6
CONTINUOUS
 62
     7
100
AcDbLine
 10
160.5999875
 20
327.1833157925588
 30
0.0
 11
225.0999875
 21
327.1833157925588
 31
0.0
  0
LINE
  5
1EC
330
1F
100
AcDbEntity
  8
0
  6
CONTINUOUS
 62
     7
100
AcDbLine
 10
160.5999875
 20
334.6833157925588
 30
0.0
 11
225.0999875
 21
334.6833157925588
 31
0.0
  0
LINE
  5
1ED
330
1F
100
AcDbEntity
  8
0
  6
CONTINUOUS
 62
     7
100
AcDbLine
 10
229.8499875
 20
247.1833157925588
 30
0.0
 11
184.649732707422
 21
247.1833157925588
 31
0.0
  0
LINE
  5
1EE
330
1F
100
AcDbEntity
  8
0
  6
CONTINUOUS
 62
     7
100
AcDbLine
 10
229.8499875
 20
286.6833348310266
 30
0.0
 11
229.8499875
 21
247.1833157925588
 31
0.0
  0
LINE
  5
1EF
330
1F
100
AcDbEntity
  8
0
  6
CONTINUOUS
 62
     7
100
AcDbLine
 10
229.8499875
 20
247.1833157925588
 30
0.0
 11
229.8499875
 21
217.1833157925588
 31
0.0
  0
LINE
  5
1F0
330
1F
100
AcDbEntity
  8
0
  6
CONTINUOUS
 62
     7
100
AcDbLine
 10
186.5643893693312
 20
217.1833157925588
 30
0.0
 11
229.8499875
 21
217.1833157925588
 31
0.0
  0
LINE
  5
1F1
330
1F
100
AcDbEntity
  8
0
  6
CONTINUOUS
 62
     7
100
AcDbLine
 10
184.649732707422
 20
286.7888591448755
 30
0.0
 11
229.8499875
 21
287.1833157925589
 31
0.0
  0
LINE
  5
1F2
330
1F
100
AcDbEntity
  8
0
  6
CONTINUOUS
 62
     7
100
AcDbLine
 10
229.8499875
 20
287.1833157925589
 30
0.0
 11
229.8499875
 21
286.6833348310266
 31
0.0
  0
LINE
  5
1F3
330
1F
100
AcDbEntity
  8
0
  6
CONTINUOUS
 62
     7
100
AcDbLine
 10
184.649732707422
 20
247.1833157925588
 30
0.0
 11
173.2107479183196
 21
247.1833157925588
 31
0.0
  0
LINE
  5
1F4
330
1F
100
AcDbEntity
  8
0
  6
CONTINUOUS
 62
     7
100
AcDbLine
 10
176.4871884836934
 20
217.1833157925588
 30
0.0
 11
186.5643893693312
 21
217.1833157925588
 31
0.0
  0
LINE
  5
1F5
330
1F
100
AcDbEntity
  8
0
  6
CONTINUOUS
 62
     7
100
AcDbLine
 10
173.5511938941858
 20
286.6920036639816
 30
0.0
 11
184.649732707422
 21
286.7888591448755
 31
0.0
  0
LINE
  5
1F6
330
1F
100
AcDbEntity
  8
0
  6
CONTINUOUS
 62
     7
100
AcDbLine
 10
229.8499875
 20
188.6846883040362
 30
0.0
 11
229.8499875
 21
217.1833157925588
 31
0.0
  0
LINE
  5
1F7
330
1F
100
AcDbEntity
  8
0
  6
CONTINUOUS
 62
     7
100
AcDbLine
 10
229.8499875
 20
187.1833157925588
 30
0.0
 11
186.4989752382144
 21
189.4552460748708
 31
0.0
  0
LINE
  5
1F8
330
1F
100
AcDbEntity
  8
0
  6
CONTINUOUS
 62
     7
100
AcDbLine
 10
229.8499875
 20
188.6846883040362
 30
0.0
 11
229.8499875
 21
187.1833157925588
 31
0.0
  0
LINE
  5
1F9
330
1F
100
AcDbEntity
  8
0
  6
CONTINUOUS
 62
     7
100
AcDbLine
 10
186.4989752382144
 20
189.4552460748708
 30
0.0
 11
177.4431122801749
 21
189.9298437419932
 31
0.0
  0
LINE
  5
1FA
330
1F
100
AcDbEntity
  8
0
  6
CONTINUOUS
 62
     7
100
AcDbLine
 10
173.2107479183196
 20
247.1833157925588
 30
0.0
 11
157.4599830481578
 21
247.1833157925588
 31
0.0
  0
LINE
  5
1FB
330
1F
100
AcDbEntity
  8
0
  6
CONTINUOUS
 62
     7
100
AcDbLine
 10
162.7569603831032
 20
217.1833157925588
 30
0.0
 11
176.4871884836934
 21
217.1833157925588
 31
0.0
  0
LINE
  5
1FC
330
1F
100
AcDbEntity
  8
0
  6
CONTINUOUS
 62
     7
100
AcDbLine
 10
157.4599830481578
 20
286.0559124748944
 30
0.0
 11
157.4599830481578
 21
286.0545678598243
 31
0.0
  0
LINE
  5
1FD
330
1F
100
AcDbEntity
  8
0
  6
CONTINUOUS
 62
     7
100
AcDbLine
 10
157.9415881590066
 20
286.5557806984648
 30
0.0
 11
173.5511938941858
 21
286.6920036639816
 31
0.0
  0
LWPOLYLINE
  5
1FE
330
1F
100
AcDbEntity
  8
0
  6
CONTINUOUS
 62
     7
100
AcDbPolyline
 90
       38
 70
     0
 43
0.0
 10
-164.130310753908
 20
190.6275381060208
 10
-164.1217794676134
 20
190.6280112004734
 10
-164.0420660096048
 20
190.6349557212524
 10
-163.96282679138
 20
190.6464269548626
 10
-163.8834273113138
 20
190.6626061686422
 10
-163.8049468540536
 20
190.6833588699602
 10
-163.7483525206408
 20
190.7013818111796
 10
-163.6924511656686
 20
190.7218064408914
 10
-163.6369997391796
 20
190.7447592016206
 10
-163.5824253361166
 20
190.7700997004396
 10
-163.5278018468818
 20
190.7983566215048
 10
-163.474275941317
 20
190.8290360433103
 10
-163.4216000152518
 20
190.8623331319538
 10
-163.3702297860356
 20
190.8980115566192
 10
-163.3247043257208
 20
190.9325110046228
 10
-163.280414502027
 20
190.9689111403256
 10
-163.2371853898108
 20
191.0074056016434
 10
-163.1953560771176
 20
191.047740883754
 10
-163.1542559807948
 20
191.0906830149782
 10
-163.1147649989042
 20
191.1354339001564
 10
-163.0767179882922
 20
191.182250330854
 10
-163.0404585977068
 20
191.2307770301612
 10
-163.0081270650056
 20
191.2778125891518
 10
-162.9775000669534
 20
191.3262334633314
 10
-162.9484637693362
 20
191.3762933982978
 10
-162.9212750150072
 20
191.4276209792006
 10
-162.8955039062032
 20
191.4812130885441
 10
-162.8717741253874
 20
191.535964773121
 10
-162.8499981749812
 20
191.5921868997756
 10
-162.8304014877544
 20
191.6494035273136
 10
-162.8135686116926
 20
191.7055997074452
 10
-162.7988605167742
 20
191.7625437551206
 10
-162.7862351182796
 20
191.8205473361475
 10
-162.7758331242848
 20
191.879113638597
 10
-162.7675284558782
 20
191.939459404717
 10
-162.761599223007
 20
192.0001746810798
 10
-162.7580477909252
 20
192.0616138589412
 10
-162.7569379271798
 20
192.1231950659046
210
0.0
220
0.0
230
-1.0
  0
LINE
  5
1FF
330
1F
100
AcDbEntity
  8
0
  6
CONTINUOUS
 62
     7
100
AcDbLine
 10
162.7569379271798
 20
192.1231950659046
 30
0.0
 11
162.7569603831032
 21
192.1473588079266
 31
0.0
  0
LINE
  5
200
330
1F
100
AcDbEntity
  8
0
  6
CONTINUOUS
 62
     7
100
AcDbLine
 10
177.4431122801749
 20
189.9298437419932
 30
0.0
 11
164.130310753908
 21
190.6275381060208
 31
0.0
  0
LINE
  5
201
330
1F
100
AcDbEntity
  8
0
  6
CONTINUOUS
 62
     7
100
AcDbLine
 10
164.1303107539078
 20
190.6275381060208
 30
0.0
 11
163.4714835656354
 21
190.6620657758894
 31
0.0
  0
LINE
  5
202
330
1F
100
AcDbEntity
  8
0
  6
CONTINUOUS
 62
     7
100
AcDbLine
 10
157.3456242322508
 20
286.550579800068
 30
0.0
 11
157.9415881590066
 21
286.5557806984648
 31
0.0
  0
LINE
  5
203
330
1F
100
AcDbEntity
  8
0
  6
CONTINUOUS
 62
     7
100
AcDbLine
 10
162.0499875000002
 20
217.1833157925588
 30
0.0
 11
162.7569603831032
 21
217.1833157925588
 31
0.0
  0
LINE
  5
204
330
1F
100
AcDbEntity
  8
0
  6
CONTINUOUS
 62
     7
100
AcDbLine
 10
162.0499875000002
 20
217.1833157925588
 30
0.0
 11
156.8499875
 21
247.1833157925588
 31
0.0
  0
LINE
  5
205
330
1F
100
AcDbEntity
  8
0
  6
CONTINUOUS
 62
     7
100
AcDbLine
 10
157.4599830481578
 20
247.1833157925588
 30
0.0
 11
156.8499875
 21
247.1833157925588
 31
0.0
  0
LINE
  5
206
330
1F
100
AcDbEntity
  8
0
  6
CONTINUOUS
 62
     7
100
AcDbLine
 10
160.5999875
 20
289.6833157925589
 30
0.0
 11
160.5999875
 21
288.9625370057526
 31
0.0
  0
LINE
  5
207
330
1F
100
AcDbEntity
  8
0
  6
CONTINUOUS
 62
     7
100
AcDbLine
 10
225.0999875
 20
288.9625370057526
 30
0.0
 11
225.0999875
 21
289.6833157925589
 31
0.0
  0
ARC
  5
208
330
1F
100
AcDbEntity
  8
0
  6
CONTINUOUS
 62
     7
100
AcDbCircle
 10
162.3499875
 20
288.9625370057526
 30
0.0
 40
1.749999999999974
100
AcDbArc
 50
179.9999999999995
 51
265.9060565554255
  0
ARC
  5
209
330
1F
100
AcDbEntity
  8
0
  6
CONTINUOUS
 62
     7
100
AcDbCircle
 10
223.3499874999999
 20
288.9625370057526
 30
0.0
 40
1.750000000000029
100
AcDbArc
 50
274.0939434445746
 51
0.0000000000004547
  0
LINE
  5
20A
330
1F
100
AcDbEntity
  8
0
  6
CONTINUOUS
 62
     7
100
AcDbLine
 10
162.2250514866534
 20
287.217002419281
 30
0.0
 11
164.5613795076268
 21
287.049780577289
 31
0.0
  0
LINE
  5
20B
330
1F
100
AcDbEntity
  8
0
  6
CONTINUOUS
 62
     7
100
AcDbLine
 10
222.0536962983028
 20
287.1152785899834
 30
0.0
 11
223.4749235133468
 21
287.217002419281
 31
0.0
  0
ARC
  5
20C
330
1F
100
AcDbEntity
  8
0
  6
CONTINUOUS
 62
     7
100
AcDbCircle
 10
164.4899875000002
 20
286.0523322421623
 30
0.0
 40
1.000000000000001
100
AcDbArc
 50
34.59551167269069
 51
85.90605655542572
  0
LINE
  5
20D
330
1F
100
AcDbEntity
  8
0
  6
CONTINUOUS
 62
     7
100
AcDbLine
 10
160.5999875
 20
290.404094579365
 30
0.0
 11
160.5999875
 21
289.6833157925589
 31
0.0
  0
LINE
  5
20E
330
1F
100
AcDbEntity
  8
0
  6
CONTINUOUS
 62
     7
100
AcDbLine
 10
225.0999875
 20
289.6833157925589
 30
0.0
 11
225.0999875
 21
290.404094579365
 31
0.0
  0
ARC
  5
20F
330
1F
100
AcDbEntity
  8
0
  6
CONTINUOUS
 62
     7
100
AcDbCircle
 10
162.3499875
 20
290.404094579365
 30
0.0
 40
1.749999999999974
100
AcDbArc
 50
94.09394344457404
 51
180.0
  0
ARC
  5
210
330
1F
100
AcDbEntity
  8
0
  6
CONTINUOUS
 62
     7
100
AcDbCircle
 10
223.3499874999999
 20
290.404094579365
 30
0.0
 40
1.750000000000029
100
AcDbArc
 50
0.0
 51
85.90605655542572
  0
ARC
  5
211
330
1F
100
AcDbEntity
  8
0
  6
CONTINUOUS
 62
     7
100
AcDbCircle
 10
162.3499875
 20
296.4625370057527
 30
0.0
 40
1.749999999999974
100
AcDbArc
 50
179.9999999999995
 51
265.9060565554255
  0
ARC
  5
212
330
1F
100
AcDbEntity
  8
0
  6
CONTINUOUS
 62
     7
100
AcDbCircle
 10
223.3499874999999
 20
296.4625370057527
 30
0.0
 40
1.750000000000029
100
AcDbArc
 50
274.0939434445746
 51
0.0000000000004547
  0
LINE
  5
213
330
1F
100
AcDbEntity
  8
0
  6
CONTINUOUS
 62
     7
100
AcDbLine
 10
160.5999875
 20
297.1833157925589
 30
0.0
 11
160.5999875
 21
296.4625370057527
 31
0.0
  0
LINE
  5
214
330
1F
100
AcDbEntity
  8
0
  6
CONTINUOUS
 62
     7
100
AcDbLine
 10
225.0999875
 20
296.4625370057527
 30
0.0
 11
225.0999875
 21
297.1833157925589
 31
0.0
  0
LINE
  5
215
330
1F
100
AcDbEntity
  8
0
  6
CONTINUOUS
 62
     7
100
AcDbLine
 10
162.2250514866534
 20
294.717002419281
 30
0.0
 11
164.5613795076268
 21
294.549780577289
 31
0.0
  0
LINE
  5
216
330
1F
100
AcDbEntity
  8
0
  6
CONTINUOUS
 62
     7
100
AcDbLine
 10
221.1385954923734
 20
294.549780577289
 30
0.0
 11
223.4749235133468
 21
294.717002419281
 31
0.0
  0
LINE
  5
217
330
1F
100
AcDbEntity
  8
0
  6
CONTINUOUS
 62
     7
100
AcDbLine
 10
223.4749235133468
 20
292.1496291658366
 30
0.0
 11
221.1385954923734
 21
292.3168510078286
 31
0.0
  0
LINE
  5
218
330
1F
100
AcDbEntity
  8
0
  6
CONTINUOUS
 62
     7
100
AcDbLine
 10
164.5613795076268
 20
292.3168510078286
 30
0.0
 11
162.2250514866534
 21
292.1496291658366
 31
0.0
  0
ARC
  5
219
330
1F
100
AcDbEntity
  8
0
  6
CONTINUOUS
 62
     7
100
AcDbCircle
 10
164.4899875000002
 20
293.3142993429552
 30
0.0
 40
1.000000000000001
100
AcDbArc
 50
274.0939434445743
 51
0.0
  0
ARC
  5
21A
330
1F
100
AcDbEntity
  8
0
  6
CONTINUOUS
 62
     7
100
AcDbCircle
 10
221.2099875000002
 20
293.3142993429552
 30
0.0
 40
1.000000000000001
100
AcDbArc
 50
180.0
 51
265.9060565554257
  0
ARC
  5
21B
330
1F
100
AcDbEntity
  8
0
  6
CONTINUOUS
 62
     7
100
AcDbCircle
 10
164.4899875000002
 20
293.5523322421623
 30
0.0
 40
1.000000000000001
100
AcDbArc
 50
0.0
 51
85.90605655542572
  0
ARC
  5
21C
330
1F
100
AcDbEntity
  8
0
  6
CONTINUOUS
 62
     7
100
AcDbCircle
 10
221.2099875000002
 20
293.5523322421623
 30
0.0
 40
1.000000000000001
100
AcDbArc
 50
94.09394344457468
 51
180.0
  0
LINE
  5
21D
330
1F
100
AcDbEntity
  8
0
  6
CONTINUOUS
 62
     7
100
AcDbLine
 10
165.4899875000002
 20
293.5523322421623
 30
0.0
 11
165.4899875000002
 21
293.3142993429552
 31
0.0
  0
LINE
  5
21E
330
1F
100
AcDbEntity
  8
0
  6
CONTINUOUS
 62
     7
100
AcDbLine
 10
220.2099875000002
 20
293.3142993429552
 30
0.0
 11
220.2099875000002
 21
293.5523322421623
 31
0.0
  0
ARC
  5
21F
330
1F
100
AcDbEntity
  8
0
  6
CONTINUOUS
 62
     7
100
AcDbCircle
 10
162.3499875
 20
297.9040945793648
 30
0.0
 40
1.750000000000029
100
AcDbArc
 50
94.09394344457404
 51
180.0
  0
ARC
  5
220
330
1F
100
AcDbEntity
  8
0
  6
CONTINUOUS
 62
     7
100
AcDbCircle
 10
223.3499874999999
 20
297.9040945793648
 30
0.0
 40
1.750000000000029
100
AcDbArc
 50
0.0
 51
85.90605655542572
  0
ARC
  5
221
330
1F
100
AcDbEntity
  8
0
  6
CONTINUOUS
 62
     7
100
AcDbCircle
 10
162.3499875
 20
303.9625370057527
 30
0.0
 40
1.749999999999974
100
AcDbArc
 50
179.9999999999995
 51
265.9060565554255
  0
ARC
  5
222
330
1F
100
AcDbEntity
  8
0
  6
CONTINUOUS
 62
     7
100
AcDbCircle
 10
223.3499874999999
 20
303.9625370057527
 30
0.0
 40
1.750000000000029
100
AcDbArc
 50
274.0939434445746
 51
0.0000000000004547
  0
LINE
  5
223
330
1F
100
AcDbEntity
  8
0
  6
CONTINUOUS
 62
     7
100
AcDbLine
 10
160.5999875
 20
297.9040945793648
 30
0.0
 11
160.5999875
 21
297.1833157925589
 31
0.0
  0
LINE
  5
224
330
1F
100
AcDbEntity
  8
0
  6
CONTINUOUS
 62
     7
100
AcDbLine
 10
225.0999875
 20
297.1833157925589
 30
0.0
 11
225.0999875
 21
297.9040945793648
 31
0.0
  0
LINE
  5
225
330
1F
100
AcDbEntity
  8
0
  6
CONTINUOUS
 62
     7
100
AcDbLine
 10
160.5999875
 20
304.6833157925589
 30
0.0
 11
160.5999875
 21
303.9625370057527
 31
0.0
  0
LINE
  5
226
330
1F
100
AcDbEntity
  8
0
  6
CONTINUOUS
 62
     7
100
AcDbLine
 10
225.0999875
 20
303.9625370057527
 30
0.0
 11
225.0999875
 21
304.6833157925589
 31
0.0
  0
LINE
  5
227
330
1F
100
AcDbEntity
  8
0
  6
CONTINUOUS
 62
     7
100
AcDbLine
 10
162.2250514866534
 20
302.217002419281
 30
0.0
 11
164.5613795076268
 21
302.049780577289
 31
0.0
  0
LINE
  5
228
330
1F
100
AcDbEntity
  8
0
  6
CONTINUOUS
 62
     7
100
AcDbLine
 10
221.1385954923734
 20
302.049780577289
 30
0.0
 11
223.4749235133468
 21
302.217002419281
 31
0.0
  0
LINE
  5
229
330
1F
100
AcDbEntity
  8
0
  6
CONTINUOUS
 62
     7
100
AcDbLine
 10
223.4749235133468
 20
299.6496291658366
 30
0.0
 11
221.1385954923734
 21
299.8168510078286
 31
0.0
  0
LINE
  5
22A
330
1F
100
AcDbEntity
  8
0
  6
CONTINUOUS
 62
     7
100
AcDbLine
 10
164.5613795076268
 20
299.8168510078286
 30
0.0
 11
162.2250514866534
 21
299.6496291658366
 31
0.0
  0
ARC
  5
22B
330
1F
100
AcDbEntity
  8
0
  6
CONTINUOUS
 62
     7
100
AcDbCircle
 10
164.4899875000002
 20
300.8142993429552
 30
0.0
 40
1.000000000000001
100
AcDbArc
 50
274.0939434445743
 51
0.0
  0
ARC
  5
22C
330
1F
100
AcDbEntity
  8
0
  6
CONTINUOUS
 62
     7
100
AcDbCircle
 10
221.2099875000002
 20
300.8142993429552
 30
0.0
 40
0.9999999999999454
100
AcDbArc
 50
180.0
 51
265.9060565554257
  0
ARC
  5
22D
330
1F
100
AcDbEntity
  8
0
  6
CONTINUOUS
 62
     7
100
AcDbCircle
 10
164.4899875000002
 20
301.0523322421623
 30
0.0
 40
1.000000000000001
100
AcDbArc
 50
0.0
 51
85.90605655542572
  0
ARC
  5
22E
330
1F
100
AcDbEntity
  8
0
  6
CONTINUOUS
 62
     7
100
AcDbCircle
 10
221.2099875000002
 20
301.0523322421623
 30
0.0
 40
1.000000000000001
100
AcDbArc
 50
94.09394344457468
 51
180.0
  0
LINE
  5
22F
330
1F
100
AcDbEntity
  8
0
  6
CONTINUOUS
 62
     7
100
AcDbLine
 10
165.4899875000002
 20
301.0523322421623
 30
0.0
 11
165.4899875000002
 21
300.8142993429552
 31
0.0
  0
LINE
  5
230
330
1F
100
AcDbEntity
  8
0
  6
CONTINUOUS
 62
     7
100
AcDbLine
 10
220.2099875000002
 20
300.8142993429552
 30
0.0
 11
220.2099875000002
 21
301.0523322421623
 31
0.0
  0
ARC
  5
231
330
1F
100
AcDbEntity
  8
0
  6
CONTINUOUS
 62
     7
100
AcDbCircle
 10
162.3499875
 20
311.4625370057527
 30
0.0
 40
1.749999999999974
100
AcDbArc
 50
179.9999999999995
 51
265.9060565554255
  0
ARC
  5
232
330
1F
100
AcDbEntity
  8
0
  6
CONTINUOUS
 62
     7
100
AcDbCircle
 10
223.3499874999999
 20
311.4625370057527
 30
0.0
 40
1.750000000000029
100
AcDbArc
 50
274.0939434445746
 51
0.0000000000004547
  0
LINE
  5
233
330
1F
100
AcDbEntity
  8
0
  6
CONTINUOUS
 62
     7
100
AcDbLine
 10
160.5999875
 20
305.4040945793648
 30
0.0
 11
160.5999875
 21
304.6833157925589
 31
0.0
  0
LINE
  5
234
330
1F
100
AcDbEntity
  8
0
  6
CONTINUOUS
 62
     7
100
AcDbLine
 10
225.0999875
 20
304.6833157925589
 30
0.0
 11
225.0999875
 21
305.4040945793648
 31
0.0
  0
LINE
  5
235
330
1F
100
AcDbEntity
  8
0
  6
CONTINUOUS
 62
     7
100
AcDbLine
 10
160.5999875
 20
312.1833157925588
 30
0.0
 11
160.5999875
 21
311.4625370057527
 31
0.0
  0
LINE
  5
236
330
1F
100
AcDbEntity
  8
0
  6
CONTINUOUS
 62
     7
100
AcDbLine
 10
225.0999875
 20
311.4625370057527
 30
0.0
 11
225.0999875
 21
312.1833157925588
 31
0.0
  0
ARC
  5
237
330
1F
100
AcDbEntity
  8
0
  6
CONTINUOUS
 62
     7
100
AcDbCircle
 10
162.3499875
 20
305.4040945793648
 30
0.0
 40
1.750000000000029
100
AcDbArc
 50
94.09394344457404
 51
180.0
  0
ARC
  5
238
330
1F
100
AcDbEntity
  8
0
  6
CONTINUOUS
 62
     7
100
AcDbCircle
 10
223.3499874999999
 20
305.4040945793648
 30
0.0
 40
1.750000000000029
100
AcDbArc
 50
0.0
 51
85.90605655542572
  0
LINE
  5
239
330
1F
100
AcDbEntity
  8
0
  6
CONTINUOUS
 62
     7
100
AcDbLine
 10
162.2250514866534
 20
309.717002419281
 30
0.0
 11
164.5613795076268
 21
309.549780577289
 31
0.0
  0
LINE
  5
23A
330
1F
100
AcDbEntity
  8
0
  6
CONTINUOUS
 62
     7
100
AcDbLine
 10
221.1385954923734
 20
309.549780577289
 30
0.0
 11
223.4749235133468
 21
309.717002419281
 31
0.0
  0
LINE
  5
23B
330
1F
100
AcDbEntity
  8
0
  6
CONTINUOUS
 62
     7
100
AcDbLine
 10
223.4749235133468
 20
307.1496291658366
 30
0.0
 11
221.1385954923734
 21
307.3168510078286
 31
0.0
  0
LINE
  5
23C
330
1F
100
AcDbEntity
  8
0
  6
CONTINUOUS
 62
     7
100
AcDbLine
 10
164.5613795076268
 20
307.3168510078286
 30
0.0
 11
162.2250514866534
 21
307.1496291658366
 31
0.0
  0
ARC
  5
23D
330
1F
100
AcDbEntity
  8
0
  6
CONTINUOUS
 62
     7
100
AcDbCircle
 10
164.4899875000002
 20
308.3142993429552
 30
0.0
 40
1.000000000000001
100
AcDbArc
 50
274.0939434445743
 51
0.0
  0
ARC
  5
23E
330
1F
100
AcDbEntity
  8
0
  6
CONTINUOUS
 62
     7
100
AcDbCircle
 10
221.2099875000002
 20
308.3142993429552
 30
0.0
 40
0.9999999999999454
100
AcDbArc
 50
180.0
 51
265.9060565554257
  0
ARC
  5
23F
330
1F
100
AcDbEntity
  8
0
  6
CONTINUOUS
 62
     7
100
AcDbCircle
 10
164.4899875000002
 20
308.5523322421624
 30
0.0
 40
1.000000000000001
100
AcDbArc
 50
0.0
 51
85.90605655542572
  0
ARC
  5
240
330
1F
100
AcDbEntity
  8
0
  6
CONTINUOUS
 62
     7
100
AcDbCircle
 10
221.2099875000002
 20
308.5523322421624
 30
0.0
 40
1.000000000000001
100
AcDbArc
 50
94.09394344457468
 51
180.0
  0
LINE
  5
241
330
1F
100
AcDbEntity
  8
0
  6
CONTINUOUS
 62
     7
100
AcDbLine
 10
165.4899875000002
 20
308.5523322421624
 30
0.0
 11
165.4899875000002
 21
308.3142993429552
 31
0.0
  0
LINE
  5
242
330
1F
100
AcDbEntity
  8
0
  6
CONTINUOUS
 62
     7
100
AcDbLine
 10
220.2099875000002
 20
308.3142993429552
 30
0.0
 11
220.2099875000002
 21
308.5523322421624
 31
0.0
  0
ARC
  5
243
330
1F
100
AcDbEntity
  8
0
  6
CONTINUOUS
 62
     7
100
AcDbCircle
 10
162.3499875
 20
312.9040945793648
 30
0.0
 40
1.750000000000029
100
AcDbArc
 50
94.09394344457404
 51
180.0
  0
ARC
  5
244
330
1F
100
AcDbEntity
  8
0
  6
CONTINUOUS
 62
     7
100
AcDbCircle
 10
223.3499874999999
 20
312.9040945793648
 30
0.0
 40
1.750000000000029
100
AcDbArc
 50
0.0
 51
85.90605655542572
  0
LINE
  5
245
330
1F
100
AcDbEntity
  8
0
  6
CONTINUOUS
 62
     7
100
AcDbLine
 10
160.5999875
 20
312.9040945793648
 30
0.0
 11
160.5999875
 21
312.1833157925588
 31
0.0
  0
LINE
  5
246
330
1F
100
AcDbEntity
  8
0
  6
CONTINUOUS
 62
     7
100
AcDbLine
 10
225.0999875
 20
312.1833157925588
 30
0.0
 11
225.0999875
 21
312.9040945793648
 31
0.0
  0
LINE
  5
247
330
1F
100
AcDbEntity
  8
0
  6
CONTINUOUS
 62
     7
100
AcDbLine
 10
160.5999875
 20
319.6833157925588
 30
0.0
 11
160.5999875
 21
318.9625370057527
 31
0.0
  0
LINE
  5
248
330
1F
100
AcDbEntity
  8
0
  6
CONTINUOUS
 62
     7
100
AcDbLine
 10
225.0999875
 20
318.9625370057527
 30
0.0
 11
225.0999875
 21
319.6833157925588
 31
0.0
  0
ARC
  5
249
330
1F
100
AcDbEntity
  8
0
  6
CONTINUOUS
 62
     7
100
AcDbCircle
 10
162.3499875
 20
318.9625370057527
 30
0.0
 40
1.749999999999974
100
AcDbArc
 50
179.9999999999995
 51
265.9060565554255
  0
ARC
  5
24A
330
1F
100
AcDbEntity
  8
0
  6
CONTINUOUS
 62
     7
100
AcDbCircle
 10
223.3499874999999
 20
318.9625370057527
 30
0.0
 40
1.750000000000029
100
AcDbArc
 50
274.0939434445746
 51
0.0000000000004547
  0
LINE
  5
24B
330
1F
100
AcDbEntity
  8
0
  6
CONTINUOUS
 62
     7
100
AcDbLine
 10
162.2250514866534
 20
317.217002419281
 30
0.0
 11
164.5613795076268
 21
317.049780577289
 31
0.0
  0
LINE
  5
24C
330
1F
100
AcDbEntity
  8
0
  6
CONTINUOUS
 62
     7
100
AcDbLine
 10
221.1385954923734
 20
317.049780577289
 30
0.0
 11
223.4749235133468
 21
317.217002419281
 31
0.0
  0
LINE
  5
24D
330
1F
100
AcDbEntity
  8
0
  6
CONTINUOUS
 62
     7
100
AcDbLine
 10
223.4749235133468
 20
314.6496291658366
 30
0.0
 11
221.1385954923734
 21
314.8168510078286
 31
0.0
  0
LINE
  5
24E
330
1F
100
AcDbEntity
  8
0
  6
CONTINUOUS
 62
     7
100
AcDbLine
 10
164.5613795076268
 20
314.8168510078286
 30
0.0
 11
162.2250514866534
 21
314.6496291658366
 31
0.0
  0
ARC
  5
24F
330
1F
100
AcDbEntity
  8
0
  6
CONTINUOUS
 62
     7
100
AcDbCircle
 10
164.4899875000002
 20
315.8142993429552
 30
0.0
 40
1.000000000000001
100
AcDbArc
 50
274.0939434445743
 51
0.0
  0
ARC
  5
250
330
1F
100
AcDbEntity
  8
0
  6
CONTINUOUS
 62
     7
100
AcDbCircle
 10
221.2099875000002
 20
315.8142993429552
 30
0.0
 40
1.000000000000001
100
AcDbArc
 50
180.0
 51
265.9060565554257
  0
ARC
  5
251
330
1F
100
AcDbEntity
  8
0
  6
CONTINUOUS
 62
     7
100
AcDbCircle
 10
164.4899875000002
 20
316.0523322421622
 30
0.0
 40
1.000000000000001
100
AcDbArc
 50
0.0
 51
85.90605655542572
  0
ARC
  5
252
330
1F
100
AcDbEntity
  8
0
  6
CONTINUOUS
 62
     7
100
AcDbCircle
 10
221.2099875000002
 20
316.0523322421622
 30
0.0
 40
1.000000000000001
100
AcDbArc
 50
94.09394344457468
 51
180.0
  0
LINE
  5
253
330
1F
100
AcDbEntity
  8
0
  6
CONTINUOUS
 62
     7
100
AcDbLine
 10
165.4899875000002
 20
316.0523322421622
 30
0.0
 11
165.4899875000002
 21
315.8142993429552
 31
0.0
  0
LINE
  5
254
330
1F
100
AcDbEntity
  8
0
  6
CONTINUOUS
 62
     7
100
AcDbLine
 10
220.2099875000002
 20
315.8142993429552
 30
0.0
 11
220.2099875000002
 21
316.0523322421622
 31
0.0
  0
LINE
  5
255
330
1F
100
AcDbEntity
  8
0
  6
CONTINUOUS
 62
     7
100
AcDbLine
 10
160.5999875
 20
327.1833157925588
 30
0.0
 11
160.5999875
 21
326.4625370057528
 31
0.0
  0
LINE
  5
256
330
1F
100
AcDbEntity
  8
0
  6
CONTINUOUS
 62
     7
100
AcDbLine
 10
225.0999875
 20
326.4625370057528
 30
0.0
 11
225.0999875
 21
327.1833157925588
 31
0.0
  0
LINE
  5
257
330
1F
100
AcDbEntity
  8
0
  6
CONTINUOUS
 62
     7
100
AcDbLine
 10
160.5999875
 20
320.4040945793648
 30
0.0
 11
160.5999875
 21
319.6833157925588
 31
0.0
  0
LINE
  5
258
330
1F
100
AcDbEntity
  8
0
  6
CONTINUOUS
 62
     7
100
AcDbLine
 10
225.0999875
 20
319.6833157925588
 30
0.0
 11
225.0999875
 21
320.4040945793648
 31
0.0
  0
ARC
  5
259
330
1F
100
AcDbEntity
  8
0
  6
CONTINUOUS
 62
     7
100
AcDbCircle
 10
162.3499875
 20
326.4625370057526
 30
0.0
 40
1.749999999999974
100
AcDbArc
 50
179.9999999999995
 51
265.9060565554255
  0
ARC
  5
25A
330
1F
100
AcDbEntity
  8
0
  6
CONTINUOUS
 62
     7
100
AcDbCircle
 10
223.3499874999999
 20
326.4625370057526
 30
0.0
 40
1.749999999999974
100
AcDbArc
 50
274.0939434445746
 51
0.0000000000004547
  0
ARC
  5
25B
330
1F
100
AcDbEntity
  8
0
  6
CONTINUOUS
 62
     7
100
AcDbCircle
 10
162.3499875
 20
320.4040945793648
 30
0.0
 40
1.750000000000029
100
AcDbArc
 50
94.09394344457404
 51
180.0
  0
ARC
  5
25C
330
1F
100
AcDbEntity
  8
0
  6
CONTINUOUS
 62
     7
100
AcDbCircle
 10
223.3499874999999
 20
320.4040945793648
 30
0.0
 40
1.750000000000029
100
AcDbArc
 50
0.0
 51
85.90605655542572
  0
LINE
  5
25D
330
1F
100
AcDbEntity
  8
0
  6
CONTINUOUS
 62
     7
100
AcDbLine
 10
162.2250514866534
 20
324.717002419281
 30
0.0
 11
164.5613795076268
 21
324.549780577289
 31
0.0
  0
LINE
  5
25E
330
1F
100
AcDbEntity
  8
0
  6
CONTINUOUS
 62
     7
100
AcDbLine
 10
221.1385954923734
 20
324.549780577289
 30
0.0
 11
223.4749235133468
 21
324.717002419281
 31
0.0
  0
LINE
  5
25F
330
1F
100
AcDbEntity
  8
0
  6
CONTINUOUS
 62
     7
100
AcDbLine
 10
223.4749235133468
 20
322.1496291658366
 30
0.0
 11
221.1385954923734
 21
322.3168510078286
 31
0.0
  0
LINE
  5
260
330
1F
100
AcDbEntity
  8
0
  6
CONTINUOUS
 62
     7
100
AcDbLine
 10
164.5613795076268
 20
322.3168510078286
 30
0.0
 11
162.2250514866534
 21
322.1496291658366
 31
0.0
  0
ARC
  5
261
330
1F
100
AcDbEntity
  8
0
  6
CONTINUOUS
 62
     7
100
AcDbCircle
 10
164.4899875000002
 20
323.3142993429552
 30
0.0
 40
1.000000000000001
100
AcDbArc
 50
274.0939434445743
 51
0.0
  0
ARC
  5
262
330
1F
100
AcDbEntity
  8
0
  6
CONTINUOUS
 62
     7
100
AcDbCircle
 10
221.2099875000002
 20
323.3142993429552
 30
0.0
 40
1.000000000000001
100
AcDbArc
 50
180.0
 51
265.9060565554257
  0
ARC
  5
263
330
1F
100
AcDbEntity
  8
0
  6
CONTINUOUS
 62
     7
100
AcDbCircle
 10
164.4899875000002
 20
323.5523322421624
 30
0.0
 40
0.9999999999999454
100
AcDbArc
 50
0.0
 51
85.90605655542572
  0
ARC
  5
264
330
1F
100
AcDbEntity
  8
0
  6
CONTINUOUS
 62
     7
100
AcDbCircle
 10
221.2099875000002
 20
323.5523322421624
 30
0.0
 40
1.000000000000001
100
AcDbArc
 50
94.09394344457468
 51
180.0
  0
LINE
  5
265
330
1F
100
AcDbEntity
  8
0
  6
CONTINUOUS
 62
     7
100
AcDbLine
 10
165.4899875000002
 20
323.5523322421624
 30
0.0
 11
165.4899875000002
 21
323.3142993429552
 31
0.0
  0
LINE
  5
266
330
1F
100
AcDbEntity
  8
0
  6
CONTINUOUS
 62
     7
100
AcDbLine
 10
220.2099875000002
 20
323.3142993429552
 30
0.0
 11
220.2099875000002
 21
323.5523322421624
 31
0.0
  0
LINE
  5
267
330
1F
100
AcDbEntity
  8
0
  6
CONTINUOUS
 62
     7
100
AcDbLine
 10
160.5999875
 20
334.6833157925588
 30
0.0
 11
160.5999875
 21
333.9625370057526
 31
0.0
  0
LINE
  5
268
330
1F
100
AcDbEntity
  8
0
  6
CONTINUOUS
 62
     7
100
AcDbLine
 10
225.0999875
 20
333.9625370057526
 30
0.0
 11
225.0999875
 21
334.6833157925588
 31
0.0
  0
ARC
  5
269
330
1F
100
AcDbEntity
  8
0
  6
CONTINUOUS
 62
     7
100
AcDbCircle
 10
162.3499875
 20
333.9625370057526
 30
0.0
 40
1.749999999999974
100
AcDbArc
 50
179.9999999999995
 51
265.9060565554255
  0
ARC
  5
26A
330
1F
100
AcDbEntity
  8
0
  6
CONTINUOUS
 62
     7
100
AcDbCircle
 10
223.3499874999999
 20
333.9625370057526
 30
0.0
 40
1.750000000000029
100
AcDbArc
 50
274.0939434445746
 51
0.0000000000004547
  0
ARC
  5
26B
330
1F
100
AcDbEntity
  8
0
  6
CONTINUOUS
 62
     7
100
AcDbCircle
 10
162.3499875
 20
327.9040945793648
 30
0.0
 40
1.750000000000029
100
AcDbArc
 50
94.09394344457404
 51
180.0
  0
ARC
  5
26C
330
1F
100
AcDbEntity
  8
0
  6
CONTINUOUS
 62
     7
100
AcDbCircle
 10
223.3499874999999
 20
327.9040945793648
 30
0.0
 40
1.750000000000029
100
AcDbArc
 50
0.0
 51
85.90605655542572
  0
LINE
  5
26D
330
1F
100
AcDbEntity
  8
0
  6
CONTINUOUS
 62
     7
100
AcDbLine
 10
160.5999875
 20
327.9040945793648
 30
0.0
 11
160.5999875
 21
327.1833157925588
 31
0.0
  0
LINE
  5
26E
330
1F
100
AcDbEntity
  8
0
  6
CONTINUOUS
 62
     7
100
AcDbLine
 10
225.0999875
 20
327.1833157925588
 30
0.0
 11
225.0999875
 21
327.9040945793648
 31
0.0
  0
LINE
  5
26F
330
1F
100
AcDbEntity
  8
0
  6
CONTINUOUS
 62
     7
100
AcDbLine
 10
162.2250514866534
 20
332.217002419281
 30
0.0
 11
164.5613795076268
 21
332.049780577289
 31
0.0
  0
LINE
  5
270
330
1F
100
AcDbEntity
  8
0
  6
CONTINUOUS
 62
     7
100
AcDbLine
 10
221.1385954923734
 20
332.049780577289
 30
0.0
 11
223.4749235133468
 21
332.217002419281
 31
0.0
  0
LINE
  5
271
330
1F
100
AcDbEntity
  8
0
  6
CONTINUOUS
 62
     7
100
AcDbLine
 10
223.4749235133468
 20
329.6496291658366
 30
0.0
 11
221.1385954923734
 21
329.8168510078286
 31
0.0
  0
LINE
  5
272
330
1F
100
AcDbEntity
  8
0
  6
CONTINUOUS
 62
     7
100
AcDbLine
 10
164.5613795076268
 20
329.8168510078286
 30
0.0
 11
162.2250514866534
 21
329.6496291658366
 31
0.0
  0
ARC
  5
273
330
1F
100
AcDbEntity
  8
0
  6
CONTINUOUS
 62
     7
100
AcDbCircle
 10
164.4899875000002
 20
330.8142993429552
 30
0.0
 40
1.000000000000001
100
AcDbArc
 50
274.0939434445743
 51
0.0
  0
ARC
  5
274
330
1F
100
AcDbEntity
  8
0
  6
CONTINUOUS
 62
     7
100
AcDbCircle
 10
221.2099875000002
 20
330.8142993429552
 30
0.0
 40
1.000000000000001
100
AcDbArc
 50
180.0
 51
265.9060565554257
  0
ARC
  5
275
330
1F
100
AcDbEntity
  8
0
  6
CONTINUOUS
 62
     7
100
AcDbCircle
 10
164.4899875000002
 20
331.0523322421622
 30
0.0
 40
1.000000000000001
100
AcDbArc
 50
0.0
 51
85.90605655542572
  0
ARC
  5
276
330
1F
100
AcDbEntity
  8
0
  6
CONTINUOUS
 62
     7
100
AcDbCircle
 10
221.2099875000002
 20
331.0523322421622
 30
0.0
 40
1.000000000000001
100
AcDbArc
 50
94.09394344457468
 51
180.0
  0
LINE
  5
277
330
1F
100
AcDbEntity
  8
0
  6
CONTINUOUS
 62
     7
100
AcDbLine
 10
165.4899875000002
 20
331.0523322421622
 30
0.0
 11
165.4899875000002
 21
330.8142993429552
 31
0.0
  0
LINE
  5
278
330
1F
100
AcDbEntity
  8
0
  6
CONTINUOUS
 62
     7
100
AcDbLine
 10
220.2099875000002
 20
330.8142993429552
 30
0.0
 11
220.2099875000002
 21
331.0523322421622
 31
0.0
  0
LINE
  5
279
330
1F
100
AcDbEntity
  8
0
  6
CONTINUOUS
 62
     7
100
AcDbLine
 10
160.5999875
 20
335.4040945793648
 30
0.0
 11
160.5999875
 21
334.6833157925588
 31
0.0
  0
LINE
  5
27A
330
1F
100
AcDbEntity
  8
0
  6
CONTINUOUS
 62
     7
100
AcDbLine
 10
225.0999875
 20
334.6833157925588
 30
0.0
 11
225.0999875
 21
335.4040945793648
 31
0.0
  0
ARC
  5
27B
330
1F
100
AcDbEntity
  8
0
  6
CONTINUOUS
 62
     7
100
AcDbCircle
 10
162.3499875
 20
335.4040945793648
 30
0.0
 40
1.750000000000029
100
AcDbArc
 50
94.09394344457404
 51
180.0
  0
ARC
  5
27C
330
1F
100
AcDbEntity
  8
0
  6
CONTINUOUS
 62
     7
100
AcDbCircle
 10
223.3499874999999
 20
335.4040945793648
 30
0.0
 40
1.750000000000029
100
AcDbArc
 50
0.0
 51
19.40432844627111
  0
ARC
  5
27D
330
1F
100
AcDbEntity
  8
0
  6
CONTINUOUS
 62
     7
100
AcDbCircle
 10
162.3499875
 20
341.4625370057526
 30
0.0
 40
1.749999999999974
100
AcDbArc
 50
179.9999999999995
 51
265.9060565554255
  0
LINE
  5
27E
330
1F
100
AcDbEntity
  8
0
  6
CONTINUOUS
 62
     7
100
AcDbLine
 10
160.5999875
 20
341.6198233081162
 30
0.0
 11
160.5999875
 21
341.4625370057526
 31
0.0
  0
LINE
  5
27F
330
1F
100
AcDbEntity
  8
0
  6
CONTINUOUS
 62
     7
100
AcDbLine
 10
162.2250514866534
 20
339.717002419281
 30
0.0
 11
164.5613795076268
 21
339.549780577289
 31
0.0
  0
LINE
  5
280
330
1F
100
AcDbEntity
  8
0
  6
CONTINUOUS
 62
     7
100
AcDbLine
 10
164.5613795076268
 20
337.3168510078286
 30
0.0
 11
162.2250514866534
 21
337.1496291658366
 31
0.0
  0
ARC
  5
281
330
1F
100
AcDbEntity
  8
0
  6
CONTINUOUS
 62
     7
100
AcDbCircle
 10
164.4899875000002
 20
338.3142993429552
 30
0.0
 40
1.000000000000001
100
AcDbArc
 50
274.0939434445743
 51
0.0
  0
ARC
  5
282
330
1F
100
AcDbEntity
  8
0
  6
CONTINUOUS
 62
     7
100
AcDbCircle
 10
164.4899875000002
 20
338.5523322421623
 30
0.0
 40
1.000000000000001
100
AcDbArc
 50
0.0
 51
85.90605655542572
  0
LINE
  5
283
330
1F
100
AcDbEntity
  8
0
  6
CONTINUOUS
 62
     7
100
AcDbLine
 10
165.4899875000002
 20
338.5523322421623
 30
0.0
 11
165.4899875000002
 21
338.3142993429552
 31
0.0
  0
ARC
  5
284
330
1F
100
AcDbEntity
  8
0
  6
CONTINUOUS
 62
     7
100
AcDbCircle
 10
163.5499875
 20
192.1600100780212
 30
0.0
 40
1.500000000000001
100
AcDbArc
 50
180.0
 51
267.0000000000001
  0
ARC
  5
285
330
1F
100
AcDbEntity
  8
0
  6
CONTINUOUS
 62
     7
100
AcDbCircle
 10
157.3499875
 20
286.0505988385358
 30
0.0
 40
0.5000000000000004
100
AcDbArc
 50
90.5000000000005
 51
180.0
  0
LINE
  5
286
330
1F
100
AcDbEntity
  8
0
  6
CONTINUOUS
 62
     7
100
AcDbLine
 10
162.0499875
 20
217.1833157925588
 30
0.0
 11
162.0499875
 21
192.1600100780212
 31
0.0
  0
LINE
  5
287
330
1F
100
AcDbEntity
  8
0
  6
CONTINUOUS
 62
     7
100
AcDbLine
 10
156.8499875000002
 20
286.0505988385358
 30
0.0
 11
156.8499875000002
 21
247.1833157925588
 31
0.0
  0
LINE
  5
288
330
1F
100
AcDbEntity
  8
0
  6
CONTINUOUS
 62
     7
100
AcDbLine
 10
160.5999875
 20
351.8166717074412
 30
0.0
 11
225.0999875
 21
351.8166717074412
 31
0.0
  0
LINE
  5
289
330
1F
100
AcDbEntity
  8
0
  6
CONTINUOUS
 62
     7
100
AcDbLine
 10
160.5999875
 20
359.3166717074412
 30
0.0
 11
225.0999875
 21
359.3166717074412
 31
0.0
  0
LINE
  5
28A
330
1F
100
AcDbEntity
  8
0
  6
CONTINUOUS
 62
     7
100
AcDbLine
 10
160.5999875
 20
351.8166717074412
 30
0.0
 11
225.0999875
 21
351.8166717074412
 31
0.0
  0
LINE
  5
28B
330
1F
100
AcDbEntity
  8
0
  6
CONTINUOUS
 62
     7
100
AcDbLine
 10
160.5999875
 20
359.3166717074412
 30
0.0
 11
225.0999875
 21
359.3166717074412
 31
0.0
  0
LINE
  5
28C
330
1F
100
AcDbEntity
  8
0
  6
CONTINUOUS
 62
     7
100
AcDbLine
 10
160.5999875
 20
366.8166717074412
 30
0.0
 11
225.0999875
 21
366.8166717074412
 31
0.0
  0
LINE
  5
28D
330
1F
100
AcDbEntity
  8
0
  6
CONTINUOUS
 62
     7
100
AcDbLine
 10
160.5999875
 20
374.3166717074412
 30
0.0
 11
225.0999875
 21
374.3166717074412
 31
0.0
  0
LINE
  5
28E
330
1F
100
AcDbEntity
  8
0
  6
CONTINUOUS
 62
     7
100
AcDbLine
 10
160.5999875
 20
366.8166717074412
 30
0.0
 11
225.0999875
 21
366.8166717074412
 31
0.0
  0
LINE
  5
28F
330
1F
100
AcDbEntity
  8
0
  6
CONTINUOUS
 62
     7
100
AcDbLine
 10
160.5999875
 20
381.8166717074412
 30
0.0
 11
225.0999875
 21
381.8166717074412
 31
0.0
  0
LINE
  5
290
330
1F
100
AcDbEntity
  8
0
  6
CONTINUOUS
 62
     7
100
AcDbLine
 10
160.5999875
 20
374.3166717074412
 30
0.0
 11
225.0999875
 21
374.3166717074412
 31
0.0
  0
LINE
  5
291
330
1F
100
AcDbEntity
  8
0
  6
CONTINUOUS
 62
     7
100
AcDbLine
 10
160.5999875
 20
381.8166717074412
 30
0.0
 11
225.0999875
 21
381.8166717074412
 31
0.0
  0
LINE
  5
292
330
1F
100
AcDbEntity
  8
0
  6
CONTINUOUS
 62
     7
100
AcDbLine
 10
186.5643893693312
 20
454.3166717074414
 30
0.0
 11
229.8499875
 21
454.3166717074414
 31
0.0
  0
LINE
  5
293
330
1F
100
AcDbEntity
  8
0
  6
CONTINUOUS
 62
     7
100
AcDbLine
 10
229.8499875
 20
424.3166717074412
 30
0.0
 11
229.8499875
 21
454.3166717074413
 31
0.0
  0
LINE
  5
294
330
1F
100
AcDbEntity
  8
0
  6
CONTINUOUS
 62
     7
100
AcDbLine
 10
229.8499875
 20
424.3166717074412
 30
0.0
 11
184.649732707422
 21
424.3166717074412
 31
0.0
  0
LINE
  5
295
330
1F
100
AcDbEntity
  8
0
  6
CONTINUOUS
 62
     7
100
AcDbLine
 10
229.8499875
 20
384.8166526689734
 30
0.0
 11
229.8499875
 21
424.3166717074412
 31
0.0
  0
LINE
  5
296
330
1F
100
AcDbEntity
  8
0
  6
CONTINUOUS
 62
     7
100
AcDbLine
 10
229.8499875
 20
384.3166717074412
 30
0.0
 11
184.649732707422
 21
384.7111283551248
 31
0.0
  0
LINE
  5
297
330
1F
100
AcDbEntity
  8
0
  6
CONTINUOUS
 62
     7
100
AcDbLine
 10
229.8499875
 20
384.8166526689734
 30
0.0
 11
229.8499875
 21
384.3166717074414
 31
0.0
  0
LINE
  5
298
330
1F
100
AcDbEntity
  8
0
  6
CONTINUOUS
 62
     7
100
AcDbLine
 10
176.4871884836934
 20
454.3166717074414
 30
0.0
 11
186.5643893693312
 21
454.3166717074414
 31
0.0
  0
LINE
  5
299
330
1F
100
AcDbEntity
  8
0
  6
CONTINUOUS
 62
     7
100
AcDbLine
 10
184.649732707422
 20
424.3166717074412
 30
0.0
 11
173.2107479183196
 21
424.3166717074412
 31
0.0
  0
LINE
  5
29A
330
1F
100
AcDbEntity
  8
0
  6
CONTINUOUS
 62
     7
100
AcDbLine
 10
184.649732707422
 20
384.7111283551248
 30
0.0
 11
173.5511938941858
 21
384.8079838360184
 31
0.0
  0
LINE
  5
29B
330
1F
100
AcDbEntity
  8
0
  6
CONTINUOUS
 62
     7
100
AcDbLine
 10
229.8499875
 20
482.8152991959637
 30
0.0
 11
229.8499875
 21
454.3166717074414
 31
0.0
  0
LINE
  5
29C
330
1F
100
AcDbEntity
  8
0
  6
CONTINUOUS
 62
     7
100
AcDbLine
 10
186.4989752382144
 20
482.0447414251294
 30
0.0
 11
229.8499875
 21
484.3166717074413
 31
0.0
  0
LINE
  5
29D
330
1F
100
AcDbEntity
  8
0
  6
CONTINUOUS
 62
     7
100
AcDbLine
 10
229.8499875
 20
484.3166717074413
 30
0.0
 11
229.8499875
 21
482.8152991959637
 31
0.0
  0
LINE
  5
29E
330
1F
100
AcDbEntity
  8
0
  6
CONTINUOUS
 62
     7
100
AcDbLine
 10
177.4431122801749
 20
481.570143758007
 30
0.0
 11
186.4989752382144
 21
482.0447414251294
 31
0.0
  0
LINE
  5
29F
330
1F
100
AcDbEntity
  8
0
  6
CONTINUOUS
 62
     7
100
AcDbLine
 10
162.7569603831032
 20
454.3166717074414
 30
0.0
 11
176.4871884836934
 21
454.3166717074414
 31
0.0
  0
LINE
  5
2A0
330
1F
100
AcDbEntity
  8
0
  6
CONTINUOUS
 62
     7
100
AcDbLine
 10
173.2107479183196
 20
424.3166717074412
 30
0.0
 11
157.4599830481578
 21
424.3166717074412
 31
0.0
  0
LINE
  5
2A1
330
1F
100
AcDbEntity
  8
0
  6
CONTINUOUS
 62
     7
100
AcDbLine
 10
157.4599830481578
 20
385.4440750251059
 30
0.0
 11
157.4599830481578
 21
385.4454196401758
 31
0.0
  0
LINE
  5
2A2
330
1F
100
AcDbEntity
  8
0
  6
CONTINUOUS
 62
     7
100
AcDbLine
 10
173.5511938941858
 20
384.8079838360184
 30
0.0
 11
157.9415881590066
 21
384.9442068015352
 31
0.0
  0
LINE
  5
2A3
330
1F
100
AcDbEntity
  8
0
  6
CONTINUOUS
 62
     7
100
AcDbLine
 10
162.7569603831032
 20
479.3526286920735
 30
0.0
 11
162.7569379271798
 21
479.3767924340956
 31
0.0
  0
LINE
  5
2A4
330
1F
100
AcDbEntity
  8
0
  6
CONTINUOUS
 62
     7
100
AcDbLine
 10
164.130310753908
 20
480.8724493939794
 30
0.0
 11
177.4431122801749
 21
481.5701437580067
 31
0.0
  0
LINE
  5
2A5
330
1F
100
AcDbEntity
  8
0
  6
CONTINUOUS
 62
     7
100
AcDbLine
 10
163.4714835656354
 20
480.8379217241106
 30
0.0
 11
164.1303107539078
 21
480.8724493939794
 31
0.0
  0
LINE
  5
2A6
330
1F
100
AcDbEntity
  8
0
  6
CONTINUOUS
 62
     7
100
AcDbLine
 10
157.9415881590066
 20
384.9442068015352
 30
0.0
 11
157.3456242322508
 21
384.949407699932
 31
0.0
  0
LINE
  5
2A7
330
1F
100
AcDbEntity
  8
0
  6
CONTINUOUS
 62
     7
100
AcDbLine
 10
162.0499875000002
 20
454.3166717074414
 30
0.0
 11
162.7569603831032
 21
454.3166717074414
 31
0.0
  0
LINE
  5
2A8
330
1F
100
AcDbEntity
  8
0
  6
CONTINUOUS
 62
     7
100
AcDbLine
 10
162.0499875000002
 20
454.3166717074414
 30
0.0
 11
156.8499875
 21
424.3166717074414
 31
0.0
  0
LINE
  5
2A9
330
1F
100
AcDbEntity
  8
0
  6
CONTINUOUS
 62
     7
100
AcDbLine
 10
157.4599830481578
 20
424.3166717074412
 30
0.0
 11
156.8499875
 21
424.3166717074412
 31
0.0
  0
LINE
  5
2AA
330
1F
100
AcDbEntity
  8
0
  6
CONTINUOUS
 62
     7
100
AcDbLine
 10
160.5999875
 20
351.8166717074412
 30
0.0
 11
160.5999875
 21
351.6198233081162
 31
0.0
  0
LINE
  5
2AB
330
1F
100
AcDbEntity
  8
0
  6
CONTINUOUS
 62
     7
100
AcDbLine
 10
225.0999875
 20
351.0958929206353
 30
0.0
 11
225.0999875
 21
351.8166717074412
 31
0.0
  0
ARC
  5
2AC
330
1F
100
AcDbEntity
  8
0
  6
CONTINUOUS
 62
     7
100
AcDbCircle
 10
223.3499874999999
 20
345.0374504942474
 30
0.0
 40
1.750000000000029
100
AcDbArc
 50
33.45405577902568
 51
85.90605655542572
  0
ARC
  5
2AD
330
1F
100
AcDbEntity
  8
0
  6
CONTINUOUS
 62
     7
100
AcDbCircle
 10
223.3499874999999
 20
351.0958929206353
 30
0.0
 40
1.750000000000029
100
AcDbArc
 50
274.0939434445746
 51
0.0
  0
LINE
  5
2AE
330
1F
100
AcDbEntity
  8
0
  6
CONTINUOUS
 62
     7
100
AcDbLine
 10
221.1385954923734
 20
349.1831364921716
 30
0.0
 11
223.4749235133468
 21
349.3503583341634
 31
0.0
  0
LINE
  5
2AF
330
1F
100
AcDbEntity
  8
0
  6
CONTINUOUS
 62
     7
100
AcDbLine
 10
223.4749235133468
 20
346.7829850807192
 30
0.0
 11
221.1385954923734
 21
346.9502069227111
 31
0.0
  0
ARC
  5
2B0
330
1F
100
AcDbEntity
  8
0
  6
CONTINUOUS
 62
     7
100
AcDbCircle
 10
221.2099875000002
 20
347.9476552578378
 30
0.0
 40
1.000000000000001
100
AcDbArc
 50
180.0
 51
265.9060565554256
  0
ARC
  5
2B1
330
1F
100
AcDbEntity
  8
0
  6
CONTINUOUS
 62
     7
100
AcDbCircle
 10
221.2099875000002
 20
348.1856881570448
 30
0.0
 40
1.000000000000001
100
AcDbArc
 50
94.09394344457463
 51
180.0
  0
LINE
  5
2B2
330
1F
100
AcDbEntity
  8
0
  6
CONTINUOUS
 62
     7
100
AcDbLine
 10
220.2099875000002
 20
347.9476552578378
 30
0.0
 11
220.2099875000002
 21
348.1856881570448
 31
0.0
  0
LINE
  5
2B3
330
1F
100
AcDbEntity
  8
0
  6
CONTINUOUS
 62
     7
100
AcDbLine
 10
160.5999875
 20
359.3166717074412
 30
0.0
 11
160.5999875
 21
358.5958929206353
 31
0.0
  0
LINE
  5
2B4
330
1F
100
AcDbEntity
  8
0
  6
CONTINUOUS
 62
     7
100
AcDbLine
 10
225.0999875
 20
358.5958929206353
 30
0.0
 11
225.0999875
 21
359.3166717074412
 31
0.0
  0
LINE
  5
2B5
330
1F
100
AcDbEntity
  8
0
  6
CONTINUOUS
 62
     7
100
AcDbLine
 10
160.5999875
 20
352.5374504942474
 30
0.0
 11
160.5999875
 21
351.8166717074412
 31
0.0
  0
LINE
  5
2B6
330
1F
100
AcDbEntity
  8
0
  6
CONTINUOUS
 62
     7
100
AcDbLine
 10
225.0999875
 20
351.8166717074412
 30
0.0
 11
225.0999875
 21
352.5374504942474
 31
0.0
  0
ARC
  5
2B7
330
1F
100
AcDbEntity
  8
0
  6
CONTINUOUS
 62
     7
100
AcDbCircle
 10
162.3499875
 20
352.5374504942474
 30
0.0
 40
1.750000000000029
100
AcDbArc
 50
94.09394344457408
 51
180.0
  0
ARC
  5
2B8
330
1F
100
AcDbEntity
  8
0
  6
CONTINUOUS
 62
     7
100
AcDbCircle
 10
223.3499874999999
 20
352.5374504942474
 30
0.0
 40
1.750000000000029
100
AcDbArc
 50
0.0
 51
85.90605655542572
  0
ARC
  5
2B9
330
1F
100
AcDbEntity
  8
0
  6
CONTINUOUS
 62
     7
100
AcDbCircle
 10
162.3499875
 20
358.5958929206353
 30
0.0
 40
1.749999999999974
100
AcDbArc
 50
180.0
 51
265.9060565554256
  0
ARC
  5
2BA
330
1F
100
AcDbEntity
  8
0
  6
CONTINUOUS
 62
     7
100
AcDbCircle
 10
223.3499874999999
 20
358.5958929206353
 30
0.0
 40
1.749999999999974
100
AcDbArc
 50
274.0939434445746
 51
0.0
  0
LINE
  5
2BB
330
1F
100
AcDbEntity
  8
0
  6
CONTINUOUS
 62
     7
100
AcDbLine
 10
162.2250514866534
 20
356.8503583341634
 30
0.0
 11
164.5613795076268
 21
356.6831364921714
 31
0.0
  0
LINE
  5
2BC
330
1F
100
AcDbEntity
  8
0
  6
CONTINUOUS
 62
     7
100
AcDbLine
 10
221.1385954923734
 20
356.6831364921714
 30
0.0
 11
223.4749235133468
 21
356.8503583341634
 31
0.0
  0
LINE
  5
2BD
330
1F
100
AcDbEntity
  8
0
  6
CONTINUOUS
 62
     7
100
AcDbLine
 10
223.4749235133468
 20
354.2829850807192
 30
0.0
 11
221.1385954923734
 21
354.4502069227111
 31
0.0
  0
LINE
  5
2BE
330
1F
100
AcDbEntity
  8
0
  6
CONTINUOUS
 62
     7
100
AcDbLine
 10
164.5613795076268
 20
354.4502069227111
 30
0.0
 11
162.2250514866534
 21
354.2829850807192
 31
0.0
  0
ARC
  5
2BF
330
1F
100
AcDbEntity
  8
0
  6
CONTINUOUS
 62
     7
100
AcDbCircle
 10
164.4899875000002
 20
355.4476552578378
 30
0.0
 40
1.000000000000001
100
AcDbArc
 50
274.0939434445743
 51
0.0
  0
ARC
  5
2C0
330
1F
100
AcDbEntity
  8
0
  6
CONTINUOUS
 62
     7
100
AcDbCircle
 10
221.2099875000002
 20
355.4476552578378
 30
0.0
 40
1.000000000000001
100
AcDbArc
 50
180.0
 51
265.9060565554256
  0
ARC
  5
2C1
330
1F
100
AcDbEntity
  8
0
  6
CONTINUOUS
 62
     7
100
AcDbCircle
 10
164.4899875000002
 20
355.6856881570448
 30
0.0
 40
1.000000000000001
100
AcDbArc
 50
0.0
 51
85.90605655542578
  0
ARC
  5
2C2
330
1F
100
AcDbEntity
  8
0
  6
CONTINUOUS
 62
     7
100
AcDbCircle
 10
221.2099875000002
 20
355.6856881570448
 30
0.0
 40
1.000000000000001
100
AcDbArc
 50
94.09394344457463
 51
180.0
  0
LINE
  5
2C3
330
1F
100
AcDbEntity
  8
0
  6
CONTINUOUS
 62
     7
100
AcDbLine
 10
165.4899875000002
 20
355.6856881570448
 30
0.0
 11
165.4899875000002
 21
355.4476552578378
 31
0.0
  0
LINE
  5
2C4
330
1F
100
AcDbEntity
  8
0
  6
CONTINUOUS
 62
     7
100
AcDbLine
 10
220.2099875000002
 20
355.4476552578378
 30
0.0
 11
220.2099875000002
 21
355.6856881570448
 31
0.0
  0
ARC
  5
2C5
330
1F
100
AcDbEntity
  8
0
  6
CONTINUOUS
 62
     7
100
AcDbCircle
 10
162.3499875
 20
360.0374504942474
 30
0.0
 40
1.749999999999974
100
AcDbArc
 50
94.09394344457408
 51
180.0
  0
ARC
  5
2C6
330
1F
100
AcDbEntity
  8
0
  6
CONTINUOUS
 62
     7
100
AcDbCircle
 10
223.3499874999999
 20
360.0374504942474
 30
0.0
 40
1.750000000000029
100
AcDbArc
 50
0.0
 51
85.90605655542572
  0
LINE
  5
2C7
330
1F
100
AcDbEntity
  8
0
  6
CONTINUOUS
 62
     7
100
AcDbLine
 10
160.5999875
 20
360.0374504942474
 30
0.0
 11
160.5999875
 21
359.3166717074412
 31
0.0
  0
LINE
  5
2C8
330
1F
100
AcDbEntity
  8
0
  6
CONTINUOUS
 62
     7
100
AcDbLine
 10
225.0999875
 20
359.3166717074412
 30
0.0
 11
225.0999875
 21
360.0374504942474
 31
0.0
  0
LINE
  5
2C9
330
1F
100
AcDbEntity
  8
0
  6
CONTINUOUS
 62
     7
100
AcDbLine
 10
160.5999875
 20
366.8166717074412
 30
0.0
 11
160.5999875
 21
366.0958929206353
 31
0.0
  0
LINE
  5
2CA
330
1F
100
AcDbEntity
  8
0
  6
CONTINUOUS
 62
     7
100
AcDbLine
 10
225.0999875
 20
366.0958929206353
 30
0.0
 11
225.0999875
 21
366.8166717074412
 31
0.0
  0
ARC
  5
2CB
330
1F
100
AcDbEntity
  8
0
  6
CONTINUOUS
 62
     7
100
AcDbCircle
 10
162.3499875
 20
366.0958929206353
 30
0.0
 40
1.749999999999974
100
AcDbArc
 50
180.0
 51
265.9060565554256
  0
ARC
  5
2CC
330
1F
100
AcDbEntity
  8
0
  6
CONTINUOUS
 62
     7
100
AcDbCircle
 10
223.3499874999999
 20
366.0958929206353
 30
0.0
 40
1.750000000000029
100
AcDbArc
 50
274.0939434445746
 51
0.0
  0
LINE
  5
2CD
330
1F
100
AcDbEntity
  8
0
  6
CONTINUOUS
 62
     7
100
AcDbLine
 10
162.2250514866534
 20
364.3503583341634
 30
0.0
 11
164.5613795076268
 21
364.1831364921716
 31
0.0
  0
LINE
  5
2CE
330
1F
100
AcDbEntity
  8
0
  6
CONTINUOUS
 62
     7
100
AcDbLine
 10
221.1385954923734
 20
364.1831364921716
 30
0.0
 11
223.4749235133468
 21
364.3503583341634
 31
0.0
  0
LINE
  5
2CF
330
1F
100
AcDbEntity
  8
0
  6
CONTINUOUS
 62
     7
100
AcDbLine
 10
223.4749235133468
 20
361.7829850807192
 30
0.0
 11
221.1385954923734
 21
361.9502069227112
 31
0.0
  0
LINE
  5
2D0
330
1F
100
AcDbEntity
  8
0
  6
CONTINUOUS
 62
     7
100
AcDbLine
 10
164.5613795076268
 20
361.9502069227112
 30
0.0
 11
162.2250514866534
 21
361.7829850807192
 31
0.0
  0
ARC
  5
2D1
330
1F
100
AcDbEntity
  8
0
  6
CONTINUOUS
 62
     7
100
AcDbCircle
 10
164.4899875000002
 20
362.9476552578378
 30
0.0
 40
1.000000000000001
100
AcDbArc
 50
274.0939434445743
 51
0.0
  0
ARC
  5
2D2
330
1F
100
AcDbEntity
  8
0
  6
CONTINUOUS
 62
     7
100
AcDbCircle
 10
221.2099875000002
 20
362.9476552578378
 30
0.0
 40
1.000000000000001
100
AcDbArc
 50
180.0
 51
265.9060565554256
  0
ARC
  5
2D3
330
1F
100
AcDbEntity
  8
0
  6
CONTINUOUS
 62
     7
100
AcDbCircle
 10
164.4899875000002
 20
363.1856881570448
 30
0.0
 40
1.000000000000001
100
AcDbArc
 50
0.0
 51
85.90605655542578
  0
ARC
  5
2D4
330
1F
100
AcDbEntity
  8
0
  6
CONTINUOUS
 62
     7
100
AcDbCircle
 10
221.2099875000002
 20
363.1856881570448
 30
0.0
 40
1.000000000000001
100
AcDbArc
 50
94.09394344457463
 51
180.0
  0
LINE
  5
2D5
330
1F
100
AcDbEntity
  8
0
  6
CONTINUOUS
 62
     7
100
AcDbLine
 10
165.4899875000002
 20
363.1856881570448
 30
0.0
 11
165.4899875000002
 21
362.9476552578378
 31
0.0
  0
LINE
  5
2D6
330
1F
100
AcDbEntity
  8
0
  6
CONTINUOUS
 62
     7
100
AcDbLine
 10
220.2099875000002
 20
362.9476552578378
 30
0.0
 11
220.2099875000002
 21
363.1856881570448
 31
0.0
  0
ARC
  5
2D7
330
1F
100
AcDbEntity
  8
0
  6
CONTINUOUS
 62
     7
100
AcDbCircle
 10
162.3499875
 20
367.5374504942474
 30
0.0
 40
1.750000000000029
100
AcDbArc
 50
94.09394344457408
 51
180.0
  0
ARC
  5
2D8
330
1F
100
AcDbEntity
  8
0
  6
CONTINUOUS
 62
     7
100
AcDbCircle
 10
223.3499874999999
 20
367.5374504942474
 30
0.0
 40
1.750000000000029
100
AcDbArc
 50
0.0
 51
85.90605655542572
  0
LINE
  5
2D9
330
1F
100
AcDbEntity
  8
0
  6
CONTINUOUS
 62
     7
100
AcDbLine
 10
160.5999875
 20
374.3166717074412
 30
0.0
 11
160.5999875
 21
373.5958929206352
 31
0.0
  0
LINE
  5
2DA
330
1F
100
AcDbEntity
  8
0
  6
CONTINUOUS
 62
     7
100
AcDbLine
 10
225.0999875
 20
373.5958929206352
 30
0.0
 11
225.0999875
 21
374.3166717074412
 31
0.0
  0
LINE
  5
2DB
330
1F
100
AcDbEntity
  8
0
  6
CONTINUOUS
 62
     7
100
AcDbLine
 10
160.5999875
 20
367.5374504942474
 30
0.0
 11
160.5999875
 21
366.8166717074412
 31
0.0
  0
LINE
  5
2DC
330
1F
100
AcDbEntity
  8
0
  6
CONTINUOUS
 62
     7
100
AcDbLine
 10
225.0999875
 20
366.8166717074412
 30
0.0
 11
225.0999875
 21
367.5374504942474
 31
0.0
  0
ARC
  5
2DD
330
1F
100
AcDbEntity
  8
0
  6
CONTINUOUS
 62
     7
100
AcDbCircle
 10
162.3499875
 20
373.5958929206352
 30
0.0
 40
1.749999999999974
100
AcDbArc
 50
180.0
 51
265.9060565554256
  0
ARC
  5
2DE
330
1F
100
AcDbEntity
  8
0
  6
CONTINUOUS
 62
     7
100
AcDbCircle
 10
223.3499874999999
 20
373.5958929206352
 30
0.0
 40
1.749999999999974
100
AcDbArc
 50
274.0939434445746
 51
0.0
  0
LINE
  5
2DF
330
1F
100
AcDbEntity
  8
0
  6
CONTINUOUS
 62
     7
100
AcDbLine
 10
162.2250514866534
 20
371.8503583341634
 30
0.0
 11
164.5613795076268
 21
371.6831364921715
 31
0.0
  0
LINE
  5
2E0
330
1F
100
AcDbEntity
  8
0
  6
CONTINUOUS
 62
     7
100
AcDbLine
 10
221.1385954923734
 20
371.6831364921715
 30
0.0
 11
223.4749235133468
 21
371.8503583341634
 31
0.0
  0
LINE
  5
2E1
330
1F
100
AcDbEntity
  8
0
  6
CONTINUOUS
 62
     7
100
AcDbLine
 10
223.4749235133468
 20
369.2829850807192
 30
0.0
 11
221.1385954923734
 21
369.4502069227112
 31
0.0
  0
LINE
  5
2E2
330
1F
100
AcDbEntity
  8
0
  6
CONTINUOUS
 62
     7
100
AcDbLine
 10
164.5613795076268
 20
369.4502069227112
 30
0.0
 11
162.2250514866534
 21
369.2829850807192
 31
0.0
  0
ARC
  5
2E3
330
1F
100
AcDbEntity
  8
0
  6
CONTINUOUS
 62
     7
100
AcDbCircle
 10
164.4899875000002
 20
370.4476552578378
 30
0.0
 40
1.000000000000001
100
AcDbArc
 50
274.0939434445743
 51
0.0
  0
ARC
  5
2E4
330
1F
100
AcDbEntity
  8
0
  6
CONTINUOUS
 62
     7
100
AcDbCircle
 10
221.2099875000002
 20
370.4476552578378
 30
0.0
 40
1.000000000000001
100
AcDbArc
 50
180.0
 51
265.9060565554256
  0
ARC
  5
2E5
330
1F
100
AcDbEntity
  8
0
  6
CONTINUOUS
 62
     7
100
AcDbCircle
 10
164.4899875000002
 20
370.6856881570448
 30
0.0
 40
1.000000000000001
100
AcDbArc
 50
0.0
 51
85.90605655542578
  0
ARC
  5
2E6
330
1F
100
AcDbEntity
  8
0
  6
CONTINUOUS
 62
     7
100
AcDbCircle
 10
221.2099875000002
 20
370.6856881570448
 30
0.0
 40
1.000000000000001
100
AcDbArc
 50
94.09394344457463
 51
180.0
  0
LINE
  5
2E7
330
1F
100
AcDbEntity
  8
0
  6
CONTINUOUS
 62
     7
100
AcDbLine
 10
165.4899875000002
 20
370.6856881570448
 30
0.0
 11
165.4899875000002
 21
370.4476552578378
 31
0.0
  0
LINE
  5
2E8
330
1F
100
AcDbEntity
  8
0
  6
CONTINUOUS
 62
     7
100
AcDbLine
 10
220.2099875000002
 20
370.4476552578378
 30
0.0
 11
220.2099875000002
 21
370.6856881570448
 31
0.0
  0
LINE
  5
2E9
330
1F
100
AcDbEntity
  8
0
  6
CONTINUOUS
 62
     7
100
AcDbLine
 10
160.5999875
 20
381.8166717074412
 30
0.0
 11
160.5999875
 21
381.0958929206352
 31
0.0
  0
LINE
  5
2EA
330
1F
100
AcDbEntity
  8
0
  6
CONTINUOUS
 62
     7
100
AcDbLine
 10
225.0999875
 20
381.0958929206352
 30
0.0
 11
225.0999875
 21
381.8166717074412
 31
0.0
  0
ARC
  5
2EB
330
1F
100
AcDbEntity
  8
0
  6
CONTINUOUS
 62
     7
100
AcDbCircle
 10
162.3499875
 20
381.0958929206352
 30
0.0
 40
1.749999999999974
100
AcDbArc
 50
180.0
 51
265.9060565554256
  0
ARC
  5
2EC
330
1F
100
AcDbEntity
  8
0
  6
CONTINUOUS
 62
     7
100
AcDbCircle
 10
223.3499874999999
 20
381.0958929206352
 30
0.0
 40
1.750000000000029
100
AcDbArc
 50
274.0939434445746
 51
0.0
  0
ARC
  5
2ED
330
1F
100
AcDbEntity
  8
0
  6
CONTINUOUS
 62
     7
100
AcDbCircle
 10
162.3499875
 20
375.0374504942474
 30
0.0
 40
1.749999999999974
100
AcDbArc
 50
94.09394344457408
 51
180.0
  0
ARC
  5
2EE
330
1F
100
AcDbEntity
  8
0
  6
CONTINUOUS
 62
     7
100
AcDbCircle
 10
223.3499874999999
 20
375.0374504942474
 30
0.0
 40
1.750000000000029
100
AcDbArc
 50
0.0
 51
85.90605655542572
  0
LINE
  5
2EF
330
1F
100
AcDbEntity
  8
0
  6
CONTINUOUS
 62
     7
100
AcDbLine
 10
160.5999875
 20
375.0374504942474
 30
0.0
 11
160.5999875
 21
374.3166717074412
 31
0.0
  0
LINE
  5
2F0
330
1F
100
AcDbEntity
  8
0
  6
CONTINUOUS
 62
     7
100
AcDbLine
 10
225.0999875
 20
374.3166717074412
 30
0.0
 11
225.0999875
 21
375.0374504942474
 31
0.0
  0
LINE
  5
2F1
330
1F
100
AcDbEntity
  8
0
  6
CONTINUOUS
 62
     7
100
AcDbLine
 10
162.2250514866534
 20
379.3503583341634
 30
0.0
 11
164.5613795076268
 21
379.1831364921715
 31
0.0
  0
LINE
  5
2F2
330
1F
100
AcDbEntity
  8
0
  6
CONTINUOUS
 62
     7
100
AcDbLine
 10
221.1385954923734
 20
379.1831364921715
 30
0.0
 11
223.4749235133468
 21
379.3503583341634
 31
0.0
  0
LINE
  5
2F3
330
1F
100
AcDbEntity
  8
0
  6
CONTINUOUS
 62
     7
100
AcDbLine
 10
223.4749235133468
 20
376.7829850807191
 30
0.0
 11
221.1385954923734
 21
376.9502069227112
 31
0.0
  0
LINE
  5
2F4
330
1F
100
AcDbEntity
  8
0
  6
CONTINUOUS
 62
     7
100
AcDbLine
 10
164.5613795076268
 20
376.9502069227112
 30
0.0
 11
162.2250514866534
 21
376.7829850807191
 31
0.0
  0
ARC
  5
2F5
330
1F
100
AcDbEntity
  8
0
  6
CONTINUOUS
 62
     7
100
AcDbCircle
 10
164.4899875000002
 20
377.9476552578378
 30
0.0
 40
1.000000000000001
100
AcDbArc
 50
274.0939434445743
 51
0.0
  0
ARC
  5
2F6
330
1F
100
AcDbEntity
  8
0
  6
CONTINUOUS
 62
     7
100
AcDbCircle
 10
221.2099875000002
 20
377.9476552578378
 30
0.0
 40
1.000000000000001
100
AcDbArc
 50
180.0
 51
265.9060565554256
  0
ARC
  5
2F7
330
1F
100
AcDbEntity
  8
0
  6
CONTINUOUS
 62
     7
100
AcDbCircle
 10
164.4899875000002
 20
378.1856881570448
 30
0.0
 40
1.000000000000001
100
AcDbArc
 50
0.0
 51
85.90605655542578
  0
ARC
  5
2F8
330
1F
100
AcDbEntity
  8
0
  6
CONTINUOUS
 62
     7
100
AcDbCircle
 10
221.2099875000002
 20
378.1856881570448
 30
0.0
 40
1.000000000000001
100
AcDbArc
 50
94.09394344457463
 51
180.0
  0
LINE
  5
2F9
330
1F
100
AcDbEntity
  8
0
  6
CONTINUOUS
 62
     7
100
AcDbLine
 10
165.4899875000002
 20
378.1856881570448
 30
0.0
 11
165.4899875000002
 21
377.9476552578378
 31
0.0
  0
LINE
  5
2FA
330
1F
100
AcDbEntity
  8
0
  6
CONTINUOUS
 62
     7
100
AcDbLine
 10
220.2099875000002
 20
377.9476552578378
 30
0.0
 11
220.2099875000002
 21
378.1856881570448
 31
0.0
  0
ARC
  5
2FB
330
1F
100
AcDbEntity
  8
0
  6
CONTINUOUS
 62
     7
100
AcDbCircle
 10
162.3499875
 20
382.5374504942474
 30
0.0
 40
1.750000000000029
100
AcDbArc
 50
94.09394344457408
 51
180.0
  0
ARC
  5
2FC
330
1F
100
AcDbEntity
  8
0
  6
CONTINUOUS
 62
     7
100
AcDbCircle
 10
223.3499874999999
 20
382.5374504942474
 30
0.0
 40
1.750000000000029
100
AcDbArc
 50
0.0
 51
85.90605655542572
  0
LINE
  5
2FD
330
1F
100
AcDbEntity
  8
0
  6
CONTINUOUS
 62
     7
100
AcDbLine
 10
160.5999875
 20
382.5374504942474
 30
0.0
 11
160.5999875
 21
381.8166717074412
 31
0.0
  0
LINE
  5
2FE
330
1F
100
AcDbEntity
  8
0
  6
CONTINUOUS
 62
     7
100
AcDbLine
 10
225.0999875
 20
381.8166717074412
 30
0.0
 11
225.0999875
 21
382.5374504942474
 31
0.0
  0
LINE
  5
2FF
330
1F
100
AcDbEntity
  8
0
  6
CONTINUOUS
 62
     7
100
AcDbLine
 10
223.4749235133468
 20
384.2829850807192
 30
0.0
 11
222.0536962983026
 21
384.3847089100169
 31
0.0
  0
LINE
  5
300
330
1F
100
AcDbEntity
  8
0
  6
CONTINUOUS
 62
     7
100
AcDbLine
 10
164.5613795076268
 20
384.450206922711
 30
0.0
 11
162.2250514866534
 21
384.2829850807192
 31
0.0
  0
ARC
  5
301
330
1F
100
AcDbEntity
  8
0
  6
CONTINUOUS
 62
     7
100
AcDbCircle
 10
164.4899875000002
 20
385.4476552578378
 30
0.0
 40
1.000000000000001
100
AcDbArc
 50
274.0939434445744
 51
325.4044883273077
  0
ARC
  5
302
330
1F
100
AcDbEntity
  8
0
  6
CONTINUOUS
 62
     7
100
AcDbCircle
 10
163.5499875
 20
479.3399774219787
 30
0.0
 40
1.499999999999946
100
AcDbArc
 50
92.99999999999991
 51
180.0
  0
ARC
  5
303
330
1F
100
AcDbEntity
  8
0
  6
CONTINUOUS
 62
     7
100
AcDbCircle
 10
157.3499875
 20
385.4493886614642
 30
0.0
 40
0.5000000000000004
100
AcDbArc
 50
180.0
 51
269.4999999999995
  0
LINE
  5
304
330
1F
100
AcDbEntity
  8
0
  6
CONTINUOUS
 62
     7
100
AcDbLine
 10
162.0499875
 20
479.3399774219787
 30
0.0
 11
162.0499875
 21
454.3166717074414
 31
0.0
  0
LINE
  5
305
330
1F
100
AcDbEntity
  8
0
  6
CONTINUOUS
 62
     7
100
AcDbLine
 10
156.8499875000002
 20
424.3166717074412
 30
0.0
 11
156.8499875000002
 21
385.4493886614642
 31
0.0
  0
LINE
  5
306
330
1F
100
AcDbEntity
  8
0
  6
CONTINUOUS
 62
   253
100
AcDbLine
 10
235.8499875
 20
335.0363013777907
 30
0.0
 11
150.8499875
 21
342.472837777494
 31
0.0
  0
LINE
  5
307
330
1F
100
AcDbEntity
  8
0
  6
CONTINUOUS
 62
   253
100
AcDbLine
 10
235.8499875
 20
345.0363013777904
 30
0.0
 11
150.8499875
 21
352.472837777494
 31
0.0
  0
ARC
  5
308
330
1F
100
AcDbEntity
  8
0
  6
CONTINUOUS
 62
     7
100
AcDbCircle
 10
48.35
 20
96.25000625
 30
0.0
 40
32.25
100
AcDbArc
 50
180.0
 51
180.8364570598085
  0
ARC
  5
309
330
1F
100
AcDbEntity
  8
0
  6
CONTINUOUS
 62
     7
100
AcDbCircle
 10
48.35
 20
96.25000625
 30
0.0
 40
30.78999999999998
100
AcDbArc
 50
116.3039221834583
 51
180.0
  0
ARC
  5
30A
330
1F
100
AcDbEntity
  8
0
  6
CONTINUOUS
 62
     7
100
AcDbCircle
 10
48.35
 20
96.25000625
 30
0.0
 40
30.79000000000001
100
AcDbArc
 50
90.05075064543266
 51
90.45699619904127
  0
ARC
  5
30B
330
1F
100
AcDbEntity
  8
0
  6
CONTINUOUS
 62
     7
100
AcDbCircle
 10
48.35
 20
96.25000625
 30
0.0
 40
30.79000000000001
100
AcDbArc
 50
358.8846319876642
 51
63.69607781654168
  0
ARC
  5
30C
330
1F
100
AcDbEntity
  8
0
  6
CONTINUOUS
 62
     7
100
AcDbCircle
 10
48.35
 20
96.25000625
 30
0.0
 40
30.78999999999998
100
AcDbArc
 50
180.0
 51
181.1153680123359
  0
CIRCLE
  5
30D
330
1F
100
AcDbEntity
  8
0
  6
CONTINUOUS
 62
     7
100
AcDbCircle
 10
48.35
 20
96.25000625
 30
0.0
 40
26.35000000000001
  0
ARC
  5
30E
330
1F
100
AcDbEntity
  8
0
  6
CONTINUOUS
 62
     7
100
AcDbCircle
 10
48.35
 20
96.75000625
 30
0.0
 40
32.45
100
AcDbArc
 50
180.0
 51
180.9151502157157
  0
ARC
  5
30F
330
1F
100
AcDbEntity
  8
0
  6
CONTINUOUS
 62
     7
100
AcDbCircle
 10
48.35
 20
96.75000625
 30
0.0
 40
32.45
100
AcDbArc
 50
359.0848497842844
 51
0.0
  0
LINE
  5
310
330
1F
100
AcDbEntity
  8
0
  6
CONTINUOUS
 62
     7
100
AcDbLine
 10
12.53100372656352
 20
59.25000625
 30
0.0
 11
12.90875141869377
 21
102.5356043806688
 31
0.0
  0
LINE
  5
311
330
1F
100
AcDbEntity
  8
0
  6
CONTINUOUS
 62
     7
100
AcDbLine
 10
14.03037575068589
 20
59.25000625000003
 30
0.0
 11
12.53100372656354
 21
59.25000625000003
 31
0.0
  0
ARC
  5
312
330
1F
100
AcDbEntity
  8
0
  6
CONTINUOUS
 62
     7
100
AcDbCircle
 10
68.9918121199565
 20
102.406451655293
 30
0.0
 40
12.00000000000001
100
AcDbArc
 50
0.4999999999999498
 51
43.59991641039994
  0
LINE
  5
313
330
1F
100
AcDbEntity
  8
0
  6
CONTINUOUS
 62
     7
100
AcDbLine
 10
77.68188653034203
 20
110.6818735020608
 30
0.0
 11
65.35000000000005
 21
123.631667911751
 31
0.0
  0
ARC
  5
314
330
1F
100
AcDbEntity
  8
0
  6
CONTINUOUS
 62
     7
100
AcDbCircle
 10
48.35
 20
-109.74999375
 30
0.0
 40
234.0
100
AcDbArc
 50
85.83381578248014
 51
94.16618421751986
  0
LINE
  5
315
330
1F
100
AcDbEntity
  8
0
  6
CONTINUOUS
 62
     7
100
AcDbLine
 10
19.018113469658
 20
110.6818735020608
 30
0.0
 11
31.34999999999999
 21
123.631667911751
 31
0.0
  0
ARC
  5
316
330
1F
100
AcDbEntity
  8
0
  6
CONTINUOUS
 62
     7
100
AcDbCircle
 10
27.7081878800435
 20
102.406451655293
 30
0.0
 40
12.00000000000001
100
AcDbArc
 50
136.4000835896001
 51
179.5
  0
LINE
  5
317
330
1F
100
AcDbEntity
  8
0
  6
CONTINUOUS
 62
     7
100
AcDbLine
 10
81.36888965395644
 20
59.25000625
 30
0.0
 11
80.99135519672656
 21
102.5111700812735
 31
0.0
  0
LINE
  5
318
330
1F
100
AcDbEntity
  8
0
  6
CONTINUOUS
 62
     7
100
AcDbLine
 10
14.03037575068589
 20
59.25000625
 30
0.0
 11
15.33111034604356
 21
59.25000625
 31
0.0
  0
LINE
  5
319
330
1F
100
AcDbEntity
  8
0
  6
CONTINUOUS
 62
     7
100
AcDbLine
 10
82.66962424931415
 20
59.25000625
 30
0.0
 11
81.36888965395644
 21
59.25000625
 31
0.0
  0
LINE
  5
31A
330
1F
100
AcDbEntity
  8
0
  6
CONTINUOUS
 62
     7
100
AcDbLine
 10
15.33111034604356
 20
59.25000625
 30
0.0
 11
15.70864480327345
 21
102.5111700812735
 31
0.0
  0
LINE
  5
31B
330
1F
100
AcDbEntity
  8
0
  6
CONTINUOUS
 62
     7
100
AcDbLine
 10
83.79124858130623
 20
102.5356043806688
 30
0.0
 11
84.16899627343649
 21
59.25000624999998
 31
0.0
  0
LINE
  5
31C
330
1F
100
AcDbEntity
  8
0
  6
CONTINUOUS
 62
     7
100
AcDbLine
 10
84.16899627343649
 20
59.25000625
 30
0.0
 11
82.66962424931415
 21
59.25000625
 31
0.0
  0
ARC
  5
31D
330
1F
100
AcDbEntity
  8
0
  6
CONTINUOUS
 62
     7
100
AcDbCircle
 10
27.7081878800435
 20
102.406451655293
 30
0.0
 40
14.79999999999998
100
AcDbArc
 50
136.4000835896001
 51
179.5000000000002
  0
ARC
  5
31E
330
1F
100
AcDbEntity
  8
0
  6
CONTINUOUS
 62
     7
100
AcDbCircle
 10
68.9918121199565
 20
102.406451655293
 30
0.0
 40
14.79999999999998
100
AcDbArc
 50
0.4999999999997159
 51
43.59991641039989
  0
LINE
  5
31F
330
1F
100
AcDbEntity
  8
0
  6
CONTINUOUS
 62
     7
100
AcDbLine
 10
16.99042944056805
 20
112.6128052663067
 30
0.0
 11
30.06551075965774
 21
126.3430333668969
 31
0.0
  0
LINE
  5
320
330
1F
100
AcDbEntity
  8
0
  6
CONTINUOUS
 62
     7
100
AcDbLine
 10
30.06551075965774
 20
126.3430333668969
 30
0.0
 11
30.06580071739927
 21
126.3430558228202
 31
0.0
  0
LINE
  5
321
330
1F
100
AcDbEntity
  8
0
  6
CONTINUOUS
 62
     7
100
AcDbLine
 10
66.63419928260065
 20
126.3430558228202
 30
0.0
 11
66.63448924034226
 21
126.3430333668969
 31
0.0
  0
LINE
  5
322
330
1F
100
AcDbEntity
  8
0
  6
CONTINUOUS
 62
     7
100
AcDbLine
 10
66.63448924034226
 20
126.3430333668969
 30
0.0
 11
79.70957055943195
 21
112.6128052663067
 31
0.0
  0
ARC
  5
323
330
1F
100
AcDbEntity
  8
0
  6
CONTINUOUS
 62
     7
100
AcDbCircle
 10
48.35
 20
-109.74999375
 30
0.0
 40
236.8
100
AcDbArc
 50
85.57157424968784
 51
94.42842575031216
  0
ARC
  5
324
330
1F
100
AcDbEntity
  8
0
  6
CONTINUOUS
 62
     7
100
AcDbCircle
 10
69.4561830448383
 20
104.3036552462053
 30
0.0
 40
16.8000000000002
100
AcDbArc
 50
0.5000000000001903
 51
43.59991641039974
  0
ARC
  5
325
330
1F
100
AcDbEntity
  8
0
  6
CONTINUOUS
 62
     7
100
AcDbCircle
 10
27.24381695516172
 20
104.3036552462053
 30
0.0
 40
16.80000000000019
100
AcDbArc
 50
136.4000835896003
 51
179.4999999999998
  0
LINE
  5
326
330
1F
100
AcDbEntity
  8
0
  6
CONTINUOUS
 62
     7
100
AcDbLine
 10
86.65
 20
59.25000625
 30
0.0
 11
86.25554335231658
 21
104.450261042578
 31
0.0
  0
LINE
  5
327
330
1F
100
AcDbEntity
  8
0
  6
CONTINUOUS
 62
     7
100
AcDbLine
 10
86.65
 20
59.25000625
 30
0.0
 11
84.16899627343649
 21
59.25000624999998
 31
0.0
  0
LINE
  5
328
330
1F
100
AcDbEntity
  8
0
  6
CONTINUOUS
 62
     7
100
AcDbLine
 10
10.05
 20
59.25000625
 30
0.0
 11
12.53100372656352
 21
59.25000625
 31
0.0
  0
LINE
  5
329
330
1F
100
AcDbEntity
  8
0
  6
CONTINUOUS
 62
     7
100
AcDbLine
 10
10.05
 20
59.25000625
 30
0.0
 11
10.44445664768344
 21
104.450261042578
 31
0.0
  0
LINE
  5
32A
330
1F
100
AcDbEntity
  8
0
  6
CONTINUOUS
 62
     7
100
AcDbLine
 10
15.07771278062181
 20
115.8892458316804
 30
0.0
 11
30.07691964058465
 21
131.6400107018423
 31
0.0
  0
LINE
  5
32B
330
1F
100
AcDbEntity
  8
0
  6
CONTINUOUS
 62
     7
100
AcDbLine
 10
30.07691964058465
 20
131.6400107018424
 30
0.0
 11
30.06551075965787
 21
126.3430333668968
 31
0.0
  0
LINE
  5
32C
330
1F
100
AcDbEntity
  8
0
  6
CONTINUOUS
 62
     7
100
AcDbLine
 10
81.6222872193782
 20
115.8892458316804
 30
0.0
 11
66.62308035941538
 21
131.6400107018423
 31
0.0
  0
LINE
  5
32D
330
1F
100
AcDbEntity
  8
0
  6
CONTINUOUS
 62
     7
100
AcDbLine
 10
66.62308035941538
 20
131.6400107018424
 30
0.0
 11
66.63448924034215
 21
126.3430333668968
 31
0.0
  0
ARC
  5
32E
330
1F
100
AcDbEntity
  8
0
  6
CONTINUOUS
 62
     7
100
AcDbCircle
 10
48.35
 20
-141.74999375
 30
0.0
 40
274.0
100
AcDbArc
 50
90.0
 51
93.8238978795049
  0
ARC
  5
32F
330
1F
100
AcDbEntity
  8
0
  6
CONTINUOUS
 62
     7
100
AcDbCircle
 10
48.35
 20
-141.74999375
 30
0.0
 40
274.0
100
AcDbArc
 50
86.17610212049509
 51
90.00000000000001
  0
LINE
  5
330
330
1F
100
AcDbEntity
  8
0
  6
CONTINUOUS
 62
     7
100
AcDbLine
 10
37.35000000000001
 20
59.25000625
 30
0.0
 11
36.35003807693583
 21
59.25000625
 31
0.0
  0
LINE
  5
331
330
1F
100
AcDbEntity
  8
0
  6
CONTINUOUS
 62
     7
100
AcDbLine
 10
60.34996192306419
 20
59.25000625
 30
0.0
 11
59.35000000000002
 21
59.25000625
 31
0.0
  0
LINE
  5
332
330
1F
100
AcDbEntity
  8
0
  6
CONTINUOUS
 62
     7
100
AcDbLine
 10
63.35003807693585
 20
59.25000625
 30
0.0
 11
60.34996192306419
 21
59.25000625
 31
0.0
  0
LINE
  5
333
330
1F
100
AcDbEntity
  8
0
  6
CONTINUOUS
 62
     7
100
AcDbLine
 10
36.35003807693583
 20
59.25000625
 30
0.0
 11
33.34996192306418
 21
59.25000625
 31
0.0
  0
LINE
  5
334
330
1F
100
AcDbEntity
  8
0
  6
CONTINUOUS
 62
     7
100
AcDbLine
 10
64.35000000000002
 20
59.25000625
 30
0.0
 11
63.35003807693585
 21
59.25000625
 31
0.0
  0
LINE
  5
335
330
1F
100
AcDbEntity
  8
0
  6
CONTINUOUS
 62
     7
100
AcDbLine
 10
33.34996192306418
 20
59.25000625
 30
0.0
 11
32.35
 21
59.25000625
 31
0.0
  0
ARC
  5
336
330
1F
100
AcDbEntity
  8
0
  6
CONTINUOUS
 62
     7
100
AcDbCircle
 10
48.35
 20
96.78034509149298
 30
0.0
 40
29.10200075241209
100
AcDbArc
 50
183.1572771921385
 51
356.8427228078616
  0
LINE
  5
337
330
1F
100
AcDbEntity
  8
0
  6
CONTINUOUS
 62
     7
100
AcDbLine
 10
37.35000000000001
 20
59.25000625
 30
0.0
 11
59.35000000000002
 21
59.25000625
 31
0.0
  0
LINE
  5
338
330
1F
100
AcDbEntity
  8
0
  6
CONTINUOUS
 62
     7
100
AcDbLine
 10
64.35000000000002
 20
59.25000625
 30
0.0
 11
80.88918629012512
 21
59.25000625
 31
0.0
  0
LINE
  5
339
330
1F
100
AcDbEntity
  8
0
  6
CONTINUOUS
 62
     7
100
AcDbLine
 10
15.81081370987489
 20
59.25000625
 30
0.0
 11
32.35
 21
59.25000625
 31
0.0
  0
LINE
  5
33A
330
1F
100
AcDbEntity
  8
0
  6
CONTINUOUS
 62
     7
100
AcDbLine
 10
48.85
 20
64.25000625
 30
0.0
 11
48.85
 21
64.2862062722285
 31
0.0
  0
LINE
  5
33B
330
1F
100
AcDbEntity
  8
0
  6
CONTINUOUS
 62
     7
100
AcDbLine
 10
15.81081370987489
 20
59.25000625
 30
0.0
 11
15.33111034604358
 21
59.25000625
 31
0.0
  0
LINE
  5
33C
330
1F
100
AcDbEntity
  8
0
  6
CONTINUOUS
 62
     7
100
AcDbLine
 10
81.36888965395644
 20
59.25000625
 30
0.0
 11
80.88918629012512
 21
59.25000625
 31
0.0
  0
LINE
  5
33D
330
1F
100
AcDbEntity
  8
0
  6
CONTINUOUS
 62
     7
100
AcDbLine
 10
19.29217287997191
 20
95.17749423880868
 30
0.0
 11
19.29555464759822
 21
95.17818980572765
 31
0.0
  0
LINE
  5
33E
330
1F
100
AcDbEntity
  8
0
  6
CONTINUOUS
 62
     7
100
AcDbLine
 10
80.79586081363766
 20
96.23172441349303
 30
0.0
 11
80.80000000000001
 21
96.75000625
 31
0.0
  0
LINE
  5
33F
330
1F
100
AcDbEntity
  8
0
  6
CONTINUOUS
 62
     7
100
AcDbLine
 10
80.8000000000089
 20
96.75000625
 30
0.0
 11
81.0415642000141
 21
96.75000625
 31
0.0
  0
LINE
  5
340
330
1F
100
AcDbEntity
  8
0
  6
CONTINUOUS
 62
     7
100
AcDbLine
 10
15.65843250270717
 20
96.75000625
 30
0.0
 11
15.9
 21
96.75000625
 31
0.0
  0
LINE
  5
341
330
1F
100
AcDbEntity
  8
0
  6
CONTINUOUS
 62
     7
100
AcDbLine
 10
15.9
 20
96.75000625
 30
0.0
 11
15.90413918636235
 21
96.23172441349303
 31
0.0
  0
LINE
  5
342
330
1F
100
AcDbEntity
  8
0
  6
CONTINUOUS
 62
     7
100
AcDbLine
 10
77.40444535240185
 20
95.1781898057278
 30
0.0
 11
77.40782712002856
 21
95.17749423880865
 31
0.0
  0
LINE
  5
343
330
1F
100
AcDbEntity
  8
0
  6
CONTINUOUS
 62
     7
100
AcDbLine
 10
16.10387620193707
 20
96.75000625
 30
0.0
 11
15.9
 21
96.75000625
 31
0.0
  0
LINE
  5
344
330
1F
100
AcDbEntity
  8
0
  6
CONTINUOUS
 62
     7
100
AcDbLine
 10
80.80000000000001
 20
96.75000625
 30
0.0
 11
80.59612379806293
 21
96.75000625
 31
0.0
  0
LINE
  5
345
330
1F
100
AcDbEntity
  8
0
  6
CONTINUOUS
 62
     7
100
AcDbLine
 10
48.10453129874831
 20
126.9695087939173
 30
0.0
 11
48.10453188771923
 21
127.1578616223362
 31
0.0
  0
LINE
  5
346
330
1F
100
AcDbEntity
  8
0
  6
CONTINUOUS
 62
     7
100
AcDbLine
 10
59.36566525642625
 20
60.87073040260751
 30
0.0
 11
59.36695996406557
 21
60.86862229678969
 31
0.0
  0
LWPOLYLINE
  5
347
330
1F
100
AcDbEntity
  8
0
  6
CONTINUOUS
 62
     7
100
AcDbPolyline
 90
       36
 70
     0
 43
0.0
 10
-80.79585924235843
 20
96.23162619260981
 10
-80.79414287491615
 20
96.19395581784727
 10
-80.79060189311737
 20
96.15966200388411
 10
-80.78568399844121
 20
96.12848581337909
 10
-80.77976620173318
 20
96.10018229056858
 10
-80.77316422954821
 20
96.07452419248803
 10
-80.7591773510721
 20
96.03105209756362
 10
-80.74507553870355
 20
95.9957016690256
 10
-80.7296900056475
 20
95.96295406327022
 10
-80.7149892514731
 20
95.93558156068336
 10
-80.69855301350687
 20
95.90837000527273
 10
-80.68109622104585
 20
95.88255475282199
 10
-80.66166047792817
 20
95.85681393732492
 10
-80.65526795023231
 20
95.84893445039454
 10
-80.64763355973372
 20
95.83986153296823
 10
-80.63868962231477
 20
95.82966709477729
 10
-80.62836000778873
 20
95.81843432915447
 10
-80.61655992248693
 20
95.8062588488514
 10
-80.60320630661514
 20
95.7932605508794
 10
-80.58873673025386
 20
95.78004394902955
 10
-80.57280288243554
 20
95.76646025612416
 10
-80.5553578507526
 20
95.7526741912452
 10
-80.53635595263891
 20
95.7388637798602
 10
-80.515751882343
 20
95.72522069835294
 10
-80.49349791154253
 20
95.71195043270532
 10
-80.46953724713815
 20
95.69927220711956
 10
-80.447316300194
 20
95.68894537678952
 10
-80.42416937840308
 20
95.67960634623772
 10
-80.40006041529887
 20
95.67136396768166
 10
-80.37488384067603
 20
95.66431713861965
 10
-80.35740416147016
 20
95.66033113249007
 10
-80.33932524315313
 20
95.65696665390811
 10
-80.32076408968663
 20
95.65429387091655
 10
-80.30157298496363
 20
95.65232724198357
 10
-80.28153533224727
 20
95.6510960088272
 10
-80.26038120800355
 20
95.65065978771763
210
0.0
220
0.0
230
-1.0
  0
LWPOLYLINE
  5
348
330
1F
100
AcDbEntity
  8
0
  6
CONTINUOUS
 62
     7
100
AcDbPolyline
 90
       38
 70
     0
 43
0.0
 10
-16.43961879199648
 20
95.6506597877176
 10
-16.41976163736547
 20
95.65105525631682
 10
-16.4009131547919
 20
95.6521700632109
 10
-16.38285362001764
 20
95.65394349249661
 10
-16.36540668781186
 20
95.65633904913393
 10
-16.34843507486272
 20
95.65933617659829
 10
-16.33183563795967
 20
95.66292388411375
 10
-16.30757137577417
 20
95.66936948877598
 10
-16.28438130315021
 20
95.67688833982423
 10
-16.26221744495065
 20
95.68535090300493
 10
-16.24102388309119
 20
95.69464588376086
 10
-16.21796725442852
 20
95.70614046787516
 10
-16.19619960529059
 20
95.71836749056656
 10
-16.17600645599636
 20
95.73095402639197
 10
-16.15738556777158
 20
95.7436793417882
 10
-16.14028053258136
 20
95.75637217258603
 10
-16.12463786783029
 20
95.76887550997233
 10
-16.11040545353974
 20
95.78104564775897
 10
-16.09384872610381
 20
95.79622920427393
 10
-16.07950072651243
 20
95.81035740442177
 10
-16.06725383205696
 20
95.82319786940195
 10
-16.05700714310153
 20
95.83454598045076
 10
-16.04848026254473
 20
95.84444670830243
 10
-16.04056430880194
 20
95.85404352052113
 10
-16.02367022534916
 20
95.87597445707937
 10
-16.00904725131883
 20
95.89678366199642
 10
-15.99489358849138
 20
95.91885365008639
 10
-15.98306943591667
 20
95.93903393062831
 10
-15.97109731515912
 20
95.96141557394087
 10
-15.95635737709455
 20
95.9924129729295
 10
-15.94726359834961
 20
96.0140773605571
 10
-15.93789547931243
 20
96.03924606436897
 10
-15.92871067903125
 20
96.06795966433874
 10
-15.9201701576599
 20
96.10044269664557
 10
-15.91424816962628
 20
96.12885445198941
 10
-15.90935080234594
 20
96.16002977371959
 10
-15.90584016842464
 20
96.19418639088232
 10
-15.90414194749474
 20
96.23155200732884
210
0.0
220
0.0
230
-1.0
  0
ARC
  5
349
330
1F
100
AcDbEntity
  8
0
  6
CONTINUOUS
 62
     7
100
AcDbCircle
 10
18.79631311452289
 20
95.1506599736789
 30
0.0
 40
0.5000000000000143
100
AcDbArc
 50
3.156282490796827
 51
89.99999999999996
  0
ARC
  5
34A
330
1F
100
AcDbEntity
  8
0
  6
CONTINUOUS
 62
     7
100
AcDbCircle
 10
77.9036868854771
 20
95.1506599736789
 30
0.0
 40
0.5000000000000004
100
AcDbArc
 50
90.0
 51
176.8437175070824
  0
LINE
  5
34B
330
1F
100
AcDbEntity
  8
0
  6
CONTINUOUS
 62
     7
100
AcDbLine
 10
18.79631311452291
 20
95.6506599736789
 30
0.0
 11
16.43961879199646
 21
95.6506599736789
 31
0.0
  0
LINE
  5
34C
330
1F
100
AcDbEntity
  8
0
  6
CONTINUOUS
 62
     7
100
AcDbLine
 10
80.26038120800355
 20
95.65065997367896
 30
0.0
 11
77.9036868854771
 21
95.65065997367896
 31
0.0
  0
ENDSEC
  0
SECTION
  2
OBJECTS
  0
DICTIONARY
  5
C
330
0
100
AcDbDictionary
  3
ACAD_GROUP
350
D
  3
ACAD_LAYOUT
350
1A
  3
ACAD_MATERIAL
350
43
  3
ACAD_MLEADERSTYLE
350
6B
  3
ACAD_MLINESTYLE
350
17
  3
ACAD_PLOTSETTINGS
350
19
  3
ACAD_SCALELIST
350
47
  3
ACAD_VISUALSTYLE
350
2A
  3
ACDBHEADERROUNDTRIPXREC
350
34D
  3
ACDBVARIABLEDICTIONARY
350
36E
  0
DICTIONARY
  5
375
330
8
100
AcDbDictionary
280
     1
  3
ACAD_XREC_ROUNDTRIP
360
376
  0
DICTIONARY
  5
D
102
{ACAD_REACTORS
330
C
102
}
330
C
100
AcDbDictionary
  0
DICTIONARY
  5
1A
102
{ACAD_REACTORS
330
C
102
}
330
C
100
AcDbDictionary
  0
DICTIONARY
  5
43
102
{ACAD_REACTORS
330
C
102
}
330
C
100
AcDbDictionary
  3
BYBLOCK
350
45
  3
BYLAYER
350
44
  3
GLOBAL
350
46
  0
DICTIONARY
  5
6B
102
{ACAD_REACTORS
330
C
102
}
330
C
100
AcDbDictionary
  3
STANDARD
350
6C
  0
DICTIONARY
  5
17
102
{ACAD_REACTORS
330
C
102
}
330
C
100
AcDbDictionary
  3
STANDARD
350
18
  0
DICTIONARY
  5
19
102
{ACAD_REACTORS
330
C
102
}
330
C
100
AcDbDictionary
  0
DICTIONARY
  5
47
102
{ACAD_REACTORS
330
C
102
}
330
C
100
AcDbDictionary
  3
A0
350
48
  3
A1
350
49
  3
A2
350
4A
  3
A3
350
4B
  3
A4
350
4C
  3
A5
350
4D
  3
A6
350
4E
  3
A7
350
4F
  3
A8
350
50
  3
A9
350
51
  3
B0
350
52
  3
B1
350
53
  3
B2
350
54
  3
B3
350
55
  3
B4
350
56
  3
B5
350
57
  3
B6
350
58
  3
B7
350
59
  3
B8
350
5A
  3
B9
350
5B
  3
C0
350
5C
  3
C1
350
5D
  3
C2
350
5E
  3
C3
350
5F
  3
C4
350
60
  3
C5
350
61
  3
C6
350
62
  3
C7
350
63
  3
C8
350
64
  3
C9
350
65
  3
D0
350
66
  3
D1
350
67
  3
D2
350
68
  0
DICTIONARY
  5
2A
102
{ACAD_REACTORS
330
C
102
}
330
C
100
AcDbDictionary
  3
2DWIREFRAME
350
2F
  3
BASIC
350
32
  3
BRIGHTEN
350
36
  3
COLORCHANGE
350
3A
  3
CONCEPTUAL
350
34
  3
DIM
350
35
  3
EDGECOLOROFF
350
3D
  3
FACEPATTERN
350
39
  3
FLAT
350
2B
  3
FLATWITHEDGES
350
2C
  3
GOURAUD
350
2D
  3
GOURAUDWITHEDGES
350
2E
  3
HIDDEN
350
31
  3
JITTEROFF
350
3B
  3
LINEPATTERN
350
38
  3
OVERHANGOFF
350
3C
  3
REALISTIC
350
33
  3
SHADED
350
42
  3
SHADED_WITH_EDGES
350
41
  3
SHADES_OF_GRAY
350
3E
  3
SKETCHY
350
3F
  3
THICKEN
350
37
  3
WIREFRAME
350
30
  3
X-RAY
350
40
  0
DICTIONARY
  5
34D
102
{ACAD_REACTORS
330
C
102
}
330
C
100
AcDbDictionary
  3
CEPSNID
350
357
  3
CEPSNTYPE
350
356
  3
DIMSTYLEDATA
350
36D
  3
FINGERPRINTGUID
350
358
  3
HYPERLINKBASE
350
350
  3
INSUNITS
350
355
  3
LAYOUTDICT
350
352
  3
LWETCUNION
350
354
  3
PLOTSETDICT
350
353
  3
PSVPSCALE
350
35A
  3
PUCSBASE
350
35D
  3
PUCSORGBACK
350
363
  3
PUCSORGBOTTOM
350
35F
  3
PUCSORGFRONT
350
362
  3
PUCSORGLEFT
350
360
  3
PUCSORGRIGHT
350
361
  3
PUCSORGTOP
350
35E
  3
PUCSORTHOREF
350
35B
  3
PUCSORTHOVIEW
350
35C
  3
STYLESHEET
350
351
  3
TSTACKALIGN
350
34E
  3
TSTACKSIZE
350
34F
  3
UCSBASE
350
366
  3
UCSORGBACK
350
36C
  3
UCSORGBOTTOM
350
368
  3
UCSORGFRONT
350
36B
  3
UCSORGLEFT
350
369
  3
UCSORGRIGHT
350
36A
  3
UCSORGTOP
350
367
  3
UCSORTHOREF
350
364
  3
UCSORTHOVIEW
350
365
  3
VERSIONGUID
350
359
  0
DICTIONARY
  5
36E
102
{ACAD_REACTORS
330
C
102
}
330
C
100
AcDbDictionary
  3
CANNOSCALE
350
377
  3
CMLEADERSTYLE
350
370
  3
CTABLESTYLE
350
36F
  3
DIMASSOC
350
373
  3
HIDETEXT
350
374
  3
MSLTSCALE
350
378
  0
XRECORD
  5
376
102
{ACAD_REACTORS
330
375
102
}
330
375
100
AcDbXrecord
102
VTR_0.000_0.000_1.000_1.000_VISUALSTYLE
340
2F
102
VTR_0.000_0.000_1.000_1.000_GRIDDISPLAY
 70
     3
102
VTR_0.000_0.000_1.000_1.000_GRIDMAJOR
 70
     5
102
VTR_0.000_0.000_1.000_1.000_DEFAULTLIGHTING
280
     1
102
VTR_0.000_0.000_1.000_1.000_DEFAULTLIGHTINGTYPE
 70
     1
102
VTR_0.000_0.000_1.000_1.000_BRIGHTNESS
141
0.0
102
VTR_0.000_0.000_1.000_1.000_CONTRAST
142
0.0
  0
MATERIAL
  5
45
102
{ACAD_REACTORS
330
43
102
}
102
{ACAD_XDICTIONARY
360
37B
102
}
330
43
100
AcDbMaterial
  1
BYBLOCK
  0
MATERIAL
  5
44
102
{ACAD_REACTORS
330
43
102
}
102
{ACAD_XDICTIONARY
360
379
102
}
330
43
100
AcDbMaterial
  1
BYLAYER
  0
MATERIAL
  5
46
102
{ACAD_REACTORS
330
43
102
}
102
{ACAD_XDICTIONARY
360
37D
102
}
330
43
100
AcDbMaterial
  1
GLOBAL
  0
ACAD_PROXY_OBJECT
  5
6C
102
{ACAD_REACTORS
330
6B
102
}
330
6B
100
AcDbProxyObject
 90
      499
 91
      505
 93
      610
310
40901902A4063FBFFFFFE056BD1B81E855B9FC0AD7A3703D0AD73F4214DD185B99185C9900AD7A3703D0AC73F90141901A02B5E8DC0F42B1CFC02B5E8DC0F42B1CFE5764000000000000300FC0
340
14
340
0
340
11
340
0
 94
        0
1001
ACAD_MLEADERVER
1070
     2
  0
MLINESTYLE
  5
18
102
{ACAD_REACTORS
330
17
102
}
330
17
100
AcDbMlineStyle
  2
Standard
 70
     0
  3

 62
   256
 51
90.0
 52
90.0
 71
     2
 49
0.5
 62
   256
  6
BYLAYER
 49
-0.5
 62
   256
  6
BYLAYER
  0
ACAD_PROXY_OBJECT
  5
48
102
{ACAD_REACTORS
330
47
102
}
330
47
100
AcDbProxyObject
 90
      499
 91
      503
 93
       41
310
903313A31580
  0
ACAD_PROXY_OBJECT
  5
49
102
{ACAD_REACTORS
330
47
102
}
330
47
100
AcDbProxyObject
 90
      499
 91
      503
 93
      105
310
903313A324000000000000004000
  0
ACAD_PROXY_OBJECT
  5
4A
102
{ACAD_REACTORS
330
47
102
}
330
47
100
AcDbProxyObject
 90
      499
 91
      503
 93
      105
310
903313A344000000000000104000
  0
ACAD_PROXY_OBJECT
  5
4B
102
{ACAD_REACTORS
330
47
102
}
330
47
100
AcDbProxyObject
 90
      499
 91
      503
 93
      105
310
903313A354000000000000144000
  0
ACAD_PROXY_OBJECT
  5
4C
102
{ACAD_REACTORS
330
47
102
}
330
47
100
AcDbProxyObject
 90
      499
 91
      503
 93
      105
310
903313A384000000000000204000
  0
ACAD_PROXY_OBJECT
  5
4D
102
{ACAD_REACTORS
330
47
102
}
330
47
100
AcDbProxyObject
 90
      499
 91
      503
 93
      113
310
904313A31304000000000000244000
  0
ACAD_PROXY_OBJECT
  5
4E
102
{ACAD_REACTORS
330
47
102
}
330
47
100
AcDbProxyObject
 90
      499
 91
      503
 93
      113
310
904313A31364000000000000304000
  0
ACAD_PROXY_OBJECT
  5
4F
102
{ACAD_REACTORS
330
47
102
}
330
47
100
AcDbProxyObject
 90
      499
 91
      503
 93
      113
310
904313A32304000000000000344000
  0
ACAD_PROXY_OBJECT
  5
50
102
{ACAD_REACTORS
330
47
102
}
330
47
100
AcDbProxyObject
 90
      499
 91
      503
 93
      113
310
904313A333040000000000003E4000
  0
ACAD_PROXY_OBJECT
  5
51
102
{ACAD_REACTORS
330
47
102
}
330
47
100
AcDbProxyObject
 90
      499
 91
      503
 93
      113
310
904313A34304000000000000444000
  0
ACAD_PROXY_OBJECT
  5
52
102
{ACAD_REACTORS
330
47
102
}
330
47
100
AcDbProxyObject
 90
      499
 91
      503
 93
      113
310
904313A35304000000000000494000
  0
ACAD_PROXY_OBJECT
  5
53
102
{ACAD_REACTORS
330
47
102
}
330
47
100
AcDbProxyObject
 90
      499
 91
      503
 93
      121
310
905313A3130304000000000000594000
  0
ACAD_PROXY_OBJECT
  5
54
102
{ACAD_REACTORS
330
47
102
}
330
47
100
AcDbProxyObject
 90
      499
 91
      503
 93
      105
310
903323A310000000000000010100
  0
ACAD_PROXY_OBJECT
  5
55
102
{ACAD_REACTORS
330
47
102
}
330
47
100
AcDbProxyObject
 90
      499
 91
      503
 93
      105
310
903343A310000000000000410100
  0
ACAD_PROXY_OBJECT
  5
56
102
{ACAD_REACTORS
330
47
102
}
330
47
100
AcDbProxyObject
 90
      499
 91
      503
 93
      105
310
903383A310000000000000810100
  0
ACAD_PROXY_OBJECT
  5
57
102
{ACAD_REACTORS
330
47
102
}
330
47
100
AcDbProxyObject
 90
      499
 91
      503
 93
      113
310
90431303A310000000000000910100
  0
ACAD_PROXY_OBJECT
  5
58
102
{ACAD_REACTORS
330
47
102
}
330
47
100
AcDbProxyObject
 90
      499
 91
      503
 93
      121
310
9053130303A310000000000001650100
  0
ACAD_PROXY_OBJECT
  5
59
102
{ACAD_REACTORS
330
47
102
}
330
47
100
AcDbProxyObject
 90
      499
 91
      503
 93
      257
310
90E312F31323822203D2031272D3022000000000000200FC000000000000284000
  0
ACAD_PROXY_OBJECT
  5
5A
102
{ACAD_REACTORS
330
47
102
}
330
47
100
AcDbProxyObject
 90
      499
 91
      503
 93
      249
310
90D312F363422203D2031272D3022000000000000240FC000000000000284000
  0
ACAD_PROXY_OBJECT
  5
5B
102
{ACAD_REACTORS
330
47
102
}
330
47
100
AcDbProxyObject
 90
      499
 91
      503
 93
      249
310
90D312F333222203D2031272D3022000000000000280FC000000000000284000
  0
ACAD_PROXY_OBJECT
  5
5C
102
{ACAD_REACTORS
330
47
102
}
330
47
100
AcDbProxyObject
 90
      499
 91
      503
 93
      249
310
90D312F313622203D2031272D30220000000000002C0FC000000000000284000
  0
ACAD_PROXY_OBJECT
  5
5D
102
{ACAD_REACTORS
330
47
102
}
330
47
100
AcDbProxyObject
 90
      499
 91
      503
 93
      249
310
90D332F333222203D2031272D30220000000000002E0FC000000000000284000
  0
ACAD_PROXY_OBJECT
  5
5E
102
{ACAD_REACTORS
330
47
102
}
330
47
100
AcDbProxyObject
 90
      499
 91
      503
 93
      241
310
90C312F3822203D2031272D3022000000000000300FC000000000000284000
  0
ACAD_PROXY_OBJECT
  5
5F
102
{ACAD_REACTORS
330
47
102
}
330
47
100
AcDbProxyObject
 90
      499
 91
      503
 93
      249
310
90D332F313622203D2031272D3022000000000000320FC000000000000284000
  0
ACAD_PROXY_OBJECT
  5
60
102
{ACAD_REACTORS
330
47
102
}
330
47
100
AcDbProxyObject
 90
      499
 91
      503
 93
      241
310
90C312F3422203D2031272D3022000000000000340FC000000000000284000
  0
ACAD_PROXY_OBJECT
  5
61
102
{ACAD_REACTORS
330
47
102
}
330
47
100
AcDbProxyObject
 90
      499
 91
      503
 93
      241
310
90C332F3822203D2031272D3022000000000000360FC000000000000284000
  0
ACAD_PROXY_OBJECT
  5
62
102
{ACAD_REACTORS
330
47
102
}
330
47
100
AcDbProxyObject
 90
      499
 91
      503
 93
      241
310
90C312F3222203D2031272D3022000000000000380FC000000000000284000
  0
ACAD_PROXY_OBJECT
  5
63
102
{ACAD_REACTORS
330
47
102
}
330
47
100
AcDbProxyObject
 90
      499
 91
      503
 93
      241
310
90C332F3422203D2031272D30220000000000003A0FC000000000000284000
  0
ACAD_PROXY_OBJECT
  5
64
102
{ACAD_REACTORS
330
47
102
}
330
47
100
AcDbProxyObject
 90
      499
 91
      503
 93
      161
310
90A3122203D2031272D30224000000000000284000
  0
ACAD_PROXY_OBJECT
  5
65
102
{ACAD_REACTORS
330
47
102
}
330
47
100
AcDbProxyObject
 90
      499
 91
      503
 93
      257
310
90E312D312F3222203D2031272D30220000000000003E0FC000000000000284000
  0
ACAD_PROXY_OBJECT
  5
66
102
{ACAD_REACTORS
330
47
102
}
330
47
100
AcDbProxyObject
 90
      499
 91
      503
 93
      225
310
90A3322203D2031272D302200000000000002100000000000000284000
  0
ACAD_PROXY_OBJECT
  5
67
102
{ACAD_REACTORS
330
47
102
}
330
47
100
AcDbProxyObject
 90
      499
 91
      503
 93
      225
310
90A3622203D2031272D302200000000000006100000000000000284000
  0
ACAD_PROXY_OBJECT
  5
68
102
{ACAD_REACTORS
330
47
102
}
330
47
100
AcDbProxyObject
 90
      499
 91
      503
 93
      249
310
90D31272D3022203D2031272D30220000000000000A100000000000000284000
  0
ACAD_PROXY_OBJECT
  5
2F
102
{ACAD_REACTORS
330
2A
102
}
330
2A
100
AcDbProxyObject
 90
      499
 91
      501
 93
      436
310
42CC9915DA5C99599C985B595049028333333333333E33F0000000000000F90107901411070040501600405405064090741402480A0340
1001
ACAD
1000
AcDbSavedByObjectVersion
1070
     0
  0
ACAD_PROXY_OBJECT
  5
32
102
{ACAD_REACTORS
330
2A
102
}
330
2A
100
AcDbProxyObject
 90
      499
 91
      501
 93
      388
310
4150985CDA58D07406404333333333333E33F0000000000000F90107A41107004050150841D405064090741402480A0350
1001
ACAD
1000
AcDbSavedByObjectVersion
1070
     0
  0
ACAD_PROXY_OBJECT
  5
36
102
{ACAD_REACTORS
330
2A
102
}
330
2A
100
AcDbProxyObject
 90
      499
 91
      501
 93
      428
310
42109C9A59DA1D195B90C409028333333333333E33F0000000000000F9010790141107004050150841D405064090741402480A029950
1001
ACAD
1000
AcDbSavedByObjectVersion
1070
     0
  0
ACAD_PROXY_OBJECT
  5
3A
102
{ACAD_REACTORS
330
2A
102
}
330
2A
100
AcDbProxyObject
 90
      499
 91
      501
 93
      452
310
42D0DBDB1BDC90DA185B99D95104090240C333333333333E33F0000000000000F90108901411070040501508421405064090741402480A0350
1001
ACAD
1000
AcDbSavedByObjectVersion
1070
     0
  0
ACAD_PROXY_OBJECT
  5
34
102
{ACAD_REACTORS
330
2A
102
}
330
2A
100
AcDbProxyObject
 90
      499
 91
      501
 93
      500
310
4290DBDB98D95C1D1D585B10940D028333333333333E33F0000000000000F90107902409070040501000000000018199010841D405064090740C02480A0340
1001
ACAD
1000
AcDbSavedByObjectVersion
1070
     0
  0
ACAD_PROXY_OBJECT
  5
35
102
{ACAD_REACTORS
330
2A
102
}
330
2A
100
AcDbProxyObject
 90
      499
 91
      501
 93
      412
310
40D11A5B50B409028333333333333E33F0000000000000F9010790141107004050150841D405064090741402480A02677FFFFFD0
1001
ACAD
1000
AcDbSavedByObjectVersion
1070
     0
  0
ACAD_PROXY_OBJECT
  5
3D
102
{ACAD_REACTORS
330
2A
102
}
330
2A
100
AcDbProxyObject
 90
      499
 91
      501
 93
      452
310
43115919D950DBDB1BDC93D999916409028333333333333E33F0000000000000F9010790141107004050150841D405064090741402480A0350
1001
ACAD
1000
AcDbSavedByObjectVersion
1070
     0
  0
ACAD_PROXY_OBJECT
  5
39
102
{ACAD_REACTORS
330
2A
102
}
330
2A
100
AcDbProxyObject
 90
      499
 91
      501
 93
      444
310
42D19858D95C185D1D195C9B90F409028333333333333E33F0000000000000F9010790141107004050150841D405064090741402480A0350
1001
ACAD
1000
AcDbSavedByObjectVersion
1070
     0
  0
ACAD_PROXY_OBJECT
  5
2B
102
{ACAD_REACTORS
330
2A
102
}
330
2A
100
AcDbProxyObject
 90
      499
 91
      501
 93
      380
310
41119B185D240901404333333333333E33F0000000000000F9010740A907004050150841D405064090741402480A1B50
1001
ACAD
1000
AcDbSavedByObjectVersion
1070
     0
  0
ACAD_PROXY_OBJECT
  5
2C
102
{ACAD_REACTORS
330
2A
102
}
330
2A
100
AcDbProxyObject
 90
      499
 91
      501
 93
      468
310
43519B185D15DA5D1A115919D95CD0140901404333333333333E33F0000000000000F90107409019070040501600405405064090741402480A1B50
1001
ACAD
1000
AcDbSavedByObjectVersion
1070
     0
  0
ACAD_PROXY_OBJECT
  5
2D
102
{ACAD_REACTORS
330
2A
102
}
330
2A
100
AcDbProxyObject
 90
      499
 91
      501
 93
      404
310
41D1DBDD5C985D5910240902404333333333333E33F0000000000000F9010740A9070040501641D405064090741402480A1B50
1001
ACAD
1000
AcDbSavedByObjectVersion
1070
     0
  0
ACAD_PROXY_OBJECT
  5
2E
102
{ACAD_REACTORS
330
2A
102
}
330
2A
100
AcDbProxyObject
 90
      499
 91
      501
 93
      492
310
4411DBDD5C985D5915DA5D1A115919D95CD0340902404333333333333E33F0000000000000F90107409019070040501600405405064090741402480A1B50
1001
ACAD
1000
AcDbSavedByObjectVersion
1070
     0
  0
ACAD_PROXY_OBJECT
  5
31
102
{ACAD_REACTORS
330
2A
102
}
330
2A
100
AcDbProxyObject
 90
      499
 91
      501
 93
      476
310
41921A5919195B90640502408333333333333E33F0000000000000F901079024090700405020000000000001110200405405064090740C02480A0340
1001
ACAD
1000
AcDbSavedByObjectVersion
1070
     0
  0
ACAD_PROXY_OBJECT
  5
3B
102
{ACAD_REACTORS
330
2A
102
}
330
2A
100
AcDbProxyObject
 90
      499
 91
      501
 93
      428
310
42529A5D1D195C93D999914409028333333333333E33F0000000000000F9010790141107004050150A41D405064090741402480A0350
1001
ACAD
1000
AcDbSavedByObjectVersion
1070
     0
  0
ACAD_PROXY_OBJECT
  5
38
102
{ACAD_REACTORS
330
2A
102
}
330
2A
100
AcDbProxyObject
 90
      499
 91
      501
 93
      444
310
42D31A5B995C185D1D195C9B90E409028333333333333E33F0000000000000F9010790141107004050750841D405064090741402483A0350
1001
ACAD
1000
AcDbSavedByObjectVersion
1070
     0
  0
ACAD_PROXY_OBJECT
  5
3C
102
{ACAD_REACTORS
330
2A
102
}
330
2A
100
AcDbProxyObject
 90
      499
 91
      501
 93
      444
310
42D3DD995C9A185B99D3D999915409028333333333333E33F0000000000000F9010790141107004050150941D405064090741402480A0350
1001
ACAD
1000
AcDbSavedByObjectVersion
1070
     0
  0
ACAD_PROXY_OBJECT
  5
33
102
{ACAD_REACTORS
330
2A
102
}
330
2A
100
AcDbProxyObject
 90
      499
 91
      501
 93
      428
310
425499585B1A5CDD1A58D08409038333333333333E33F0000000000000F9010740A907004050150800405405064090740C02480A1B40
1001
ACAD
1000
AcDbSavedByObjectVersion
1070
     0
  0
ACAD_PROXY_OBJECT
  5
42
102
{ACAD_REACTORS
330
2A
102
}
330
2A
100
AcDbProxyObject
 90
      499
 91
      501
 93
      420
310
4194DA1859195911B40902404333333333333E33F0000000000000F9010740A41107004050150800405405064090840C02480A0B40
1001
ACAD
1000
AcDbSavedByObjectVersion
1070
     0
  0
ACAD_PROXY_OBJECT
  5
41
102
{ACAD_REACTORS
330
2A
102
}
330
2A
100
AcDbProxyObject
 90
      499
 91
      501
 93
      516
310
4454DA18591959081DDA5D1A08195919D95CD1A40902404333333333333E33F0000000000000F901074090142907004050250800405405064090740C02480A0B40
1001
ACAD
1000
AcDbSavedByObjectVersion
1070
     0
  0
ACAD_PROXY_OBJECT
  5
3E
102
{ACAD_REACTORS
330
2A
102
}
330
2A
100
AcDbProxyObject
 90
      499
 91
      501
 93
      532
310
4394DA1859195CC81BD98811DC985E5174090240C333333333333E33F0000000000000F901079024090741D01000000000000111010841D405064090740C02480A0340
1001
ACAD
1000
AcDbSavedByObjectVersion
1070
     0
  0
ACAD_PROXY_OBJECT
  5
3F
102
{ACAD_REACTORS
330
2A
102
}
330
2A
100
AcDbProxyObject
 90
      499
 91
      501
 93
      476
310
41D4DAD95D18DA1E51840502408333333333333E33F0000000000000F901079024090741D01000000000000111010B41D405064090741802480A0340
1001
ACAD
1000
AcDbSavedByObjectVersion
1070
     0
  0
ACAD_PROXY_OBJECT
  5
37
102
{ACAD_REACTORS
330
2A
102
}
330
2A
100
AcDbProxyObject
 90
      499
 91
      501
 93
      412
310
41D51A1A58DAD95B90D409028333333333333E33F0000000000000F9010790141107004050150C41D405064090741402480A0350
1001
ACAD
1000
AcDbSavedByObjectVersion
1070
     0
  0
ACAD_PROXY_OBJECT
  5
30
102
{ACAD_REACTORS
330
2A
102
}
330
2A
100
AcDbProxyObject
 90
      499
 91
      501
 93
      420
310
4255DA5C99599C985B595059028333333333333E33F0000000000000F90107901411070040501600405405064090740C02480A0340
1001
ACAD
1000
AcDbSavedByObjectVersion
1070
     0
  0
ACAD_PROXY_OBJECT
  5
40
102
{ACAD_REACTORS
330
2A
102
}
330
2A
100
AcDbProxyObject
 90
      499
 91
      501
 93
      404
310
41560B54985E51940902404000000000000E03F0000000000000F9010740501907004050150841D405064090740C02480A1B40
1001
ACAD
1000
AcDbSavedByObjectVersion
1070
     0
  0
XRECORD
  5
357
102
{ACAD_REACTORS
330
34D
102
}
330
34D
100
AcDbXrecord
340
0
  0
XRECORD
  5
356
102
{ACAD_REACTORS
330
34D
102
}
330
34D
100
AcDbXrecord
 90
        0
  0
XRECORD
  5
36D
102
{ACAD_REACTORS
330
34D
102
}
330
34D
100
AcDbXrecord
1000
DSTYLE
1002
{
1070
   179
 70
     2
1070
   171
 70
     2
1070
   143
 40
25.4
1070
   274
 70
     2
1070
    41
 40
3.0
1070
   141
 40
0.09
1070
    43
 40
0.38
1070
   278
 70
    46
1070
    44
 40
1.5
1070
    42
 40
0.0625
1070
   147
 40
1.5
1070
   272
 70
     4
1070
    73
 70
     1
1070
   172
 70
     0
1070
    74
 70
     1
1070
   283
 70
     1
1070
   340
340
6E
1070
   140
 40
3.0
1070
   284
 70
     0
1070
    78
 70
     0
1002
}
  0
XRECORD
  5
358
102
{ACAD_REACTORS
330
34D
102
}
330
34D
100
AcDbXrecord
  1
{3B268DC6-D880-49D0-BF57-514723D0ADAE}
  0
XRECORD
  5
350
102
{ACAD_REACTORS
330
34D
102
}
330
34D
100
AcDbXrecord
  1

  0
XRECORD
  5
355
102
{ACAD_REACTORS
330
34D
102
}
330
34D
100
AcDbXrecord
 90
        4
  0
XRECORD
  5
352
102
{ACAD_REACTORS
330
34D
102
}
330
34D
100
AcDbXrecord
340
1A
  0
XRECORD
  5
354
102
{ACAD_REACTORS
330
34D
102
}
330
34D
100
AcDbXrecord
 90
    10269
  0
XRECORD
  5
353
102
{ACAD_REACTORS
330
34D
102
}
330
34D
100
AcDbXrecord
340
19
  0
XRECORD
  5
35A
102
{ACAD_REACTORS
330
34D
102
}
330
34D
100
AcDbXrecord
 40
0.0
  0
XRECORD
  5
35D
102
{ACAD_REACTORS
330
34D
102
}
330
34D
100
AcDbXrecord
340
0
  0
XRECORD
  5
363
102
{ACAD_REACTORS
330
34D
102
}
330
34D
100
AcDbXrecord
 10
0.0
 20
0.0
 30
0.0
  0
XRECORD
  5
35F
102
{ACAD_REACTORS
330
34D
102
}
330
34D
100
AcDbXrecord
 10
0.0
 20
0.0
 30
0.0
  0
XRECORD
  5
362
102
{ACAD_REACTORS
330
34D
102
}
330
34D
100
AcDbXrecord
 10
0.0
 20
0.0
 30
0.0
  0
XRECORD
  5
360
102
{ACAD_REACTORS
330
34D
102
}
330
34D
100
AcDbXrecord
 10
0.0
 20
0.0
 30
0.0
  0
XRECORD
  5
361
102
{ACAD_REACTORS
330
34D
102
}
330
34D
100
AcDbXrecord
 10
0.0
 20
0.0
 30
0.0
  0
XRECORD
  5
35E
102
{ACAD_REACTORS
330
34D
102
}
330
34D
100
AcDbXrecord
 10
0.0
 20
0.0
 30
0.0
  0
XRECORD
  5
35B
102
{ACAD_REACTORS
330
34D
102
}
330
34D
100
AcDbXrecord
340
0
  0
XRECORD
  5
35C
102
{ACAD_REACTORS
330
34D
102
}
330
34D
100
AcDbXrecord
 70
     0
  0
XRECORD
  5
351
102
{ACAD_REACTORS
330
34D
102
}
330
34D
100
AcDbXrecord
  1

  0
XRECORD
  5
34E
102
{ACAD_REACTORS
330
34D
102
}
330
34D
100
AcDbXrecord
 90
        1
  0
XRECORD
  5
34F
102
{ACAD_REACTORS
330
34D
102
}
330
34D
100
AcDbXrecord
 90
       70
  0
XRECORD
  5
366
102
{ACAD_REACTORS
330
34D
102
}
330
34D
100
AcDbXrecord
340
0
  0
XRECORD
  5
36C
102
{ACAD_REACTORS
330
34D
102
}
330
34D
100
AcDbXrecord
 10
0.0
 20
0.0
 30
0.0
  0
XRECORD
  5
368
102
{ACAD_REACTORS
330
34D
102
}
330
34D
100
AcDbXrecord
 10
0.0
 20
0.0
 30
0.0
  0
XRECORD
  5
36B
102
{ACAD_REACTORS
330
34D
102
}
330
34D
100
AcDbXrecord
 10
0.0
 20
0.0
 30
0.0
  0
XRECORD
  5
369
102
{ACAD_REACTORS
330
34D
102
}
330
34D
100
AcDbXrecord
 10
0.0
 20
0.0
 30
0.0
  0
XRECORD
  5
36A
102
{ACAD_REACTORS
330
34D
102
}
330
34D
100
AcDbXrecord
 10
0.0
 20
0.0
 30
0.0
  0
XRECORD
  5
367
102
{ACAD_REACTORS
330
34D
102
}
330
34D
100
AcDbXrecord
 10
0.0
 20
0.0
 30
0.0
  0
XRECORD
  5
364
102
{ACAD_REACTORS
330
34D
102
}
330
34D
100
AcDbXrecord
340
0
  0
XRECORD
  5
365
102
{ACAD_REACTORS
330
34D
102
}
330
34D
100
AcDbXrecord
 70
     0
  0
XRECORD
  5
359
102
{ACAD_REACTORS
330
34D
102
}
330
34D
100
AcDbXrecord
  1
{FAEB1C32-E019-11D5-929B-00C0DF256EC4}
  0
DICTIONARYVAR
  5
377
102
{ACAD_REACTORS
330
36E
102
}
330
36E
100
DictionaryVariables
280
     0
  1
1:1
  0
DICTIONARYVAR
  5
370
102
{ACAD_REACTORS
330
36E
102
}
330
36E
100
DictionaryVariables
280
     0
  1
Standard
  0
DICTIONARYVAR
  5
36F
102
{ACAD_REACTORS
330
36E
102
}
330
36E
100
DictionaryVariables
280
     0
  1
Standard
  0
DICTIONARYVAR
  5
373
102
{ACAD_REACTORS
330
36E
102
}
330
36E
100
DictionaryVariables
280
     0
  1
2
  0
DICTIONARYVAR
  5
374
102
{ACAD_REACTORS
330
36E
102
}
330
36E
100
DictionaryVariables
280
     0
  1
1
  0
DICTIONARYVAR
  5
378
102
{ACAD_REACTORS
330
36E
102
}
330
36E
100
DictionaryVariables
280
     0
  1
1
  0
DICTIONARY
  5
37B
330
45
100
AcDbDictionary
280
     1
  3
ACAD_XREC_ROUNDTRIP
360
37C
  0
DICTIONARY
  5
379
330
44
100
AcDbDictionary
280
     1
  3
ACAD_XREC_ROUNDTRIP
360
37A
  0
DICTIONARY
  5
37D
330
46
100
AcDbDictionary
280
     1
  3
ACAD_XREC_ROUNDTRIP
360
37E
  0
XRECORD
  5
37C
102
{ACAD_REACTORS
330
37B
102
}
330
37B
100
AcDbXrecord
102
MATERIAL
148
0.0
149
0.0
149
0.0
 93
        0
 94
      127
282
     0
 72
     1
 77
     1
171
     1
175
     1
179
     1
273
     0
  0
XRECORD
  5
37A
102
{ACAD_REACTORS
330
379
102
}
330
379
100
AcDbXrecord
102
MATERIAL
148
0.0
149
0.0
149
0.0
 93
        0
 94
      127
282
     0
 72
     1
 77
     1
171
     1
175
     1
179
     1
273
     0
  0
XRECORD
  5
37E
102
{ACAD_REACTORS
330
37D
102
}
330
37D
100
AcDbXrecord
102
MATERIAL
148
0.0
149
0.0
149
0.0
 93
        0
 94
      127
282
     0
 72
     1
 77
     1
171
     1
175
     1
179
     1
273
     0
  0
ENDSEC
  0
EOF
