  0
SECTION
  2
HEADER
  9
$ACADVER
  1
AC1021
  9
$ACADMAINTVER
 70
    25
  9
$DWGCODEPAGE
  3
ANSI_932
  9
$INSBASE
 10
0.0
 20
0.0
 30
0.0
  9
$EXTMIN
 10
79.91475301648343
 20
561.7147639457766
 30
0.0
  9
$EXTMAX
 10
2163.01357270465
 20
628.0443094003224
 30
0.0
  9
$LIMMIN
 10
0.0
 20
0.0
  9
$LIMMAX
 10
12.0
 20
9.0
  9
$ORTHOMODE
 70
     0
  9
$REGENMODE
 70
     1
  9
$FILLMODE
 70
     1
  9
$QTEXTMODE
 70
     0
  9
$MIRRTEXT
 70
     1
  9
$LTSCALE
 40
1.0
  9
$ATTMODE
 70
     1
  9
$TEXTSIZE
 40
0.2
  9
$TRACEWID
 40
0.05
  9
$TEXTSTYLE
  7
Standard
  9
$CLAYER
  8
0
  9
$CELTYPE
  6
ByLayer
  9
$CECOLOR
 62
   256
  9
$CELTSCALE
 40
1.0
  9
$DISPSILH
 70
     0
  9
$DIMSCALE
 40
1.0
  9
$DIMASZ
 40
3.0
  9
$DIMEXO
 40
0.0625
  9
$DIMDLI
 40
0.38
  9
$DIMRND
 40
0.0
  9
$DIMDLE
 40
0.0
  9
$DIMEXE
 40
0.18
  9
$DIMTP
 40
0.0
  9
$DIMTM
 40
0.0
  9
$DIMTXT
 40
3.0
  9
$DIMCEN
 40
0.09
  9
$DIMTSZ
 40
0.0
  9
$DIMTOL
 70
     0
  9
$DIMLIM
 70
     0
  9
$DIMTIH
 70
     1
  9
$DIMTOH
 70
     1
  9
$DIMSE1
 70
     0
  9
$DIMSE2
 70
     0
  9
$DIMTAD
 70
     1
  9
$DIMZIN
 70
     0
  9
$DIMBLK
  1

  9
$DIMASO
 70
     1
  9
$DIMSHO
 70
     1
  9
$DIMPOST
  1

  9
$DIMAPOST
  1

  9
$DIMALT
 70
     0
  9
$DIMALTD
 70
     2
  9
$DIMALTF
 40
25.4
  9
$DIMLFAC
 40
1.0
  9
$DIMTOFL
 70
     0
  9
$DIMTVP
 40
0.0
  9
$DIMTIX
 70
     0
  9
$DIMSOXD
 70
     0
  9
$DIMSAH
 70
     0
  9
$DIMBLK1
  1

  9
$DIMBLK2
  1

  9
$DIMSTYLE
  2
Standard
  9
$DIMCLRD
 70
     0
  9
$DIMCLRE
 70
     0
  9
$DIMCLRT
 70
     0
  9
$DIMTFAC
 40
1.0
  9
$DIMGAP
 40
0.09
  9
$DIMJUST
 70
     0
  9
$DIMSD1
 70
     0
  9
$DIMSD2
 70
     0
  9
$DIMTOLJ
 70
     1
  9
$DIMTZIN
 70
     0
  9
$DIMALTZ
 70
     0
  9
$DIMALTTZ
 70
     0
  9
$DIMUPT
 70
     0
  9
$DIMDEC
 70
     2
  9
$DIMTDEC
 70
     4
  9
$DIMALTU
 70
     2
  9
$DIMALTTD
 70
     2
  9
$DIMTXSTY
  7
Standard
  9
$DIMAUNIT
 70
     0
  9
$DIMADEC
 70
     2
  9
$DIMALTRND
 40
0.0
  9
$DIMAZIN
 70
     0
  9
$DIMDSEP
 70
    46
  9
$DIMATFIT
 70
     3
  9
$DIMFRAC
 70
     0
  9
$DIMLDRBLK
  1

  9
$DIMLUNIT
 70
     2
  9
$DIMLWD
 70
    -2
  9
$DIMLWE
 70
    -2
  9
$DIMTMOVE
 70
     0
  9
$DIMFXL
 40
1.0
  9
$DIMFXLON
 70
     0
  9
$DIMJOGANG
 40
0.7853981633974483
  9
$DIMTFILL
 70
     0
  9
$DIMTFILLCLR
 70
     0
  9
$DIMARCSYM
 70
     0
  9
$DIMLTYPE
  6

  9
$DIMLTEX1
  6

  9
$DIMLTEX2
  6

  9
$LUNITS
 70
     2
  9
$LUPREC
 70
     4
  9
$SKETCHINC
 40
0.1
  9
$FILLETRAD
 40
0.5
  9
$AUNITS
 70
     0
  9
$AUPREC
 70
     0
  9
$MENU
  1
.
  9
$ELEVATION
 40
0.0
  9
$PELEVATION
 40
0.0
  9
$THICKNESS
 40
0.0
  9
$LIMCHECK
 70
     0
  9
$CHAMFERA
 40
0.5
  9
$CHAMFERB
 40
0.5
  9
$CHAMFERC
 40
1.0
  9
$CHAMFERD
 40
0.0
  9
$SKPOLY
 70
     0
  9
$TDCREATE
 40
2460385.68201022
  9
$TDUCREATE
 40
2460385.30701022
  9
$TDUPDATE
 40
2460385.682010232
  9
$TDUUPDATE
 40
2460385.307010232
  9
$TDINDWG
 40
0.0000000116
  9
$TDUSRTIMER
 40
0.0000000116
  9
$USRTIMER
 70
     1
  9
$ANGBASE
 50
0.0
  9
$ANGDIR
 70
     0
  9
$PDMODE
 70
     0
  9
$PDSIZE
 40
0.0
  9
$PLINEWID
 40
0.0
  9
$SPLFRAME
 70
     0
  9
$SPLINETYPE
 70
     6
  9
$SPLINESEGS
 70
     8
  9
$HANDSEED
  5
102
  9
$SURFTAB1
 70
     6
  9
$SURFTAB2
 70
     6
  9
$SURFTYPE
 70
     6
  9
$SURFU
 70
     6
  9
$SURFV
 70
     6
  9
$UCSBASE
  2

  9
$UCSNAME
  2

  9
$UCSORG
 10
0.0
 20
0.0
 30
0.0
  9
$UCSXDIR
 10
1.0
 20
0.0
 30
0.0
  9
$UCSYDIR
 10
0.0
 20
1.0
 30
0.0
  9
$UCSORTHOREF
  2

  9
$UCSORTHOVIEW
 70
     0
  9
$UCSORGTOP
 10
0.0
 20
0.0
 30
0.0
  9
$UCSORGBOTTOM
 10
0.0
 20
0.0
 30
0.0
  9
$UCSORGLEFT
 10
0.0
 20
0.0
 30
0.0
  9
$UCSORGRIGHT
 10
0.0
 20
0.0
 30
0.0
  9
$UCSORGFRONT
 10
0.0
 20
0.0
 30
0.0
  9
$UCSORGBACK
 10
0.0
 20
0.0
 30
0.0
  9
$PUCSBASE
  2

  9
$PUCSNAME
  2

  9
$PUCSORG
 10
0.0
 20
0.0
 30
0.0
  9
$PUCSXDIR
 10
1.0
 20
0.0
 30
0.0
  9
$PUCSYDIR
 10
0.0
 20
1.0
 30
0.0
  9
$PUCSORTHOREF
  2

  9
$PUCSORTHOVIEW
 70
     0
  9
$PUCSORGTOP
 10
0.0
 20
0.0
 30
0.0
  9
$PUCSORGBOTTOM
 10
0.0
 20
0.0
 30
0.0
  9
$PUCSORGLEFT
 10
0.0
 20
0.0
 30
0.0
  9
$PUCSORGRIGHT
 10
0.0
 20
0.0
 30
0.0
  9
$PUCSORGFRONT
 10
0.0
 20
0.0
 30
0.0
  9
$PUCSORGBACK
 10
0.0
 20
0.0
 30
0.0
  9
$USERI1
 70
     0
  9
$USERI2
 70
     0
  9
$USERI3
 70
     0
  9
$USERI4
 70
     0
  9
$USERI5
 70
     0
  9
$USERR1
 40
0.0
  9
$USERR2
 40
0.0
  9
$USERR3
 40
0.0
  9
$USERR4
 40
0.0
  9
$USERR5
 40
0.0
  9
$WORLDVIEW
 70
     1
  9
$SHADEDGE
 70
     3
  9
$SHADEDIF
 70
    70
  9
$TILEMODE
 70
     1
  9
$MAXACTVP
 70
    64
  9
$PINSBASE
 10
0.0
 20
0.0
 30
0.0
  9
$PLIMCHECK
 70
     0
  9
$PEXTMIN
 10
1.000000000000000E+20
 20
1.000000000000000E+20
 30
1.000000000000000E+20
  9
$PEXTMAX
 10
-1.000000000000000E+20
 20
-1.000000000000000E+20
 30
-1.000000000000000E+20
  9
$PLIMMIN
 10
0.0
 20
0.0
  9
$PLIMMAX
 10
12.0
 20
9.0
  9
$UNITMODE
 70
     0
  9
$VISRETAIN
 70
     1
  9
$PLINEGEN
 70
     0
  9
$PSLTSCALE
 70
     1
  9
$TREEDEPTH
 70
  3020
  9
$CMLSTYLE
  2
Standard
  9
$CMLJUST
 70
     0
  9
$CMLSCALE
 40
1.0
  9
$PROXYGRAPHICS
 70
     1
  9
$MEASUREMENT
 70
     1
  9
$CELWEIGHT
370
    -1
  9
$ENDCAPS
280
     0
  9
$JOINSTYLE
280
     0
  9
$LWDISPLAY
290
     1
  9
$INSUNITS
 70
     4
  9
$HYPERLINKBASE
  1

  9
$STYLESHEET
  1

  9
$XEDIT
290
     1
  9
$CEPSNTYPE
380
     0
  9
$PSTYLEMODE
290
     1
  9
$FINGERPRINTGUID
  2
{C8591211-D083-46E1-92B7-2CD2F8B5657F}
  9
$VERSIONGUID
  2
{FAEB1C32-E019-11D5-929B-00C0DF256EC4}
  9
$EXTNAMES
290
     1
  9
$PSVPSCALE
 40
0.0
  9
$OLESTARTUP
290
     0
  9
$SORTENTS
280
   127
  9
$INDEXCTL
280
     0
  9
$HIDETEXT
280
     1
  9
$XCLIPFRAME
290
     0
  9
$HALOGAP
280
     0
  9
$OBSCOLOR
 70
   257
  9
$OBSLTYPE
280
     0
  9
$INTERSECTIONDISPLAY
280
     0
  9
$INTERSECTIONCOLOR
 70
   257
  9
$DIMASSOC
280
     2
  9
$PROJECTNAME
  1

  9
$CAMERADISPLAY
290
     0
  9
$LENSLENGTH
 40
50.0
  9
$CAMERAHEIGHT
 40
0.0
  9
$STEPSPERSEC
 40
2.0
  9
$STEPSIZE
 40
6.0
  9
$3DDWFPREC
 40
2.0
  9
$PSOLWIDTH
 40
0.25
  9
$PSOLHEIGHT
 40
4.0
  9
$LOFTANG1
 40
1.570796326794897
  9
$LOFTANG2
 40
1.570796326794897
  9
$LOFTMAG1
 40
0.0
  9
$LOFTMAG2
 40
0.0
  9
$LOFTPARAM
 70
     7
  9
$LOFTNORMALS
280
     1
  9
$LATITUDE
 40
37.795
  9
$LONGITUDE
 40
-122.394
  9
$NORTHDIRECTION
 40
0.0
  9
$TIMEZONE
 70
 -8000
  9
$LIGHTGLYPHDISPLAY
280
     1
  9
$TILEMODELIGHTSYNCH
280
     1
  9
$SOLIDHIST
280
     1
  9
$SHOWHIST
280
     1
  9
$DWFFRAME
280
     2
  9
$DGNFRAME
280
     2
  9
$REALWORLDSCALE
290
     1
  9
$INTERFERECOLOR
 62
   256
  9
$CSHADOW
280
     0
  9
$SHADOWPLANELOCATION
 40
0.0
  0
ENDSEC
  0
SECTION
  2
CLASSES
  0
CLASS
  1
ACDBDICTIONARYWDFLT
  2
AcDbDictionaryWithDefault
  3
ObjectDBX Classes
 90
        0
 91
        4
280
     0
281
     0
  0
CLASS
  1
VISUALSTYLE
  2
AcDbVisualStyle
  3
ObjectDBX Classes
 90
     4095
 91
        4
280
     0
281
     0
  0
ENDSEC
  0
SECTION
  2
TABLES
  0
TABLE
  2
VPORT
  5
8
330
0
100
AcDbSymbolTable
 70
     1
  0
VPORT
  5
29
330
8
100
AcDbSymbolTableRecord
100
AcDbViewportTableRecord
  2
*Active
 70
     0
 10
0.0
 20
0.0
 11
1.0
 21
1.0
 12
1121.464162860567
 22
594.8795366730494
 13
0.0
 23
0.0
 14
0.5
 24
0.5
 15
0.5
 25
0.5
 16
0.0
 26
0.0
 36
1.0
 17
0.0
 27
0.0
 37
0.0
 40
66.32954545454584
 41
1.6
 42
50.0
 43
0.0
 44
0.0
 50
0.0
 51
0.0
 71
     0
 72
   100
 73
     1
 74
     3
 75
     0
 76
     0
 77
     0
 78
     0
281
     0
 65
     1
110
0.0
120
0.0
130
0.0
111
1.0
121
0.0
131
0.0
112
0.0
122
1.0
132
0.0
 79
     0
146
0.0
 60
     3
 61
     5
292
     1
282
     1
141
0.0
142
0.0
 63
   250
  0
ENDTAB
  0
TABLE
  2
LTYPE
  5
5
330
0
100
AcDbSymbolTable
 70
     3
  0
LTYPE
  5
14
330
5
100
AcDbSymbolTableRecord
100
AcDbLinetypeTableRecord
  2
ByBlock
 70
     0
  3

 72
    65
 73
     0
 40
0.0
  0
LTYPE
  5
15
330
5
100
AcDbSymbolTableRecord
100
AcDbLinetypeTableRecord
  2
ByLayer
 70
     0
  3

 72
    65
 73
     0
 40
0.0
  0
LTYPE
  5
16
330
5
100
AcDbSymbolTableRecord
100
AcDbLinetypeTableRecord
  2
Continuous
 70
     0
  3
Solid line
 72
    65
 73
     0
 40
0.0
  0
LTYPE
  5
3D
330
5
100
AcDbSymbolTableRecord
100
AcDbLinetypeTableRecord
  2
________________
 70
     0
  3

 72
    65
 73
     0
 40
0.0
  0
LTYPE
  5
FC
330
5
100
AcDbSymbolTableRecord
100
AcDbLinetypeTableRecord
  2
______....__....
 70
     0
  3

 72
    65
 73
     4
 40
7.2
 49
2.7
 74
     0
 49
-1.8
 74
     0
 49
0.8999999999999999
 74
     0
 49
-1.8
 74
     0
  0
ENDTAB
  0
TABLE
  2
LAYER
  5
2
330
0
100
AcDbSymbolTable
 70
     1
  0
LAYER
  5
10
330
2
100
AcDbSymbolTableRecord
100
AcDbLayerTableRecord
  2
0
 70
     0
 62
     7
  6
Continuous
370
    -3
390
F
347
0
  0
ENDTAB
  0
TABLE
  2
STYLE
  5
3
330
0
100
AcDbSymbolTable
 70
     1
  0
STYLE
  5
11
330
3
100
AcDbSymbolTableRecord
100
AcDbTextStyleTableRecord
  2
Standard
 70
     0
 40
0.0
 41
1.0
 50
0.0
 71
     0
 42
0.2
  3
txt
  4

  0
ENDTAB
  0
TABLE
  2
VIEW
  5
6
330
0
100
AcDbSymbolTable
 70
     0
  0
ENDTAB
  0
TABLE
  2
UCS
  5
7
330
0
100
AcDbSymbolTable
 70
     0
  0
ENDTAB
  0
TABLE
  2
APPID
  5
9
330
0
100
AcDbSymbolTable
 70
     1
  0
APPID
  5
12
330
9
100
AcDbSymbolTableRecord
100
AcDbRegAppTableRecord
  2
ACAD
 70
     0
  0
ENDTAB
  0
TABLE
  2
DIMSTYLE
  5
A
330
0
100
AcDbSymbolTable
 70
     1
100
AcDbDimStyleTable
  0
DIMSTYLE
105
27
330
A
100
AcDbSymbolTableRecord
100
AcDbDimStyleTableRecord
  2
Standard
 70
     0
340
11
  0
ENDTAB
  0
TABLE
  2
BLOCK_RECORD
  5
1
330
0
100
AcDbSymbolTable
 70
     3
  0
BLOCK_RECORD
  5
1F
330
1
100
AcDbSymbolTableRecord
100
AcDbBlockTableRecord
  2
*Model_Space
340
22
 70
     0
280
     1
281
     0
  0
BLOCK_RECORD
  5
1B
330
1
100
AcDbSymbolTableRecord
100
AcDbBlockTableRecord
  2
*Paper_Space
340
1E
 70
     0
280
     1
281
     0
  0
BLOCK_RECORD
  5
23
330
1
100
AcDbSymbolTableRecord
100
AcDbBlockTableRecord
  2
*Paper_Space0
340
26
 70
     0
280
     1
281
     0
  0
BLOCK_RECORD
  5
3B
330
1
100
AcDbSymbolTableRecord
100
AcDbBlockTableRecord
  2
@1709
340
0
102
{BLKREFS
331
EC
102
}
 70
     0
280
     1
281
     0
  0
BLOCK_RECORD
  5
ED
330
1
100
AcDbSymbolTableRecord
100
AcDbBlockTableRecord
  2
@1935
340
0
102
{BLKREFS
331
FA
102
}
 70
     0
280
     1
281
     0
  0
ENDTAB
  0
ENDSEC
  0
SECTION
  2
BLOCKS
  0
BLOCK
  5
20
330
1F
100
AcDbEntity
  8
0
100
AcDbBlockBegin
  2
*Model_Space
 70
     0
 10
0.0
 20
0.0
 30
0.0
  3
*Model_Space
  1

  0
ENDBLK
  5
21
330
1F
100
AcDbEntity
  8
0
100
AcDbBlockEnd
  0
BLOCK
  5
1C
330
1B
100
AcDbEntity
 67
     1
  8
0
100
AcDbBlockBegin
  2
*Paper_Space
 70
     0
 10
0.0
 20
0.0
 30
0.0
  3
*Paper_Space
  1

  0
ENDBLK
  5
1D
330
1B
100
AcDbEntity
 67
     1
  8
0
100
AcDbBlockEnd
  0
BLOCK
  5
24
330
23
100
AcDbEntity
  8
0
100
AcDbBlockBegin
  2
*Paper_Space0
 70
     0
 10
0.0
 20
0.0
 30
0.0
  3
*Paper_Space0
  1

  0
ENDBLK
  5
25
330
23
100
AcDbEntity
  8
0
100
AcDbBlockEnd
  0
BLOCK
  5
EE
330
3B
100
AcDbEntity
  8
0
100
AcDbBlockBegin
  2
@1709
 70
     0
 10
0.0
 20
0.0
 30
0.0
  3
@1709
  1

  0
ARC
  5
3C
330
3B
100
AcDbEntity
  8
0
  6
________________
 62
     7
370
     9
100
AcDbCircle
 10
-130.0852469835165
 20
588.044309400322
 30
0.0
 40
244.3
100
AcDbArc
 50
2.111251445399684
 51
2.477791779673207
  0
ARC
  5
3E
330
3B
100
AcDbEntity
  8
0
  6
________________
 62
     7
370
     9
100
AcDbCircle
 10
-130.0852469835165
 20
588.044309400322
 30
0.0
 40
244.3
100
AcDbArc
 50
2.477791779673207
 51
5.061024076797558
  0
ARC
  5
3F
330
3B
100
AcDbEntity
  8
0
  6
________________
 62
     7
370
     9
100
AcDbCircle
 10
-91.22550687110576
 20
599.3550632549443
 30
0.0
 40
28.29999999999998
210
0.0
220
0.0
230
-1.0
100
AcDbArc
 50
113.4599918615581
 51
156.5400081384425
  0
LINE
  5
40
330
3B
100
AcDbEntity
  8
0
  6
________________
 62
     7
370
     9
100
AcDbLine
 10
88.91475301648352
 20
622.1784733348276
 30
0.0
 11
88.91475301648352
 21
622.2157859128176
 31
0.0
  0
LINE
  5
41
330
3B
100
AcDbEntity
  8
0
  6
________________
 62
     7
370
     9
100
AcDbLine
 10
88.91475301648352
 20
622.2157859128176
 30
0.0
 11
88.91475301648346
 21
626.1811466494496
 31
0.0
  0
LINE
  5
42
330
3B
100
AcDbEntity
  8
0
  6
________________
 62
     7
370
     9
100
AcDbLine
 10
118.051590265611
 20
597.044309400322
 30
0.0
 11
114.0862295289789
 21
597.044309400322
 31
0.0
  0
LINE
  5
43
330
3B
100
AcDbEntity
  8
0
  6
________________
 62
     7
370
     9
100
AcDbLine
 10
114.0862295289789
 20
597.044309400322
 30
0.0
 11
114.048916950989
 21
597.044309400322
 31
0.0
  0
ARC
  5
44
330
3B
100
AcDbEntity
  8
0
  6
________________
 62
     7
370
     9
100
AcDbCircle
 10
130.0852469835165
 20
588.044309400322
 30
0.0
 40
248.3
210
0.0
220
0.0
230
-1.0
100
AcDbArc
 50
174.7830486509359
 51
177.922774885935
  0
ARC
  5
45
330
3B
100
AcDbEntity
  8
0
  6
________________
 62
     7
370
     9
100
AcDbCircle
 10
-79.91475301648349
 20
378.044309400322
 30
0.0
 40
248.3
210
0.0
220
0.0
230
-1.0
100
AcDbArc
 50
92.07722511406494
 51
95.21695134906409
  0
ARC
  5
46
330
3B
100
AcDbEntity
  8
0
  6
________________
 62
     7
370
     9
100
AcDbCircle
 10
91.22550687110576
 20
599.3550632549443
 30
0.0
 40
24.29999999999997
100
AcDbArc
 50
24.92448556451733
 51
65.07551443548107
  0
ARC
  5
47
330
3B
100
AcDbEntity
  8
0
  6
________________
 62
     7
370
     9
100
AcDbCircle
 10
79.91475301648349
 20
378.044309400322
 30
0.0
 40
244.3
100
AcDbArc
 50
84.93897592320214
 51
87.52220822032606
  0
ARC
  5
48
330
3B
100
AcDbEntity
  8
0
  6
________________
 62
     7
370
     9
100
AcDbCircle
 10
79.91475301648349
 20
378.044309400322
 30
0.0
 40
244.3
100
AcDbArc
 50
87.52220822032609
 51
87.88874855460031
  0
ARC
  5
49
330
3B
100
AcDbEntity
  8
0
  6
________________
 62
     7
370
     9
100
AcDbCircle
 10
89.51337924375741
 20
597.2641995595966
 30
0.0
 40
0.5000000000000115
100
AcDbArc
 50
315.9999999999999
 51
46.00000000000016
  0
LINE
  5
4A
330
3B
100
AcDbEntity
  8
0
  6
________________
 62
     7
370
     9
100
AcDbLine
 10
87.91092881368557
 20
594.8850352930975
 30
0.0
 11
89.87304914392675
 21
596.9168703743671
 31
0.0
  0
ARC
  5
4B
330
3B
100
AcDbEntity
  8
0
  6
________________
 62
     7
370
     9
100
AcDbCircle
 10
-88.2705987138549
 20
594.5377061078681
 30
0.0
 40
0.4999999999999295
210
0.0
220
0.0
230
-1.0
100
AcDbArc
 50
315.0
 51
44.00000000000023
  0
LINE
  5
4C
330
3B
100
AcDbEntity
  8
0
  6
________________
 62
     7
370
     9
100
AcDbLine
 10
89.95688864021437
 20
592.1443094003221
 30
0.0
 11
87.91704532326162
 21
594.1841527172749
 31
0.0
  0
LINE
  5
4D
330
3B
100
AcDbEntity
  8
0
  6
________________
 62
     7
370
     9
100
AcDbLine
 10
96.70764623529692
 20
592.1443094003221
 30
0.0
 11
89.95688864021437
 21
592.1443094003221
 31
0.0
  0
ARC
  5
4E
330
3B
100
AcDbEntity
  8
0
  6
________________
 62
     7
370
     9
100
AcDbCircle
 10
96.70764623529692
 20
591.6443094003221
 30
0.0
 40
0.4999999999999295
100
AcDbArc
 50
44.99999999999989
 51
90.0
  0
LINE
  5
4F
330
3B
100
AcDbEntity
  8
0
  6
________________
 62
     7
370
     9
100
AcDbLine
 10
98.86830640707674
 20
590.1907560097288
 30
0.0
 11
97.06119962589018
 21
591.9978627909153
 31
0.0
  0
ARC
  5
50
330
3B
100
AcDbEntity
  8
0
  6
________________
 62
     7
370
     9
100
AcDbCircle
 10
-99.22185979767002
 20
590.5443094003219
 30
0.0
 40
0.4999999999999449
210
0.0
220
0.0
230
-1.0
100
AcDbArc
 50
269.9999999999996
 51
314.9999999999997
  0
LINE
  5
51
330
3B
100
AcDbEntity
  8
0
  6
________________
 62
     7
370
     9
100
AcDbLine
 10
103.4147530164834
 20
590.044309400322
 30
0.0
 11
99.22185979767004
 21
590.044309400322
 31
0.0
  0
LINE
  5
52
330
3B
100
AcDbEntity
  8
0
  6
________________
 62
     7
370
     9
100
AcDbLine
 10
103.9147530164835
 20
589.5443094003219
 30
0.0
 11
104.4147530164834
 21
590.044309400322
 31
0.0
  0
LINE
  5
53
330
3B
100
AcDbEntity
  8
0
  6
________________
 62
     7
370
     9
100
AcDbLine
 10
107.2147530164835
 20
590.044309400322
 30
0.0
 11
104.4147530164834
 21
590.044309400322
 31
0.0
  0
ARC
  5
54
330
3B
100
AcDbEntity
  8
0
  6
________________
 62
     7
370
     9
100
AcDbCircle
 10
-107.2147530164835
 20
591.044309400322
 30
0.0
 40
1.000000000000001
210
0.0
220
0.0
230
-1.0
100
AcDbArc
 50
179.9999999999999
 51
270.0
  0
LINE
  5
55
330
3B
100
AcDbEntity
  8
0
  6
________________
 62
     7
370
     9
100
AcDbLine
 10
108.2147530164835
 20
597.7593753671691
 30
0.0
 11
108.2147530164835
 21
591.044309400322
 31
0.0
  0
ARC
  5
56
330
3B
100
AcDbEntity
  8
0
  6
________________
 62
     7
370
     9
100
AcDbCircle
 10
108.7147530164835
 20
597.7593753671691
 30
0.0
 40
0.5000000000000555
100
AcDbArc
 50
136.5459285462808
 51
180.0
  0
ARC
  5
57
330
3B
100
AcDbEntity
  8
0
  6
________________
 62
     7
370
     9
100
AcDbCircle
 10
-98.91475301648347
 20
607.044309400322
 30
0.0
 40
13.0
210
0.0
220
0.0
230
-1.0
100
AcDbArc
 50
198.7699675044613
 51
223.4540714537193
  0
ARC
  5
58
330
3B
100
AcDbEntity
  8
0
  6
________________
 62
     7
370
     9
100
AcDbCircle
 10
112.170205727121
 20
602.539537104628
 30
0.0
 40
1.000000000000011
100
AcDbArc
 50
59.99999999999959
 51
161.2300324955388
  0
LINE
  5
59
330
3B
100
AcDbEntity
  8
0
  6
________________
 62
     7
370
     9
100
AcDbLine
 10
113.3037365694635
 20
603.039793306046
 30
0.0
 11
112.670205727121
 21
603.4055625084125
 31
0.0
  0
ARC
  5
5A
330
3B
100
AcDbEntity
  8
0
  6
________________
 62
     7
370
     9
100
AcDbCircle
 10
113.0537365694635
 20
602.6067806041539
 30
0.0
 40
0.4999999999999859
100
AcDbArc
 50
331.0000000000004
 51
60.0
  0
LINE
  5
5B
330
3B
100
AcDbEntity
  8
0
  6
________________
 62
     7
370
     9
100
AcDbLine
 10
113.2486046878595
 20
601.9269993259064
 30
0.0
 11
113.4910464230332
 21
602.3643757940307
 31
0.0
  0
ARC
  5
5C
330
3B
100
AcDbEntity
  8
0
  6
________________
 62
     7
370
     9
100
AcDbCircle
 10
112.8112948342898
 20
602.1694041360296
 30
0.0
 40
0.500000000000002
100
AcDbArc
 50
239.9999999999999
 51
331.0000000000002
  0
LINE
  5
5D
330
3B
100
AcDbEntity
  8
0
  6
________________
 62
     7
370
     9
100
AcDbLine
 10
112.436441026884
 20
601.8084758134524
 30
0.0
 11
112.5612948342898
 21
601.7363914341373
 31
0.0
  0
ARC
  5
5E
330
3B
100
AcDbEntity
  8
0
  6
________________
 62
     7
370
     9
100
AcDbCircle
 10
98.91475301648347
 20
607.044309400322
 30
0.0
 40
14.5
100
AcDbArc
 50
332.0194022078545
 51
338.8327271191009
  0
ARC
  5
5F
330
3B
100
AcDbEntity
  8
0
  6
________________
 62
     7
370
     9
100
AcDbCircle
 10
-111.8964188680924
 20
600.1474730446317
 30
0.0
 40
0.2000000000000325
210
0.0
220
0.0
230
-1.0
100
AcDbArc
 50
249.9999999999983
 51
27.9805977921452
  0
LINE
  5
60
330
3B
100
AcDbEntity
  8
0
  6
________________
 62
     7
370
     9
100
AcDbLine
 10
112.8437429448206
 20
600.2794352562694
 30
0.0
 11
111.9648228967575
 21
599.9595345204746
 31
0.0
  0
ARC
  5
61
330
3B
100
AcDbEntity
  8
0
  6
________________
 62
     7
370
     9
100
AcDbCircle
 10
113.0147530164835
 20
599.8095889458764
 30
0.0
 40
0.5000000000000004
100
AcDbArc
 50
0.0
 51
109.9999999999999
  0
LINE
  5
62
330
3B
100
AcDbEntity
  8
0
  6
________________
 62
     7
370
     9
100
AcDbLine
 10
113.5147530164835
 20
599.2775000596384
 30
0.0
 11
113.5147530164835
 21
599.8095889458764
 31
0.0
  0
ARC
  5
63
330
3B
100
AcDbEntity
  8
0
  6
________________
 62
     7
370
     9
100
AcDbCircle
 10
113.0147530164835
 20
599.2775000596384
 30
0.0
 40
0.4999999999999745
100
AcDbArc
 50
289.9999999999992
 51
0.0
  0
LINE
  5
64
330
3B
100
AcDbEntity
  8
0
  6
________________
 62
     7
370
     9
100
AcDbLine
 10
110.701722801495
 20
597.9035370241863
 30
0.0
 11
113.1857630881463
 21
598.8076537492454
 31
0.0
  0
ARC
  5
65
330
3B
100
AcDbEntity
  8
0
  6
________________
 62
     7
370
     9
100
AcDbCircle
 10
-111.2147530164835
 20
596.4939980930075
 30
0.0
 40
1.500000000000001
210
0.0
220
0.0
230
-1.0
100
AcDbArc
 50
359.9999999999999
 51
70.0
  0
LINE
  5
66
330
3B
100
AcDbEntity
  8
0
  6
________________
 62
     7
370
     9
100
AcDbLine
 10
109.7147530164835
 20
592.5443094003219
 30
0.0
 11
109.7147530164835
 21
596.4939980930075
 31
0.0
  0
ARC
  5
67
330
3B
100
AcDbEntity
  8
0
  6
________________
 62
     7
370
     9
100
AcDbCircle
 10
-110.7147530164835
 20
592.5443094003219
 30
0.0
 40
1.000000000000001
210
0.0
220
0.0
230
-1.0
100
AcDbArc
 50
270.0
 51
359.9999999999999
  0
LINE
  5
68
330
3B
100
AcDbEntity
  8
0
  6
________________
 62
     7
370
     9
100
AcDbLine
 10
114.6076462352969
 20
591.5443094003219
 30
0.0
 11
110.7147530164835
 21
591.5443094003219
 31
0.0
  0
ARC
  5
69
330
3B
100
AcDbEntity
  8
0
  6
________________
 62
     7
370
     9
100
AcDbCircle
 10
114.6076462352969
 20
591.044309400322
 30
0.0
 40
0.500000000000008
100
AcDbArc
 50
44.99999999999989
 51
90.0
  0
LINE
  5
6A
330
3B
100
AcDbEntity
  8
0
  6
________________
 62
     7
370
     9
100
AcDbLine
 10
116.1683064070767
 20
590.1907560097288
 30
0.0
 11
114.9611996258902
 21
591.3978627909153
 31
0.0
  0
ARC
  5
6B
330
3B
100
AcDbEntity
  8
0
  6
________________
 62
     7
370
     9
100
AcDbCircle
 10
-116.52185979767
 20
590.5443094003219
 30
0.0
 40
0.4999999999999449
210
0.0
220
0.0
230
-1.0
100
AcDbArc
 50
270.0000000000007
 51
315.0000000000005
  0
LINE
  5
6C
330
3B
100
AcDbEntity
  8
0
  6
________________
 62
     7
370
     9
100
AcDbLine
 10
117.4147530164835
 20
590.044309400322
 30
0.0
 11
116.52185979767
 21
590.044309400322
 31
0.0
  0
ARC
  5
6D
330
3B
100
AcDbEntity
  8
0
  6
________________
 62
     7
370
     9
100
AcDbCircle
 10
117.4147530164835
 20
589.544309400322
 30
0.0
 40
0.5000000000000004
100
AcDbArc
 50
359.9999999999999
 51
90.0
  0
LINE
  5
6E
330
3B
100
AcDbEntity
  8
0
  6
________________
 62
     7
370
     9
100
AcDbLine
 10
117.9147530164834
 20
588.044309400322
 30
0.0
 11
117.9147530164835
 21
589.544309400322
 31
0.0
  0
LINE
  5
6F
330
3B
100
AcDbEntity
  8
0
  6
________________
 62
     7
370
     9
100
AcDbLine
 10
114.3147530164834
 20
588.044309400322
 30
0.0
 11
117.9147530164834
 21
588.044309400322
 31
0.0
  0
ARC
  5
70
330
3B
100
AcDbEntity
  8
0
  6
________________
 62
     7
370
     9
100
AcDbCircle
 10
-113.9436614848027
 20
589.044309400322
 30
0.0
 40
0.4999999999999449
210
0.0
220
0.0
230
-1.0
100
AcDbArc
 50
90.0
 51
187.5946433685904
  0
ARC
  5
71
330
3B
100
AcDbEntity
  8
0
  6
________________
 62
     7
370
     9
100
AcDbCircle
 10
-110.2147530164834
 20
589.044309400322
 30
0.0
 40
0.5000000000000004
210
0.0
220
0.0
230
-1.0
100
AcDbArc
 50
0.0
 51
89.99999999999966
  0
LINE
  5
72
330
3B
100
AcDbEntity
  8
0
  6
________________
 62
     7
370
     9
100
AcDbLine
 10
97.01475301648344
 20
588.044309400322
 30
0.0
 11
109.7147530164834
 21
588.044309400322
 31
0.0
  0
LINE
  5
73
330
3B
100
AcDbEntity
  8
0
  6
________________
 62
     7
370
     9
100
AcDbLine
 10
97.01475301648344
 20
588.044309400322
 30
0.0
 11
97.01475301648345
 21
589.044309400322
 31
0.0
  0
ARC
  5
74
330
3B
100
AcDbEntity
  8
0
  6
________________
 62
     7
370
     9
100
AcDbCircle
 10
-96.51475301648344
 20
589.044309400322
 30
0.0
 40
0.4999999999999449
210
0.0
220
0.0
230
-1.0
100
AcDbArc
 50
89.99999999999962
 51
179.9999999999999
  0
LINE
  5
75
330
3B
100
AcDbEntity
  8
0
  6
________________
 62
     7
370
     9
100
AcDbLine
 10
96.51475301648344
 20
589.5443094003219
 30
0.0
 11
95.88584454816414
 21
589.5443094003219
 31
0.0
  0
ARC
  5
76
330
3B
100
AcDbEntity
  8
0
  6
________________
 62
     7
370
     9
100
AcDbCircle
 10
-95.88584454816416
 20
589.044309400322
 30
0.0
 40
0.5000000000000108
210
0.0
220
0.0
230
-1.0
100
AcDbArc
 50
352.4053566314085
 51
89.99999999999962
  0
LINE
  5
77
330
3B
100
AcDbEntity
  8
0
  6
________________
 62
     7
370
     9
100
AcDbLine
 10
95.39023059782284
 20
588.9782275402765
 30
0.0
 11
95.51475301648344
 21
588.044309400322
 31
0.0
  0
LINE
  5
78
330
3B
100
AcDbEntity
  8
0
  6
________________
 62
     7
370
     9
100
AcDbLine
 10
94.51475301648347
 20
588.044309400322
 30
0.0
 11
95.51475301648344
 21
588.044309400322
 31
0.0
  0
LINE
  5
79
330
3B
100
AcDbEntity
  8
0
  6
________________
 62
     7
370
     9
100
AcDbLine
 10
94.51475301648347
 20
589.644309400322
 30
0.0
 11
94.51475301648347
 21
588.044309400322
 31
0.0
  0
ARC
  5
7A
330
3B
100
AcDbEntity
  8
0
  6
________________
 62
     7
370
     9
100
AcDbCircle
 10
-94.01475301648347
 20
589.644309400322
 30
0.0
 40
0.500000000000056
210
0.0
220
0.0
230
-1.0
100
AcDbArc
 50
90.0
 51
180.0
  0
LINE
  5
7B
330
3B
100
AcDbEntity
  8
0
  6
________________
 62
     7
370
     9
100
AcDbLine
 10
89.3355682966548
 20
590.1443094003221
 30
0.0
 11
94.01475301648347
 21
590.1443094003221
 31
0.0
  0
ARC
  5
7C
330
3B
100
AcDbEntity
  8
0
  6
________________
 62
     7
370
     9
100
AcDbCircle
 10
89.3355682966548
 20
590.644309400322
 30
0.0
 40
0.4999999999999295
100
AcDbArc
 50
225.0
 51
269.9999999999998
  0
LINE
  5
7D
330
3B
100
AcDbEntity
  8
0
  6
________________
 62
     7
370
     9
100
AcDbLine
 10
82.16119962589018
 20
597.1115712899001
 30
0.0
 11
88.98201490606152
 21
590.2907560097287
 31
0.0
  0
ARC
  5
7E
330
3B
100
AcDbEntity
  8
0
  6
________________
 62
     7
370
     9
100
AcDbCircle
 10
-82.51475301648345
 20
597.4651246804934
 30
0.0
 40
0.500000000000008
210
0.0
220
0.0
230
-1.0
100
AcDbArc
 50
315.0
 51
359.9999999999998
  0
LINE
  5
7F
330
3B
100
AcDbEntity
  8
0
  6
________________
 62
     7
370
     9
100
AcDbLine
 10
82.01475301648345
 20
597.4651246804934
 30
0.0
 11
82.01475301648345
 21
602.1443094003221
 31
0.0
  0
ARC
  5
80
330
3B
100
AcDbEntity
  8
0
  6
________________
 62
     7
370
     9
100
AcDbCircle
 10
81.51475301648345
 20
602.1443094003221
 30
0.0
 40
0.5000000000000004
100
AcDbArc
 50
0.0
 51
89.99999999999996
  0
LINE
  5
81
330
3B
100
AcDbEntity
  8
0
  6
________________
 62
     7
370
     9
100
AcDbLine
 10
81.51475301648345
 20
602.6443094003221
 30
0.0
 11
79.91475301648343
 21
602.6443094003221
 31
0.0
  0
LINE
  5
82
330
3B
100
AcDbEntity
  8
0
  6
________________
 62
     7
370
     9
100
AcDbLine
 10
79.91475301648343
 20
602.6443094003221
 30
0.0
 11
79.91475301648344
 21
603.644309400322
 31
0.0
  0
LINE
  5
83
330
3B
100
AcDbEntity
  8
0
  6
________________
 62
     7
370
     9
100
AcDbLine
 10
80.84867115643794
 20
603.5197869816614
 30
0.0
 11
79.91475301648344
 21
603.644309400322
 31
0.0
  0
LINE
  5
84
330
3B
100
AcDbEntity
  8
0
  6
________________
 62
     7
370
     9
100
AcDbLine
 10
79.91475301648346
 20
605.1443094003221
 30
0.0
 11
79.91475301648344
 21
617.844309400322
 31
0.0
  0
LINE
  5
85
330
3B
100
AcDbEntity
  8
0
  6
________________
 62
     7
370
     9
100
AcDbLine
 10
80.91475301648346
 20
617.844309400322
 30
0.0
 11
79.91475301648344
 21
617.844309400322
 31
0.0
  0
ARC
  5
86
330
3B
100
AcDbEntity
  8
0
  6
________________
 62
     7
370
     9
100
AcDbCircle
 10
80.91475301648346
 20
618.344309400322
 30
0.0
 40
0.500000000000056
100
AcDbArc
 50
270.0
 51
359.9999999999996
  0
LINE
  5
87
330
3B
100
AcDbEntity
  8
0
  6
________________
 62
     7
370
     9
100
AcDbLine
 10
81.41475301648346
 20
622.0732178686412
 30
0.0
 11
81.41475301648346
 21
618.344309400322
 31
0.0
  0
LINE
  5
88
330
3B
100
AcDbEntity
  8
0
  6
________________
 62
     7
370
     9
100
AcDbLine
 10
79.91475301648346
 20
622.444309400322
 30
0.0
 11
80.84867115643796
 21
622.5688318189826
 31
0.0
  0
LINE
  5
89
330
3B
100
AcDbEntity
  8
0
  6
________________
 62
     7
370
     9
100
AcDbLine
 10
79.91475301648344
 20
626.0443094003219
 30
0.0
 11
81.41475301648346
 21
626.044309400322
 31
0.0
  0
ARC
  5
8A
330
3B
100
AcDbEntity
  8
0
  6
________________
 62
     7
370
     9
100
AcDbCircle
 10
-81.41475301648346
 20
625.544309400322
 30
0.0
 40
0.500000000000056
210
0.0
220
0.0
230
-1.0
100
AcDbArc
 50
89.99999999999994
 51
180.0
  0
LINE
  5
8B
330
3B
100
AcDbEntity
  8
0
  6
________________
 62
     7
370
     9
100
AcDbLine
 10
81.91475301648346
 20
625.544309400322
 30
0.0
 11
81.91475301648346
 21
624.6514161815086
 31
0.0
  0
ARC
  5
8C
330
3B
100
AcDbEntity
  8
0
  6
________________
 62
     7
370
     9
100
AcDbCircle
 10
82.41475301648346
 20
624.6514161815086
 30
0.0
 40
0.5000000000000004
100
AcDbArc
 50
180.0000000000008
 51
225.0000000000004
  0
LINE
  5
8D
330
3B
100
AcDbEntity
  8
0
  6
________________
 62
     7
370
     9
100
AcDbLine
 10
82.06119962589018
 20
624.2978627909152
 30
0.0
 11
83.26830640707672
 21
623.0907560097287
 31
0.0
  0
ARC
  5
8E
330
3B
100
AcDbEntity
  8
0
  6
________________
 62
     7
370
     9
100
AcDbCircle
 10
-82.91475301648346
 20
622.7372026191355
 30
0.0
 40
0.500000000000008
210
0.0
220
0.0
230
-1.0
100
AcDbArc
 50
134.9999999999999
 51
180.0
  0
LINE
  5
8F
330
3B
100
AcDbEntity
  8
0
  6
________________
 62
     7
370
     9
100
AcDbLine
 10
83.41475301648344
 20
622.7372026191355
 30
0.0
 11
83.41475301648346
 21
618.844309400322
 31
0.0
  0
ARC
  5
90
330
3B
100
AcDbEntity
  8
0
  6
________________
 62
     7
370
     9
100
AcDbCircle
 10
84.41475301648346
 20
618.844309400322
 30
0.0
 40
1.000000000000001
100
AcDbArc
 50
180.0
 51
269.9999999999999
  0
LINE
  5
91
330
3B
100
AcDbEntity
  8
0
  6
________________
 62
     7
370
     9
100
AcDbLine
 10
84.41475301648344
 20
617.844309400322
 30
0.0
 11
88.36444170916887
 21
617.844309400322
 31
0.0
  0
ARC
  5
92
330
3B
100
AcDbEntity
  8
0
  6
________________
 62
     7
370
     9
100
AcDbCircle
 10
88.36444170916889
 20
619.344309400322
 30
0.0
 40
1.499999999999946
100
AcDbArc
 50
269.9999999999999
 51
340.0000000000001
  0
LINE
  5
93
330
3B
100
AcDbEntity
  8
0
  6
________________
 62
     7
370
     9
100
AcDbLine
 10
89.77398064034774
 20
618.8312791853335
 30
0.0
 11
90.67809736540693
 21
621.3153194719849
 31
0.0
  0
ARC
  5
94
330
3B
100
AcDbEntity
  8
0
  6
________________
 62
     7
370
     9
100
AcDbCircle
 10
-91.14794367579988
 20
621.1443094003221
 30
0.0
 40
0.5000000000000149
210
0.0
220
0.0
230
-1.0
100
AcDbArc
 50
19.99999999999923
 51
90.00000000000001
  0
LINE
  5
95
330
3B
100
AcDbEntity
  8
0
  6
________________
 62
     7
370
     9
100
AcDbLine
 10
91.14794367579988
 20
621.644309400322
 30
0.0
 11
91.68003256203782
 21
621.644309400322
 31
0.0
  0
ARC
  5
96
330
3B
100
AcDbEntity
  8
0
  6
________________
 62
     7
370
     9
100
AcDbCircle
 10
-91.68003256203782
 20
621.1443094003221
 30
0.0
 40
0.4999999999999449
210
0.0
220
0.0
230
-1.0
100
AcDbArc
 50
90.0
 51
199.9999999999999
  0
LINE
  5
97
330
3B
100
AcDbEntity
  8
0
  6
________________
 62
     7
370
     9
100
AcDbLine
 10
92.14987887243079
 20
620.9732993286592
 30
0.0
 11
91.82997813663597
 21
620.0943792805961
 31
0.0
  0
ARC
  5
98
330
3B
100
AcDbEntity
  8
0
  6
________________
 62
     7
370
     9
100
AcDbCircle
 10
92.01791666079316
 20
620.025975251931
 30
0.0
 40
0.1999999999999981
100
AcDbArc
 50
159.9999999999982
 51
297.9805977921453
  0
ARC
  5
99
330
3B
100
AcDbEntity
  8
0
  6
________________
 62
     7
370
     9
100
AcDbCircle
 10
-98.91475301648344
 20
607.044309400322
 30
0.0
 40
14.50000000000003
210
0.0
220
0.0
230
-1.0
100
AcDbArc
 50
62.0194022078546
 51
68.83272711910081
  0
LINE
  5
9A
330
3B
100
AcDbEntity
  8
0
  6
________________
 62
     7
370
     9
100
AcDbLine
 10
93.67891942961387
 20
620.5659974107225
 30
0.0
 11
93.60683505029878
 21
620.6908512181284
 31
0.0
  0
ARC
  5
9B
330
3B
100
AcDbEntity
  8
0
  6
________________
 62
     7
370
     9
100
AcDbCircle
 10
-94.03984775219101
 20
620.9408512181284
 30
0.0
 40
0.499999999999988
210
0.0
220
0.0
230
-1.0
100
AcDbArc
 50
329.9999999999999
 51
61.00000000000022
  0
LINE
  5
9C
330
3B
100
AcDbEntity
  8
0
  6
________________
 62
     7
370
     9
100
AcDbLine
 10
93.79744294206783
 20
621.3781610716981
 30
0.0
 11
94.2348194101921
 21
621.6206028068718
 31
0.0
  0
ARC
  5
9D
330
3B
100
AcDbEntity
  8
0
  6
________________
 62
     7
370
     9
100
AcDbCircle
 10
-94.47722422031526
 20
621.183292953302
 30
0.0
 40
0.5000000000000102
210
0.0
220
0.0
230
-1.0
100
AcDbArc
 50
61.00000000000043
 51
150.0
  0
LINE
  5
9E
330
3B
100
AcDbEntity
  8
0
  6
________________
 62
     7
370
     9
100
AcDbLine
 10
94.91023692220749
 20
621.433292953302
 30
0.0
 11
95.27600612457387
 21
620.7997621109596
 31
0.0
  0
ARC
  5
9F
330
3B
100
AcDbEntity
  8
0
  6
________________
 62
     7
370
     9
100
AcDbCircle
 10
-94.40998072078945
 20
620.2997621109596
 30
0.0
 40
0.999999999999964
210
0.0
220
0.0
230
-1.0
100
AcDbArc
 50
149.9999999999996
 51
251.2300324955388
  0
ARC
  5
A0
330
3B
100
AcDbEntity
  8
0
  6
________________
 62
     7
370
     9
100
AcDbCircle
 10
98.91475301648344
 20
607.044309400322
 30
0.0
 40
12.99999999999994
100
AcDbArc
 50
108.7699675044613
 51
133.4540714537193
  0
ARC
  5
A1
330
3B
100
AcDbEntity
  8
0
  6
________________
 62
     7
370
     9
100
AcDbCircle
 10
-89.62981898333062
 20
616.8443094003221
 30
0.0
 40
0.5000000000000284
210
0.0
220
0.0
230
-1.0
100
AcDbArc
 50
226.5459285462808
 51
270.0
  0
LINE
  5
A2
330
3B
100
AcDbEntity
  8
0
  6
________________
 62
     7
370
     9
100
AcDbLine
 10
89.62981898333062
 20
616.344309400322
 30
0.0
 11
82.91475301648344
 21
616.344309400322
 31
0.0
  0
ARC
  5
A3
330
3B
100
AcDbEntity
  8
0
  6
________________
 62
     7
370
     9
100
AcDbCircle
 10
82.91475301648344
 20
615.344309400322
 30
0.0
 40
1.000000000000001
100
AcDbArc
 50
89.9999999999999
 51
180.0
  0
LINE
  5
A4
330
3B
100
AcDbEntity
  8
0
  6
________________
 62
     7
370
     9
100
AcDbLine
 10
81.91475301648344
 20
611.544309400322
 30
0.0
 11
81.91475301648344
 21
607.3514161815085
 31
0.0
  0
ARC
  5
A5
330
3B
100
AcDbEntity
  8
0
  6
________________
 62
     7
370
     9
100
AcDbCircle
 10
82.41475301648344
 20
607.3514161815085
 30
0.0
 40
0.5000000000000004
100
AcDbArc
 50
179.9999999999996
 51
224.9999999999996
  0
LINE
  5
A6
330
3B
100
AcDbEntity
  8
0
  6
________________
 62
     7
370
     9
100
AcDbLine
 10
82.06119962589017
 20
606.9978627909154
 30
0.0
 11
83.86830640707673
 21
605.1907560097288
 31
0.0
  0
ARC
  5
A7
330
3B
100
AcDbEntity
  8
0
  6
________________
 62
     7
370
     9
100
AcDbCircle
 10
-83.51475301648347
 20
604.8372026191355
 30
0.0
 40
0.500000000000008
210
0.0
220
0.0
230
-1.0
100
AcDbArc
 50
134.9999999999999
 51
180.0
  0
LINE
  5
A8
330
3B
100
AcDbEntity
  8
0
  6
________________
 62
     7
370
     9
100
AcDbLine
 10
84.01475301648347
 20
604.8372026191355
 30
0.0
 11
84.01475301648347
 21
598.086445024053
 31
0.0
  0
LINE
  5
A9
330
3B
100
AcDbEntity
  8
0
  6
________________
 62
     7
370
     9
100
AcDbLine
 10
84.01475301648347
 20
598.086445024053
 30
0.0
 11
86.05459633343625
 21
596.0466017071002
 31
0.0
  0
ARC
  5
AA
330
3B
100
AcDbEntity
  8
0
  6
________________
 62
     7
370
     9
100
AcDbCircle
 10
86.40814972402951
 20
596.4001550976935
 30
0.0
 40
0.500000000000008
100
AcDbArc
 50
225.0
 51
314.0000000000002
  0
LINE
  5
AB
330
3B
100
AcDbEntity
  8
0
  6
________________
 62
     7
370
     9
100
AcDbLine
 10
86.75547890925901
 20
596.0404851975242
 30
0.0
 11
88.78731399052852
 21
598.0026055277652
 31
0.0
  0
ARC
  5
AC
330
3B
100
AcDbEntity
  8
0
  6
________________
 62
     7
370
     9
100
AcDbCircle
 10
-89.13464317575801
 20
597.642935627596
 30
0.0
 40
0.5000000000000115
210
0.0
220
0.0
230
-1.0
100
AcDbArc
 50
45.99999999999989
 51
136.0000000000002
  0
LINE
  5
AD
330
3B
100
AcDbEntity
  8
0
  6
________________
 62
     7
370
     9
100
AcDbLine
 10
89.49431307592734
 20
597.9902648128254
 30
0.0
 11
89.67431302511864
 21
597.8038694089571
 31
0.0
  0
LINE
  5
AE
330
3B
100
AcDbEntity
  8
0
  6
________________
 62
     7
370
     9
100
AcDbLine
 10
89.86070842898692
 20
597.623869459766
 30
0.0
 11
89.67431302511864
 21
597.8038694089571
 31
0.0
  0
LINE
  5
AF
330
3B
100
AcDbEntity
  8
0
  6
________________
 62
     7
370
     9
100
AcDbLine
 10
81.41475301648346
 20
604.644309400322
 30
0.0
 11
81.41475301648346
 21
604.0154009320028
 31
0.0
  0
LINE
  5
B0
330
3B
100
AcDbEntity
  8
0
  6
________________
 62
     7
370
     9
100
AcDbLine
 10
79.91475301648346
 20
605.1443094003221
 30
0.0
 11
80.91475301648346
 21
605.1443094003221
 31
0.0
  0
LINE
  5
B1
330
3B
100
AcDbEntity
  8
0
  6
________________
 62
     7
370
     9
100
AcDbLine
 10
81.91475301648344
 20
611.544309400322
 30
0.0
 11
81.41475301648346
 21
612.044309400322
 31
0.0
  0
LINE
  5
B2
330
3B
100
AcDbEntity
  8
0
  6
________________
 62
     7
370
     9
100
AcDbLine
 10
81.41475301648346
 20
612.044309400322
 30
0.0
 11
81.91475301648346
 21
612.544309400322
 31
0.0
  0
LINE
  5
B3
330
3B
100
AcDbEntity
  8
0
  6
________________
 62
     7
370
     9
100
AcDbLine
 10
79.91475301648346
 20
622.444309400322
 30
0.0
 11
79.91475301648344
 21
626.0443094003219
 31
0.0
  0
LINE
  5
B4
330
3B
100
AcDbEntity
  8
0
  6
________________
 62
     7
370
     9
100
AcDbLine
 10
103.4147530164834
 20
590.044309400322
 30
0.0
 11
103.9147530164835
 21
589.5443094003219
 31
0.0
  0
ARC
  5
B5
330
3B
100
AcDbEntity
  8
0
  6
________________
 62
     7
370
     9
100
AcDbCircle
 10
80.91475301648346
 20
622.0732178686412
 30
0.0
 40
0.5000000000000004
100
AcDbArc
 50
0.0
 51
97.59464336859035
  0
LINE
  5
B6
330
3B
100
AcDbEntity
  8
0
  6
________________
 62
     7
370
     9
100
AcDbLine
 10
81.91475301648344
 20
615.344309400322
 30
0.0
 11
81.91475301648346
 21
612.544309400322
 31
0.0
  0
ARC
  5
B7
330
3B
100
AcDbEntity
  8
0
  6
________________
 62
     7
370
     9
100
AcDbCircle
 10
80.91475301648346
 20
604.644309400322
 30
0.0
 40
0.5000000000000004
100
AcDbArc
 50
359.9999999999996
 51
90.0
  0
ARC
  5
B8
330
3B
100
AcDbEntity
  8
0
  6
________________
 62
     7
370
     9
100
AcDbCircle
 10
80.91475301648346
 20
604.0154009320028
 30
0.0
 40
0.5000000000000503
100
AcDbArc
 50
262.4053566314085
 51
359.9999999999996
  0
LINE
  5
B9
330
3B
100
AcDbEntity
  8
0
  6
________________
 62
     7
370
     9
100
AcDbLine
 10
109.7147530164835
 20
589.044309400322
 30
0.0
 11
109.7147530164834
 21
588.044309400322
 31
0.0
  0
LINE
  5
BA
330
3B
100
AcDbEntity
  8
0
  6
________________
 62
     7
370
     9
100
AcDbLine
 10
113.9436614848027
 20
589.5443094003219
 30
0.0
 11
110.2147530164834
 21
589.5443094003219
 31
0.0
  0
LINE
  5
BB
330
3B
100
AcDbEntity
  8
0
  6
________________
 62
     7
370
     9
100
AcDbLine
 10
114.3147530164834
 20
588.044309400322
 30
0.0
 11
114.439275435144
 21
588.9782275402765
 31
0.0
  0
ARC
  5
BC
330
3B
100
AcDbEntity
  8
0
  6
________________
 62
     7
370
     9
100
AcDbCircle
 10
113.7147530164835
 20
598.1861163340158
 30
0.0
 40
0.5000000000000004
100
AcDbArc
 50
0.0
 51
57.09926401647675
  0
ARC
  5
BD
330
3B
100
AcDbEntity
  8
0
  6
________________
 62
     7
370
     9
100
AcDbCircle
 10
113.7147530164835
 20
598.1861163340158
 30
0.0
 40
0.5000000000000208
100
AcDbArc
 50
57.09926401647675
 51
110.0000000000001
  0
ARC
  5
BE
330
3B
100
AcDbEntity
  8
0
  6
________________
 62
     7
370
     9
100
AcDbCircle
 10
-112.4147530164835
 20
595.9038528162607
 30
0.0
 40
0.5000000000000004
210
0.0
220
0.0
230
-1.0
100
AcDbArc
 50
0.0
 51
69.99999999999996
  0
ARC
  5
BF
330
3B
100
AcDbEntity
  8
0
  6
________________
 62
     7
370
     9
100
AcDbCircle
 10
-112.4147530164835
 20
594.3555792375429
 30
0.0
 40
0.5000000000000178
210
0.0
220
0.0
230
-1.0
100
AcDbArc
 50
314.9999999999999
 51
0.0
  0
ARC
  5
C0
330
3B
100
AcDbEntity
  8
0
  6
________________
 62
     7
370
     9
100
AcDbCircle
 10
-112.8260228537043
 20
593.944309400322
 30
0.0
 40
0.500000000000056
210
0.0
220
0.0
230
-1.0
100
AcDbArc
 50
270.0
 51
315.0
  0
LINE
  5
C1
330
3B
100
AcDbEntity
  8
0
  6
________________
 62
     7
370
     9
100
AcDbLine
 10
85.31475301648345
 20
620.9555792375428
 30
0.0
 11
85.31475301648345
 21
626.285583164376
 31
0.0
  0
ARC
  5
C2
330
3B
100
AcDbEntity
  8
0
  6
________________
 62
     7
370
     9
100
AcDbCircle
 10
85.81475301648345
 20
620.9555792375428
 30
0.0
 40
0.5000000000000004
100
AcDbArc
 50
180.0
 51
225.0
  0
LINE
  5
C3
330
3B
100
AcDbEntity
  8
0
  6
________________
 62
     7
370
     9
100
AcDbLine
 10
85.87246946311103
 20
620.1907560097287
 30
0.0
 11
85.46119962589017
 21
620.6020258469496
 31
0.0
  0
ARC
  5
C4
330
3B
100
AcDbEntity
  8
0
  6
________________
 62
     7
370
     9
100
AcDbCircle
 10
86.2260228537043
 20
620.544309400322
 30
0.0
 40
0.500000000000008
100
AcDbArc
 50
225.0
 51
270.0
  0
LINE
  5
C5
330
3B
100
AcDbEntity
  8
0
  6
________________
 62
     7
370
     9
100
AcDbLine
 10
87.77429643242208
 20
620.044309400322
 30
0.0
 11
86.2260228537043
 21
620.044309400322
 31
0.0
  0
ARC
  5
C6
330
3B
100
AcDbEntity
  8
0
  6
________________
 62
     7
370
     9
100
AcDbCircle
 10
87.77429643242208
 20
620.544309400322
 30
0.0
 40
0.4999999999999449
100
AcDbArc
 50
270.0
 51
339.9999999999999
  0
LINE
  5
C7
330
3B
100
AcDbEntity
  8
0
  6
________________
 62
     7
370
     9
100
AcDbLine
 10
88.96153174033918
 20
622.344309400322
 30
0.0
 11
88.91475301648352
 21
622.2157859128176
 31
0.0
  0
LINE
  5
C8
330
3B
100
AcDbEntity
  8
0
  6
________________
 62
     7
370
     9
100
AcDbLine
 10
88.91475301648352
 20
622.2157859128176
 30
0.0
 11
88.24414274281503
 21
620.3732993286592
 31
0.0
  0
ARC
  5
C9
330
3B
100
AcDbEntity
  8
0
  6
________________
 62
     7
370
     9
100
AcDbCircle
 10
-90.05655995017717
 20
621.8443094003221
 30
0.0
 40
0.4999999999999449
210
0.0
220
0.0
230
-1.0
100
AcDbArc
 50
90.0
 51
147.0992640164796
  0
ARC
  5
CA
330
3B
100
AcDbEntity
  8
0
  6
________________
 62
     7
370
     9
100
AcDbCircle
 10
-90.05655995017717
 20
621.8443094003221
 30
0.0
 40
0.4999999999999715
210
0.0
220
0.0
230
-1.0
100
AcDbArc
 50
147.0992640164796
 51
200.0000000000001
  0
LINE
  5
CB
330
3B
100
AcDbEntity
  8
0
  6
________________
 62
     7
370
     9
100
AcDbLine
 10
89.55423809905963
 20
619.0022892569964
 30
0.0
 11
90.52640626057013
 21
621.6732993286593
 31
0.0
  0
ARC
  5
CC
330
3B
100
AcDbEntity
  8
0
  6
________________
 62
     7
370
     9
100
AcDbCircle
 10
-88.61454547827371
 20
619.344309400322
 30
0.0
 40
0.9999999999999918
210
0.0
220
0.0
230
-1.0
100
AcDbArc
 50
200.0
 51
269.9999999999999
  0
ARC
  5
CD
330
3B
100
AcDbEntity
  8
0
  6
________________
 62
     7
370
     9
100
AcDbCircle
 10
-85.72896657885654
 20
619.344309400322
 30
0.0
 40
1.000000000000001
210
0.0
220
0.0
230
-1.0
100
AcDbArc
 50
270.0
 51
315.0000000000001
  0
LINE
  5
CE
330
3B
100
AcDbEntity
  8
0
  6
________________
 62
     7
370
     9
100
AcDbLine
 10
83.90764623529692
 20
619.7514161815086
 30
0.0
 11
85.02185979767
 21
618.6372026191356
 31
0.0
  0
ARC
  5
CF
330
3B
100
AcDbEntity
  8
0
  6
________________
 62
     7
370
     9
100
AcDbCircle
 10
-84.61475301648346
 20
620.458522962695
 30
0.0
 40
0.9999999999999376
210
0.0
220
0.0
230
-1.0
100
AcDbArc
 50
314.9999999999999
 51
0.0
  0
LINE
  5
D0
330
3B
100
AcDbEntity
  8
0
  6
________________
 62
     7
370
     9
100
AcDbLine
 10
83.61475301648346
 20
626.3167404110969
 30
0.0
 11
83.61475301648346
 21
620.458522962695
 31
0.0
  0
ARC
  5
D1
330
3B
100
AcDbEntity
  8
0
  6
________________
 62
     7
370
     9
100
AcDbCircle
 10
-79.91475301648349
 20
378.044309400322
 30
0.0
 40
248.3
210
0.0
220
0.0
230
-1.0
100
AcDbArc
 50
90.0
 51
90.85381486317925
  0
LINE
  5
D2
330
3B
100
AcDbEntity
  8
0
  6
________________
 62
     7
370
     9
100
AcDbLine
 10
79.91475301648344
 20
628.044309400322
 30
0.0
 11
79.91475301648346
 21
626.344309400322
 31
0.0
  0
ARC
  5
D3
330
3B
100
AcDbEntity
  8
0
  6
________________
 62
     7
370
     9
100
AcDbCircle
 10
79.91475301648349
 20
378.044309400322
 30
0.0
 40
250.0
100
AcDbArc
 50
84.72132389667894
 51
89.99999999999991
  0
ARC
  5
D4
330
3B
100
AcDbEntity
  8
0
  6
________________
 62
     7
370
     9
100
AcDbCircle
 10
112.3289665788566
 20
592.7443094003221
 30
0.0
 40
1.000000000000016
100
AcDbArc
 50
225.0
 51
270.0
  0
ARC
  5
D5
330
3B
100
AcDbEntity
  8
0
  6
________________
 62
     7
370
     9
100
AcDbCircle
 10
111.2147530164835
 20
593.8585229626951
 30
0.0
 40
1.000000000000001
100
AcDbArc
 50
180.0
 51
225.0000000000001
  0
ARC
  5
D6
330
3B
100
AcDbEntity
  8
0
  6
________________
 62
     7
370
     9
100
AcDbCircle
 10
111.2147530164835
 20
596.7441018621123
 30
0.0
 40
0.9999999999999538
100
AcDbArc
 50
110.0000000000001
 51
180.0
  0
ARC
  5
D7
330
3B
100
AcDbEntity
  8
0
  6
________________
 62
     7
370
     9
100
AcDbCircle
 10
-79.91475301648349
 20
378.044309400322
 30
0.0
 40
248.3
210
0.0
220
0.0
230
-1.0
100
AcDbArc
 50
91.24616030550412
 51
92.07722511406494
  0
ARC
  5
D8
330
3B
100
AcDbEntity
  8
0
  6
________________
 62
     7
370
     9
100
AcDbCircle
 10
-79.91475301648349
 20
378.044309400322
 30
0.0
 40
248.3
210
0.0
220
0.0
230
-1.0
100
AcDbArc
 50
92.07722511406494
 51
95.2169513490642
  0
ARC
  5
D9
330
3B
100
AcDbEntity
  8
0
  6
________________
 62
     7
370
     9
100
AcDbCircle
 10
-130.0852469835165
 20
588.044309400322
 30
0.0
 40
248.3
100
AcDbArc
 50
1.246160305504135
 51
2.077225114064943
  0
ARC
  5
DA
330
3B
100
AcDbEntity
  8
0
  6
________________
 62
     7
370
     9
100
AcDbCircle
 10
-130.0852469835165
 20
588.044309400322
 30
0.0
 40
248.3
100
AcDbArc
 50
2.077225114064943
 51
5.216951349064324
  0
LINE
  5
DB
330
3B
100
AcDbEntity
  8
0
  6
________________
 62
     7
370
     9
100
AcDbLine
 10
112.8260228537043
 20
593.444309400322
 30
0.0
 11
118.1560267805374
 21
593.444309400322
 31
0.0
  0
LINE
  5
DC
330
3B
100
AcDbEntity
  8
0
  6
________________
 62
     7
370
     9
100
AcDbLine
 10
112.0611996258902
 20
594.0020258469496
 30
0.0
 11
112.472469463111
 21
593.5907560097288
 31
0.0
  0
LINE
  5
DD
330
3B
100
AcDbEntity
  8
0
  6
________________
 62
     7
370
     9
100
AcDbLine
 10
111.9147530164835
 20
595.9038528162607
 30
0.0
 11
111.9147530164835
 21
594.3555792375429
 31
0.0
  0
LINE
  5
DE
330
3B
100
AcDbEntity
  8
0
  6
________________
 62
     7
370
     9
100
AcDbLine
 10
90.05655995017717
 20
622.344309400322
 30
0.0
 11
88.96153174033918
 21
622.344309400322
 31
0.0
  0
LINE
  5
DF
330
3B
100
AcDbEntity
  8
0
  6
________________
 62
     7
370
     9
100
AcDbLine
 10
114.2147530164835
 20
598.1861163340158
 30
0.0
 11
114.2147530164835
 21
597.0910881241778
 31
0.0
  0
LINE
  5
E0
330
3B
100
AcDbEntity
  8
0
  6
________________
 62
     7
370
     9
100
AcDbLine
 10
85.72896657885654
 20
618.344309400322
 30
0.0
 11
88.61454547827371
 21
618.344309400322
 31
0.0
  0
LINE
  5
E1
330
3B
100
AcDbEntity
  8
0
  6
________________
 62
     7
370
     9
100
AcDbLine
 10
110.2147530164835
 20
593.8585229626951
 30
0.0
 11
110.2147530164835
 21
596.7441018621123
 31
0.0
  0
LINE
  5
E2
330
3B
100
AcDbEntity
  8
0
  6
________________
 62
     7
370
     9
100
AcDbLine
 10
111.62185979767
 20
592.0372026191355
 30
0.0
 11
110.5076462352969
 21
593.1514161815086
 31
0.0
  0
LINE
  5
E3
330
3B
100
AcDbEntity
  8
0
  6
________________
 62
     7
370
     9
100
AcDbLine
 10
118.1871840272584
 20
591.7443094003221
 30
0.0
 11
112.3289665788566
 21
591.7443094003221
 31
0.0
  0
ARC
  5
E4
330
3B
100
AcDbEntity
  8
0
  6
________________
 62
     7
370
     9
100
AcDbCircle
 10
-130.0852469835165
 20
588.044309400322
 30
0.0
 40
248.3
100
AcDbArc
 50
0.0
 51
0.8538148631792445
  0
LINE
  5
E5
330
3B
100
AcDbEntity
  8
0
  6
________________
 62
     7
370
     9
100
AcDbLine
 10
119.9147530164834
 20
588.044309400322
 30
0.0
 11
118.2147530164835
 21
588.044309400322
 31
0.0
  0
ARC
  5
E6
330
3B
100
AcDbEntity
  8
0
  6
________________
 62
     7
370
     9
100
AcDbCircle
 10
130.0852469835165
 20
588.044309400322
 30
0.0
 40
250.0
210
0.0
220
0.0
230
-1.0
100
AcDbArc
 50
174.721323896679
 51
180.0
  0
ARC
  5
E7
330
3B
100
AcDbEntity
  8
0
  6
________________
 62
     7
370
     9
100
AcDbCircle
 10
-91.22550687110576
 20
599.3550632549443
 30
0.0
 40
29.99999999999998
210
0.0
220
0.0
230
-1.0
100
AcDbArc
 50
112.9321967018482
 51
157.0678032981518
  0
ARC
  5
E8
330
3B
100
AcDbEntity
  8
0
  6
________________
 62
     7
370
     9
100
AcDbCircle
 10
91.22550687110576
 20
599.3550632549443
 30
0.0
 40
28.29999999999999
100
AcDbArc
 50
23.45999186155915
 51
66.5400081384408
  0
LINE
  5
E9
330
3B
100
AcDbEntity
  8
0
  6
________________
 62
     7
370
     9
100
AcDbLine
 10
114.2147530164835
 20
597.0910881241778
 30
0.0
 11
114.0862295289789
 21
597.044309400322
 31
0.0
  0
LINE
  5
EA
330
3B
100
AcDbEntity
  8
0
  6
________________
 62
     7
370
     9
100
AcDbLine
 10
114.0862295289789
 20
597.044309400322
 30
0.0
 11
112.2437429448206
 21
596.3736991266536
 31
0.0
  0
LINE
  5
EB
330
3B
100
AcDbEntity
  8
0
  6
________________
 62
     7
370
     9
100
AcDbLine
 10
110.8727328731578
 20
597.6837944828982
 30
0.0
 11
113.5437429448206
 21
598.6559626444086
 31
0.0
  0
ENDBLK
  5
EF
330
3B
100
AcDbEntity
  8
0
100
AcDbBlockEnd
  0
BLOCK
  5
FE
330
ED
100
AcDbEntity
  8
0
100
AcDbBlockBegin
  2
@1935
 70
     0
 10
0.0
 20
0.0
 30
0.0
  3
@1935
  1

  0
LINE
  5
F0
330
ED
100
AcDbEntity
  8
0
  6
________________
 62
     7
370
     9
100
AcDbLine
 10
2163.01357270465
 20
611.0443094003219
 30
0.0
 11
163.0135727046493
 21
611.0443094003219
 31
0.0
  0
LINE
  5
F1
330
ED
100
AcDbEntity
  8
0
  6
________________
 62
     7
370
     9
100
AcDbLine
 10
2163.01357270465
 20
611.044309400322
 30
0.0
 11
2163.01357270465
 21
588.0443094003225
 31
0.0
  0
LINE
  5
F2
330
ED
100
AcDbEntity
  8
0
  6
________________
 62
     7
370
     9
100
AcDbLine
 10
2163.01357270465
 20
588.044309400322
 30
0.0
 11
163.0135727046493
 21
588.044309400322
 31
0.0
  0
LINE
  5
F3
330
ED
100
AcDbEntity
  8
0
  6
________________
 62
     7
370
     9
100
AcDbLine
 10
163.0135727046496
 20
611.044309400322
 30
0.0
 11
163.0135727046496
 21
588.0443094003225
 31
0.0
  0
LINE
  5
F4
330
ED
100
AcDbEntity
  8
0
  6
________________
 62
     7
370
     9
100
AcDbLine
 10
2163.01357270465
 20
626.9840611476072
 30
0.0
 11
163.0135727046493
 21
626.9840611476072
 31
0.0
  0
LINE
  5
F5
330
ED
100
AcDbEntity
  8
0
  6
________________
 62
     7
370
     9
100
AcDbLine
 10
2163.01357270465
 20
626.9840611476072
 30
0.0
 11
2163.01357270465
 21
611.0443094003219
 31
0.0
  0
LINE
  5
F6
330
ED
100
AcDbEntity
  8
0
  6
________________
 62
     7
370
     9
100
AcDbLine
 10
163.0135727046496
 20
626.9840611476072
 30
0.0
 11
163.0135727046496
 21
611.0443094003219
 31
0.0
  0
LINE
  5
F7
330
ED
100
AcDbEntity
  8
0
  6
________________
 62
     7
370
     9
100
AcDbLine
 10
2163.01357270465
 20
628.044309400322
 30
0.0
 11
163.0135727046493
 21
628.044309400322
 31
0.0
  0
LINE
  5
F8
330
ED
100
AcDbEntity
  8
0
  6
________________
 62
     7
370
     9
100
AcDbLine
 10
2163.01357270465
 20
626.9840611476076
 30
0.0
 11
2163.01357270465
 21
628.0443094003224
 31
0.0
  0
LINE
  5
F9
330
ED
100
AcDbEntity
  8
0
  6
________________
 62
     7
370
     9
100
AcDbLine
 10
163.0135727046496
 20
626.9840611476076
 30
0.0
 11
163.0135727046496
 21
628.0443094003224
 31
0.0
  0
ENDBLK
  5
FF
330
ED
100
AcDbEntity
  8
0
100
AcDbBlockEnd
  0
ENDSEC
  0
SECTION
  2
ENTITIES
  0
INSERT
  5
EC
330
1F
100
AcDbEntity
  8
0
  6
________________
 62
     7
370
     9
100
AcDbBlockReference
  2
@1709
 10
0.0
 20
0.0
 30
0.0
  0
INSERT
  5
FA
330
1F
100
AcDbEntity
  8
0
  6
________________
 62
     7
370
     9
100
AcDbBlockReference
  2
@1935
 10
0.0
 20
0.0
 30
0.0
  0
LINE
  5
FB
330
1F
100
AcDbEntity
  8
0
  6
______....__....
 62
     1
420
 16711680
370
     9
100
AcDbLine
 10
79.91475301648346
 20
588.044309400322
 30
0.0
 11
117.4147530164834
 21
625.5443094003222
 31
0.0
  0
MTEXT
  5
FD
330
1F
100
AcDbEntity
  8
0
 62
     7
100
AcDbMText
 10
309.9147530164834
 20
564.3738548548674
 30
0.0
 40
3.0
 41
0.0
 46
0.0
 71
     1
 72
     1
  1
{\FＭＳ ゴシック;RMG-20}
 73
     1
 44
1.0
  0
ENDSEC
  0
SECTION
  2
OBJECTS
  0
DICTIONARY
  5
C
330
0
100
AcDbDictionary
281
     1
  3
ACAD_GROUP
350
D
  3
ACAD_LAYOUT
350
1A
  3
ACAD_MLEADERSTYLE
350
101
  3
ACAD_MLINESTYLE
350
17
  3
ACAD_PLOTSETTINGS
350
19
  3
ACAD_PLOTSTYLENAME
350
E
  3
ACAD_TABLESTYLE
350
100
  3
ACAD_VISUALSTYLE
350
2A
  0
DICTIONARY
  5
D
102
{ACAD_REACTORS
330
C
102
}
330
C
100
AcDbDictionary
281
     1
  0
DICTIONARY
  5
1A
102
{ACAD_REACTORS
330
C
102
}
330
C
100
AcDbDictionary
281
     1
  3
Layout1
350
1E
  3
Layout2
350
26
  3
Model
350
22
  0
DICTIONARY
  5
101
102
{ACAD_REACTORS
330
C
102
}
330
C
100
AcDbDictionary
281
     1
  0
DICTIONARY
  5
17
102
{ACAD_REACTORS
330
C
102
}
330
C
100
AcDbDictionary
281
     1
  3
Standard
350
18
  0
DICTIONARY
  5
19
102
{ACAD_REACTORS
330
C
102
}
330
C
100
AcDbDictionary
281
     1
  0
ACDBDICTIONARYWDFLT
  5
E
102
{ACAD_REACTORS
330
C
102
}
330
C
100
AcDbDictionary
281
     1
  3
Normal
350
F
100
AcDbDictionaryWithDefault
340
F
  0
DICTIONARY
  5
100
102
{ACAD_REACTORS
330
C
102
}
330
C
100
AcDbDictionary
281
     1
  0
DICTIONARY
  5
2A
102
{ACAD_REACTORS
330
C
102
}
330
C
100
AcDbDictionary
281
     1
  3
2dWireframe
350
2F
  3
3D Hidden
350
31
  3
3dWireframe
350
30
  3
Basic
350
32
  3
Brighten
350
36
  3
ColorChange
350
3A
  3
Conceptual
350
34
  3
Dim
350
35
  3
Facepattern
350
39
  3
Flat
350
2B
  3
FlatWithEdges
350
2C
  3
Gouraud
350
2D
  3
GouraudWithEdges
350
2E
  3
Linepattern
350
38
  3
Realistic
350
33
  3
Thicken
350
37
  0
LAYOUT
  5
1E
102
{ACAD_REACTORS
330
1A
102
}
330
1A
100
AcDbPlotSettings
  1

  2
none_device
  4

  6

 40
0.0
 41
0.0
 42
0.0
 43
0.0
 44
0.0
 45
0.0
 46
0.0
 47
0.0
 48
0.0
 49
0.0
140
0.0
141
0.0
142
1.0
143
1.0
 70
   688
 72
     0
 73
     0
 74
     5
  7

 75
    16
 76
     0
 77
     2
 78
   300
147
1.0
148
0.0
149
0.0
100
AcDbLayout
  1
Layout1
 70
     1
 71
     1
 10
0.0
 20
0.0
 11
12.0
 21
9.0
 12
0.0
 22
0.0
 32
0.0
 14
1.000000000000000E+20
 24
1.000000000000000E+20
 34
1.000000000000000E+20
 15
-1.000000000000000E+20
 25
-1.000000000000000E+20
 35
-1.000000000000000E+20
146
0.0
 13
0.0
 23
0.0
 33
0.0
 16
1.0
 26
0.0
 36
0.0
 17
0.0
 27
1.0
 37
0.0
 76
     0
330
1B
  0
LAYOUT
  5
26
102
{ACAD_REACTORS
330
1A
102
}
330
1A
100
AcDbPlotSettings
  1

  2
none_device
  4

  6

 40
0.0
 41
0.0
 42
0.0
 43
0.0
 44
0.0
 45
0.0
 46
0.0
 47
0.0
 48
0.0
 49
0.0
140
0.0
141
0.0
142
1.0
143
1.0
 70
   688
 72
     0
 73
     0
 74
     5
  7

 75
    16
 76
     0
 77
     2
 78
   300
147
1.0
148
0.0
149
0.0
100
AcDbLayout
  1
Layout2
 70
     1
 71
     2
 10
0.0
 20
0.0
 11
0.0
 21
0.0
 12
0.0
 22
0.0
 32
0.0
 14
0.0
 24
0.0
 34
0.0
 15
0.0
 25
0.0
 35
0.0
146
0.0
 13
0.0
 23
0.0
 33
0.0
 16
1.0
 26
0.0
 36
0.0
 17
0.0
 27
1.0
 37
0.0
 76
     0
330
23
  0
LAYOUT
  5
22
102
{ACAD_REACTORS
330
1A
102
}
330
1A
100
AcDbPlotSettings
  1

  2
none_device
  4

  6

 40
0.0
 41
0.0
 42
0.0
 43
0.0
 44
0.0
 45
0.0
 46
0.0
 47
0.0
 48
0.0
 49
0.0
140
0.0
141
0.0
142
1.0
143
1.0
 70
  1712
 72
     0
 73
     0
 74
     0
  7

 75
     0
 76
     0
 77
     2
 78
   300
147
1.0
148
0.0
149
0.0
100
AcDbLayout
  1
Model
 70
     1
 71
     0
 10
0.0
 20
0.0
 11
12.0
 21
9.0
 12
0.0
 22
0.0
 32
0.0
 14
79.91475301648343
 24
561.7147639457766
 34
0.0
 15
2163.01357270465
 25
628.0443094003224
 35
0.0
146
0.0
 13
0.0
 23
0.0
 33
0.0
 16
1.0
 26
0.0
 36
0.0
 17
0.0
 27
1.0
 37
0.0
 76
     0
330
1F
331
29
  0
MLINESTYLE
  5
18
102
{ACAD_REACTORS
330
17
102
}
330
17
100
AcDbMlineStyle
  2
Standard
 70
     0
  3

 62
   256
 51
90.0
 52
90.0
 71
     2
 49
0.5
 62
   256
  6
BYLAYER
 49
-0.5
 62
   256
  6
BYLAYER
  0
ACDBPLACEHOLDER
  5
F
102
{ACAD_REACTORS
330
E
102
}
330
E
  0
VISUALSTYLE
  5
2F
102
{ACAD_REACTORS
330
2A
102
}
330
2A
100
AcDbVisualStyle
  2
2dWireframe
 70
     4
 71
     0
 72
     2
 73
     0
 90
        0
 40
-0.6
 41
-30.0
 62
     5
 63
     7
421
 16777215
 74
     1
 91
        4
 64
     7
 65
   257
 75
     1
175
     1
 42
1.0
 92
        0
 66
   257
 43
1.0
 76
     1
 77
     6
 78
     2
 67
     7
 79
     5
170
     0
171
     0
290
     0
174
     0
 93
        1
 44
0.0
173
     0
291
     0
 45
0.0
  0
VISUALSTYLE
  5
31
102
{ACAD_REACTORS
330
2A
102
}
330
2A
100
AcDbVisualStyle
  2
3D Hidden
 70
     6
 71
     1
 72
     2
 73
     2
 90
        0
 40
-0.6
 41
-30.0
 62
     5
 63
     7
421
 16777215
 74
     2
 91
        2
 64
     7
 65
   257
 75
     2
175
     1
 42
40.0
 92
        0
 66
   257
 43
1.0
 76
     1
 77
     6
 78
     2
 67
     7
 79
     3
170
     0
171
     0
290
     0
174
     0
 93
        1
 44
0.0
173
     0
291
     0
 45
0.0
  0
VISUALSTYLE
  5
30
102
{ACAD_REACTORS
330
2A
102
}
330
2A
100
AcDbVisualStyle
  2
3dWireframe
 70
     5
 71
     0
 72
     2
 73
     0
 90
        0
 40
-0.6
 41
-30.0
 62
     5
 63
     7
421
 16777215
 74
     1
 91
        4
 64
     7
 65
   257
 75
     1
175
     1
 42
1.0
 92
        0
 66
   257
 43
1.0
 76
     1
 77
     6
 78
     2
 67
     7
 79
     5
170
     0
171
     0
290
     0
174
     0
 93
        1
 44
0.0
173
     0
291
     0
 45
0.0
  0
VISUALSTYLE
  5
32
102
{ACAD_REACTORS
330
2A
102
}
330
2A
100
AcDbVisualStyle
  2
Basic
 70
     7
 71
     1
 72
     0
 73
     1
 90
        0
 40
-0.6
 41
-30.0
 62
     5
 63
     7
421
 16777215
 74
     0
 91
        4
 64
     7
 65
   257
 75
     1
175
     1
 42
1.0
 92
        8
 66
     7
 43
1.0
 76
     1
 77
     6
 78
     2
 67
     7
 79
     5
170
     0
171
     0
290
     0
174
     0
 93
        1
 44
0.0
173
     0
291
     1
 45
0.0
  0
VISUALSTYLE
  5
36
102
{ACAD_REACTORS
330
2A
102
}
330
2A
100
AcDbVisualStyle
  2
Brighten
 70
    12
 71
     2
 72
     2
 73
     0
 90
        0
 40
-0.6
 41
-30.0
 62
     5
 63
     7
421
 16777215
 74
     1
 91
        4
 64
     7
 65
   257
 75
     1
175
     1
 42
1.0
 92
        8
 66
     7
 43
1.0
 76
     1
 77
     6
 78
     2
 67
     7
 79
     5
170
     0
171
     0
290
     0
174
     0
 93
        1
 44
50.0
173
     0
291
     1
 45
0.0
  0
VISUALSTYLE
  5
3A
102
{ACAD_REACTORS
330
2A
102
}
330
2A
100
AcDbVisualStyle
  2
ColorChange
 70
    16
 71
     2
 72
     2
 73
     3
 90
        0
 40
-0.6
 41
-30.0
 62
     5
 63
     8
421
  8421504
 74
     1
 91
        4
 64
     7
 65
   257
 75
     1
175
     1
 42
1.0
 92
        8
 66
     8
424
  8421504
 43
1.0
 76
     1
 77
     6
 78
     2
 67
     7
 79
     5
170
     0
171
     0
290
     0
174
     0
 93
        1
 44
0.0
173
     0
291
     1
 45
0.0
  0
VISUALSTYLE
  5
34
102
{ACAD_REACTORS
330
2A
102
}
330
2A
100
AcDbVisualStyle
  2
Conceptual
 70
     9
 71
     3
 72
     2
 73
     0
 90
        0
 40
-0.6
 41
-30.0
 62
     5
 63
     7
421
 16777215
 74
     2
 91
        2
 64
     7
 65
   257
 75
     1
175
     1
 42
40.0
 92
        8
 66
     7
 43
1.0
 76
     1
 77
     6
 78
     2
 67
     7
 79
     3
170
     0
171
     0
290
     0
174
     0
 93
        1
 44
0.0
173
     0
291
     0
 45
0.0
  0
VISUALSTYLE
  5
35
102
{ACAD_REACTORS
330
2A
102
}
330
2A
100
AcDbVisualStyle
  2
Dim
 70
    11
 71
     2
 72
     2
 73
     0
 90
        0
 40
-0.6
 41
-30.0
 62
     5
 63
     7
421
 16777215
 74
     1
 91
        4
 64
     7
 65
   257
 75
     1
175
     1
 42
1.0
 92
        8
 66
     7
 43
1.0
 76
     1
 77
     6
 78
     2
 67
     7
 79
     5
170
     0
171
     0
290
     0
174
     0
 93
        1
 44
-50.0
173
     0
291
     1
 45
0.0
  0
VISUALSTYLE
  5
39
102
{ACAD_REACTORS
330
2A
102
}
330
2A
100
AcDbVisualStyle
  2
Facepattern
 70
    15
 71
     2
 72
     2
 73
     0
 90
        0
 40
-0.6
 41
-30.0
 62
     5
 63
     7
421
 16777215
 74
     1
 91
        4
 64
     7
 65
   257
 75
     1
175
     1
 42
1.0
 92
        8
 66
     7
 43
1.0
 76
     1
 77
     6
 78
     2
 67
     7
 79
     5
170
     0
171
     0
290
     0
174
     0
 93
        1
 44
0.0
173
     0
291
     1
 45
0.0
  0
VISUALSTYLE
  5
2B
102
{ACAD_REACTORS
330
2A
102
}
330
2A
100
AcDbVisualStyle
  2
Flat
 70
     0
 71
     2
 72
     1
 73
     1
 90
        2
 40
-0.6
 41
30.0
 62
     5
 63
     7
421
 16777215
 74
     0
 91
        4
 64
     7
 65
   257
 75
     1
175
     1
 42
1.0
 92
        8
 66
     7
 43
1.0
 76
     1
 77
     6
 78
     2
 67
     7
 79
     5
170
     0
171
     0
290
     0
174
     0
 93
       13
 44
0.0
173
     0
291
     1
 45
0.0
  0
VISUALSTYLE
  5
2C
102
{ACAD_REACTORS
330
2A
102
}
330
2A
100
AcDbVisualStyle
  2
FlatWithEdges
 70
     1
 71
     2
 72
     1
 73
     1
 90
        2
 40
-0.6
 41
30.0
 62
     5
 63
     7
421
 16777215
 74
     1
 91
        4
 64
     7
 65
   257
 75
     1
175
     1
 42
1.0
 92
        0
 66
   257
 43
1.0
 76
     1
 77
     6
 78
     2
 67
     7
 79
     5
170
     0
171
     0
290
     0
174
     0
 93
       13
 44
0.0
173
     0
291
     1
 45
0.0
  0
VISUALSTYLE
  5
2D
102
{ACAD_REACTORS
330
2A
102
}
330
2A
100
AcDbVisualStyle
  2
Gouraud
 70
     2
 71
     2
 72
     2
 73
     1
 90
        2
 40
-0.6
 41
30.0
 62
     5
 63
     7
421
 16777215
 74
     0
 91
        4
 64
     7
 65
   257
 75
     1
175
     1
 42
1.0
 92
        0
 66
     7
 43
1.0
 76
     1
 77
     6
 78
     2
 67
     7
 79
     5
170
     0
171
     0
290
     0
174
     0
 93
       13
 44
0.0
173
     0
291
     1
 45
0.0
  0
VISUALSTYLE
  5
2E
102
{ACAD_REACTORS
330
2A
102
}
330
2A
100
AcDbVisualStyle
  2
GouraudWithEdges
 70
     3
 71
     2
 72
     2
 73
     1
 90
        2
 40
-0.6
 41
30.0
 62
     5
 63
     7
421
 16777215
 74
     1
 91
        4
 64
     7
 65
   257
 75
     1
175
     1
 42
1.0
 92
        0
 66
   257
 43
1.0
 76
     1
 77
     6
 78
     2
 67
     7
 79
     5
170
     0
171
     0
290
     0
174
     0
 93
       13
 44
0.0
173
     0
291
     1
 45
0.0
  0
VISUALSTYLE
  5
38
102
{ACAD_REACTORS
330
2A
102
}
330
2A
100
AcDbVisualStyle
  2
Linepattern
 70
    14
 71
     2
 72
     2
 73
     0
 90
        0
 40
-0.6
 41
-30.0
 62
     5
 63
     7
421
 16777215
 74
     1
 91
        4
 64
     7
 65
   257
 75
     7
175
     7
 42
1.0
 92
        8
 66
     7
 43
1.0
 76
     1
 77
     6
 78
     2
 67
     7
 79
     5
170
     0
171
     0
290
     0
174
     0
 93
        1
 44
0.0
173
     0
291
     1
 45
0.0
  0
VISUALSTYLE
  5
33
102
{ACAD_REACTORS
330
2A
102
}
330
2A
100
AcDbVisualStyle
  2
Realistic
 70
     8
 71
     2
 72
     2
 73
     0
 90
        0
 40
-0.6
 41
-30.0
 62
     5
 63
     7
421
 16777215
 74
     1
 91
        0
 64
     7
 65
   257
 75
     1
175
     1
 42
1.0
 92
        8
 66
     8
424
  7895160
 43
1.0
 76
     1
 77
     6
 78
     2
 67
     7
 79
     5
170
     0
171
     0
290
     0
174
     0
 93
       13
 44
0.0
173
     0
291
     0
 45
0.0
  0
VISUALSTYLE
  5
37
102
{ACAD_REACTORS
330
2A
102
}
330
2A
100
AcDbVisualStyle
  2
Thicken
 70
    13
 71
     2
 72
     2
 73
     0
 90
        0
 40
-0.6
 41
-30.0
 62
     5
 63
     7
421
 16777215
 74
     1
 91
        4
 64
     7
 65
   257
 75
     1
175
     1
 42
1.0
 92
       12
 66
     7
 43
1.0
 76
     1
 77
     6
 78
     2
 67
     7
 79
     5
170
     0
171
     0
290
     0
174
     0
 93
        1
 44
0.0
173
     0
291
     1
 45
0.0
  0
ENDSEC
  0
EOF
