  0
SECTION
  2
HEADER
  9
$ACADVER
  1
AC1006
  9
$DWGCODEPAGE
  3
ansi_932
  9
$INSBASE
 10
0.0
 20
0.0
 30
0.0
  9
$EXTMIN
 10
435.9776060606061
 20
117.2974475233858
  9
$EXTMAX
 10
531.8692191433006
 20
298.5358858099475
  9
$LIMMIN
 10
0.0
 20
0.0
  9
$LIMMAX
 10
12.0
 20
9.0
  9
$ORTHOMODE
 70
     0
  9
$REGENMODE
 70
     1
  9
$FILLMODE
 70
     1
  9
$QTEXTMODE
 70
     0
  9
$MIRRTEXT
 70
     1
  9
$DRAGMODE
 70
     2
  9
$LTSCALE
 40
1.0
  9
$OSMODE
 70
    37
  9
$ATTMODE
 70
     1
  9
$TEXTSIZE
 40
0.2
  9
$TRACEWID
 40
0.05
  9
$TEXTSTYLE
  7
STANDARD
  9
$CLAYER
  8
0
  9
$CELTYPE
  6
BYLAYER
  9
$CECOLOR
 62
   256
  9
$DIMSCALE
 40
1.0
  9
$DIMASZ
 40
3.0
  9
$DIMEXO
 40
0.0625
  9
$DIMDLI
 40
0.38
  9
$DIMRND
 40
0.0
  9
$DIMDLE
 40
0.0
  9
$DIMEXE
 40
1.5
  9
$DIMTP
 40
0.0
  9
$DIMTM
 40
0.0
  9
$DIMTXT
 40
3.0
  9
$DIMCEN
 40
0.09
  9
$DIMTSZ
 40
0.0
  9
$DIMTOL
 70
     0
  9
$DIMLIM
 70
     0
  9
$DIMTIH
 70
     1
  9
$DIMTOH
 70
     1
  9
$DIMSE1
 70
     0
  9
$DIMSE2
 70
     0
  9
$DIMTAD
 70
     1
  9
$DIMZIN
 70
     0
  9
$DIMBLK
  1

  9
$DIMASO
 70
     1
  9
$DIMSHO
 70
     1
  9
$DIMPOST
  1

  9
$DIMAPOST
  1

  9
$DIMALT
 70
     0
  9
$DIMALTD
 70
     2
  9
$DIMALTF
 40
25.4
  9
$DIMLFAC
 40
1.0
  9
$DIMTOFL
 70
     0
  9
$DIMTVP
 40
0.0
  9
$DIMTIX
 70
     0
  9
$DIMSOXD
 70
     0
  9
$DIMSAH
 70
     0
  9
$DIMBLK1
  1

  9
$DIMBLK2
  1

  9
$LUNITS
 70
     2
  9
$LUPREC
 70
     4
  9
$SKETCHINC
 40
0.1
  9
$FILLETRAD
 40
0.5
  9
$AUNITS
 70
     0
  9
$AUPREC
 70
     0
  9
$MENU
  1
.
  9
$ELEVATION
 40
0.0
  9
$THICKNESS
 40
0.0
  9
$LIMCHECK
 70
     0
  9
$CHAMFERA
 40
0.0
  9
$CHAMFERB
 40
0.0
  9
$SKPOLY
 70
     0
  9
$TDCREATE
 40
2460423.547502685
  9
$TDUPDATE
 40
2460423.547502893
  9
$TDINDWG
 40
0.0000000116
  9
$TDUSRTIMER
 40
0.0000000116
  9
$USRTIMER
 70
     1
  9
$ANGBASE
 50
0.0
  9
$ANGDIR
 70
     0
  9
$PDMODE
 70
     0
  9
$PDSIZE
 40
0.0
  9
$PLINEWID
 40
0.0
  9
$COORDS
 70
     1
  9
$SPLFRAME
 70
     0
  9
$SPLINETYPE
 70
     6
  9
$SPLINESEGS
 70
     8
  9
$ATTDIA
 70
     0
  9
$ATTREQ
 70
     1
  9
$HANDLING
 70
     1
  9
$HANDSEED
  5
D0
  9
$SURFTAB1
 70
     6
  9
$SURFTAB2
 70
     6
  9
$SURFTYPE
 70
     6
  9
$SURFU
 70
     6
  9
$SURFV
 70
     6
  9
$UCSNAME
  2

  9
$UCSORG
 10
0.0
 20
0.0
 30
0.0
  9
$UCSXDIR
 10
1.0
 20
0.0
 30
0.0
  9
$UCSYDIR
 10
0.0
 20
1.0
 30
0.0
  9
$USERI1
 70
     0
  9
$USERI2
 70
     0
  9
$USERI3
 70
     0
  9
$USERI4
 70
     0
  9
$USERI5
 70
     0
  9
$USERR1
 40
0.0
  9
$USERR2
 40
0.0
  9
$USERR3
 40
0.0
  9
$USERR4
 40
0.0
  9
$USERR5
 40
0.0
  9
$WORLDVIEW
 70
     1
  0
ENDSEC
  0
SECTION
  2
TABLES
  0
TABLE
  2
VPORT
 70
     1
  0
VPORT
  2
*ACTIVE
 70
     0
 10
0.0
 20
0.0
 11
1.0
 21
1.0
 12
483.9234126019534
 22
207.9166666666667
 13
0.0
 23
0.0
 14
0.5
 24
0.5
 15
0.5
 25
0.5
 16
0.0
 26
0.0
 36
1.0
 17
0.0
 27
0.0
 37
0.0
 40
181.2384382865617
 41
1.6
 42
50.0
 43
0.0
 44
0.0
 50
0.0
 51
0.0
 71
     0
 72
   100
 73
     1
 74
     3
 75
     0
 76
     0
 77
     0
 78
     0
  0
ENDTAB
  0
TABLE
  2
LTYPE
 70
     2
  0
LTYPE
  2
CONTINUOUS
 70
     0
  3
Solid line
 72
    65
 73
     0
 40
0.0
  0
LTYPE
  2
________________
 70
     0
  3

 72
    65
 73
     4
 40
6.0
 49
2.25
 49
-1.5
 49
0.7499999999999999
 49
-1.5
  0
ENDTAB
  0
TABLE
  2
LAYER
 70
     2
  0
LAYER
  2
0
 70
     0
 62
     7
  6
CONTINUOUS
  0
LAYER
  2
1
 70
     0
 62
     7
  6
CONTINUOUS
  0
ENDTAB
  0
TABLE
  2
STYLE
 70
     2
  0
STYLE
  2
STANDARD
 70
     0
 40
0.0
 41
1.0
 50
0.0
 71
     0
 42
0.2
  3
txt
  4

  0
STYLE
  2
ＭＳ_ゴシック
 70
     0
 40
0.0
 41
1.0
 50
0.0
 71
     0
 42
0.2
  3
ＭＳ ゴシック.shx
  4

  0
ENDTAB
  0
TABLE
  2
VIEW
 70
     0
  0
ENDTAB
  0
TABLE
  2
UCS
 70
     0
  0
ENDTAB
  0
ENDSEC
  0
SECTION
  2
BLOCKS
  0
ENDSEC
  0
SECTION
  2
ENTITIES
  0
ARC
  5
70
  8
1
  6
CONTINUOUS
 62
     7
 10
510.3822929589588
 20
215.3474278271763
 30
0.0
 40
1.499999474115191
 50
0.4999800872058998
 51
90.00000715744218
  0
LINE
  5
71
  8
1
  6
CONTINUOUS
 62
     7
 10
509.8692155856147
 20
199.8474273012911
 30
0.0
 11
509.8692595874699
 21
216.847427301288
 31
0.0
  0
LINE
  5
72
  8
1
  6
CONTINUOUS
 62
     7
 10
510.3822927715773
 20
216.8474273012914
 30
0.0
 11
509.8692595874699
 21
216.8474273012914
 31
0.0
  0
LINE
  5
73
  8
1
  6
CONTINUOUS
 62
     7
 10
511.9741886301446
 20
204.8212476947963
 30
0.0
 11
511.8822353222393
 21
215.360517104539
 31
0.0
  0
ARC
  5
74
  8
1
  6
CONTINUOUS
 62
     7
 10
514.9740631407016
 20
204.8474159439962
 30
0.0
 40
2.99998864270477
 50
180.4997849754996
 51
269.9999908930832
  0
LINE
  5
75
  8
1
  6
CONTINUOUS
 62
     7
 10
529.8692278666241
 20
201.8474273012914
 30
0.0
 11
514.9740626638663
 21
201.8474273012914
 31
0.0
  0
ARC
  5
76
  8
1
  6
CONTINUOUS
 62
     7
 10
529.8692280652007
 20
199.8474362231914
 30
0.0
 40
1.999991078100033
 50
359.999744405253
 51
90.00000568882275
  0
LINE
  5
77
  8
1
  6
CONTINUOUS
 62
     7
 10
531.8692191432808
 20
199.8474273012914
 30
0.0
 11
509.8692155856146
 21
199.8474273012914
 31
0.0
  0
LINE
  5
78
  8
1
  6
CONTINUOUS
 62
     7
 10
508.8071591984439
 20
199.8474273012914
 30
0.0
 11
509.8692155856146
 21
199.8474273012914
 31
0.0
  0
LINE
  5
79
  8
1
  6
CONTINUOUS
 62
     7
 10
508.8071591984436
 20
216.8474273012914
 30
0.0
 11
509.8692595874696
 21
216.8474273012914
 31
0.0
  0
LINE
  5
7A
  8
1
  6
CONTINUOUS
 62
     7
 10
506.5123586497816
 20
209.3474273012914
 30
0.0
 11
506.7034410456524
 21
199.8474273012914
 31
0.0
  0
LINE
  5
7B
  8
1
  6
CONTINUOUS
 62
     7
 10
506.7034410456523
 20
199.8474273012914
 30
0.0
 11
505.4826770887192
 21
199.8474273012914
 31
0.0
  0
LINE
  5
7C
  8
1
  6
CONTINUOUS
 62
     7
 10
491.0247370097989
 20
199.8474273013105
 30
0.0
 11
491.5512842947034
 21
209.3474273013084
 31
0.0
  0
LINE
  5
7D
  8
1
  6
CONTINUOUS
 62
     7
 10
491.0247370097985
 20
199.8474273012914
 30
0.0
 11
505.4826770887192
 21
199.8474273012914
 31
0.0
  0
LINE
  5
7E
  8
1
  6
CONTINUOUS
 62
     7
 10
506.5123586497815
 20
209.8474273012914
 30
0.0
 11
505.5322625560542
 21
209.8474273012914
 31
0.0
  0
LINE
  5
7F
  8
1
  6
CONTINUOUS
 62
     7
 10
506.5123586497815
 20
209.3474273012914
 30
0.0
 11
506.5123586497815
 21
209.8474273012914
 31
0.0
  0
LINE
  5
80
  8
1
  6
CONTINUOUS
 62
     7
 10
491.551284294703
 20
209.3474273012914
 30
0.0
 11
491.551284294703
 21
209.8474273012914
 31
0.0
  0
LINE
  5
81
  8
1
  6
CONTINUOUS
 62
     7
 10
491.551284294703
 20
209.8474273012914
 30
0.0
 11
505.5322625560542
 21
209.8474273012914
 31
0.0
  0
LINE
  5
82
  8
1
  6
CONTINUOUS
 62
     7
 10
508.8071591984439
 20
199.8474273012914
 30
0.0
 11
506.7034410456523
 21
199.8474273012914
 31
0.0
  0
LINE
  5
83
  8
1
  6
CONTINUOUS
 62
     7
 10
508.8071591984439
 20
216.8474273012914
 30
0.0
 11
492.7939106674403
 21
216.8474273012914
 31
0.0
  0
LINE
  5
84
  8
1
  6
CONTINUOUS
 62
     7
 10
469.7692595874698
 20
216.8474273012874
 30
0.0
 11
469.9176163399127
 21
199.8474273012904
 31
0.0
  0
LINE
  5
85
  8
1
  6
CONTINUOUS
 62
     7
 10
491.0247370097976
 20
199.8474273012914
 30
0.0
 11
469.9176163399127
 21
199.8474273012914
 31
0.0
  0
LINE
  5
86
  8
1
  6
CONTINUOUS
 62
     7
 10
492.7939106674401
 20
216.8474273012914
 30
0.0
 11
469.7692595874698
 21
216.8474273012914
 31
0.0
  0
ARC
  5
87
  8
1
  6
CONTINUOUS
 62
     7
 10
259.7692595874698
 20
179.3974070791969
 30
0.0
 40
272.1000000000001
 50
354.084738377627
 51
359.9687606901932
  0
LINE
  5
88
  8
1
  6
CONTINUOUS
 62
     7
 10
531.8692191432808
 20
179.249050326754
 30
0.0
 11
529.8692278666241
 21
179.2665040623355
 31
0.0
  0
LINE
  5
89
  8
1
  6
CONTINUOUS
 62
     7
 10
531.8692191432808
 20
179.249050326754
 30
0.0
 11
509.8692155856146
 21
179.249050326754
 31
0.0
  0
LINE
  5
8A
  8
1
  6
CONTINUOUS
 62
     7
 10
469.9176163399127
 20
117.2974475233859
 30
0.0
 11
469.9176163399127
 21
139.2974510810521
 31
0.0
  0
ARC
  5
8B
  8
1
  6
CONTINUOUS
 62
     7
 10
469.7692595874698
 20
389.3974070791969
 30
0.0
 40
272.1
 50
270.0312393098067
 51
275.915261622373
  0
ARC
  5
8C
  8
1
  6
CONTINUOUS
 62
     7
 10
481.0800134420921
 20
168.0866532245746
 30
0.0
 40
52.09999999999997
 50
288.7316426893969
 51
341.2683573106031
  0
CIRCLE
  5
8D
  8
1
  6
CONTINUOUS
 62
     7
 10
479.7692595874698
 20
127.4882434365324
 30
0.0
 40
2.000000000000002
  0
LINE
  5
8E
  8
1
  6
CONTINUOUS
 62
     7
 10
506.7034410456523
 20
157.8299501556005
 30
0.0
 11
505.4826770887192
 21
158.1419296568682
 31
0.0
  0
ARC
  5
8F
  8
1
  6
CONTINUOUS
 62
     7
 10
481.0800134420921
 20
168.0866532245746
 30
0.0
 40
27.59999999999992
 50
331.2455849521324
 51
338.1844583503114
  0
ARC
  5
90
  8
1
  6
CONTINUOUS
 62
     7
 10
504.9823145865425
 20
154.2866532245746
 30
0.0
 40
0.6000000000000337
 50
239.3772075239343
 51
60.62279247606556
  0
ARC
  5
91
  8
1
  6
CONTINUOUS
 62
     7
 10
481.0800134420921
 20
168.0866532245746
 30
0.0
 40
27.59999999999992
 50
319.8323205669055
 51
328.7544150478676
  0
LINE
  5
92
  8
1
  6
CONTINUOUS
 62
     7
 10
502.1708297173395
 20
150.2839155462354
 30
0.0
 11
503.9443763663804
 21
148.5103688971945
 31
0.0
  0
ARC
  5
93
  8
1
  6
CONTINUOUS
 62
     7
 10
481.0800134420921
 20
168.0866532245746
 30
0.0
 40
30.1
 50
319.4301267148712
 51
337.0973832704117
  0
ARC
  5
94
  8
1
  6
CONTINUOUS
 62
     7
 10
259.7692595874698
 20
179.3974070791969
 30
0.0
 40
250.1
 50
354.7177690998624
 51
359.9660127298051
  0
ARC
  5
95
  8
1
  6
CONTINUOUS
 62
     7
 10
469.7692595874698
 20
389.3974070791969
 30
0.0
 40
250.1
 50
270.0339872701949
 51
275.2822309001376
  0
ARC
  5
96
  8
1
  6
CONTINUOUS
 62
     7
 10
481.0800134420921
 20
168.0866532245746
 30
0.0
 40
30.09999999999996
 50
292.9026167295883
 51
310.5698732851288
  0
LINE
  5
97
  8
1
  6
CONTINUOUS
 62
     7
 10
498.8827511204313
 20
146.9958369493272
 30
0.0
 11
500.6562977694722
 21
145.2222903002863
 31
0.0
  0
ARC
  5
98
  8
1
  6
CONTINUOUS
 62
     7
 10
481.0800134420921
 20
168.0866532245746
 30
0.0
 40
27.59999999999996
 50
301.2455849521324
 51
310.1676794330943
  0
ARC
  5
99
  8
1
  6
CONTINUOUS
 62
     7
 10
494.8800134420921
 20
144.1843520801241
 30
0.0
 40
0.6000000000000065
 50
209.3772075239345
 51
30.6227924760658
  0
ARC
  5
9A
  8
1
  6
CONTINUOUS
 62
     7
 10
481.0800134420921
 20
168.0866532245746
 30
0.0
 40
27.59999999999996
 50
291.8155416496886
 51
298.7544150478677
  0
LINE
  5
9B
  8
1
  6
CONTINUOUS
 62
     7
 10
491.3367165110662
 20
142.4632256210143
 30
0.0
 11
491.0247370097985
 21
143.6839895779475
 31
0.0
  0
ARC
  5
9C
  8
1
  6
CONTINUOUS
 62
     7
 10
481.0800134420921
 20
168.0866532245746
 30
0.0
 40
26.35123374509265
 50
292.1721805424816
 51
337.8278194575185
  0
CIRCLE
  5
9D
  8
1
  6
CONTINUOUS
 62
     7
 10
521.6784232301343
 20
169.3974070791969
 30
0.0
 40
2.000000000000002
  0
CIRCLE
  5
9E
  8
1
  6
CONTINUOUS
 62
     7
 10
510.8492089300456
 20
138.3174577366211
 30
0.0
 40
2.000000000000002
  0
LINE
  5
9F
  8
1
  6
CONTINUOUS
 62
     7
 10
511.8822353222393
 20
236.4489023228402
 30
0.0
 11
510.3822927715773
 21
236.4359262541364
 31
0.0
  0
LINE
  5
A0
  8
1
  6
CONTINUOUS
 62
     7
 10
469.7822356561736
 20
278.5489019889059
 30
0.0
 11
469.7692595874698
 21
277.0489594382439
 31
0.0
  0
ARC
  5
A1
  8
1
  6
CONTINUOUS
 62
     7
 10
259.7692595874698
 20
236.4359262541365
 30
0.0
 40
250.1000000000001
 50
0.0
 51
5.282230900137677
  0
ARC
  5
A2
  8
1
  6
CONTINUOUS
 62
     7
 10
481.0800134420921
 20
247.7466801087587
 30
0.0
 40
30.09999999999999
 50
22.9026167295882
 51
67.09738327041168
  0
ARC
  5
A3
  8
1
  6
CONTINUOUS
 62
     7
 10
469.7692595874698
 20
26.43592625413646
 30
0.0
 40
250.1
 50
84.71776909986231
 51
90.0
  0
LINE
  5
A4
  8
1
  6
CONTINUOUS
 62
     7
 10
510.3822927715773
 20
236.4359262541365
 30
0.0
 11
509.8692595874699
 21
236.4359262541364
 31
0.0
  0
LINE
  5
A5
  8
1
  6
CONTINUOUS
 62
     7
 10
469.7692595874698
 20
277.0489594382439
 30
0.0
 11
469.7692595874698
 21
276.5359262541365
 31
0.0
  0
LINE
  5
A6
  8
1
  6
CONTINUOUS
 62
     7
 10
511.9741886301446
 20
236.5408771335902
 30
0.0
 11
511.8822353222393
 21
236.4489023228402
 31
0.0
  0
LINE
  5
A7
  8
1
  6
CONTINUOUS
 62
     7
 10
469.8742104669236
 20
278.6408552968113
 30
0.0
 11
469.7822356561736
 21
278.5489019889059
 31
0.0
  0
ARC
  5
A8
  8
1
  6
CONTINUOUS
 62
     7
 10
504.9823145865425
 20
261.5466801087587
 30
0.0
 40
0.2000000000000116
 50
299.7924061417704
 51
120.2075938582284
  0
ARC
  5
A9
  8
1
  6
CONTINUOUS
 62
     7
 10
481.0800134420921
 20
247.7466801087587
 30
0.0
 40
27.59999999999996
 50
60.41518771646494
 51
67.1407289004338
  0
ARC
  5
AA
  8
1
  6
CONTINUOUS
 62
     7
 10
494.8800134420921
 20
271.6489812532092
 30
0.0
 40
0.2000000000000322
 50
329.7924061417716
 51
150.2075938582297
  0
ARC
  5
AB
  8
1
  6
CONTINUOUS
 62
     7
 10
481.0800134420921
 20
247.7466801087587
 30
0.0
 40
27.59999999999998
 50
22.85927109956618
 51
29.58481228353509
  0
ARC
  5
AC
  8
1
  6
CONTINUOUS
 62
     7
 10
481.0800134420921
 20
247.7466801087587
 30
0.0
 40
27.59999999999994
 50
30.41518771646486
 51
59.58481228353514
  0
LINE
  5
AD
  8
1
  6
CONTINUOUS
 62
     7
 10
491.3367165110662
 20
273.370107712319
 30
0.0
 11
491.0247370097985
 21
272.1493437553859
 31
0.0
  0
ARC
  5
AE
  8
1
  6
CONTINUOUS
 62
     7
 10
481.0800134420921
 20
247.7466801087587
 30
0.0
 40
27.59999999999997
 50
67.14072890043386
 51
68.18445835031144
  0
ARC
  5
AF
  8
1
  6
CONTINUOUS
 62
     7
 10
481.0800134420921
 20
247.7466801087587
 30
0.0
 40
26.35123374509265
 50
22.17218054248143
 51
67.82781945751854
  0
LINE
  5
B0
  8
1
  6
CONTINUOUS
 62
     7
 10
506.7034410456523
 20
258.0033831777329
 30
0.0
 11
505.4826770887192
 21
257.6914036764651
 31
0.0
  0
ARC
  5
B1
  8
1
  6
CONTINUOUS
 62
     7
 10
481.0800134420921
 20
247.7466801087587
 30
0.0
 40
27.59999999999997
 50
21.81554164968861
 51
22.85927109956618
  0
LINE
  5
B2
  8
1
  6
CONTINUOUS
 62
     7
 10
514.9740626638663
 20
236.5668292709978
 30
0.0
 11
511.9741886301443
 21
236.5408771335902
 31
0.0
  0
LINE
  5
B3
  8
1
  6
CONTINUOUS
 62
     7
 10
469.9001626043312
 20
281.640729330533
 30
0.0
 11
469.8742104669236
 21
278.6408552968109
 31
0.0
  0
ARC
  5
B4
  8
1
  6
CONTINUOUS
 62
     7
 10
469.7692595874698
 20
26.43592625413646
 30
0.0
 40
272.1
 50
84.08473837762705
 51
89.96876069019338
  0
LINE
  5
B5
  8
1
  6
CONTINUOUS
 62
     7
 10
469.9176163399127
 20
298.5358858099475
 30
0.0
 11
469.9001626043312
 21
296.5358945332908
 31
0.0
  0
ARC
  5
B6
  8
1
  6
CONTINUOUS
 62
     7
 10
259.7692595874698
 20
236.4359262541364
 30
0.0
 40
272.1000000000001
 50
0.031239309806665
 51
5.915261622373008
  0
LINE
  5
B7
  8
1
  6
CONTINUOUS
 62
     7
 10
531.8692191432808
 20
236.5842830065793
 30
0.0
 11
529.8692278666241
 21
236.5668292709978
 31
0.0
  0
ARC
  5
B8
  8
1
  6
CONTINUOUS
 62
     7
 10
481.0800134420921
 20
247.7466801087587
 30
0.0
 40
52.09999999999997
 50
18.73164268939689
 51
71.26835731060311
  0
LINE
  5
B9
  8
1
  6
CONTINUOUS
 62
     7
 10
529.8692278666241
 20
236.5668292709978
 30
0.0
 11
514.9740626638663
 21
236.5668292709978
 31
0.0
  0
LINE
  5
BA
  8
1
  6
CONTINUOUS
 62
     7
 10
469.9001626043312
 20
296.5358945332908
 30
0.0
 11
469.9001626043312
 21
281.640729330533
 31
0.0
  0
LINE
  5
BB
  8
1
  6
CONTINUOUS
 62
     7
 10
503.9785862692372
 20
267.2829377462883
 30
0.0
 11
503.3485120893175
 21
266.4796448500514
 31
0.0
  0
LINE
  5
BC
  8
1
  6
CONTINUOUS
 62
     7
 10
500.6162710796216
 20
270.6452529359038
 30
0.0
 11
499.8129781833848
 21
270.0151787559842
 31
0.0
  0
LINE
  5
BD
  8
1
  6
CONTINUOUS
 62
     7
 10
503.3485120893175
 20
266.4796448500514
 30
0.0
 11
502.2837007488775
 21
265.4148335096115
 31
0.0
  0
LINE
  5
BE
  8
1
  6
CONTINUOUS
 62
     7
 10
499.8129781833848
 20
270.0151787559842
 30
0.0
 11
498.7481668429448
 21
268.9503674155442
 31
0.0
  0
TEXT
  5
BF
  8
1
  6
CONTINUOUS
 62
     7
 10
435.8357747488642
 20
217.7049351840274
 30
0.0
 40
3.0
  1
RMGC-20
  0
LINE
  5
C0
  8
1
  6
________________
 62
     1
 10
506.8492089300456
 20
138.3174577366211
 30
0.0
 11
514.8492089300456
 21
138.3174577366211
 31
0.0
  0
LINE
  5
C2
  8
1
  6
________________
 62
     1
 10
510.8492089300456
 20
134.3174577366211
 30
0.0
 11
510.8492089300456
 21
142.3174577366211
 31
0.0
  0
LINE
  5
C3
  8
1
  6
________________
 62
     1
 10
520.8333333333334
 20
128.3333333333334
 30
0.0
 11
495.8333333333333
 21
153.3333333333333
 31
0.0
  0
LINE
  5
C4
  8
1
  6
________________
 62
     1
 10
521.6784232301343
 20
165.3974070791969
 30
0.0
 11
521.6784232301343
 21
173.3974070791969
 31
0.0
  0
LINE
  5
C5
  8
1
  6
________________
 62
     1
 10
479.7692595874698
 20
123.4882434365324
 30
0.0
 11
479.7692595874698
 21
131.4882434365325
 31
0.0
  0
LINE
  5
C6
  8
1
  6
________________
 62
     1
 10
475.7692595874698
 20
127.4882434365324
 30
0.0
 11
483.7692595874698
 21
127.4882434365324
 31
0.0
  0
LINE
  5
C7
  8
1
  6
________________
 62
     1
 10
520.8333333333335
 20
287.5
 30
0.0
 11
490.8333333333333
 21
257.5000000000001
 31
0.0
  0
LINE
  5
C8
  8
1
  6
________________
 62
     1
 10
517.6784232301343
 20
169.3974070791969
 30
0.0
 11
525.6784232301343
 21
169.3974070791969
 31
0.0
  0
ENDSEC
  0
EOF
