  0
SECTION
  2
HEADER
  9
$ACADVER
  1
AC1006
  9
$DWGCODEPAGE
  3
ansi_932
  9
$INSBASE
 10
0.0
 20
0.0
 30
0.0
  9
$EXTMIN
 10
87.03161280188147
 20
67.00096892925772
  9
$EXTMAX
 10
269.0389913350111
 20
236.8466001920204
  9
$LIMMIN
 10
0.0
 20
0.0
  9
$LIMMAX
 10
12.0
 20
9.0
  9
$ORTHOMODE
 70
     0
  9
$REGENMODE
 70
     1
  9
$FILLMODE
 70
     1
  9
$QTEXTMODE
 70
     0
  9
$MIRRTEXT
 70
     1
  9
$DRAGMODE
 70
     2
  9
$LTSCALE
 40
1.0
  9
$OSMODE
 70
    37
  9
$ATTMODE
 70
     1
  9
$TEXTSIZE
 40
0.2
  9
$TRACEWID
 40
0.05
  9
$TEXTSTYLE
  7
STANDARD
  9
$CLAYER
  8
0
  9
$CELTYPE
  6
BYLAYER
  9
$CECOLOR
 62
   256
  9
$DIMSCALE
 40
1.0
  9
$DIMASZ
 40
3.0
  9
$DIMEXO
 40
0.0625
  9
$DIMDLI
 40
0.38
  9
$DIMRND
 40
0.0
  9
$DIMDLE
 40
0.0
  9
$DIMEXE
 40
1.5
  9
$DIMTP
 40
0.0
  9
$DIMTM
 40
0.0
  9
$DIMTXT
 40
3.0
  9
$DIMCEN
 40
0.09
  9
$DIMTSZ
 40
0.0
  9
$DIMTOL
 70
     0
  9
$DIMLIM
 70
     0
  9
$DIMTIH
 70
     1
  9
$DIMTOH
 70
     1
  9
$DIMSE1
 70
     0
  9
$DIMSE2
 70
     0
  9
$DIMTAD
 70
     1
  9
$DIMZIN
 70
     0
  9
$DIMBLK
  1

  9
$DIMASO
 70
     1
  9
$DIMSHO
 70
     1
  9
$DIMPOST
  1

  9
$DIMAPOST
  1

  9
$DIMALT
 70
     0
  9
$DIMALTD
 70
     2
  9
$DIMALTF
 40
25.4
  9
$DIMLFAC
 40
1.0
  9
$DIMTOFL
 70
     0
  9
$DIMTVP
 40
0.0
  9
$DIMTIX
 70
     0
  9
$DIMSOXD
 70
     0
  9
$DIMSAH
 70
     0
  9
$DIMBLK1
  1

  9
$DIMBLK2
  1

  9
$LUNITS
 70
     2
  9
$LUPREC
 70
     4
  9
$SKETCHINC
 40
0.1
  9
$FILLETRAD
 40
0.5
  9
$AUNITS
 70
     0
  9
$AUPREC
 70
     0
  9
$MENU
  1
.
  9
$ELEVATION
 40
0.0
  9
$THICKNESS
 40
0.0
  9
$LIMCHECK
 70
     0
  9
$CHAMFERA
 40
0.0
  9
$CHAMFERB
 40
0.0
  9
$SKPOLY
 70
     0
  9
$TDCREATE
 40
2460385.688501331
  9
$TDUPDATE
 40
2460385.688501551
  9
$TDINDWG
 40
0.0000000116
  9
$TDUSRTIMER
 40
0.0000000116
  9
$USRTIMER
 70
     1
  9
$ANGBASE
 50
0.0
  9
$ANGDIR
 70
     0
  9
$PDMODE
 70
     0
  9
$PDSIZE
 40
0.0
  9
$PLINEWID
 40
0.0
  9
$COORDS
 70
     1
  9
$SPLFRAME
 70
     0
  9
$SPLINETYPE
 70
     6
  9
$SPLINESEGS
 70
     8
  9
$ATTDIA
 70
     0
  9
$ATTREQ
 70
     1
  9
$HANDLING
 70
     1
  9
$HANDSEED
  5
84A
  9
$SURFTAB1
 70
     6
  9
$SURFTAB2
 70
     6
  9
$SURFTYPE
 70
     6
  9
$SURFU
 70
     6
  9
$SURFV
 70
     6
  9
$UCSNAME
  2

  9
$UCSORG
 10
0.0
 20
0.0
 30
0.0
  9
$UCSXDIR
 10
1.0
 20
0.0
 30
0.0
  9
$UCSYDIR
 10
0.0
 20
1.0
 30
0.0
  9
$USERI1
 70
     0
  9
$USERI2
 70
     0
  9
$USERI3
 70
     0
  9
$USERI4
 70
     0
  9
$USERI5
 70
     0
  9
$USERR1
 40
0.0
  9
$USERR2
 40
0.0
  9
$USERR3
 40
0.0
  9
$USERR4
 40
0.0
  9
$USERR5
 40
0.0
  9
$WORLDVIEW
 70
     1
  0
ENDSEC
  0
SECTION
  2
TABLES
  0
TABLE
  2
VPORT
 70
     1
  0
VPORT
  2
*ACTIVE
 70
     0
 10
0.0
 20
0.0
 11
1.0
 21
1.0
 12
178.0353020684463
 22
151.9237845606391
 13
0.0
 23
0.0
 14
0.5
 24
0.5
 15
0.5
 25
0.5
 16
0.0
 26
0.0
 36
1.0
 17
0.0
 27
0.0
 37
0.0
 40
169.8456312627627
 41
1.6
 42
50.0
 43
0.0
 44
0.0
 50
0.0
 51
0.0
 71
     0
 72
   100
 73
     1
 74
     3
 75
     0
 76
     0
 77
     0
 78
     0
  0
ENDTAB
  0
TABLE
  2
LTYPE
 70
     2
  0
LTYPE
  2
CONTINUOUS
 70
     0
  3
Solid line
 72
    65
 73
     0
 40
0.0
  0
LTYPE
  2
CENTER
 70
     0
  3

 72
    65
 73
     0
 40
0.0
  0
ENDTAB
  0
TABLE
  2
LAYER
 70
     1
  0
LAYER
  2
0
 70
     0
 62
     7
  6
CONTINUOUS
  0
ENDTAB
  0
TABLE
  2
STYLE
 70
     2
  0
STYLE
  2
STANDARD
 70
     0
 40
0.0
 41
1.0
 50
0.0
 71
     0
 42
0.2
  3
txt
  4

  0
STYLE
  2
ＭＳ_ゴシック
 70
     0
 40
0.0
 41
1.0
 50
0.0
 71
     0
 42
0.2
  3
ＭＳ ゴシック.shx
  4

  0
ENDTAB
  0
TABLE
  2
VIEW
 70
     0
  0
ENDTAB
  0
TABLE
  2
UCS
 70
     0
  0
ENDTAB
  0
ENDSEC
  0
SECTION
  2
BLOCKS
  0
BLOCK
  8
0
  2
D_FRAME_VIEW_1709
 70
     0
 10
0.0
 20
0.0
 30
0.0
  0
LINE
  5
74
  8
0
  6
CONTINUOUS
 62
     7
 10
129.1316128018815
 20
194.7466001920204
 30
0.0
 11
185.5316128018815
 21
194.7466001920204
 31
0.0
  0
POLYLINE
  5
75
  8
0
  6
CONTINUOUS
 62
     7
 66
     1
 10
0.0
 20
0.0
 30
0.0
  0
VERTEX
  5
236
  8
0
  6
CONTINUOUS
 62
     7
 10
107.1391914692745
 20
218.2595435855505
 30
0.0
  0
VERTEX
  5
237
  8
0
  6
CONTINUOUS
 62
     7
 10
107.0613676307528
 20
218.2580260164251
 30
0.0
  0
VERTEX
  5
238
  8
0
  6
CONTINUOUS
 62
     7
 10
106.983530616853
 20
218.2532683171344
 30
0.0
  0
VERTEX
  5
239
  8
0
  6
CONTINUOUS
 62
     7
 10
106.9059899582514
 20
218.2449629998067
 30
0.0
  0
VERTEX
  5
23A
  8
0
  6
CONTINUOUS
 62
     7
 10
106.8290551856243
 20
218.2328025765703
 30
0.0
  0
VERTEX
  5
23B
  8
0
  6
CONTINUOUS
 62
     7
 10
106.7530358296478
 20
218.2164795595534
 30
0.0
  0
VERTEX
  5
23C
  8
0
  6
CONTINUOUS
 62
     7
 10
106.7055706397203
 20
218.2038236685144
 30
0.0
  0
VERTEX
  5
23D
  8
0
  6
CONTINUOUS
 62
     7
 10
106.658491445127
 20
218.189187180943
 30
0.0
  0
VERTEX
  5
23E
  8
0
  6
CONTINUOUS
 62
     7
 10
106.6119823853504
 20
218.1725463507827
 30
0.0
  0
VERTEX
  5
23F
  8
0
  6
CONTINUOUS
 62
     7
 10
106.5662275998728
 20
218.1538774319771
 30
0.0
  0
VERTEX
  5
240
  8
0
  6
CONTINUOUS
 62
     7
 10
106.5214112281767
 20
218.1331566784698
 30
0.0
  0
VERTEX
  5
241
  8
0
  6
CONTINUOUS
 62
     7
 10
106.4777174097445
 20
218.1103603442044
 30
0.0
  0
VERTEX
  5
242
  8
0
  6
CONTINUOUS
 62
     7
 10
106.4353302840587
 20
218.0854646831245
 30
0.0
  0
VERTEX
  5
243
  8
0
  6
CONTINUOUS
 62
     7
 10
106.3944339906016
 20
218.0584459491737
 30
0.0
  0
VERTEX
  5
244
  8
0
  6
CONTINUOUS
 62
     7
 10
106.3583365524099
 20
218.0317333090644
 30
0.0
  0
VERTEX
  5
245
  8
0
  6
CONTINUOUS
 62
     7
 10
106.3235316223287
 20
218.0031216652823
 30
0.0
  0
VERTEX
  5
246
  8
0
  6
CONTINUOUS
 62
     7
 10
106.2901210778116
 20
217.9727398395601
 30
0.0
  0
VERTEX
  5
247
  8
0
  6
CONTINUOUS
 62
     7
 10
106.2582067963122
 20
217.9407166536305
 30
0.0
  0
VERTEX
  5
248
  8
0
  6
CONTINUOUS
 62
     7
 10
106.2278906552839
 20
217.9071809292262
 30
0.0
  0
VERTEX
  5
249
  8
0
  6
CONTINUOUS
 62
     7
 10
106.1992745321805
 20
217.8722614880797
 30
0.0
  0
VERTEX
  5
24A
  8
0
  6
CONTINUOUS
 62
     7
 10
106.1724603044554
 20
217.8360871519239
 30
0.0
  0
VERTEX
  5
24B
  8
0
  6
CONTINUOUS
 62
     7
 10
106.1475498495622
 20
217.7987867424913
 30
0.0
  0
VERTEX
  5
24C
  8
0
  6
CONTINUOUS
 62
     7
 10
106.1220671907918
 20
217.7561458031101
 30
0.0
  0
SEQEND
  5
81C
  8
0
  6
CONTINUOUS
 62
     7
  0
LINE
  5
76
  8
0
  6
CONTINUOUS
 62
     7
 10
107.1391914692745
 20
218.2595435855505
 30
0.0
 11
185.5316128018814
 21
218.2595435855505
 31
0.0
  0
LINE
  5
77
  8
0
  6
CONTINUOUS
 62
     7
 10
105.6186694083515
 20
216.7390215246274
 30
0.0
 11
105.6186694083515
 21
138.3466001920203
 31
0.0
  0
POLYLINE
  5
78
  8
0
  6
CONTINUOUS
 62
     7
 66
     1
 10
0.0
 20
0.0
 30
0.0
  0
VERTEX
  5
24D
  8
0
  6
CONTINUOUS
 62
     7
 10
106.1220671907919
 20
217.7561458031101
 30
0.0
  0
VERTEX
  5
24E
  8
0
  6
CONTINUOUS
 62
     7
 10
106.0101985729656
 20
217.6824293297497
 30
0.0
  0
VERTEX
  5
24F
  8
0
  6
CONTINUOUS
 62
     7
 10
105.9076510308603
 20
217.5907521927102
 30
0.0
  0
VERTEX
  5
250
  8
0
  6
CONTINUOUS
 62
     7
 10
105.8202286123981
 20
217.484420747387
 30
0.0
  0
VERTEX
  5
251
  8
0
  6
CONTINUOUS
 62
     7
 10
105.7511064189002
 20
217.369316779176
 30
0.0
  0
SEQEND
  5
81D
  8
0
  6
CONTINUOUS
 62
     7
  0
ARC
  5
79
  8
0
  6
CONTINUOUS
 62
     7
 10
106.9644982179878
 20
216.7852987103838
 30
0.0
 40
1.34662420992978
 50
154.2980051510482
 51
181.9693761481825
  0
LINE
  5
7A
  8
0
  6
CONTINUOUS
 62
     7
 10
129.1316128018815
 20
194.7466001920204
 30
0.0
 11
129.1316128018815
 21
138.3466001920203
 31
0.0
  0
LINE
  5
7B
  8
0
  6
CONTINUOUS
 62
     7
 10
187.0316128018815
 20
217.8941593657893
 30
0.0
 11
187.0316128018815
 21
194.7466001920204
 31
0.0
  0
POLYLINE
  5
7C
  8
0
  6
CONTINUOUS
 62
     7
 66
     1
 10
0.0
 20
0.0
 30
0.0
  0
VERTEX
  5
252
  8
0
  6
CONTINUOUS
 62
     7
 10
187.0316128018815
 20
217.8941593657894
 30
0.0
  0
VERTEX
  5
253
  8
0
  6
CONTINUOUS
 62
     7
 10
186.9757992615029
 20
217.9933847968292
 30
0.0
  0
VERTEX
  5
254
  8
0
  6
CONTINUOUS
 62
     7
 10
186.8883593549669
 20
218.050584567614
 30
0.0
  0
SEQEND
  5
81E
  8
0
  6
CONTINUOUS
 62
     7
  0
ARC
  5
7D
  8
0
  6
CONTINUOUS
 62
     7
 10
185.656134382444
 20
214.5589695559333
 30
0.0
 40
3.702668466485057
 50
70.56156646199108
 51
91.92723346134599
  0
LINE
  5
7E
  8
0
  6
CONTINUOUS
 62
     7
 10
187.0316128018815
 20
194.7466001920204
 30
0.0
 11
185.5316128018815
 21
194.7466001920205
 31
0.0
  0
LINE
  5
7F
  8
0
  6
CONTINUOUS
 62
     7
 10
105.9840536281126
 20
136.8466001920203
 30
0.0
 11
129.1316128018816
 21
136.8466001920203
 31
0.0
  0
POLYLINE
  5
80
  8
0
  6
CONTINUOUS
 62
     7
 66
     1
 10
0.0
 20
0.0
 30
0.0
  0
VERTEX
  5
255
  8
0
  6
CONTINUOUS
 62
     7
 10
105.9840536281126
 20
136.8466001920203
 30
0.0
  0
VERTEX
  5
256
  8
0
  6
CONTINUOUS
 62
     7
 10
105.8848281970728
 20
136.9024137323989
 30
0.0
  0
VERTEX
  5
257
  8
0
  6
CONTINUOUS
 62
     7
 10
105.8276284262879
 20
136.9898536389349
 30
0.0
  0
SEQEND
  5
81F
  8
0
  6
CONTINUOUS
 62
     7
  0
ARC
  5
81
  8
0
  6
CONTINUOUS
 62
     7
 10
109.3192434379671
 20
138.2220786114575
 30
0.0
 40
3.702668466483597
 50
178.072766538649
 51
199.4384335380123
  0
LINE
  5
82
  8
0
  6
CONTINUOUS
 62
     7
 10
129.1316128018815
 20
136.8466001920203
 30
0.0
 11
129.1316128018815
 21
138.3466001920203
 31
0.0
  0
LINE
  5
83
  8
0
  6
CONTINUOUS
 62
     7
 10
187.0316128018815
 20
234.2752568715626
 30
0.0
 11
187.0316128018815
 21
217.8941593657893
 31
0.0
  0
LINE
  5
84
  8
0
  6
CONTINUOUS
 62
     7
 10
89.60295612233928
 20
136.8466001920203
 30
0.0
 11
105.9840536281125
 21
136.8466001920203
 31
0.0
  0
ARC
  5
85
  8
0
  6
CONTINUOUS
 62
     7
 10
91.03161280188148
 20
232.8466001920204
 30
0.0
 40
4.000000000000004
 50
89.9999999999992
 51
180.0000000000004
  0
ARC
  5
86
  8
0
  6
CONTINUOUS
 62
     7
 10
185.5316128018815
 20
235.3466001920204
 30
0.0
 40
1.500000000000001
 50
0.0
 51
90.0000000000011
  0
LINE
  5
87
  8
0
  6
CONTINUOUS
 62
     7
 10
187.0316128018815
 20
235.3466001920202
 30
0.0
 11
187.0316128018815
 21
234.2752568715625
 31
0.0
  0
ARC
  5
88
  8
0
  6
CONTINUOUS
 62
     7
 10
88.53161280188152
 20
138.3466001920203
 30
0.0
 40
1.500000000000001
 50
179.9999999999989
 51
270.0
  0
LINE
  5
89
  8
0
  6
CONTINUOUS
 62
     7
 10
88.53161280188175
 20
136.8466001920203
 30
0.0
 11
89.60295612233944
 21
136.8466001920203
 31
0.0
  0
LINE
  5
8A
  8
0
  6
CONTINUOUS
 62
     7
 10
91.03161280188154
 20
236.8466001920204
 30
0.0
 11
185.5316128018815
 21
236.8466001920204
 31
0.0
  0
LINE
  5
8B
  8
0
  6
CONTINUOUS
 62
     7
 10
87.03161280188147
 20
232.8466001920204
 30
0.0
 11
87.03161280188148
 21
138.3466001920203
 31
0.0
  0
ENDBLK
  8
0
  0
BLOCK
  8
0
  2
D_FRAME_VIEW_1988
 70
     0
 10
0.0
 20
0.0
 30
0.0
  0
LINE
  5
90
  8
0
  6
CONTINUOUS
 62
     7
 10
93.33494887008605
 20
78.47206203594912
 30
0.0
 11
89.33169286594558
 21
78.47206203594912
 31
0.0
  0
ARC
  5
91
  8
0
  6
CONTINUOUS
 62
     7
 10
339.1316128018815
 20
68.47206203594915
 30
0.0
 40
250.0
 50
174.7213238966788
 51
177.7075572240441
  0
ARC
  5
92
  8
0
  6
CONTINUOUS
 62
     7
 10
117.8208589472592
 20
79.7828158905714
 30
0.0
 40
29.99999999999998
 50
112.9321967018482
 51
157.0678032981516
  0
ARC
  5
93
  8
0
  6
CONTINUOUS
 62
     7
 10
129.1316128018815
 20
-141.5279379640509
 30
0.0
 40
250.0
 50
92.29244277595603
 51
95.27867610332113
  0
LINE
  5
94
  8
0
  6
CONTINUOUS
 62
     7
 10
119.1316128018815
 20
108.271981971885
 30
0.0
 11
119.1316128018815
 21
104.2687259677445
 31
0.0
  0
ARC
  5
95
  8
0
  6
CONTINUOUS
 62
     7
 10
129.1316128018815
 20
-141.5279379640509
 30
0.0
 40
246.0000000000001
 50
92.32973866043487
 51
95.12926388889866
  0
ARC
  5
96
  8
0
  6
CONTINUOUS
 62
     7
 10
117.8208589472592
 20
79.7828158905714
 30
0.0
 40
25.99999999999999
 50
114.2589370559117
 51
155.7410629440888
  0
ARC
  5
97
  8
0
  6
CONTINUOUS
 62
     7
 10
339.1316128018815
 20
68.47206203594915
 30
0.0
 40
246.0
 50
174.8707361111012
 51
177.6702613395651
  0
LINE
  5
98
  8
0
  6
CONTINUOUS
 62
     7
 10
116.1315747249457
 20
68.47206203594914
 30
0.0
 11
115.1316128018815
 21
68.47206203594914
 31
0.0
  0
LINE
  5
99
  8
0
  6
CONTINUOUS
 62
     7
 10
115.1316128018815
 20
68.47206203594914
 30
0.0
 11
115.1447411812285
 21
69.97642530369819
 31
0.0
  0
LINE
  5
9A
  8
0
  6
CONTINUOUS
 62
     7
 10
119.1316128018815
 20
69.78577053493372
 30
0.0
 11
117.8179043028968
 21
68.47206203594901
 31
0.0
  0
LINE
  5
9B
  8
0
  6
CONTINUOUS
 62
     7
 10
119.1316128018815
 20
69.97642530369819
 30
0.0
 11
119.1316128018815
 21
69.78577053493372
 31
0.0
  0
LINE
  5
9C
  8
0
  6
CONTINUOUS
 62
     7
 10
117.8179043028968
 20
68.47206203594901
 30
0.0
 11
116.1315747249457
 21
68.47206203594914
 31
0.0
  0
LINE
  5
9D
  8
0
  6
CONTINUOUS
 62
     7
 10
116.1447031042926
 20
70.47206203594901
 30
0.0
 11
119.1316128018815
 21
70.47206203594901
 31
0.0
  0
LINE
  5
9E
  8
0
  6
CONTINUOUS
 62
     7
 10
119.1316128018815
 20
70.47206203594901
 30
0.0
 11
119.1316128018815
 21
69.97642530369819
 31
0.0
  0
ARC
  5
9F
  8
0
  6
CONTINUOUS
 62
     7
 10
115.6447221427605
 20
69.97206203594901
 30
0.0
 40
0.5000000000000016
 50
90.0
 51
179.5
  0
LINE
  5
A0
  8
0
  6
CONTINUOUS
 62
     7
 10
115.6447221427605
 20
70.47206203594901
 30
0.0
 11
116.1447031042926
 21
70.47206203594901
 31
0.0
  0
LINE
  5
A1
  8
0
  6
CONTINUOUS
 62
     7
 10
129.1316128018815
 20
79.78577053493373
 30
0.0
 11
129.1316128018815
 21
81.48078857144738
 31
0.0
  0
LINE
  5
A2
  8
0
  6
CONTINUOUS
 62
     7
 10
127.7188624413212
 20
78.472062035949
 30
0.0
 11
127.8179043028968
 21
78.472062035949
 31
0.0
  0
LINE
  5
A3
  8
0
  6
CONTINUOUS
 62
     7
 10
127.8179043028968
 20
78.472062035949
 30
0.0
 11
129.1316128018815
 21
79.78577053493373
 31
0.0
  0
LINE
  5
A4
  8
0
  6
CONTINUOUS
 62
     7
 10
127.2188814797891
 20
78.472062035949
 30
0.0
 11
127.245138238483
 21
81.48078857144738
 31
0.0
  0
LINE
  5
A5
  8
0
  6
CONTINUOUS
 62
     7
 10
127.7188624413212
 20
78.472062035949
 30
0.0
 11
127.2188814797891
 21
78.472062035949
 31
0.0
  0
LINE
  5
A6
  8
0
  6
CONTINUOUS
 62
     7
 10
127.7494445562496
 20
82.47206203594901
 30
0.0
 11
129.1316128018815
 21
82.472062035949
 31
0.0
  0
LINE
  5
A7
  8
0
  6
CONTINUOUS
 62
     7
 10
129.1316128018815
 20
82.47206203594901
 30
0.0
 11
129.1316128018815
 21
81.48078857144738
 31
0.0
  0
LINE
  5
A8
  8
0
  6
CONTINUOUS
 62
     7
 10
127.245138238483
 20
81.48078857144738
 30
0.0
 11
127.2494635947176
 21
81.97642530369819
 31
0.0
  0
ARC
  5
A9
  8
0
  6
CONTINUOUS
 62
     7
 10
127.7494445562496
 20
81.97206203594901
 30
0.0
 40
0.5000000000000016
 50
90.0
 51
179.4999999999999
  0
LINE
  5
AA
  8
0
  6
CONTINUOUS
 62
     7
 10
128.1316128018815
 20
84.9720620359491
 30
0.0
 11
128.1316128018815
 21
101.9720620359491
 31
0.0
  0
LINE
  5
AB
  8
0
  6
CONTINUOUS
 62
     7
 10
128.1316128018815
 20
83.97206203594911
 30
0.0
 11
128.1316128018815
 21
84.9720620359491
 31
0.0
  0
LINE
  5
AC
  8
0
  6
CONTINUOUS
 62
     7
 10
128.1316128018815
 20
82.47206203594901
 30
0.0
 11
128.1316128018815
 21
83.97206203594911
 31
0.0
  0
LINE
  5
AD
  8
0
  6
CONTINUOUS
 62
     7
 10
114.1316128018815
 20
68.47206203594914
 30
0.0
 11
114.1316128018815
 21
68.97206203594914
 31
0.0
  0
POLYLINE
  5
AE
  8
0
  6
CONTINUOUS
 62
     7
 66
     1
 10
0.0
 20
0.0
 30
0.0
  0
VERTEX
  5
258
  8
0
  6
CONTINUOUS
 62
     7
 10
113.6316128018815
 20
69.47206203594912
 30
0.0
  0
VERTEX
  5
259
  8
0
  6
CONTINUOUS
 62
     7
 10
113.6561466390452
 20
69.47145976405172
 30
0.0
  0
VERTEX
  5
25A
  8
0
  6
CONTINUOUS
 62
     7
 10
113.6806213720463
 20
69.46965439928522
 30
0.0
  0
VERTEX
  5
25B
  8
0
  6
CONTINUOUS
 62
     7
 10
113.7049780391092
 20
69.46665029093151
 30
0.0
  0
VERTEX
  5
25C
  8
0
  6
CONTINUOUS
 62
     7
 10
113.7291579628896
 20
69.46245467615074
 30
0.0
  0
VERTEX
  5
25D
  8
0
  6
CONTINUOUS
 62
     7
 10
113.7531028918331
 20
69.4570776625464
 30
0.0
  0
VERTEX
  5
25E
  8
0
  6
CONTINUOUS
 62
     7
 10
113.7767551405088
 20
69.45053220381524
 30
0.0
  0
VERTEX
  5
25F
  8
0
  6
CONTINUOUS
 62
     7
 10
113.8000577285776
 20
69.44283406854063
 30
0.0
  0
VERTEX
  5
260
  8
0
  6
CONTINUOUS
 62
     7
 10
113.8229545180641
 20
69.43400180220476
 30
0.0
  0
VERTEX
  5
261
  8
0
  6
CONTINUOUS
 62
     7
 10
113.8453903485967
 20
69.42405668251085
 30
0.0
  0
VERTEX
  5
262
  8
0
  6
CONTINUOUS
 62
     7
 10
113.8673111702945
 20
69.41302266812329
 30
0.0
  0
VERTEX
  5
263
  8
0
  6
CONTINUOUS
 62
     7
 10
113.8886641739781
 20
69.40092634094925
 30
0.0
  0
VERTEX
  5
264
  8
0
  6
CONTINUOUS
 62
     7
 10
113.9093979183913
 20
69.3877968421004
 30
0.0
  0
VERTEX
  5
265
  8
0
  6
CONTINUOUS
 62
     7
 10
113.9294624541277
 20
69.37366580168946
 30
0.0
  0
VERTEX
  5
266
  8
0
  6
CONTINUOUS
 62
     7
 10
113.9488094439633
 20
69.3585672626305
 30
0.0
  0
VERTEX
  5
267
  8
0
  6
CONTINUOUS
 62
     7
 10
113.967392279305
 20
69.3425375986266
 30
0.0
  0
VERTEX
  5
268
  8
0
  6
CONTINUOUS
 62
     7
 10
113.9851661924748
 20
69.3256154265424
 30
0.0
  0
VERTEX
  5
269
  8
0
  6
CONTINUOUS
 62
     7
 10
114.002088364559
 20
69.30784151337264
 30
0.0
  0
VERTEX
  5
26A
  8
0
  6
CONTINUOUS
 62
     7
 10
114.0181180285629
 20
69.28925867803095
 30
0.0
  0
VERTEX
  5
26B
  8
0
  6
CONTINUOUS
 62
     7
 10
114.0332165676218
 20
69.26991168819534
 30
0.0
  0
VERTEX
  5
26C
  8
0
  6
CONTINUOUS
 62
     7
 10
114.0473476080328
 20
69.24984715245893
 30
0.0
  0
VERTEX
  5
26D
  8
0
  6
CONTINUOUS
 62
     7
 10
114.0604771068816
 20
69.22911340804573
 30
0.0
  0
VERTEX
  5
26E
  8
0
  6
CONTINUOUS
 62
     7
 10
114.0725734340557
 20
69.20776040436212
 30
0.0
  0
VERTEX
  5
26F
  8
0
  6
CONTINUOUS
 62
     7
 10
114.0836074484432
 20
69.18583958266426
 30
0.0
  0
VERTEX
  5
270
  8
0
  6
CONTINUOUS
 62
     7
 10
114.0935525681372
 20
69.16340375213167
 30
0.0
  0
VERTEX
  5
271
  8
0
  6
CONTINUOUS
 62
     7
 10
114.102384834473
 20
69.14050696264523
 30
0.0
  0
VERTEX
  5
272
  8
0
  6
CONTINUOUS
 62
     7
 10
114.1100829697476
 20
69.11720437457636
 30
0.0
  0
VERTEX
  5
273
  8
0
  6
CONTINUOUS
 62
     7
 10
114.1166284284788
 20
69.09355212590076
 30
0.0
  0
VERTEX
  5
274
  8
0
  6
CONTINUOUS
 62
     7
 10
114.1220054420831
 20
69.0696071969572
 30
0.0
  0
VERTEX
  5
275
  8
0
  6
CONTINUOUS
 62
     7
 10
114.1262010568639
 20
69.0454272731768
 30
0.0
  0
VERTEX
  5
276
  8
0
  6
CONTINUOUS
 62
     7
 10
114.1292051652176
 20
69.02107060611391
 30
0.0
  0
VERTEX
  5
277
  8
0
  6
CONTINUOUS
 62
     7
 10
114.1310105299841
 20
68.99659587311284
 30
0.0
  0
VERTEX
  5
278
  8
0
  6
CONTINUOUS
 62
     7
 10
114.1316128018815
 20
68.97206203594914
 30
0.0
  0
SEQEND
  5
820
  8
0
  6
CONTINUOUS
 62
     7
  0
LINE
  5
AF
  8
0
  6
CONTINUOUS
 62
     7
 10
113.6316128018815
 20
69.47206203594912
 30
0.0
 11
112.6316128018815
 21
69.47206203594912
 31
0.0
  0
POLYLINE
  5
B0
  8
0
  6
CONTINUOUS
 62
     7
 66
     1
 10
0.0
 20
0.0
 30
0.0
  0
VERTEX
  5
279
  8
0
  6
CONTINUOUS
 62
     7
 10
112.1316128018815
 20
68.97206203594914
 30
0.0
  0
VERTEX
  5
27A
  8
0
  6
CONTINUOUS
 62
     7
 10
112.1322150737789
 20
68.99659587311284
 30
0.0
  0
VERTEX
  5
27B
  8
0
  6
CONTINUOUS
 62
     7
 10
112.1340204385454
 20
69.02107060611391
 30
0.0
  0
VERTEX
  5
27C
  8
0
  6
CONTINUOUS
 62
     7
 10
112.1370245468991
 20
69.0454272731768
 30
0.0
  0
VERTEX
  5
27D
  8
0
  6
CONTINUOUS
 62
     7
 10
112.1412201616799
 20
69.0696071969572
 30
0.0
  0
VERTEX
  5
27E
  8
0
  6
CONTINUOUS
 62
     7
 10
112.1465971752842
 20
69.09355212590076
 30
0.0
  0
VERTEX
  5
27F
  8
0
  6
CONTINUOUS
 62
     7
 10
112.1531426340154
 20
69.11720437457636
 30
0.0
  0
VERTEX
  5
280
  8
0
  6
CONTINUOUS
 62
     7
 10
112.16084076929
 20
69.14050696264523
 30
0.0
  0
VERTEX
  5
281
  8
0
  6
CONTINUOUS
 62
     7
 10
112.1696730356259
 20
69.16340375213167
 30
0.0
  0
VERTEX
  5
282
  8
0
  6
CONTINUOUS
 62
     7
 10
112.1796181553198
 20
69.18583958266426
 30
0.0
  0
VERTEX
  5
283
  8
0
  6
CONTINUOUS
 62
     7
 10
112.1906521697073
 20
69.20776040436212
 30
0.0
  0
VERTEX
  5
284
  8
0
  6
CONTINUOUS
 62
     7
 10
112.2027484968814
 20
69.22911340804573
 30
0.0
  0
VERTEX
  5
285
  8
0
  6
CONTINUOUS
 62
     7
 10
112.2158779957302
 20
69.24984715245893
 30
0.0
  0
VERTEX
  5
286
  8
0
  6
CONTINUOUS
 62
     7
 10
112.2300090361412
 20
69.26991168819534
 30
0.0
  0
VERTEX
  5
287
  8
0
  6
CONTINUOUS
 62
     7
 10
112.2451075752002
 20
69.28925867803095
 30
0.0
  0
VERTEX
  5
288
  8
0
  6
CONTINUOUS
 62
     7
 10
112.261137239204
 20
69.30784151337264
 30
0.0
  0
VERTEX
  5
289
  8
0
  6
CONTINUOUS
 62
     7
 10
112.2780594112882
 20
69.3256154265424
 30
0.0
  0
VERTEX
  5
28A
  8
0
  6
CONTINUOUS
 62
     7
 10
112.295833324458
 20
69.3425375986266
 30
0.0
  0
VERTEX
  5
28B
  8
0
  6
CONTINUOUS
 62
     7
 10
112.3144161597997
 20
69.3585672626305
 30
0.0
  0
VERTEX
  5
28C
  8
0
  6
CONTINUOUS
 62
     7
 10
112.3337631496353
 20
69.37366580168946
 30
0.0
  0
VERTEX
  5
28D
  8
0
  6
CONTINUOUS
 62
     7
 10
112.3538276853717
 20
69.3877968421004
 30
0.0
  0
VERTEX
  5
28E
  8
0
  6
CONTINUOUS
 62
     7
 10
112.3745614297849
 20
69.40092634094925
 30
0.0
  0
VERTEX
  5
28F
  8
0
  6
CONTINUOUS
 62
     7
 10
112.3959144334685
 20
69.41302266812329
 30
0.0
  0
VERTEX
  5
290
  8
0
  6
CONTINUOUS
 62
     7
 10
112.4178352551664
 20
69.42405668251085
 30
0.0
  0
VERTEX
  5
291
  8
0
  6
CONTINUOUS
 62
     7
 10
112.440271085699
 20
69.43400180220476
 30
0.0
  0
VERTEX
  5
292
  8
0
  6
CONTINUOUS
 62
     7
 10
112.4631678751854
 20
69.44283406854063
 30
0.0
  0
VERTEX
  5
293
  8
0
  6
CONTINUOUS
 62
     7
 10
112.4864704632543
 20
69.45053220381523
 30
0.0
  0
VERTEX
  5
294
  8
0
  6
CONTINUOUS
 62
     7
 10
112.5101227119299
 20
69.4570776625464
 30
0.0
  0
VERTEX
  5
295
  8
0
  6
CONTINUOUS
 62
     7
 10
112.5340676408734
 20
69.46245467615074
 30
0.0
  0
VERTEX
  5
296
  8
0
  6
CONTINUOUS
 62
     7
 10
112.5582475646538
 20
69.46665029093151
 30
0.0
  0
VERTEX
  5
297
  8
0
  6
CONTINUOUS
 62
     7
 10
112.5826042317167
 20
69.46965439928522
 30
0.0
  0
VERTEX
  5
298
  8
0
  6
CONTINUOUS
 62
     7
 10
112.6070789647178
 20
69.47145976405172
 30
0.0
  0
VERTEX
  5
299
  8
0
  6
CONTINUOUS
 62
     7
 10
112.6316128018815
 20
69.47206203594912
 30
0.0
  0
SEQEND
  5
821
  8
0
  6
CONTINUOUS
 62
     7
  0
LINE
  5
B1
  8
0
  6
CONTINUOUS
 62
     7
 10
112.1316128018815
 20
68.97206203594914
 30
0.0
 11
112.1316128018815
 21
68.47206203594914
 31
0.0
  0
LINE
  5
B2
  8
0
  6
CONTINUOUS
 62
     7
 10
96.13161280188149
 20
68.4720620359491
 30
0.0
 11
112.1316128018815
 21
68.47206203594914
 31
0.0
  0
LINE
  5
B3
  8
0
  6
CONTINUOUS
 62
     7
 10
96.13161280188149
 20
68.4720620359491
 30
0.0
 11
96.13161280188149
 21
68.97206203594912
 31
0.0
  0
POLYLINE
  5
B4
  8
0
  6
CONTINUOUS
 62
     7
 66
     1
 10
0.0
 20
0.0
 30
0.0
  0
VERTEX
  5
29A
  8
0
  6
CONTINUOUS
 62
     7
 10
95.63161280188149
 20
69.47206203594912
 30
0.0
  0
VERTEX
  5
29B
  8
0
  6
CONTINUOUS
 62
     7
 10
95.65614663904522
 20
69.47145976405172
 30
0.0
  0
VERTEX
  5
29C
  8
0
  6
CONTINUOUS
 62
     7
 10
95.68062137204629
 20
69.46965439928522
 30
0.0
  0
VERTEX
  5
29D
  8
0
  6
CONTINUOUS
 62
     7
 10
95.70497803910918
 20
69.46665029093151
 30
0.0
  0
VERTEX
  5
29E
  8
0
  6
CONTINUOUS
 62
     7
 10
95.72915796288957
 20
69.46245467615074
 30
0.0
  0
VERTEX
  5
29F
  8
0
  6
CONTINUOUS
 62
     7
 10
95.75310289183312
 20
69.4570776625464
 30
0.0
  0
VERTEX
  5
2A0
  8
0
  6
CONTINUOUS
 62
     7
 10
95.77675514050873
 20
69.45053220381523
 30
0.0
  0
VERTEX
  5
2A1
  8
0
  6
CONTINUOUS
 62
     7
 10
95.80005772857761
 20
69.44283406854063
 30
0.0
  0
VERTEX
  5
2A2
  8
0
  6
CONTINUOUS
 62
     7
 10
95.82295451806405
 20
69.43400180220476
 30
0.0
  0
VERTEX
  5
2A3
  8
0
  6
CONTINUOUS
 62
     7
 10
95.84539034859664
 20
69.42405668251085
 30
0.0
  0
VERTEX
  5
2A4
  8
0
  6
CONTINUOUS
 62
     7
 10
95.8673111702945
 20
69.41302266812329
 30
0.0
  0
VERTEX
  5
2A5
  8
0
  6
CONTINUOUS
 62
     7
 10
95.8886641739781
 20
69.40092634094925
 30
0.0
  0
VERTEX
  5
2A6
  8
0
  6
CONTINUOUS
 62
     7
 10
95.90939791839129
 20
69.3877968421004
 30
0.0
  0
VERTEX
  5
2A7
  8
0
  6
CONTINUOUS
 62
     7
 10
95.92946245412772
 20
69.37366580168946
 30
0.0
  0
VERTEX
  5
2A8
  8
0
  6
CONTINUOUS
 62
     7
 10
95.94880944396331
 20
69.3585672626305
 30
0.0
  0
VERTEX
  5
2A9
  8
0
  6
CONTINUOUS
 62
     7
 10
95.967392279305
 20
69.3425375986266
 30
0.0
  0
VERTEX
  5
2AA
  8
0
  6
CONTINUOUS
 62
     7
 10
95.98516619247476
 20
69.3256154265424
 30
0.0
  0
VERTEX
  5
2AB
  8
0
  6
CONTINUOUS
 62
     7
 10
96.00208836455897
 20
69.30784151337264
 30
0.0
  0
VERTEX
  5
2AC
  8
0
  6
CONTINUOUS
 62
     7
 10
96.01811802856287
 20
69.28925867803095
 30
0.0
  0
VERTEX
  5
2AD
  8
0
  6
CONTINUOUS
 62
     7
 10
96.03321656762182
 20
69.26991168819534
 30
0.0
  0
VERTEX
  5
2AE
  8
0
  6
CONTINUOUS
 62
     7
 10
96.04734760803277
 20
69.24984715245893
 30
0.0
  0
VERTEX
  5
2AF
  8
0
  6
CONTINUOUS
 62
     7
 10
96.06047710688163
 20
69.22911340804573
 30
0.0
  0
VERTEX
  5
2B0
  8
0
  6
CONTINUOUS
 62
     7
 10
96.07257343405567
 20
69.20776040436212
 30
0.0
  0
VERTEX
  5
2B1
  8
0
  6
CONTINUOUS
 62
     7
 10
96.08360744844322
 20
69.18583958266426
 30
0.0
  0
VERTEX
  5
2B2
  8
0
  6
CONTINUOUS
 62
     7
 10
96.09355256813714
 20
69.16340375213167
 30
0.0
  0
VERTEX
  5
2B3
  8
0
  6
CONTINUOUS
 62
     7
 10
96.102384834473
 20
69.14050696264523
 30
0.0
  0
VERTEX
  5
2B4
  8
0
  6
CONTINUOUS
 62
     7
 10
96.1100829697476
 20
69.11720437457636
 30
0.0
  0
VERTEX
  5
2B5
  8
0
  6
CONTINUOUS
 62
     7
 10
96.11662842847878
 20
69.09355212590074
 30
0.0
  0
VERTEX
  5
2B6
  8
0
  6
CONTINUOUS
 62
     7
 10
96.12200544208311
 20
69.0696071969572
 30
0.0
  0
VERTEX
  5
2B7
  8
0
  6
CONTINUOUS
 62
     7
 10
96.12620105686388
 20
69.0454272731768
 30
0.0
  0
VERTEX
  5
2B8
  8
0
  6
CONTINUOUS
 62
     7
 10
96.1292051652176
 20
69.0210706061139
 30
0.0
  0
VERTEX
  5
2B9
  8
0
  6
CONTINUOUS
 62
     7
 10
96.13101052998408
 20
68.99659587311284
 30
0.0
  0
VERTEX
  5
2BA
  8
0
  6
CONTINUOUS
 62
     7
 10
96.13161280188149
 20
68.97206203594912
 30
0.0
  0
SEQEND
  5
822
  8
0
  6
CONTINUOUS
 62
     7
  0
LINE
  5
B5
  8
0
  6
CONTINUOUS
 62
     7
 10
95.63161280188149
 20
69.47206203594912
 30
0.0
 11
94.63161280188152
 21
69.47206203594912
 31
0.0
  0
POLYLINE
  5
B6
  8
0
  6
CONTINUOUS
 62
     7
 66
     1
 10
0.0
 20
0.0
 30
0.0
  0
VERTEX
  5
2BB
  8
0
  6
CONTINUOUS
 62
     7
 10
94.13161280188152
 20
68.97206203594912
 30
0.0
  0
VERTEX
  5
2BC
  8
0
  6
CONTINUOUS
 62
     7
 10
94.13221507377894
 20
68.99659587311284
 30
0.0
  0
VERTEX
  5
2BD
  8
0
  6
CONTINUOUS
 62
     7
 10
94.13402043854542
 20
69.0210706061139
 30
0.0
  0
VERTEX
  5
2BE
  8
0
  6
CONTINUOUS
 62
     7
 10
94.13702454689914
 20
69.0454272731768
 30
0.0
  0
VERTEX
  5
2BF
  8
0
  6
CONTINUOUS
 62
     7
 10
94.1412201616799
 20
69.0696071969572
 30
0.0
  0
VERTEX
  5
2C0
  8
0
  6
CONTINUOUS
 62
     7
 10
94.14659717528426
 20
69.09355212590074
 30
0.0
  0
VERTEX
  5
2C1
  8
0
  6
CONTINUOUS
 62
     7
 10
94.15314263401541
 20
69.11720437457636
 30
0.0
  0
VERTEX
  5
2C2
  8
0
  6
CONTINUOUS
 62
     7
 10
94.16084076929002
 20
69.14050696264523
 30
0.0
  0
VERTEX
  5
2C3
  8
0
  6
CONTINUOUS
 62
     7
 10
94.16967303562589
 20
69.16340375213167
 30
0.0
  0
VERTEX
  5
2C4
  8
0
  6
CONTINUOUS
 62
     7
 10
94.1796181553198
 20
69.18583958266426
 30
0.0
  0
VERTEX
  5
2C5
  8
0
  6
CONTINUOUS
 62
     7
 10
94.19065216970735
 20
69.20776040436212
 30
0.0
  0
VERTEX
  5
2C6
  8
0
  6
CONTINUOUS
 62
     7
 10
94.20274849688138
 20
69.22911340804573
 30
0.0
  0
VERTEX
  5
2C7
  8
0
  6
CONTINUOUS
 62
     7
 10
94.21587799573025
 20
69.24984715245893
 30
0.0
  0
VERTEX
  5
2C8
  8
0
  6
CONTINUOUS
 62
     7
 10
94.2300090361412
 20
69.26991168819534
 30
0.0
  0
VERTEX
  5
2C9
  8
0
  6
CONTINUOUS
 62
     7
 10
94.24510757520015
 20
69.28925867803095
 30
0.0
  0
VERTEX
  5
2CA
  8
0
  6
CONTINUOUS
 62
     7
 10
94.26113723920405
 20
69.30784151337264
 30
0.0
  0
VERTEX
  5
2CB
  8
0
  6
CONTINUOUS
 62
     7
 10
94.27805941128825
 20
69.3256154265424
 30
0.0
  0
VERTEX
  5
2CC
  8
0
  6
CONTINUOUS
 62
     7
 10
94.29583332445803
 20
69.3425375986266
 30
0.0
  0
VERTEX
  5
2CD
  8
0
  6
CONTINUOUS
 62
     7
 10
94.31441615979969
 20
69.3585672626305
 30
0.0
  0
VERTEX
  5
2CE
  8
0
  6
CONTINUOUS
 62
     7
 10
94.3337631496353
 20
69.37366580168946
 30
0.0
  0
VERTEX
  5
2CF
  8
0
  6
CONTINUOUS
 62
     7
 10
94.35382768537173
 20
69.38779684210039
 30
0.0
  0
VERTEX
  5
2D0
  8
0
  6
CONTINUOUS
 62
     7
 10
94.3745614297849
 20
69.40092634094925
 30
0.0
  0
VERTEX
  5
2D1
  8
0
  6
CONTINUOUS
 62
     7
 10
94.39591443346853
 20
69.41302266812329
 30
0.0
  0
VERTEX
  5
2D2
  8
0
  6
CONTINUOUS
 62
     7
 10
94.4178352551664
 20
69.42405668251085
 30
0.0
  0
VERTEX
  5
2D3
  8
0
  6
CONTINUOUS
 62
     7
 10
94.44027108569898
 20
69.43400180220476
 30
0.0
  0
VERTEX
  5
2D4
  8
0
  6
CONTINUOUS
 62
     7
 10
94.46316787518542
 20
69.44283406854063
 30
0.0
  0
VERTEX
  5
2D5
  8
0
  6
CONTINUOUS
 62
     7
 10
94.48647046325429
 20
69.45053220381523
 30
0.0
  0
VERTEX
  5
2D6
  8
0
  6
CONTINUOUS
 62
     7
 10
94.5101227119299
 20
69.4570776625464
 30
0.0
  0
VERTEX
  5
2D7
  8
0
  6
CONTINUOUS
 62
     7
 10
94.53406764087346
 20
69.46245467615074
 30
0.0
  0
VERTEX
  5
2D8
  8
0
  6
CONTINUOUS
 62
     7
 10
94.55824756465385
 20
69.46665029093151
 30
0.0
  0
VERTEX
  5
2D9
  8
0
  6
CONTINUOUS
 62
     7
 10
94.58260423171674
 20
69.46965439928522
 30
0.0
  0
VERTEX
  5
2DA
  8
0
  6
CONTINUOUS
 62
     7
 10
94.60707896471781
 20
69.47145976405172
 30
0.0
  0
VERTEX
  5
2DB
  8
0
  6
CONTINUOUS
 62
     7
 10
94.63161280188152
 20
69.47206203594912
 30
0.0
  0
SEQEND
  5
823
  8
0
  6
CONTINUOUS
 62
     7
  0
LINE
  5
B7
  8
0
  6
CONTINUOUS
 62
     7
 10
94.13161280188152
 20
68.97206203594912
 30
0.0
 11
94.13161280188152
 21
68.4720620359491
 31
0.0
  0
LINE
  5
B8
  8
0
  6
CONTINUOUS
 62
     7
 10
92.33163184034946
 20
72.9764253036982
 30
0.0
 11
92.33161280188153
 21
72.97206203594901
 31
0.0
  0
LINE
  5
B9
  8
0
  6
CONTINUOUS
 62
     7
 10
124.6316128018815
 20
105.272062035949
 30
0.0
 11
128.1316128018815
 21
105.272062035949
 31
0.0
  0
LINE
  5
BA
  8
0
  6
CONTINUOUS
 62
     7
 10
128.1316128018815
 20
102.9720620359491
 30
0.0
 11
128.1316128018815
 21
105.272062035949
 31
0.0
  0
LINE
  5
BB
  8
0
  6
CONTINUOUS
 62
     7
 10
128.1316128018815
 20
101.9720620359491
 30
0.0
 11
128.1316128018815
 21
102.9720620359491
 31
0.0
  0
LINE
  5
BC
  8
0
  6
CONTINUOUS
 62
     7
 10
92.33161280188155
 20
68.47206203594901
 30
0.0
 11
94.13161280188152
 21
68.4720620359491
 31
0.0
  0
LINE
  5
BD
  8
0
  6
CONTINUOUS
 62
     7
 10
92.33161280188153
 20
72.97206203594901
 30
0.0
 11
92.33161280188155
 21
68.47206203594901
 31
0.0
  0
LINE
  5
BE
  8
0
  6
CONTINUOUS
 62
     7
 10
119.1316128018815
 20
69.78577053493372
 30
0.0
 11
127.8179043028968
 21
78.47206203594901
 31
0.0
  0
LINE
  5
BF
  8
0
  6
CONTINUOUS
 62
     7
 10
114.1316128018815
 20
68.47206203594914
 30
0.0
 11
115.1316128018815
 21
68.47206203594914
 31
0.0
  0
LINE
  5
C0
  8
0
  6
CONTINUOUS
 62
     7
 10
92.83161280188153
 20
73.47206203594901
 30
0.0
 11
115.7468364910313
 21
73.47206203594902
 31
0.0
  0
POLYLINE
  5
C1
  8
0
  6
CONTINUOUS
 62
     7
 66
     1
 10
0.0
 20
0.0
 30
0.0
  0
VERTEX
  5
2DC
  8
0
  6
CONTINUOUS
 62
     7
 10
92.83161280188153
 20
73.47206203594901
 30
0.0
  0
VERTEX
  5
2DD
  8
0
  6
CONTINUOUS
 62
     7
 10
92.80721515523206
 20
73.47146643604773
 30
0.0
  0
VERTEX
  5
2DE
  8
0
  6
CONTINUOUS
 62
     7
 10
92.78287563352632
 20
73.46968105530088
 30
0.0
  0
VERTEX
  5
2DF
  8
0
  6
CONTINUOUS
 62
     7
 10
92.75865222323122
 20
73.46671014719882
 30
0.0
  0
VERTEX
  5
2E0
  8
0
  6
CONTINUOUS
 62
     7
 10
92.7346026341899
 20
73.46256078963187
 30
0.0
  0
VERTEX
  5
2E1
  8
0
  6
CONTINUOUS
 62
     7
 10
92.71078416213376
 20
73.45724286802783
 30
0.0
  0
VERTEX
  5
2E2
  8
0
  6
CONTINUOUS
 62
     7
 10
92.68725355218126
 20
73.45076905180106
 30
0.0
  0
VERTEX
  5
2E3
  8
0
  6
CONTINUOUS
 62
     7
 10
92.66406686364822
 20
73.44315476416875
 30
0.0
  0
VERTEX
  5
2E4
  8
0
  6
CONTINUOUS
 62
     7
 10
92.64127933649227
 20
73.43441814540677
 30
0.0
  0
VERTEX
  5
2E5
  8
0
  6
CONTINUOUS
 62
     7
 10
92.6189452597091
 20
73.4245800096322
 30
0.0
  0
VERTEX
  5
2E6
  8
0
  6
CONTINUOUS
 62
     7
 10
92.59711784199442
 20
73.41366379521581
 30
0.0
  0
VERTEX
  5
2E7
  8
0
  6
CONTINUOUS
 62
     7
 10
92.57584908497958
 20
73.40169550894255
 30
0.0
  0
VERTEX
  5
2E8
  8
0
  6
CONTINUOUS
 62
     7
 10
92.55518965934289
 20
73.3887036640529
 30
0.0
  0
VERTEX
  5
2E9
  8
0
  6
CONTINUOUS
 62
     7
 10
92.5351887840918
 20
73.37471921231297
 30
0.0
  0
VERTEX
  5
2EA
  8
0
  6
CONTINUOUS
 62
     7
 10
92.51589410930364
 20
73.35977547027507
 30
0.0
  0
VERTEX
  5
2EB
  8
0
  6
CONTINUOUS
 62
     7
 10
92.49735160260403
 20
73.34390803990435
 30
0.0
  0
VERTEX
  5
2EC
  8
0
  6
CONTINUOUS
 62
     7
 10
92.47960543965355
 20
73.32715472376066
 30
0.0
  0
VERTEX
  5
2ED
  8
0
  6
CONTINUOUS
 62
     7
 10
92.46269789890385
 20
73.30955543493774
 30
0.0
  0
VERTEX
  5
2EE
  8
0
  6
CONTINUOUS
 62
     7
 10
92.44666926087332
 20
73.29115210197435
 30
0.0
  0
VERTEX
  5
2EF
  8
0
  6
CONTINUOUS
 62
     7
 10
92.43155771218287
 20
73.27198856896366
 30
0.0
  0
VERTEX
  5
2F0
  8
0
  6
CONTINUOUS
 62
     7
 10
92.41739925458013
 20
73.25211049109917
 30
0.0
  0
VERTEX
  5
2F1
  8
0
  6
CONTINUOUS
 62
     7
 10
92.40422761916892
 20
73.23156522590571
 30
0.0
  0
VERTEX
  5
2F2
  8
0
  6
CONTINUOUS
 62
     7
 10
92.39207418604822
 20
73.21040172041498
 30
0.0
  0
VERTEX
  5
2F3
  8
0
  6
CONTINUOUS
 62
     7
 10
92.38096790955233
 20
73.1886703945541
 30
0.0
  0
VERTEX
  5
2F4
  8
0
  6
CONTINUOUS
 62
     7
 10
92.37093524926993
 20
73.16642302102521
 30
0.0
  0
VERTEX
  5
2F5
  8
0
  6
CONTINUOUS
 62
     7
 10
92.36200010700698
 20
73.14371260196222
 30
0.0
  0
VERTEX
  5
2F6
  8
0
  6
CONTINUOUS
 62
     7
 10
92.35418376984285
 20
73.12059324265857
 30
0.0
  0
VERTEX
  5
2F7
  8
0
  6
CONTINUOUS
 62
     7
 10
92.3475048594161
 20
73.0971200226667
 30
0.0
  0
VERTEX
  5
2F8
  8
0
  6
CONTINUOUS
 62
     7
 10
92.3419792875603
 20
73.07334886457666
 30
0.0
  0
VERTEX
  5
2F9
  8
0
  6
CONTINUOUS
 62
     7
 10
92.33762021839568
 20
73.04933640078607
 30
0.0
  0
VERTEX
  5
2FA
  8
0
  6
CONTINUOUS
 62
     7
 10
92.33443803696687
 20
73.02513983857924
 30
0.0
  0
VERTEX
  5
2FB
  8
0
  6
CONTINUOUS
 62
     7
 10
92.33244032450168
 20
73.00081682383637
 30
0.0
  0
VERTEX
  5
2FC
  8
0
  6
CONTINUOUS
 62
     7
 10
92.33163184034946
 20
72.9764253036982
 30
0.0
  0
SEQEND
  5
824
  8
0
  6
CONTINUOUS
 62
     7
  0
LINE
  5
C2
  8
0
  6
CONTINUOUS
 62
     7
 10
115.7468364910313
 20
73.47206203594902
 30
0.0
 11
124.1316223210248
 21
81.85684786594257
 31
0.0
  0
POLYLINE
  5
C3
  8
0
  6
CONTINUOUS
 62
     7
 66
     1
 10
0.0
 20
0.0
 30
0.0
  0
VERTEX
  5
2FD
  8
0
  6
CONTINUOUS
 62
     7
 10
124.6316128018815
 20
105.272062035949
 30
0.0
  0
VERTEX
  5
2FE
  8
0
  6
CONTINUOUS
 62
     7
 10
124.6070789647178
 20
105.2714597640515
 30
0.0
  0
VERTEX
  5
2FF
  8
0
  6
CONTINUOUS
 62
     7
 10
124.5826042317167
 20
105.2696543992851
 30
0.0
  0
VERTEX
  5
300
  8
0
  6
CONTINUOUS
 62
     7
 10
124.5582475646538
 20
105.2666502909314
 30
0.0
  0
VERTEX
  5
301
  8
0
  6
CONTINUOUS
 62
     7
 10
124.5340676408734
 20
105.2624546761506
 30
0.0
  0
VERTEX
  5
302
  8
0
  6
CONTINUOUS
 62
     7
 10
124.5101227119299
 20
105.2570776625463
 30
0.0
  0
VERTEX
  5
303
  8
0
  6
CONTINUOUS
 62
     7
 10
124.4864704632543
 20
105.2505322038151
 30
0.0
  0
VERTEX
  5
304
  8
0
  6
CONTINUOUS
 62
     7
 10
124.4631678751854
 20
105.2428340685405
 30
0.0
  0
VERTEX
  5
305
  8
0
  6
CONTINUOUS
 62
     7
 10
124.440271085699
 20
105.2340018022046
 30
0.0
  0
VERTEX
  5
306
  8
0
  6
CONTINUOUS
 62
     7
 10
124.4178352551664
 20
105.2240566825107
 30
0.0
  0
VERTEX
  5
307
  8
0
  6
CONTINUOUS
 62
     7
 10
124.3959144334685
 20
105.2130226681231
 30
0.0
  0
VERTEX
  5
308
  8
0
  6
CONTINUOUS
 62
     7
 10
124.3745614297849
 20
105.2009263409491
 30
0.0
  0
VERTEX
  5
309
  8
0
  6
CONTINUOUS
 62
     7
 10
124.3538276853717
 20
105.1877968421002
 30
0.0
  0
VERTEX
  5
30A
  8
0
  6
CONTINUOUS
 62
     7
 10
124.3337631496353
 20
105.1736658016893
 30
0.0
  0
VERTEX
  5
30B
  8
0
  6
CONTINUOUS
 62
     7
 10
124.3144161597997
 20
105.1585672626303
 30
0.0
  0
VERTEX
  5
30C
  8
0
  6
CONTINUOUS
 62
     7
 10
124.295833324458
 20
105.1425375986264
 30
0.0
  0
VERTEX
  5
30D
  8
0
  6
CONTINUOUS
 62
     7
 10
124.2780594112882
 20
105.1256154265422
 30
0.0
  0
VERTEX
  5
30E
  8
0
  6
CONTINUOUS
 62
     7
 10
124.261137239204
 20
105.1078415133725
 30
0.0
  0
VERTEX
  5
30F
  8
0
  6
CONTINUOUS
 62
     7
 10
124.2451075752001
 20
105.0892586780308
 30
0.0
  0
VERTEX
  5
310
  8
0
  6
CONTINUOUS
 62
     7
 10
124.2300090361412
 20
105.0699116881952
 30
0.0
  0
VERTEX
  5
311
  8
0
  6
CONTINUOUS
 62
     7
 10
124.2158779957302
 20
105.0498471524588
 30
0.0
  0
VERTEX
  5
312
  8
0
  6
CONTINUOUS
 62
     7
 10
124.2027484968814
 20
105.0291134080456
 30
0.0
  0
VERTEX
  5
313
  8
0
  6
CONTINUOUS
 62
     7
 10
124.1906521697073
 20
105.007760404362
 30
0.0
  0
VERTEX
  5
314
  8
0
  6
CONTINUOUS
 62
     7
 10
124.1796181553198
 20
104.9858395826641
 30
0.0
  0
VERTEX
  5
315
  8
0
  6
CONTINUOUS
 62
     7
 10
124.1696730356259
 20
104.9634037521315
 30
0.0
  0
VERTEX
  5
316
  8
0
  6
CONTINUOUS
 62
     7
 10
124.16084076929
 20
104.9405069626451
 30
0.0
  0
VERTEX
  5
317
  8
0
  6
CONTINUOUS
 62
     7
 10
124.1531426340154
 20
104.9172043745762
 30
0.0
  0
VERTEX
  5
318
  8
0
  6
CONTINUOUS
 62
     7
 10
124.1465971752842
 20
104.8935521259006
 30
0.0
  0
VERTEX
  5
319
  8
0
  6
CONTINUOUS
 62
     7
 10
124.1412201616799
 20
104.869607196957
 30
0.0
  0
VERTEX
  5
31A
  8
0
  6
CONTINUOUS
 62
     7
 10
124.1370245468991
 20
104.8454272731767
 30
0.0
  0
VERTEX
  5
31B
  8
0
  6
CONTINUOUS
 62
     7
 10
124.1340204385454
 20
104.8210706061137
 30
0.0
  0
VERTEX
  5
31C
  8
0
  6
CONTINUOUS
 62
     7
 10
124.1322150737789
 20
104.7965958731127
 30
0.0
  0
VERTEX
  5
31D
  8
0
  6
CONTINUOUS
 62
     7
 10
124.1316128018815
 20
104.772062035949
 30
0.0
  0
SEQEND
  5
825
  8
0
  6
CONTINUOUS
 62
     7
  0
LINE
  5
C4
  8
0
  6
CONTINUOUS
 62
     7
 10
124.1316128018815
 20
81.85683834679921
 30
0.0
 11
124.1316128018815
 21
104.772062035949
 31
0.0
  0
LINE
  5
C5
  8
0
  6
CONTINUOUS
 62
     7
 10
128.6316128018815
 20
83.47206203594911
 30
0.0
 11
129.1316128018815
 21
83.47206203594911
 31
0.0
  0
POLYLINE
  5
C6
  8
0
  6
CONTINUOUS
 62
     7
 66
     1
 10
0.0
 20
0.0
 30
0.0
  0
VERTEX
  5
31E
  8
0
  6
CONTINUOUS
 62
     7
 10
128.1316128018815
 20
83.97206203594911
 30
0.0
  0
VERTEX
  5
31F
  8
0
  6
CONTINUOUS
 62
     7
 10
128.1322150737789
 20
83.94752819878538
 30
0.0
  0
VERTEX
  5
320
  8
0
  6
CONTINUOUS
 62
     7
 10
128.1340204385454
 20
83.92305346578432
 30
0.0
  0
VERTEX
  5
321
  8
0
  6
CONTINUOUS
 62
     7
 10
128.1370245468991
 20
83.89869679872142
 30
0.0
  0
VERTEX
  5
322
  8
0
  6
CONTINUOUS
 62
     7
 10
128.1412201616799
 20
83.87451687494104
 30
0.0
  0
VERTEX
  5
323
  8
0
  6
CONTINUOUS
 62
     7
 10
128.1465971752843
 20
83.85057194599747
 30
0.0
  0
VERTEX
  5
324
  8
0
  6
CONTINUOUS
 62
     7
 10
128.1531426340154
 20
83.82691969732187
 30
0.0
  0
VERTEX
  5
325
  8
0
  6
CONTINUOUS
 62
     7
 10
128.16084076929
 20
83.803617109253
 30
0.0
  0
VERTEX
  5
326
  8
0
  6
CONTINUOUS
 62
     7
 10
128.1696730356259
 20
83.78072031976654
 30
0.0
  0
VERTEX
  5
327
  8
0
  6
CONTINUOUS
 62
     7
 10
128.1796181553198
 20
83.75828448923396
 30
0.0
  0
VERTEX
  5
328
  8
0
  6
CONTINUOUS
 62
     7
 10
128.1906521697073
 20
83.7363636675361
 30
0.0
  0
VERTEX
  5
329
  8
0
  6
CONTINUOUS
 62
     7
 10
128.2027484968814
 20
83.7150106638525
 30
0.0
  0
VERTEX
  5
32A
  8
0
  6
CONTINUOUS
 62
     7
 10
128.2158779957302
 20
83.6942769194393
 30
0.0
  0
VERTEX
  5
32B
  8
0
  6
CONTINUOUS
 62
     7
 10
128.2300090361412
 20
83.67421238370288
 30
0.0
  0
VERTEX
  5
32C
  8
0
  6
CONTINUOUS
 62
     7
 10
128.2451075752002
 20
83.65486539386728
 30
0.0
  0
VERTEX
  5
32D
  8
0
  6
CONTINUOUS
 62
     7
 10
128.261137239204
 20
83.6362825585256
 30
0.0
  0
VERTEX
  5
32E
  8
0
  6
CONTINUOUS
 62
     7
 10
128.2780594112882
 20
83.61850864535582
 30
0.0
  0
VERTEX
  5
32F
  8
0
  6
CONTINUOUS
 62
     7
 10
128.295833324458
 20
83.60158647327162
 30
0.0
  0
VERTEX
  5
330
  8
0
  6
CONTINUOUS
 62
     7
 10
128.3144161597997
 20
83.58555680926773
 30
0.0
  0
VERTEX
  5
331
  8
0
  6
CONTINUOUS
 62
     7
 10
128.3337631496353
 20
83.57045827020877
 30
0.0
  0
VERTEX
  5
332
  8
0
  6
CONTINUOUS
 62
     7
 10
128.3538276853717
 20
83.55632722979782
 30
0.0
  0
VERTEX
  5
333
  8
0
  6
CONTINUOUS
 62
     7
 10
128.3745614297849
 20
83.54319773094896
 30
0.0
  0
VERTEX
  5
334
  8
0
  6
CONTINUOUS
 62
     7
 10
128.3959144334685
 20
83.53110140377493
 30
0.0
  0
VERTEX
  5
335
  8
0
  6
CONTINUOUS
 62
     7
 10
128.4178352551664
 20
83.52006738938736
 30
0.0
  0
VERTEX
  5
336
  8
0
  6
CONTINUOUS
 62
     7
 10
128.440271085699
 20
83.51012226969345
 30
0.0
  0
VERTEX
  5
337
  8
0
  6
CONTINUOUS
 62
     7
 10
128.4631678751854
 20
83.50129000335758
 30
0.0
  0
VERTEX
  5
338
  8
0
  6
CONTINUOUS
 62
     7
 10
128.4864704632543
 20
83.493591868083
 30
0.0
  0
VERTEX
  5
339
  8
0
  6
CONTINUOUS
 62
     7
 10
128.5101227119299
 20
83.48704640935182
 30
0.0
  0
VERTEX
  5
33A
  8
0
  6
CONTINUOUS
 62
     7
 10
128.5340676408735
 20
83.48166939574749
 30
0.0
  0
VERTEX
  5
33B
  8
0
  6
CONTINUOUS
 62
     7
 10
128.5582475646538
 20
83.4774737809667
 30
0.0
  0
VERTEX
  5
33C
  8
0
  6
CONTINUOUS
 62
     7
 10
128.5826042317167
 20
83.474469672613
 30
0.0
  0
VERTEX
  5
33D
  8
0
  6
CONTINUOUS
 62
     7
 10
128.6070789647178
 20
83.47266430784651
 30
0.0
  0
VERTEX
  5
33E
  8
0
  6
CONTINUOUS
 62
     7
 10
128.6316128018815
 20
83.47206203594911
 30
0.0
  0
SEQEND
  5
826
  8
0
  6
CONTINUOUS
 62
     7
  0
LINE
  5
C7
  8
0
  6
CONTINUOUS
 62
     7
 10
129.1316128018815
 20
83.47206203594911
 30
0.0
 11
129.1316128018815
 21
82.472062035949
 31
0.0
  0
LINE
  5
C8
  8
0
  6
CONTINUOUS
 62
     7
 10
128.6316128018815
 20
101.4720620359491
 30
0.0
 11
129.1316128018815
 21
101.4720620359491
 31
0.0
  0
LINE
  5
C9
  8
0
  6
CONTINUOUS
 62
     7
 10
129.1316128018815
 20
101.4720620359491
 30
0.0
 11
129.1316128018815
 21
85.47206203594911
 31
0.0
  0
LINE
  5
CA
  8
0
  6
CONTINUOUS
 62
     7
 10
129.1316128018815
 20
85.47206203594911
 30
0.0
 11
128.6316128018815
 21
85.4720620359491
 31
0.0
  0
POLYLINE
  5
CB
  8
0
  6
CONTINUOUS
 62
     7
 66
     1
 10
0.0
 20
0.0
 30
0.0
  0
VERTEX
  5
33F
  8
0
  6
CONTINUOUS
 62
     7
 10
128.6316128018815
 20
85.4720620359491
 30
0.0
  0
VERTEX
  5
340
  8
0
  6
CONTINUOUS
 62
     7
 10
128.6070789647178
 20
85.47145976405169
 30
0.0
  0
VERTEX
  5
341
  8
0
  6
CONTINUOUS
 62
     7
 10
128.5826042317167
 20
85.46965439928519
 30
0.0
  0
VERTEX
  5
342
  8
0
  6
CONTINUOUS
 62
     7
 10
128.5582475646538
 20
85.4666502909315
 30
0.0
  0
VERTEX
  5
343
  8
0
  6
CONTINUOUS
 62
     7
 10
128.5340676408734
 20
85.46245467615071
 30
0.0
  0
VERTEX
  5
344
  8
0
  6
CONTINUOUS
 62
     7
 10
128.5101227119299
 20
85.45707766254637
 30
0.0
  0
VERTEX
  5
345
  8
0
  6
CONTINUOUS
 62
     7
 10
128.4864704632543
 20
85.4505322038152
 30
0.0
  0
VERTEX
  5
346
  8
0
  6
CONTINUOUS
 62
     7
 10
128.4631678751854
 20
85.44283406854059
 30
0.0
  0
VERTEX
  5
347
  8
0
  6
CONTINUOUS
 62
     7
 10
128.440271085699
 20
85.43400180220475
 30
0.0
  0
VERTEX
  5
348
  8
0
  6
CONTINUOUS
 62
     7
 10
128.4178352551664
 20
85.42405668251081
 30
0.0
  0
VERTEX
  5
349
  8
0
  6
CONTINUOUS
 62
     7
 10
128.3959144334685
 20
85.41302266812326
 30
0.0
  0
VERTEX
  5
34A
  8
0
  6
CONTINUOUS
 62
     7
 10
128.3745614297849
 20
85.40092634094923
 30
0.0
  0
VERTEX
  5
34B
  8
0
  6
CONTINUOUS
 62
     7
 10
128.3538276853717
 20
85.38779684210036
 30
0.0
  0
VERTEX
  5
34C
  8
0
  6
CONTINUOUS
 62
     7
 10
128.3337631496353
 20
85.37366580168941
 30
0.0
  0
VERTEX
  5
34D
  8
0
  6
CONTINUOUS
 62
     7
 10
128.3144161597997
 20
85.35856726263046
 30
0.0
  0
VERTEX
  5
34E
  8
0
  6
CONTINUOUS
 62
     7
 10
128.295833324458
 20
85.34253759862658
 30
0.0
  0
VERTEX
  5
34F
  8
0
  6
CONTINUOUS
 62
     7
 10
128.2780594112882
 20
85.32561542654236
 30
0.0
  0
VERTEX
  5
350
  8
0
  6
CONTINUOUS
 62
     7
 10
128.261137239204
 20
85.30784151337261
 30
0.0
  0
VERTEX
  5
351
  8
0
  6
CONTINUOUS
 62
     7
 10
128.2451075752002
 20
85.28925867803092
 30
0.0
  0
VERTEX
  5
352
  8
0
  6
CONTINUOUS
 62
     7
 10
128.2300090361412
 20
85.26991168819531
 30
0.0
  0
VERTEX
  5
353
  8
0
  6
CONTINUOUS
 62
     7
 10
128.2158779957302
 20
85.2498471524589
 30
0.0
  0
VERTEX
  5
354
  8
0
  6
CONTINUOUS
 62
     7
 10
128.2027484968814
 20
85.2291134080457
 30
0.0
  0
VERTEX
  5
355
  8
0
  6
CONTINUOUS
 62
     7
 10
128.1906521697073
 20
85.20776040436209
 30
0.0
  0
VERTEX
  5
356
  8
0
  6
CONTINUOUS
 62
     7
 10
128.1796181553198
 20
85.18583958266423
 30
0.0
  0
VERTEX
  5
357
  8
0
  6
CONTINUOUS
 62
     7
 10
128.1696730356259
 20
85.16340375213163
 30
0.0
  0
VERTEX
  5
358
  8
0
  6
CONTINUOUS
 62
     7
 10
128.16084076929
 20
85.1405069626452
 30
0.0
  0
VERTEX
  5
359
  8
0
  6
CONTINUOUS
 62
     7
 10
128.1531426340154
 20
85.11720437457633
 30
0.0
  0
VERTEX
  5
35A
  8
0
  6
CONTINUOUS
 62
     7
 10
128.1465971752843
 20
85.09355212590071
 30
0.0
  0
VERTEX
  5
35B
  8
0
  6
CONTINUOUS
 62
     7
 10
128.1412201616799
 20
85.06960719695716
 30
0.0
  0
VERTEX
  5
35C
  8
0
  6
CONTINUOUS
 62
     7
 10
128.1370245468991
 20
85.04542727317678
 30
0.0
  0
VERTEX
  5
35D
  8
0
  6
CONTINUOUS
 62
     7
 10
128.1340204385454
 20
85.02107060611387
 30
0.0
  0
VERTEX
  5
35E
  8
0
  6
CONTINUOUS
 62
     7
 10
128.1322150737789
 20
84.9965958731128
 30
0.0
  0
VERTEX
  5
35F
  8
0
  6
CONTINUOUS
 62
     7
 10
128.1316128018815
 20
84.9720620359491
 30
0.0
  0
SEQEND
  5
827
  8
0
  6
CONTINUOUS
 62
     7
  0
POLYLINE
  5
CC
  8
0
  6
CONTINUOUS
 62
     7
 66
     1
 10
0.0
 20
0.0
 30
0.0
  0
VERTEX
  5
360
  8
0
  6
CONTINUOUS
 62
     7
 10
128.1316128018815
 20
101.9720620359491
 30
0.0
  0
VERTEX
  5
361
  8
0
  6
CONTINUOUS
 62
     7
 10
128.1322150737789
 20
101.9475281987854
 30
0.0
  0
VERTEX
  5
362
  8
0
  6
CONTINUOUS
 62
     7
 10
128.1340204385454
 20
101.9230534657843
 30
0.0
  0
VERTEX
  5
363
  8
0
  6
CONTINUOUS
 62
     7
 10
128.1370245468991
 20
101.8986967987214
 30
0.0
  0
VERTEX
  5
364
  8
0
  6
CONTINUOUS
 62
     7
 10
128.1412201616799
 20
101.8745168749411
 30
0.0
  0
VERTEX
  5
365
  8
0
  6
CONTINUOUS
 62
     7
 10
128.1465971752842
 20
101.8505719459975
 30
0.0
  0
VERTEX
  5
366
  8
0
  6
CONTINUOUS
 62
     7
 10
128.1531426340154
 20
101.8269196973219
 30
0.0
  0
VERTEX
  5
367
  8
0
  6
CONTINUOUS
 62
     7
 10
128.16084076929
 20
101.803617109253
 30
0.0
  0
VERTEX
  5
368
  8
0
  6
CONTINUOUS
 62
     7
 10
128.1696730356259
 20
101.7807203197666
 30
0.0
  0
VERTEX
  5
369
  8
0
  6
CONTINUOUS
 62
     7
 10
128.1796181553198
 20
101.758284489234
 30
0.0
  0
VERTEX
  5
36A
  8
0
  6
CONTINUOUS
 62
     7
 10
128.1906521697073
 20
101.7363636675361
 30
0.0
  0
VERTEX
  5
36B
  8
0
  6
CONTINUOUS
 62
     7
 10
128.2027484968814
 20
101.7150106638525
 30
0.0
  0
VERTEX
  5
36C
  8
0
  6
CONTINUOUS
 62
     7
 10
128.2158779957302
 20
101.6942769194393
 30
0.0
  0
VERTEX
  5
36D
  8
0
  6
CONTINUOUS
 62
     7
 10
128.2300090361412
 20
101.6742123837029
 30
0.0
  0
VERTEX
  5
36E
  8
0
  6
CONTINUOUS
 62
     7
 10
128.2451075752001
 20
101.6548653938673
 30
0.0
  0
VERTEX
  5
36F
  8
0
  6
CONTINUOUS
 62
     7
 10
128.261137239204
 20
101.6362825585256
 30
0.0
  0
VERTEX
  5
370
  8
0
  6
CONTINUOUS
 62
     7
 10
128.2780594112882
 20
101.6185086453558
 30
0.0
  0
VERTEX
  5
371
  8
0
  6
CONTINUOUS
 62
     7
 10
128.295833324458
 20
101.6015864732716
 30
0.0
  0
VERTEX
  5
372
  8
0
  6
CONTINUOUS
 62
     7
 10
128.3144161597997
 20
101.5855568092677
 30
0.0
  0
VERTEX
  5
373
  8
0
  6
CONTINUOUS
 62
     7
 10
128.3337631496353
 20
101.5704582702088
 30
0.0
  0
VERTEX
  5
374
  8
0
  6
CONTINUOUS
 62
     7
 10
128.3538276853717
 20
101.5563272297978
 30
0.0
  0
VERTEX
  5
375
  8
0
  6
CONTINUOUS
 62
     7
 10
128.3745614297849
 20
101.543197730949
 30
0.0
  0
VERTEX
  5
376
  8
0
  6
CONTINUOUS
 62
     7
 10
128.3959144334685
 20
101.5311014037749
 30
0.0
  0
VERTEX
  5
377
  8
0
  6
CONTINUOUS
 62
     7
 10
128.4178352551664
 20
101.5200673893874
 30
0.0
  0
VERTEX
  5
378
  8
0
  6
CONTINUOUS
 62
     7
 10
128.440271085699
 20
101.5101222696935
 30
0.0
  0
VERTEX
  5
379
  8
0
  6
CONTINUOUS
 62
     7
 10
128.4631678751854
 20
101.5012900033576
 30
0.0
  0
VERTEX
  5
37A
  8
0
  6
CONTINUOUS
 62
     7
 10
128.4864704632543
 20
101.493591868083
 30
0.0
  0
VERTEX
  5
37B
  8
0
  6
CONTINUOUS
 62
     7
 10
128.5101227119299
 20
101.4870464093518
 30
0.0
  0
VERTEX
  5
37C
  8
0
  6
CONTINUOUS
 62
     7
 10
128.5340676408734
 20
101.4816693957475
 30
0.0
  0
VERTEX
  5
37D
  8
0
  6
CONTINUOUS
 62
     7
 10
128.5582475646538
 20
101.4774737809667
 30
0.0
  0
VERTEX
  5
37E
  8
0
  6
CONTINUOUS
 62
     7
 10
128.5826042317167
 20
101.474469672613
 30
0.0
  0
VERTEX
  5
37F
  8
0
  6
CONTINUOUS
 62
     7
 10
128.6070789647178
 20
101.4726643078465
 30
0.0
  0
VERTEX
  5
380
  8
0
  6
CONTINUOUS
 62
     7
 10
128.6316128018815
 20
101.4720620359491
 30
0.0
  0
SEQEND
  5
828
  8
0
  6
CONTINUOUS
 62
     7
  0
LINE
  5
CD
  8
0
  6
CONTINUOUS
 62
     7
 10
129.1316128018815
 20
105.272062035949
 30
0.0
 11
129.1316128018815
 21
103.4720620359491
 31
0.0
  0
LINE
  5
CE
  8
0
  6
CONTINUOUS
 62
     7
 10
129.1316128018815
 20
103.4720620359491
 30
0.0
 11
128.6316128018815
 21
103.4720620359491
 31
0.0
  0
LINE
  5
CF
  8
0
  6
CONTINUOUS
 62
     7
 10
128.1316128018815
 20
105.272062035949
 30
0.0
 11
129.1316128018815
 21
105.272062035949
 31
0.0
  0
POLYLINE
  5
D0
  8
0
  6
CONTINUOUS
 62
     7
 66
     1
 10
0.0
 20
0.0
 30
0.0
  0
VERTEX
  5
381
  8
0
  6
CONTINUOUS
 62
     7
 10
128.6316128018815
 20
103.4720620359491
 30
0.0
  0
VERTEX
  5
382
  8
0
  6
CONTINUOUS
 62
     7
 10
128.6070789647178
 20
103.4714597640517
 30
0.0
  0
VERTEX
  5
383
  8
0
  6
CONTINUOUS
 62
     7
 10
128.5826042317167
 20
103.4696543992852
 30
0.0
  0
VERTEX
  5
384
  8
0
  6
CONTINUOUS
 62
     7
 10
128.5582475646538
 20
103.4666502909315
 30
0.0
  0
VERTEX
  5
385
  8
0
  6
CONTINUOUS
 62
     7
 10
128.5340676408734
 20
103.4624546761507
 30
0.0
  0
VERTEX
  5
386
  8
0
  6
CONTINUOUS
 62
     7
 10
128.5101227119299
 20
103.4570776625464
 30
0.0
  0
VERTEX
  5
387
  8
0
  6
CONTINUOUS
 62
     7
 10
128.4864704632543
 20
103.4505322038152
 30
0.0
  0
VERTEX
  5
388
  8
0
  6
CONTINUOUS
 62
     7
 10
128.4631678751854
 20
103.4428340685406
 30
0.0
  0
VERTEX
  5
389
  8
0
  6
CONTINUOUS
 62
     7
 10
128.440271085699
 20
103.4340018022048
 30
0.0
  0
VERTEX
  5
38A
  8
0
  6
CONTINUOUS
 62
     7
 10
128.4178352551664
 20
103.4240566825108
 30
0.0
  0
VERTEX
  5
38B
  8
0
  6
CONTINUOUS
 62
     7
 10
128.3959144334685
 20
103.4130226681233
 30
0.0
  0
VERTEX
  5
38C
  8
0
  6
CONTINUOUS
 62
     7
 10
128.3745614297849
 20
103.4009263409493
 30
0.0
  0
VERTEX
  5
38D
  8
0
  6
CONTINUOUS
 62
     7
 10
128.3538276853717
 20
103.3877968421004
 30
0.0
  0
VERTEX
  5
38E
  8
0
  6
CONTINUOUS
 62
     7
 10
128.3337631496353
 20
103.3736658016894
 30
0.0
  0
VERTEX
  5
38F
  8
0
  6
CONTINUOUS
 62
     7
 10
128.3144161597997
 20
103.3585672626305
 30
0.0
  0
VERTEX
  5
390
  8
0
  6
CONTINUOUS
 62
     7
 10
128.295833324458
 20
103.3425375986266
 30
0.0
  0
VERTEX
  5
391
  8
0
  6
CONTINUOUS
 62
     7
 10
128.2780594112882
 20
103.3256154265424
 30
0.0
  0
VERTEX
  5
392
  8
0
  6
CONTINUOUS
 62
     7
 10
128.261137239204
 20
103.3078415133726
 30
0.0
  0
VERTEX
  5
393
  8
0
  6
CONTINUOUS
 62
     7
 10
128.2451075752002
 20
103.2892586780309
 30
0.0
  0
VERTEX
  5
394
  8
0
  6
CONTINUOUS
 62
     7
 10
128.2300090361412
 20
103.2699116881953
 30
0.0
  0
VERTEX
  5
395
  8
0
  6
CONTINUOUS
 62
     7
 10
128.2158779957302
 20
103.2498471524589
 30
0.0
  0
VERTEX
  5
396
  8
0
  6
CONTINUOUS
 62
     7
 10
128.2027484968814
 20
103.2291134080457
 30
0.0
  0
VERTEX
  5
397
  8
0
  6
CONTINUOUS
 62
     7
 10
128.1906521697073
 20
103.2077604043621
 30
0.0
  0
VERTEX
  5
398
  8
0
  6
CONTINUOUS
 62
     7
 10
128.1796181553198
 20
103.1858395826642
 30
0.0
  0
VERTEX
  5
399
  8
0
  6
CONTINUOUS
 62
     7
 10
128.1696730356259
 20
103.1634037521317
 30
0.0
  0
VERTEX
  5
39A
  8
0
  6
CONTINUOUS
 62
     7
 10
128.16084076929
 20
103.1405069626452
 30
0.0
  0
VERTEX
  5
39B
  8
0
  6
CONTINUOUS
 62
     7
 10
128.1531426340154
 20
103.1172043745763
 30
0.0
  0
VERTEX
  5
39C
  8
0
  6
CONTINUOUS
 62
     7
 10
128.1465971752843
 20
103.0935521259008
 30
0.0
  0
VERTEX
  5
39D
  8
0
  6
CONTINUOUS
 62
     7
 10
128.1412201616799
 20
103.0696071969572
 30
0.0
  0
VERTEX
  5
39E
  8
0
  6
CONTINUOUS
 62
     7
 10
128.1370245468991
 20
103.0454272731768
 30
0.0
  0
VERTEX
  5
39F
  8
0
  6
CONTINUOUS
 62
     7
 10
128.1340204385454
 20
103.0210706061139
 30
0.0
  0
VERTEX
  5
3A0
  8
0
  6
CONTINUOUS
 62
     7
 10
128.1322150737789
 20
102.9965958731128
 30
0.0
  0
VERTEX
  5
3A1
  8
0
  6
CONTINUOUS
 62
     7
 10
128.1316128018815
 20
102.9720620359491
 30
0.0
  0
SEQEND
  5
829
  8
0
  6
CONTINUOUS
 62
     7
  0
POLYLINE
  5
D1
  8
0
  6
CONTINUOUS
 62
     7
 66
     1
 10
0.0
 20
0.0
 30
0.0
  0
VERTEX
  5
3A2
  8
0
  6
CONTINUOUS
 62
     7
 10
126.2976382056659
 20
105.272062035949
 30
0.0
  0
VERTEX
  5
3A3
  8
0
  6
CONTINUOUS
 62
     7
 10
126.273847247754
 20
105.2726283663575
 30
0.0
  0
VERTEX
  5
3A4
  8
0
  6
CONTINUOUS
 62
     7
 10
126.2501101840138
 20
105.2743260746624
 30
0.0
  0
VERTEX
  5
3A5
  8
0
  6
CONTINUOUS
 62
     7
 10
126.2264807865293
 20
105.2771513150085
 30
0.0
  0
VERTEX
  5
3A6
  8
0
  6
CONTINUOUS
 62
     7
 10
126.2030125834857
 20
105.2810976873176
 30
0.0
  0
VERTEX
  5
3A7
  8
0
  6
CONTINUOUS
 62
     7
 10
126.1797587379112
 20
105.2861562517872
 30
0.0
  0
VERTEX
  5
3A8
  8
0
  6
CONTINUOUS
 62
     7
 10
126.1567719272452
 20
105.2923155491417
 30
0.0
  0
VERTEX
  5
3A9
  8
0
  6
CONTINUOUS
 62
     7
 10
126.1341042240072
 20
105.2995616265916
 30
0.0
  0
VERTEX
  5
3AA
  8
0
  6
CONTINUOUS
 62
     7
 10
126.1118069778357
 20
105.3078780694409
 30
0.0
  0
VERTEX
  5
3AB
  8
0
  6
CONTINUOUS
 62
     7
 10
126.089930699165
 20
105.3172460382717
 30
0.0
  0
VERTEX
  5
3AC
  8
0
  6
CONTINUOUS
 62
     7
 10
126.0685249448022
 20
105.3276443116215
 30
0.0
  0
VERTEX
  5
3AD
  8
0
  6
CONTINUOUS
 62
     7
 10
126.0476382056659
 20
105.3390493340568
 30
0.0
  0
VERTEX
  5
3AE
  8
0
  6
CONTINUOUS
 62
     7
 10
126.0273177969381
 20
105.3514352695334
 30
0.0
  0
VERTEX
  5
3AF
  8
0
  6
CONTINUOUS
 62
     7
 10
126.0076097508803
 20
105.3647740599238
 30
0.0
  0
VERTEX
  5
3B0
  8
0
  6
CONTINUOUS
 62
     7
 10
125.9885587125556
 20
105.3790354885776
 30
0.0
  0
VERTEX
  5
3B1
  8
0
  6
CONTINUOUS
 62
     7
 10
125.9702078386933
 20
105.3941872487718
 30
0.0
  0
VERTEX
  5
3B2
  8
0
  6
CONTINUOUS
 62
     7
 10
125.9525986999249
 20
105.4101950168965
 30
0.0
  0
VERTEX
  5
3B3
  8
0
  6
CONTINUOUS
 62
     7
 10
125.9357711866134
 20
105.4270225302079
 30
0.0
  0
VERTEX
  5
3B4
  8
0
  6
CONTINUOUS
 62
     7
 10
125.9197634184888
 20
105.4446316689763
 30
0.0
  0
VERTEX
  5
3B5
  8
0
  6
CONTINUOUS
 62
     7
 10
125.9046116582945
 20
105.4629825428387
 30
0.0
  0
VERTEX
  5
3B6
  8
0
  6
CONTINUOUS
 62
     7
 10
125.8903502296408
 20
105.4820335811634
 30
0.0
  0
VERTEX
  5
3B7
  8
0
  6
CONTINUOUS
 62
     7
 10
125.8770114392503
 20
105.5017416272212
 30
0.0
  0
VERTEX
  5
3B8
  8
0
  6
CONTINUOUS
 62
     7
 10
125.8646255037737
 20
105.522062035949
 30
0.0
  0
VERTEX
  5
3B9
  8
0
  6
CONTINUOUS
 62
     7
 10
125.8532204813385
 20
105.5429487750853
 30
0.0
  0
VERTEX
  5
3BA
  8
0
  6
CONTINUOUS
 62
     7
 10
125.8428222079886
 20
105.564354529448
 30
0.0
  0
VERTEX
  5
3BB
  8
0
  6
CONTINUOUS
 62
     7
 10
125.8334542391579
 20
105.5862308081188
 30
0.0
  0
VERTEX
  5
3BC
  8
0
  6
CONTINUOUS
 62
     7
 10
125.8251377963086
 20
105.6085280542903
 30
0.0
  0
VERTEX
  5
3BD
  8
0
  6
CONTINUOUS
 62
     7
 10
125.8178917188587
 20
105.6311957575283
 30
0.0
  0
VERTEX
  5
3BE
  8
0
  6
CONTINUOUS
 62
     7
 10
125.8117324215041
 20
105.6541825681942
 30
0.0
  0
VERTEX
  5
3BF
  8
0
  6
CONTINUOUS
 62
     7
 10
125.8066738570346
 20
105.6774364137688
 30
0.0
  0
VERTEX
  5
3C0
  8
0
  6
CONTINUOUS
 62
     7
 10
125.8027274847255
 20
105.7009046168123
 30
0.0
  0
VERTEX
  5
3C1
  8
0
  6
CONTINUOUS
 62
     7
 10
125.7999022443794
 20
105.7245340142969
 30
0.0
  0
VERTEX
  5
3C2
  8
0
  6
CONTINUOUS
 62
     7
 10
125.7982045360744
 20
105.7482710780371
 30
0.0
  0
VERTEX
  5
3C3
  8
0
  6
CONTINUOUS
 62
     7
 10
125.7976382056659
 20
105.772062035949
 30
0.0
  0
VERTEX
  5
3C4
  8
0
  6
CONTINUOUS
 62
     7
 10
125.7982045360744
 20
105.7958529938608
 30
0.0
  0
VERTEX
  5
3C5
  8
0
  6
CONTINUOUS
 62
     7
 10
125.7999022443794
 20
105.8195900576011
 30
0.0
  0
VERTEX
  5
3C6
  8
0
  6
CONTINUOUS
 62
     7
 10
125.8027274847255
 20
105.8432194550856
 30
0.0
  0
VERTEX
  5
3C7
  8
0
  6
CONTINUOUS
 62
     7
 10
125.8066738570346
 20
105.8666876581292
 30
0.0
  0
VERTEX
  5
3C8
  8
0
  6
CONTINUOUS
 62
     7
 10
125.8117324215041
 20
105.8899415037037
 30
0.0
  0
VERTEX
  5
3C9
  8
0
  6
CONTINUOUS
 62
     7
 10
125.8178917188586
 20
105.9129283143697
 30
0.0
  0
VERTEX
  5
3CA
  8
0
  6
CONTINUOUS
 62
     7
 10
125.8251377963086
 20
105.9355960176077
 30
0.0
  0
VERTEX
  5
3CB
  8
0
  6
CONTINUOUS
 62
     7
 10
125.8334542391579
 20
105.9578932637791
 30
0.0
  0
VERTEX
  5
3CC
  8
0
  6
CONTINUOUS
 62
     7
 10
125.8428222079886
 20
105.9797695424499
 30
0.0
  0
VERTEX
  5
3CD
  8
0
  6
CONTINUOUS
 62
     7
 10
125.8532204813385
 20
106.0011752968127
 30
0.0
  0
VERTEX
  5
3CE
  8
0
  6
CONTINUOUS
 62
     7
 10
125.8646255037737
 20
106.022062035949
 30
0.0
  0
SEQEND
  5
82A
  8
0
  6
CONTINUOUS
 62
     7
  0
LINE
  5
D2
  8
0
  6
CONTINUOUS
 62
     7
 10
124.1316128018815
 20
103.8679168475162
 30
0.0
 11
123.3807441871101
 21
104.3014310443806
 31
0.0
  0
LINE
  5
D3
  8
0
  6
CONTINUOUS
 62
     7
 10
123.3807441871101
 20
104.3014310443806
 30
0.0
 11
123.4895062036512
 21
106.3767339484349
 31
0.0
  0
ARC
  5
D4
  8
0
  6
CONTINUOUS
 62
     7
 10
125.4867652731604
 20
106.272062035949
 30
0.0
 40
2.000000000000001
 50
90.0
 51
176.9999999999999
  0
LINE
  5
D5
  8
0
  6
CONTINUOUS
 62
     7
 10
125.4867652731604
 20
108.272062035949
 30
0.0
 11
126.2976382056659
 21
108.272062035949
 31
0.0
  0
POLYLINE
  5
D6
  8
0
  6
CONTINUOUS
 62
     7
 66
     1
 10
0.0
 20
0.0
 30
0.0
  0
VERTEX
  5
3CF
  8
0
  6
CONTINUOUS
 62
     7
 10
126.7306509075581
 20
107.522062035949
 30
0.0
  0
VERTEX
  5
3D0
  8
0
  6
CONTINUOUS
 62
     7
 10
126.7420559299934
 20
107.5429487750853
 30
0.0
  0
VERTEX
  5
3D1
  8
0
  6
CONTINUOUS
 62
     7
 10
126.7524542033432
 20
107.5643545294481
 30
0.0
  0
VERTEX
  5
3D2
  8
0
  6
CONTINUOUS
 62
     7
 10
126.761822172174
 20
107.5862308081188
 30
0.0
  0
VERTEX
  5
3D3
  8
0
  6
CONTINUOUS
 62
     7
 10
126.7701386150233
 20
107.6085280542903
 30
0.0
  0
VERTEX
  5
3D4
  8
0
  6
CONTINUOUS
 62
     7
 10
126.7773846924732
 20
107.6311957575283
 30
0.0
  0
VERTEX
  5
3D5
  8
0
  6
CONTINUOUS
 62
     7
 10
126.7835439898277
 20
107.6541825681943
 30
0.0
  0
VERTEX
  5
3D6
  8
0
  6
CONTINUOUS
 62
     7
 10
126.7886025542973
 20
107.6774364137688
 30
0.0
  0
VERTEX
  5
3D7
  8
0
  6
CONTINUOUS
 62
     7
 10
126.7925489266064
 20
107.7009046168124
 30
0.0
  0
VERTEX
  5
3D8
  8
0
  6
CONTINUOUS
 62
     7
 10
126.7953741669525
 20
107.7245340142969
 30
0.0
  0
VERTEX
  5
3D9
  8
0
  6
CONTINUOUS
 62
     7
 10
126.7970718752574
 20
107.7482710780371
 30
0.0
  0
VERTEX
  5
3DA
  8
0
  6
CONTINUOUS
 62
     7
 10
126.7976382056659
 20
107.772062035949
 30
0.0
  0
VERTEX
  5
3DB
  8
0
  6
CONTINUOUS
 62
     7
 10
126.7970718752574
 20
107.7958529938609
 30
0.0
  0
VERTEX
  5
3DC
  8
0
  6
CONTINUOUS
 62
     7
 10
126.7953741669525
 20
107.8195900576011
 30
0.0
  0
VERTEX
  5
3DD
  8
0
  6
CONTINUOUS
 62
     7
 10
126.7925489266064
 20
107.8432194550857
 30
0.0
  0
VERTEX
  5
3DE
  8
0
  6
CONTINUOUS
 62
     7
 10
126.7886025542973
 20
107.8666876581292
 30
0.0
  0
VERTEX
  5
3DF
  8
0
  6
CONTINUOUS
 62
     7
 10
126.7835439898277
 20
107.8899415037037
 30
0.0
  0
VERTEX
  5
3E0
  8
0
  6
CONTINUOUS
 62
     7
 10
126.7773846924732
 20
107.9129283143697
 30
0.0
  0
VERTEX
  5
3E1
  8
0
  6
CONTINUOUS
 62
     7
 10
126.7701386150233
 20
107.9355960176077
 30
0.0
  0
VERTEX
  5
3E2
  8
0
  6
CONTINUOUS
 62
     7
 10
126.761822172174
 20
107.9578932637792
 30
0.0
  0
VERTEX
  5
3E3
  8
0
  6
CONTINUOUS
 62
     7
 10
126.7524542033432
 20
107.97976954245
 30
0.0
  0
VERTEX
  5
3E4
  8
0
  6
CONTINUOUS
 62
     7
 10
126.7420559299934
 20
108.0011752968127
 30
0.0
  0
VERTEX
  5
3E5
  8
0
  6
CONTINUOUS
 62
     7
 10
126.7306509075581
 20
108.022062035949
 30
0.0
  0
VERTEX
  5
3E6
  8
0
  6
CONTINUOUS
 62
     7
 10
126.7182649720815
 20
108.0423824446768
 30
0.0
  0
VERTEX
  5
3E7
  8
0
  6
CONTINUOUS
 62
     7
 10
126.7049261816911
 20
108.0620904907346
 30
0.0
  0
VERTEX
  5
3E8
  8
0
  6
CONTINUOUS
 62
     7
 10
126.6906647530373
 20
108.0811415290593
 30
0.0
  0
VERTEX
  5
3E9
  8
0
  6
CONTINUOUS
 62
     7
 10
126.6755129928431
 20
108.0994924029216
 30
0.0
  0
VERTEX
  5
3EA
  8
0
  6
CONTINUOUS
 62
     7
 10
126.6595052247185
 20
108.1171015416901
 30
0.0
  0
VERTEX
  5
3EB
  8
0
  6
CONTINUOUS
 62
     7
 10
126.642677711407
 20
108.1339290550015
 30
0.0
  0
VERTEX
  5
3EC
  8
0
  6
CONTINUOUS
 62
     7
 10
126.6250685726386
 20
108.1499368231261
 30
0.0
  0
VERTEX
  5
3ED
  8
0
  6
CONTINUOUS
 62
     7
 10
126.6067176987762
 20
108.1650885833204
 30
0.0
  0
VERTEX
  5
3EE
  8
0
  6
CONTINUOUS
 62
     7
 10
126.5876666604515
 20
108.1793500119742
 30
0.0
  0
VERTEX
  5
3EF
  8
0
  6
CONTINUOUS
 62
     7
 10
126.5679586143937
 20
108.1926888023646
 30
0.0
  0
VERTEX
  5
3F0
  8
0
  6
CONTINUOUS
 62
     7
 10
126.5476382056659
 20
108.2050747378412
 30
0.0
  0
VERTEX
  5
3F1
  8
0
  6
CONTINUOUS
 62
     7
 10
126.5267514665296
 20
108.2164797602765
 30
0.0
  0
VERTEX
  5
3F2
  8
0
  6
CONTINUOUS
 62
     7
 10
126.5053457121669
 20
108.2268780336263
 30
0.0
  0
VERTEX
  5
3F3
  8
0
  6
CONTINUOUS
 62
     7
 10
126.4834694334961
 20
108.2362460024571
 30
0.0
  0
VERTEX
  5
3F4
  8
0
  6
CONTINUOUS
 62
     7
 10
126.4611721873246
 20
108.2445624453063
 30
0.0
  0
VERTEX
  5
3F5
  8
0
  6
CONTINUOUS
 62
     7
 10
126.4385044840866
 20
108.2518085227563
 30
0.0
  0
VERTEX
  5
3F6
  8
0
  6
CONTINUOUS
 62
     7
 10
126.4155176734206
 20
108.2579678201108
 30
0.0
  0
VERTEX
  5
3F7
  8
0
  6
CONTINUOUS
 62
     7
 10
126.3922638278461
 20
108.2630263845804
 30
0.0
  0
VERTEX
  5
3F8
  8
0
  6
CONTINUOUS
 62
     7
 10
126.3687956248026
 20
108.2669727568895
 30
0.0
  0
VERTEX
  5
3F9
  8
0
  6
CONTINUOUS
 62
     7
 10
126.345166227318
 20
108.2697979972356
 30
0.0
  0
VERTEX
  5
3FA
  8
0
  6
CONTINUOUS
 62
     7
 10
126.3214291635778
 20
108.2714957055405
 30
0.0
  0
VERTEX
  5
3FB
  8
0
  6
CONTINUOUS
 62
     7
 10
126.2976382056659
 20
108.272062035949
 30
0.0
  0
SEQEND
  5
82B
  8
0
  6
CONTINUOUS
 62
     7
  0
LINE
  5
D7
  8
0
  6
CONTINUOUS
 62
     7
 10
126.7306509075581
 20
107.522062035949
 30
0.0
 11
125.8646255037737
 21
106.022062035949
 31
0.0
  0
POLYLINE
  5
D8
  8
0
  6
CONTINUOUS
 62
     7
 66
     1
 10
0.0
 20
0.0
 30
0.0
  0
VERTEX
  5
3FC
  8
0
  6
CONTINUOUS
 62
     7
 10
91.58161280188153
 20
71.73904933405682
 30
0.0
  0
VERTEX
  5
3FD
  8
0
  6
CONTINUOUS
 62
     7
 10
91.60249954101783
 20
71.75045435649206
 30
0.0
  0
VERTEX
  5
3FE
  8
0
  6
CONTINUOUS
 62
     7
 10
91.6239052953806
 20
71.76085262984186
 30
0.0
  0
VERTEX
  5
3FF
  8
0
  6
CONTINUOUS
 62
     7
 10
91.64578157405137
 20
71.77022059867264
 30
0.0
  0
VERTEX
  5
400
  8
0
  6
CONTINUOUS
 62
     7
 10
91.66807882022283
 20
71.77853704152194
 30
0.0
  0
VERTEX
  5
401
  8
0
  6
CONTINUOUS
 62
     7
 10
91.69074652346082
 20
71.78578311897185
 30
0.0
  0
VERTEX
  5
402
  8
0
  6
CONTINUOUS
 62
     7
 10
91.71373333412683
 20
71.79194241632638
 30
0.0
  0
VERTEX
  5
403
  8
0
  6
CONTINUOUS
 62
     7
 10
91.73698717970133
 20
71.79700098079596
 30
0.0
  0
VERTEX
  5
404
  8
0
  6
CONTINUOUS
 62
     7
 10
91.7604553827449
 20
71.80094735310506
 30
0.0
  0
VERTEX
  5
405
  8
0
  6
CONTINUOUS
 62
     7
 10
91.78408478022945
 20
71.80377259345114
 30
0.0
  0
VERTEX
  5
406
  8
0
  6
CONTINUOUS
 62
     7
 10
91.80782184396966
 20
71.8054703017561
 30
0.0
  0
VERTEX
  5
407
  8
0
  6
CONTINUOUS
 62
     7
 10
91.83161280188153
 20
71.8060366321646
 30
0.0
  0
VERTEX
  5
408
  8
0
  6
CONTINUOUS
 62
     7
 10
91.8554037597934
 20
71.8054703017561
 30
0.0
  0
VERTEX
  5
409
  8
0
  6
CONTINUOUS
 62
     7
 10
91.87914082353363
 20
71.80377259345114
 30
0.0
  0
VERTEX
  5
40A
  8
0
  6
CONTINUOUS
 62
     7
 10
91.90277022101819
 20
71.80094735310506
 30
0.0
  0
VERTEX
  5
40B
  8
0
  6
CONTINUOUS
 62
     7
 10
91.92623842406175
 20
71.79700098079596
 30
0.0
  0
VERTEX
  5
40C
  8
0
  6
CONTINUOUS
 62
     7
 10
91.94949226963625
 20
71.79194241632638
 30
0.0
  0
VERTEX
  5
40D
  8
0
  6
CONTINUOUS
 62
     7
 10
91.97247908030226
 20
71.78578311897185
 30
0.0
  0
VERTEX
  5
40E
  8
0
  6
CONTINUOUS
 62
     7
 10
91.99514678354025
 20
71.77853704152194
 30
0.0
  0
VERTEX
  5
40F
  8
0
  6
CONTINUOUS
 62
     7
 10
92.01744402971171
 20
71.77022059867264
 30
0.0
  0
VERTEX
  5
410
  8
0
  6
CONTINUOUS
 62
     7
 10
92.03932030838247
 20
71.76085262984186
 30
0.0
  0
VERTEX
  5
411
  8
0
  6
CONTINUOUS
 62
     7
 10
92.06072606274525
 20
71.75045435649206
 30
0.0
  0
VERTEX
  5
412
  8
0
  6
CONTINUOUS
 62
     7
 10
92.08161280188153
 20
71.73904933405682
 30
0.0
  0
VERTEX
  5
413
  8
0
  6
CONTINUOUS
 62
     7
 10
92.10193321060933
 20
71.72666339858019
 30
0.0
  0
VERTEX
  5
414
  8
0
  6
CONTINUOUS
 62
     7
 10
92.12164125666713
 20
71.71332460818977
 30
0.0
  0
VERTEX
  5
415
  8
0
  6
CONTINUOUS
 62
     7
 10
92.14069229499185
 20
71.69906317953598
 30
0.0
  0
VERTEX
  5
416
  8
0
  6
CONTINUOUS
 62
     7
 10
92.15904316885417
 20
71.68391141934173
 30
0.0
  0
VERTEX
  5
417
  8
0
  6
CONTINUOUS
 62
     7
 10
92.17665230762259
 20
71.66790365121715
 30
0.0
  0
VERTEX
  5
418
  8
0
  6
CONTINUOUS
 62
     7
 10
92.19347982093407
 20
71.65107613790565
 30
0.0
  0
VERTEX
  5
419
  8
0
  6
CONTINUOUS
 62
     7
 10
92.20948758905867
 20
71.63346699913726
 30
0.0
  0
VERTEX
  5
41A
  8
0
  6
CONTINUOUS
 62
     7
 10
92.22463934925293
 20
71.61511612527491
 30
0.0
  0
VERTEX
  5
41B
  8
0
  6
CONTINUOUS
 62
     7
 10
92.23890077790671
 20
71.59606508695019
 30
0.0
  0
VERTEX
  5
41C
  8
0
  6
CONTINUOUS
 62
     7
 10
92.25223956829713
 20
71.5763570408924
 30
0.0
  0
VERTEX
  5
41D
  8
0
  6
CONTINUOUS
 62
     7
 10
92.26462550377376
 20
71.5560366321646
 30
0.0
  0
VERTEX
  5
41E
  8
0
  6
CONTINUOUS
 62
     7
 10
92.276030526209
 20
71.5351498930283
 30
0.0
  0
VERTEX
  5
41F
  8
0
  6
CONTINUOUS
 62
     7
 10
92.28642879955879
 20
71.51374413866554
 30
0.0
  0
VERTEX
  5
420
  8
0
  6
CONTINUOUS
 62
     7
 10
92.29579676838956
 20
71.49186785999477
 30
0.0
  0
VERTEX
  5
421
  8
0
  6
CONTINUOUS
 62
     7
 10
92.30411321123889
 20
71.46957061382332
 30
0.0
  0
VERTEX
  5
422
  8
0
  6
CONTINUOUS
 62
     7
 10
92.31135928868879
 20
71.44690291058532
 30
0.0
  0
VERTEX
  5
423
  8
0
  6
CONTINUOUS
 62
     7
 10
92.3175185860433
 20
71.42391609991931
 30
0.0
  0
VERTEX
  5
424
  8
0
  6
CONTINUOUS
 62
     7
 10
92.3225771505129
 20
71.40066225434481
 30
0.0
  0
VERTEX
  5
425
  8
0
  6
CONTINUOUS
 62
     7
 10
92.326523522822
 20
71.37719405130125
 30
0.0
  0
VERTEX
  5
426
  8
0
  6
CONTINUOUS
 62
     7
 10
92.32934876316807
 20
71.35356465381669
 30
0.0
  0
VERTEX
  5
427
  8
0
  6
CONTINUOUS
 62
     7
 10
92.33104647147304
 20
71.32982759007648
 30
0.0
  0
VERTEX
  5
428
  8
0
  6
CONTINUOUS
 62
     7
 10
92.33161280188153
 20
71.3060366321646
 30
0.0
  0
SEQEND
  5
82C
  8
0
  6
CONTINUOUS
 62
     7
  0
LINE
  5
D9
  8
0
  6
CONTINUOUS
 62
     7
 10
90.0816128018815
 20
70.87302393027237
 30
0.0
 11
91.58161280188153
 21
71.73904933405682
 31
0.0
  0
POLYLINE
  5
DA
  8
0
  6
CONTINUOUS
 62
     7
 66
     1
 10
0.0
 20
0.0
 30
0.0
  0
VERTEX
  5
429
  8
0
  6
CONTINUOUS
 62
     7
 10
89.3316128018815
 20
71.30603663216459
 30
0.0
  0
VERTEX
  5
42A
  8
0
  6
CONTINUOUS
 62
     7
 10
89.33217913229001
 20
71.28224567425272
 30
0.0
  0
VERTEX
  5
42B
  8
0
  6
CONTINUOUS
 62
     7
 10
89.33387684059495
 20
71.25850861051248
 30
0.0
  0
VERTEX
  5
42C
  8
0
  6
CONTINUOUS
 62
     7
 10
89.33670208094105
 20
71.23487921302794
 30
0.0
  0
VERTEX
  5
42D
  8
0
  6
CONTINUOUS
 62
     7
 10
89.34064845325015
 20
71.21141100998437
 30
0.0
  0
VERTEX
  5
42E
  8
0
  6
CONTINUOUS
 62
     7
 10
89.34570701771973
 20
71.18815716440987
 30
0.0
  0
VERTEX
  5
42F
  8
0
  6
CONTINUOUS
 62
     7
 10
89.35186631507426
 20
71.16517035374386
 30
0.0
  0
VERTEX
  5
430
  8
0
  6
CONTINUOUS
 62
     7
 10
89.35911239252417
 20
71.14250265050588
 30
0.0
  0
VERTEX
  5
431
  8
0
  6
CONTINUOUS
 62
     7
 10
89.36742883537347
 20
71.12020540433441
 30
0.0
  0
VERTEX
  5
432
  8
0
  6
CONTINUOUS
 62
     7
 10
89.37679680420425
 20
71.09832912566365
 30
0.0
  0
VERTEX
  5
433
  8
0
  6
CONTINUOUS
 62
     7
 10
89.38719507755405
 20
71.07692337130088
 30
0.0
  0
VERTEX
  5
434
  8
0
  6
CONTINUOUS
 62
     7
 10
89.39860009998928
 20
71.05603663216459
 30
0.0
  0
VERTEX
  5
435
  8
0
  6
CONTINUOUS
 62
     7
 10
89.41098603546592
 20
71.03571622343678
 30
0.0
  0
VERTEX
  5
436
  8
0
  6
CONTINUOUS
 62
     7
 10
89.42432482585635
 20
71.01600817737899
 30
0.0
  0
VERTEX
  5
437
  8
0
  6
CONTINUOUS
 62
     7
 10
89.4385862545101
 20
70.99695713905427
 30
0.0
  0
VERTEX
  5
438
  8
0
  6
CONTINUOUS
 62
     7
 10
89.45373801470438
 20
70.97860626519196
 30
0.0
  0
VERTEX
  5
439
  8
0
  6
CONTINUOUS
 62
     7
 10
89.46974578282897
 20
70.96099712642354
 30
0.0
  0
VERTEX
  5
43A
  8
0
  6
CONTINUOUS
 62
     7
 10
89.48657329614045
 20
70.94416961311205
 30
0.0
  0
VERTEX
  5
43B
  8
0
  6
CONTINUOUS
 62
     7
 10
89.50418243490886
 20
70.92816184498746
 30
0.0
  0
VERTEX
  5
43C
  8
0
  6
CONTINUOUS
 62
     7
 10
89.5225333087712
 20
70.9130100847932
 30
0.0
  0
VERTEX
  5
43D
  8
0
  6
CONTINUOUS
 62
     7
 10
89.5415843470959
 20
70.89874865613942
 30
0.0
  0
VERTEX
  5
43E
  8
0
  6
CONTINUOUS
 62
     7
 10
89.5612923931537
 20
70.885409865749
 30
0.0
  0
VERTEX
  5
43F
  8
0
  6
CONTINUOUS
 62
     7
 10
89.5816128018815
 20
70.87302393027237
 30
0.0
  0
VERTEX
  5
440
  8
0
  6
CONTINUOUS
 62
     7
 10
89.6024995410178
 20
70.86161890783713
 30
0.0
  0
VERTEX
  5
441
  8
0
  6
CONTINUOUS
 62
     7
 10
89.62390529538055
 20
70.85122063448733
 30
0.0
  0
VERTEX
  5
442
  8
0
  6
CONTINUOUS
 62
     7
 10
89.64578157405134
 20
70.84185266565655
 30
0.0
  0
VERTEX
  5
443
  8
0
  6
CONTINUOUS
 62
     7
 10
89.66807882022279
 20
70.83353622280724
 30
0.0
  0
VERTEX
  5
444
  8
0
  6
CONTINUOUS
 62
     7
 10
89.69074652346079
 20
70.82629014535733
 30
0.0
  0
VERTEX
  5
445
  8
0
  6
CONTINUOUS
 62
     7
 10
89.71373333412679
 20
70.82013084800282
 30
0.0
  0
VERTEX
  5
446
  8
0
  6
CONTINUOUS
 62
     7
 10
89.7369871797013
 20
70.81507228353323
 30
0.0
  0
VERTEX
  5
447
  8
0
  6
CONTINUOUS
 62
     7
 10
89.76045538274485
 20
70.81112591122412
 30
0.0
  0
VERTEX
  5
448
  8
0
  6
CONTINUOUS
 62
     7
 10
89.7840847802294
 20
70.80830067087804
 30
0.0
  0
VERTEX
  5
449
  8
0
  6
CONTINUOUS
 62
     7
 10
89.80782184396962
 20
70.80660296257308
 30
0.0
  0
VERTEX
  5
44A
  8
0
  6
CONTINUOUS
 62
     7
 10
89.83161280188149
 20
70.80603663216459
 30
0.0
  0
VERTEX
  5
44B
  8
0
  6
CONTINUOUS
 62
     7
 10
89.85540375979336
 20
70.80660296257308
 30
0.0
  0
VERTEX
  5
44C
  8
0
  6
CONTINUOUS
 62
     7
 10
89.87914082353359
 20
70.80830067087804
 30
0.0
  0
VERTEX
  5
44D
  8
0
  6
CONTINUOUS
 62
     7
 10
89.90277022101814
 20
70.81112591122411
 30
0.0
  0
VERTEX
  5
44E
  8
0
  6
CONTINUOUS
 62
     7
 10
89.92623842406171
 20
70.81507228353323
 30
0.0
  0
VERTEX
  5
44F
  8
0
  6
CONTINUOUS
 62
     7
 10
89.94949226963621
 20
70.82013084800282
 30
0.0
  0
VERTEX
  5
450
  8
0
  6
CONTINUOUS
 62
     7
 10
89.97247908030222
 20
70.82629014535733
 30
0.0
  0
VERTEX
  5
451
  8
0
  6
CONTINUOUS
 62
     7
 10
89.9951467835402
 20
70.83353622280724
 30
0.0
  0
VERTEX
  5
452
  8
0
  6
CONTINUOUS
 62
     7
 10
90.01744402971167
 20
70.84185266565655
 30
0.0
  0
VERTEX
  5
453
  8
0
  6
CONTINUOUS
 62
     7
 10
90.03932030838243
 20
70.85122063448732
 30
0.0
  0
VERTEX
  5
454
  8
0
  6
CONTINUOUS
 62
     7
 10
90.0607260627452
 20
70.86161890783711
 30
0.0
  0
VERTEX
  5
455
  8
0
  6
CONTINUOUS
 62
     7
 10
90.08161280188149
 20
70.87302393027237
 30
0.0
  0
SEQEND
  5
82D
  8
0
  6
CONTINUOUS
 62
     7
  0
LINE
  5
DB
  8
0
  6
CONTINUOUS
 62
     7
 10
89.3316128018815
 20
72.17206203594901
 30
0.0
 11
89.3316128018815
 21
71.30603663216459
 31
0.0
  0
ARC
  5
DC
  8
0
  6
CONTINUOUS
 62
     7
 10
91.3316128018815
 20
72.17206203594901
 30
0.0
 40
2.0
 50
90.0
 51
180.0
  0
LINE
  5
DD
  8
0
  6
CONTINUOUS
 62
     7
 10
92.17691226350227
 20
74.17206203594901
 30
0.0
 11
91.3316128018815
 21
74.17206203594901
 31
0.0
  0
ARC
  5
DE
  8
0
  6
CONTINUOUS
 62
     7
 10
92.17691226350227
 20
72.17206203594901
 30
0.0
 40
2.0
 50
40.54160187350426
 51
90.0
  0
LINE
  5
DF
  8
0
  6
CONTINUOUS
 62
     7
 10
128.2512696393449
 20
105.772062035949
 30
0.0
 11
129.1316128018815
 21
105.772062035949
 31
0.0
  0
LINE
  5
E0
  8
0
  6
CONTINUOUS
 62
     7
 10
127.4386108664089
 20
105.6505558424544
 30
0.0
 11
127.4353078009999
 21
105.272062035949
 31
0.0
  0
LINE
  5
E1
  8
0
  6
CONTINUOUS
 62
     7
 10
129.1316128018815
 20
105.272062035949
 30
0.0
 11
129.1316128018815
 21
105.772062035949
 31
0.0
  0
LINE
  5
E2
  8
0
  6
CONTINUOUS
 62
     7
 10
129.1316128018815
 20
105.772062035949
 30
0.0
 11
129.1316128018815
 21
107.1380874397336
 31
0.0
  0
LINE
  5
E3
  8
0
  6
CONTINUOUS
 62
     7
 10
89.50164414116574
 20
70.41552913707635
 30
0.0
 11
89.54378410552792
 21
70.8971911337726
 31
0.0
  0
LINE
  5
E4
  8
0
  6
CONTINUOUS
 62
     7
 10
89.7639805484444
 20
73.41404799318993
 30
0.0
 11
90.11977424654279
 21
77.48078857144748
 31
0.0
  0
LINE
  5
E5
  8
0
  6
CONTINUOUS
 62
     7
 10
92.33161280188152
 20
70.47206203594759
 30
0.0
 11
92.32355458905285
 21
71.39544176643942
 31
0.0
  0
LINE
  5
E6
  8
0
  6
CONTINUOUS
 62
     7
 10
92.29935613115592
 20
74.16831039205955
 30
0.0
 11
92.27044857202462
 21
77.48078857144748
 31
0.0
  0
LINE
  5
E7
  8
0
  6
CONTINUOUS
 62
     7
 10
92.33161280188153
 20
68.47206203594901
 30
0.0
 11
90.46558739809707
 21
68.47206203594914
 31
0.0
  0
POLYLINE
  5
E8
  8
0
  6
CONTINUOUS
 62
     7
 66
     1
 10
0.0
 20
0.0
 30
0.0
  0
VERTEX
  5
456
  8
0
  6
CONTINUOUS
 62
     7
 10
90.12663591306642
 20
77.55921777869678
 30
0.0
  0
VERTEX
  5
457
  8
0
  6
CONTINUOUS
 62
     7
 10
90.13174539097416
 20
77.60529148589474
 30
0.0
  0
VERTEX
  5
458
  8
0
  6
CONTINUOUS
 62
     7
 10
90.13898460523109
 20
77.65107889722573
 30
0.0
  0
VERTEX
  5
459
  8
0
  6
CONTINUOUS
 62
     7
 10
90.1483379995385
 20
77.69648162043023
 30
0.0
  0
VERTEX
  5
45A
  8
0
  6
CONTINUOUS
 62
     7
 10
90.1597854744504
 20
77.74140208990234
 30
0.0
  0
VERTEX
  5
45B
  8
0
  6
CONTINUOUS
 62
     7
 10
90.17330243056513
 20
77.785743776348
 30
0.0
  0
VERTEX
  5
45C
  8
0
  6
CONTINUOUS
 62
     7
 10
90.18885982138679
 20
77.82941139421611
 30
0.0
  0
VERTEX
  5
45D
  8
0
  6
CONTINUOUS
 62
     7
 10
90.20642421574313
 20
77.87231110645696
 30
0.0
  0
VERTEX
  5
45E
  8
0
  6
CONTINUOUS
 62
     7
 10
90.22595786962547
 20
77.91435072616811
 30
0.0
  0
VERTEX
  5
45F
  8
0
  6
CONTINUOUS
 62
     7
 10
90.2474188072967
 20
77.95543991469411
 30
0.0
  0
VERTEX
  5
460
  8
0
  6
CONTINUOUS
 62
     7
 10
90.27076091149249
 20
77.9954903757547
 30
0.0
  0
VERTEX
  5
461
  8
0
  6
CONTINUOUS
 62
     7
 10
90.29593402252246
 20
78.03441604518409
 30
0.0
  0
VERTEX
  5
462
  8
0
  6
CONTINUOUS
 62
     7
 10
90.32288404605804
 20
78.07213327587358
 30
0.0
  0
VERTEX
  5
463
  8
0
  6
CONTINUOUS
 62
     7
 10
90.35155306937527
 20
78.10856101752043
 30
0.0
  0
VERTEX
  5
464
  8
0
  6
CONTINUOUS
 62
     7
 10
90.3818794858032
 20
78.14362099079612
 30
0.0
  0
VERTEX
  5
465
  8
0
  6
CONTINUOUS
 62
     7
 10
90.41379812711
 20
78.17723785556042
 30
0.0
  0
VERTEX
  5
466
  8
0
  6
CONTINUOUS
 62
     7
 10
90.4472404035425
 20
78.20933937275923
 30
0.0
  0
VERTEX
  5
467
  8
0
  6
CONTINUOUS
 62
     7
 10
90.4821344512183
 20
78.23985655965862
 30
0.0
  0
VERTEX
  5
468
  8
0
  6
CONTINUOUS
 62
     7
 10
90.51840528655356
 20
78.26872383808137
 30
0.0
  0
VERTEX
  5
469
  8
0
  6
CONTINUOUS
 62
     7
 10
90.55597496739469
 20
78.29587917532744
 30
0.0
  0
VERTEX
  5
46A
  8
0
  6
CONTINUOUS
 62
     7
 10
90.5947627605078
 20
78.32126421747569
 30
0.0
  0
VERTEX
  5
46B
  8
0
  6
CONTINUOUS
 62
     7
 10
90.6346853150657
 20
78.34482441478013
 30
0.0
  0
VERTEX
  5
46C
  8
0
  6
CONTINUOUS
 62
     7
 10
90.67565684176
 20
78.36650913889162
 30
0.0
  0
VERTEX
  5
46D
  8
0
  6
CONTINUOUS
 62
     7
 10
90.71758929715318
 20
78.38627179165263
 30
0.0
  0
VERTEX
  5
46E
  8
0
  6
CONTINUOUS
 62
     7
 10
90.76039257287447
 20
78.4040699052319
 30
0.0
  0
VERTEX
  5
46F
  8
0
  6
CONTINUOUS
 62
     7
 10
90.8039746892532
 20
78.41986523338312
 30
0.0
  0
VERTEX
  5
470
  8
0
  6
CONTINUOUS
 62
     7
 10
90.84824199297323
 20
78.43362383363207
 30
0.0
  0
VERTEX
  5
471
  8
0
  6
CONTINUOUS
 62
     7
 10
90.89309935832401
 20
78.44531614021544
 30
0.0
  0
VERTEX
  5
472
  8
0
  6
CONTINUOUS
 62
     7
 10
90.9384503916155
 20
78.45491702761441
 30
0.0
  0
VERTEX
  5
473
  8
0
  6
CONTINUOUS
 62
     7
 10
90.98419763831794
 20
78.46240586454678
 30
0.0
  0
VERTEX
  5
474
  8
0
  6
CONTINUOUS
 62
     7
 10
91.03024279248125
 20
78.46776655830134
 30
0.0
  0
VERTEX
  5
475
  8
0
  6
CONTINUOUS
 62
     7
 10
91.07648690798402
 20
78.47098758931938
 30
0.0
  0
VERTEX
  5
476
  8
0
  6
CONTINUOUS
 62
     7
 10
91.12283061115816
 20
78.47206203594911
 30
0.0
  0
SEQEND
  5
82E
  8
0
  6
CONTINUOUS
 62
     7
  0
POLYLINE
  5
E9
  8
0
  6
CONTINUOUS
 62
     7
 66
     1
 10
0.0
 20
0.0
 30
0.0
  0
VERTEX
  5
477
  8
0
  6
CONTINUOUS
 62
     7
 10
91.27048664896047
 20
78.47206203594911
 30
0.0
  0
VERTEX
  5
478
  8
0
  6
CONTINUOUS
 62
     7
 10
91.31928194225942
 20
78.47087083614655
 30
0.0
  0
VERTEX
  5
479
  8
0
  6
CONTINUOUS
 62
     7
 10
91.3679609856709
 20
78.46730007465284
 30
0.0
  0
VERTEX
  5
47A
  8
0
  6
CONTINUOUS
 62
     7
 10
91.4164078062611
 20
78.46135825844874
 30
0.0
  0
VERTEX
  5
47B
  8
0
  6
CONTINUOUS
 62
     7
 10
91.46450698434376
 20
78.45305954331482
 30
0.0
  0
VERTEX
  5
47C
  8
0
  6
CONTINUOUS
 62
     7
 10
91.51214392845603
 20
78.44242370010676
 30
0.0
  0
VERTEX
  5
47D
  8
0
  6
CONTINUOUS
 62
     7
 10
91.55920514836104
 20
78.4294760676532
 30
0.0
  0
VERTEX
  5
47E
  8
0
  6
CONTINUOUS
 62
     7
 10
91.6055785254271
 20
78.41424749238858
 30
0.0
  0
VERTEX
  5
47F
  8
0
  6
CONTINUOUS
 62
     7
 10
91.651153579739
 20
78.39677425486461
 30
0.0
  0
VERTEX
  5
480
  8
0
  6
CONTINUOUS
 62
     7
 10
91.69582173330534
 20
78.37709798331548
 30
0.0
  0
VERTEX
  5
481
  8
0
  6
CONTINUOUS
 62
     7
 10
91.73947656873472
 20
78.35526555448271
 30
0.0
  0
VERTEX
  5
482
  8
0
  6
CONTINUOUS
 62
     7
 10
91.7820140827644
 20
78.3313289819362
 30
0.0
  0
VERTEX
  5
483
  8
0
  6
CONTINUOUS
 62
     7
 10
91.8233329340378
 20
78.30534529215687
 30
0.0
  0
VERTEX
  5
484
  8
0
  6
CONTINUOUS
 62
     7
 10
91.86333468453994
 20
78.277376388677
 30
0.0
  0
VERTEX
  5
485
  8
0
  6
CONTINUOUS
 62
     7
 10
91.90192403411625
 20
78.24748890460123
 30
0.0
  0
VERTEX
  5
486
  8
0
  6
CONTINUOUS
 62
     7
 10
91.9390090475155
 20
78.21575404385979
 30
0.0
  0
VERTEX
  5
487
  8
0
  6
CONTINUOUS
 62
     7
 10
91.97450137341643
 20
78.18224741157239
 30
0.0
  0
VERTEX
  5
488
  8
0
  6
CONTINUOUS
 62
     7
 10
92.00831645491584
 20
78.14704883392656
 30
0.0
  0
VERTEX
  5
489
  8
0
  6
CONTINUOUS
 62
     7
 10
92.04037373097691
 20
78.11024216799977
 30
0.0
  0
VERTEX
  5
48A
  8
0
  6
CONTINUOUS
 62
     7
 10
92.07059682835782
 20
78.0719151019784
 30
0.0
  0
VERTEX
  5
48B
  8
0
  6
CONTINUOUS
 62
     7
 10
92.09891374356327
 20
78.03215894624941
 30
0.0
  0
VERTEX
  5
48C
  8
0
  6
CONTINUOUS
 62
     7
 10
92.1252570143857
 20
77.9910684158625
 30
0.0
  0
VERTEX
  5
48D
  8
0
  6
CONTINUOUS
 62
     7
 10
92.14956388062708
 20
77.94874140488105
 30
0.0
  0
VERTEX
  5
48E
  8
0
  6
CONTINUOUS
 62
     7
 10
92.1717764336189
 20
77.90527875315928
 30
0.0
  0
VERTEX
  5
48F
  8
0
  6
CONTINUOUS
 62
     7
 10
92.19184175418366
 20
77.86078400610151
 30
0.0
  0
VERTEX
  5
490
  8
0
  6
CONTINUOUS
 62
     7
 10
92.20971203870957
 20
77.81536316797555
 30
0.0
  0
VERTEX
  5
491
  8
0
  6
CONTINUOUS
 62
     7
 10
92.22534471303786
 20
77.76912444936822
 30
0.0
  0
VERTEX
  5
492
  8
0
  6
CONTINUOUS
 62
     7
 10
92.23870253389134
 20
77.72217800938448
 30
0.0
  0
VERTEX
  5
493
  8
0
  6
CONTINUOUS
 62
     7
 10
92.24975367760292
 20
77.6746356932044
 30
0.0
  0
VERTEX
  5
494
  8
0
  6
CONTINUOUS
 62
     7
 10
92.25847181593218
 20
77.62661076562324
 30
0.0
  0
VERTEX
  5
495
  8
0
  6
CONTINUOUS
 62
     7
 10
92.26483617878979
 20
77.57821764120956
 30
0.0
  0
VERTEX
  5
496
  8
0
  6
CONTINUOUS
 62
     7
 10
92.26883160372019
 20
77.52957161172382
 30
0.0
  0
VERTEX
  5
497
  8
0
  6
CONTINUOUS
 62
     7
 10
92.27044857202463
 20
77.48078857144748
 30
0.0
  0
SEQEND
  5
82F
  8
0
  6
CONTINUOUS
 62
     7
  0
LINE
  5
EA
  8
0
  6
CONTINUOUS
 62
     7
 10
90.11977424654279
 20
77.48078857144748
 30
0.0
 11
90.12663591306642
 21
77.55921777869678
 31
0.0
  0
ARC
  5
EB
  8
0
  6
CONTINUOUS
 62
     7
 10
139.8316128018815
 20
107.7720620359491
 30
0.0
 40
0.5000000000000004
 50
0.0000000000000035
 51
90.00000000000159
  0
LINE
  5
EC
  8
0
  6
CONTINUOUS
 62
     7
 10
140.3316128018815
 20
105.7720620359491
 30
0.0
 11
140.3316128018815
 21
107.7720620359491
 31
0.0
  0
ARC
  5
ED
  8
0
  6
CONTINUOUS
 62
     7
 10
140.8316128018815
 20
105.7720620359491
 30
0.0
 40
0.5000000000000004
 50
180.0
 51
269.9999999999968
  0
LINE
  5
EE
  8
0
  6
CONTINUOUS
 62
     7
 10
166.0104259887958
 20
105.2720620359491
 30
0.0
 11
140.8316128018815
 21
105.2720620359491
 31
0.0
  0
LINE
  5
EF
  8
0
  6
CONTINUOUS
 62
     7
 10
129.1316128018815
 20
108.2720620359491
 30
0.0
 11
139.8316128018815
 21
108.2720620359491
 31
0.0
  0
LINE
  5
F0
  8
0
  6
CONTINUOUS
 62
     7
 10
166.0261343508192
 20
103.4720620359491
 30
0.0
 11
129.1316128018815
 21
103.4720620359491
 31
0.0
  0
ARC
  5
F1
  8
0
  6
CONTINUOUS
 62
     7
 10
181.2181254422159
 20
81.47206203594912
 30
0.0
 40
1.000000000000003
 50
0.4999999999999808
 51
89.99999999999524
  0
LINE
  5
F2
  8
0
  6
CONTINUOUS
 62
     7
 10
182.2328795635877
 20
79.78577053493383
 30
0.0
 11
182.21808736528
 21
81.48078857144749
 31
0.0
  0
LINE
  5
F3
  8
0
  6
CONTINUOUS
 62
     7
 10
166.2093985744251
 20
82.47206203594911
 30
0.0
 11
181.2181254422159
 21
82.47206203594911
 31
0.0
  0
LINE
  5
F4
  8
0
  6
CONTINUOUS
 62
     7
 10
166.2006717066344
 20
83.47206203594911
 30
0.0
 11
129.1316128018815
 21
83.47206203594912
 31
0.0
  0
LINE
  5
F5
  8
0
  6
CONTINUOUS
 62
     7
 10
167.0104640671816
 20
105.2720620359491
 30
0.0
 11
167.0305358631003
 21
102.9720620359491
 31
0.0
  0
POLYLINE
  5
F6
  8
0
  6
CONTINUOUS
 62
     7
 66
     1
 10
0.0
 20
0.0
 30
0.0
  0
VERTEX
  5
498
  8
0
  6
CONTINUOUS
 62
     7
 10
167.0305358631003
 20
102.9720620359491
 30
0.0
  0
VERTEX
  5
499
  8
0
  6
CONTINUOUS
 62
     7
 10
167.0297194647161
 20
102.9965958731128
 30
0.0
  0
VERTEX
  5
49A
  8
0
  6
CONTINUOUS
 62
     7
 10
167.0277004434451
 20
103.0210706061139
 30
0.0
  0
VERTEX
  5
49B
  8
0
  6
CONTINUOUS
 62
     7
 10
167.0244836632865
 20
103.0454272731768
 30
0.0
  0
VERTEX
  5
49C
  8
0
  6
CONTINUOUS
 62
     7
 10
167.0200768737454
 20
103.0696071969572
 30
0.0
  0
VERTEX
  5
49D
  8
0
  6
CONTINUOUS
 62
     7
 10
167.014490691164
 20
103.0935521259008
 30
0.0
  0
VERTEX
  5
49E
  8
0
  6
CONTINUOUS
 62
     7
 10
167.0077385731452
 20
103.1172043745763
 30
0.0
  0
VERTEX
  5
49F
  8
0
  6
CONTINUOUS
 62
     7
 10
166.9998367861327
 20
103.1405069626452
 30
0.0
  0
VERTEX
  5
4A0
  8
0
  6
CONTINUOUS
 62
     7
 10
166.9908043662237
 20
103.1634037521317
 30
0.0
  0
VERTEX
  5
4A1
  8
0
  6
CONTINUOUS
 62
     7
 10
166.9806630733089
 20
103.1858395826642
 30
0.0
  0
VERTEX
  5
4A2
  8
0
  6
CONTINUOUS
 62
     7
 10
166.969437338651
 20
103.2077604043621
 30
0.0
  0
VERTEX
  5
4A3
  8
0
  6
CONTINUOUS
 62
     7
 10
166.9571542060283
 20
103.2291134080457
 30
0.0
  0
VERTEX
  5
4A4
  8
0
  6
CONTINUOUS
 62
     7
 10
166.943843266583
 20
103.2498471524589
 30
0.0
  0
VERTEX
  5
4A5
  8
0
  6
CONTINUOUS
 62
     7
 10
166.9295365875342
 20
103.2699116881953
 30
0.0
  0
VERTEX
  5
4A6
  8
0
  6
CONTINUOUS
 62
     7
 10
166.9142686349248
 20
103.2892586780309
 30
0.0
  0
VERTEX
  5
4A7
  8
0
  6
CONTINUOUS
 62
     7
 10
166.89807619059
 20
103.3078415133726
 30
0.0
  0
VERTEX
  5
4A8
  8
0
  6
CONTINUOUS
 62
     7
 10
166.8809982635465
 20
103.3256154265424
 30
0.0
  0
VERTEX
  5
4A9
  8
0
  6
CONTINUOUS
 62
     7
 10
166.8630759960162
 20
103.3425375986266
 30
0.0
  0
VERTEX
  5
4AA
  8
0
  6
CONTINUOUS
 62
     7
 10
166.8443525643117
 20
103.3585672626305
 30
0.0
  0
VERTEX
  5
4AB
  8
0
  6
CONTINUOUS
 62
     7
 10
166.8248730748197
 20
103.3736658016894
 30
0.0
  0
VERTEX
  5
4AC
  8
0
  6
CONTINUOUS
 62
     7
 10
166.8046844553368
 20
103.3877968421004
 30
0.0
  0
VERTEX
  5
4AD
  8
0
  6
CONTINUOUS
 62
     7
 10
166.7838353420155
 20
103.4009263409493
 30
0.0
  0
VERTEX
  5
4AE
  8
0
  6
CONTINUOUS
 62
     7
 10
166.762375962196
 20
103.4130226681233
 30
0.0
  0
VERTEX
  5
4AF
  8
0
  6
CONTINUOUS
 62
     7
 10
166.7403580134038
 20
103.4240566825109
 30
0.0
  0
VERTEX
  5
4B0
  8
0
  6
CONTINUOUS
 62
     7
 10
166.7178345388063
 20
103.4340018022048
 30
0.0
  0
VERTEX
  5
4B1
  8
0
  6
CONTINUOUS
 62
     7
 10
166.6948597994265
 20
103.4428340685406
 30
0.0
  0
VERTEX
  5
4B2
  8
0
  6
CONTINUOUS
 62
     7
 10
166.6714891434239
 20
103.4505322038152
 30
0.0
  0
VERTEX
  5
4B3
  8
0
  6
CONTINUOUS
 62
     7
 10
166.6477788727558
 20
103.4570776625464
 30
0.0
  0
VERTEX
  5
4B4
  8
0
  6
CONTINUOUS
 62
     7
 10
166.6237861075412
 20
103.4624546761507
 30
0.0
  0
VERTEX
  5
4B5
  8
0
  6
CONTINUOUS
 62
     7
 10
166.5995686484529
 20
103.4666502909315
 30
0.0
  0
VERTEX
  5
4B6
  8
0
  6
CONTINUOUS
 62
     7
 10
166.575184837471
 20
103.4696543992852
 30
0.0
  0
VERTEX
  5
4B7
  8
0
  6
CONTINUOUS
 62
     7
 10
166.550693417332
 20
103.4714597640517
 30
0.0
  0
VERTEX
  5
4B8
  8
0
  6
CONTINUOUS
 62
     7
 10
166.5261533900121
 20
103.4720620359491
 30
0.0
  0
SEQEND
  5
830
  8
0
  6
CONTINUOUS
 62
     7
  0
LINE
  5
F7
  8
0
  6
CONTINUOUS
 62
     7
 10
166.0104259887958
 20
105.2720620359491
 30
0.0
 11
167.0104640671816
 21
105.2720620359491
 31
0.0
  0
LINE
  5
F8
  8
0
  6
CONTINUOUS
 62
     7
 10
166.5261533900121
 20
103.4720620359491
 30
0.0
 11
166.0261343508192
 21
103.4720620359491
 31
0.0
  0
LINE
  5
F9
  8
0
  6
CONTINUOUS
 62
     7
 10
182.2443441239739
 20
78.47206203594912
 30
0.0
 11
182.2328795635877
 21
79.78577053493383
 31
0.0
  0
LINE
  5
FA
  8
0
  6
CONTINUOUS
 62
     7
 10
167.2443441239739
 20
78.47206203594912
 30
0.0
 11
182.2443441239739
 21
78.47206203594912
 31
0.0
  0
LINE
  5
FB
  8
0
  6
CONTINUOUS
 62
     7
 10
167.3201482414953
 20
69.78577053493385
 30
0.0
 11
167.2443441239739
 21
78.47206203594912
 31
0.0
  0
LINE
  5
FC
  8
0
  6
CONTINUOUS
 62
     7
 10
182.3201482414952
 20
69.78577053493385
 30
0.0
 11
182.3316128018815
 21
68.47206203594914
 31
0.0
  0
LINE
  5
FD
  8
0
  6
CONTINUOUS
 62
     7
 10
152.9209511540659
 20
77.99643218274944
 30
0.0
 11
162.563829365001
 21
77.99643218274947
 31
0.0
  0
LINE
  5
FE
  8
0
  6
CONTINUOUS
 62
     7
 10
152.8316128018815
 20
78.08577053493387
 30
0.0
 11
152.9209511540659
 21
77.99643218274944
 31
0.0
  0
LINE
  5
FF
  8
0
  6
CONTINUOUS
 62
     7
 10
152.7422744496971
 20
77.99643218274947
 30
0.0
 11
152.8316128018815
 21
78.08577053493387
 31
0.0
  0
LINE
  5
100
  8
0
  6
CONTINUOUS
 62
     7
 10
143.9021576127291
 20
77.99643218274944
 30
0.0
 11
152.7422744496971
 21
77.99643218274947
 31
0.0
  0
LINE
  5
101
  8
0
  6
CONTINUOUS
 62
     7
 10
143.6068157363197
 20
72.36097346937207
 30
0.0
 11
143.9021576127291
 21
77.99643218274944
 31
0.0
  0
LINE
  5
102
  8
0
  6
CONTINUOUS
 62
     7
 10
157.3460471387785
 20
72.3609734693721
 30
0.0
 11
143.6068157363197
 21
72.36097346937207
 31
0.0
  0
LINE
  5
103
  8
0
  6
CONTINUOUS
 62
     7
 10
157.3460471387785
 20
72.3609734693721
 30
0.0
 11
162.563829365001
 21
77.99643218274947
 31
0.0
  0
LINE
  5
104
  8
0
  6
CONTINUOUS
 62
     7
 10
117.8179043028968
 20
68.47206203594914
 30
0.0
 11
182.3316128018815
 21
68.47206203594914
 31
0.0
  0
LINE
  5
105
  8
0
  6
CONTINUOUS
 62
     7
 10
166.0435880864007
 20
101.4720620359491
 30
0.0
 11
129.1316128018815
 21
101.4720620359491
 31
0.0
  0
LINE
  5
106
  8
0
  6
CONTINUOUS
 62
     7
 10
166.1832179710529
 20
85.47206203594911
 30
0.0
 11
129.1316128018815
 21
85.47206203594912
 31
0.0
  0
POLYLINE
  5
107
  8
0
  6
CONTINUOUS
 62
     7
 66
     1
 10
0.0
 20
0.0
 30
0.0
  0
VERTEX
  5
4B9
  8
0
  6
CONTINUOUS
 62
     7
 10
166.7006907458273
 20
83.47206203594911
 30
0.0
  0
VERTEX
  5
4BA
  8
0
  6
CONTINUOUS
 62
     7
 10
166.7252202612527
 20
83.47266430784651
 30
0.0
  0
VERTEX
  5
4BB
  8
0
  6
CONTINUOUS
 62
     7
 10
166.7496801710325
 20
83.474469672613
 30
0.0
  0
VERTEX
  5
4BC
  8
0
  6
CONTINUOUS
 62
     7
 10
166.7740115491015
 20
83.47747378096672
 30
0.0
  0
VERTEX
  5
4BD
  8
0
  6
CONTINUOUS
 62
     7
 10
166.7981557790388
 20
83.48166939574749
 30
0.0
  0
VERTEX
  5
4BE
  8
0
  6
CONTINUOUS
 62
     7
 10
166.8220546952798
 20
83.48704640935182
 30
0.0
  0
VERTEX
  5
4BF
  8
0
  6
CONTINUOUS
 62
     7
 10
166.8456507232419
 20
83.493591868083
 30
0.0
  0
VERTEX
  5
4C0
  8
0
  6
CONTINUOUS
 62
     7
 10
166.8688870180269
 20
83.5012900033576
 30
0.0
  0
VERTEX
  5
4C1
  8
0
  6
CONTINUOUS
 62
     7
 10
166.8917076013655
 20
83.51012226969345
 30
0.0
  0
VERTEX
  5
4C2
  8
0
  6
CONTINUOUS
 62
     7
 10
166.9140574964736
 20
83.52006738938738
 30
0.0
  0
VERTEX
  5
4C3
  8
0
  6
CONTINUOUS
 62
     7
 10
166.9358828604962
 20
83.53110140377493
 30
0.0
  0
VERTEX
  5
4C4
  8
0
  6
CONTINUOUS
 62
     7
 10
166.9571311142197
 20
83.54319773094896
 30
0.0
  0
VERTEX
  5
4C5
  8
0
  6
CONTINUOUS
 62
     7
 10
166.9777510687398
 20
83.55632722979783
 30
0.0
  0
VERTEX
  5
4C6
  8
0
  6
CONTINUOUS
 62
     7
 10
166.99769304878
 20
83.57045827020879
 30
0.0
  0
VERTEX
  5
4C7
  8
0
  6
CONTINUOUS
 62
     7
 10
167.0169090123635
 20
83.58555680926773
 30
0.0
  0
VERTEX
  5
4C8
  8
0
  6
CONTINUOUS
 62
     7
 10
167.0353526665511
 20
83.60158647327162
 30
0.0
  0
VERTEX
  5
4C9
  8
0
  6
CONTINUOUS
 62
     7
 10
167.0529795789642
 20
83.61850864535583
 30
0.0
  0
VERTEX
  5
4CA
  8
0
  6
CONTINUOUS
 62
     7
 10
167.0697472848271
 20
83.6362825585256
 30
0.0
  0
VERTEX
  5
4CB
  8
0
  6
CONTINUOUS
 62
     7
 10
167.0856153892675
 20
83.65486539386728
 30
0.0
  0
VERTEX
  5
4CC
  8
0
  6
CONTINUOUS
 62
     7
 10
167.100545664632
 20
83.67421238370288
 30
0.0
  0
VERTEX
  5
4CD
  8
0
  6
CONTINUOUS
 62
     7
 10
167.1145021425795
 20
83.6942769194393
 30
0.0
  0
VERTEX
  5
4CE
  8
0
  6
CONTINUOUS
 62
     7
 10
167.1274512007322
 20
83.7150106638525
 30
0.0
  0
VERTEX
  5
4CF
  8
0
  6
CONTINUOUS
 62
     7
 10
167.1393616436748
 20
83.7363636675361
 30
0.0
  0
VERTEX
  5
4D0
  8
0
  6
CONTINUOUS
 62
     7
 10
167.1502047781069
 20
83.75828448923396
 30
0.0
  0
VERTEX
  5
4D1
  8
0
  6
CONTINUOUS
 62
     7
 10
167.1599544819681
 20
83.78072031976656
 30
0.0
  0
VERTEX
  5
4D2
  8
0
  6
CONTINUOUS
 62
     7
 10
167.1685872673677
 20
83.803617109253
 30
0.0
  0
VERTEX
  5
4D3
  8
0
  6
CONTINUOUS
 62
     7
 10
167.1760823371696
 20
83.82691969732187
 30
0.0
  0
VERTEX
  5
4D4
  8
0
  6
CONTINUOUS
 62
     7
 10
167.1824216350942
 20
83.85057194599747
 30
0.0
  0
VERTEX
  5
4D5
  8
0
  6
CONTINUOUS
 62
     7
 10
167.1875898892173
 20
83.87451687494104
 30
0.0
  0
VERTEX
  5
4D6
  8
0
  6
CONTINUOUS
 62
     7
 10
167.1915746487624
 20
83.89869679872142
 30
0.0
  0
VERTEX
  5
4D7
  8
0
  6
CONTINUOUS
 62
     7
 10
167.1943663140944
 20
83.92305346578432
 30
0.0
  0
VERTEX
  5
4D8
  8
0
  6
CONTINUOUS
 62
     7
 10
167.1959581598472
 20
83.94752819878539
 30
0.0
  0
VERTEX
  5
4D9
  8
0
  6
CONTINUOUS
 62
     7
 10
167.1963463511248
 20
83.97206203594911
 30
0.0
  0
SEQEND
  5
831
  8
0
  6
CONTINUOUS
 62
     7
  0
LINE
  5
108
  8
0
  6
CONTINUOUS
 62
     7
 10
167.1963463511247
 20
83.97206203594911
 30
0.0
 11
167.2094366528109
 21
82.47206203594914
 31
0.0
  0
LINE
  5
109
  8
0
  6
CONTINUOUS
 62
     7
 10
166.2006717066344
 20
83.47206203594911
 30
0.0
 11
166.7006907458273
 21
83.47206203594911
 31
0.0
  0
POLYLINE
  5
10A
  8
0
  6
CONTINUOUS
 62
     7
 66
     1
 10
0.0
 20
0.0
 30
0.0
  0
VERTEX
  5
4DA
  8
0
  6
CONTINUOUS
 62
     7
 10
166.5436071255936
 20
101.4720620359491
 30
0.0
  0
VERTEX
  5
4DB
  8
0
  6
CONTINUOUS
 62
     7
 10
166.568136641019
 20
101.4726643078465
 30
0.0
  0
VERTEX
  5
4DC
  8
0
  6
CONTINUOUS
 62
     7
 10
166.5925965507988
 20
101.474469672613
 30
0.0
  0
VERTEX
  5
4DD
  8
0
  6
CONTINUOUS
 62
     7
 10
166.6169279288678
 20
101.4774737809667
 30
0.0
  0
VERTEX
  5
4DE
  8
0
  6
CONTINUOUS
 62
     7
 10
166.6410721588052
 20
101.4816693957475
 30
0.0
  0
VERTEX
  5
4DF
  8
0
  6
CONTINUOUS
 62
     7
 10
166.6649710750461
 20
101.4870464093518
 30
0.0
  0
VERTEX
  5
4E0
  8
0
  6
CONTINUOUS
 62
     7
 10
166.6885671030082
 20
101.493591868083
 30
0.0
  0
VERTEX
  5
4E1
  8
0
  6
CONTINUOUS
 62
     7
 10
166.7118033977932
 20
101.5012900033576
 30
0.0
  0
VERTEX
  5
4E2
  8
0
  6
CONTINUOUS
 62
     7
 10
166.7346239811319
 20
101.5101222696935
 30
0.0
  0
VERTEX
  5
4E3
  8
0
  6
CONTINUOUS
 62
     7
 10
166.75697387624
 20
101.5200673893874
 30
0.0
  0
VERTEX
  5
4E4
  8
0
  6
CONTINUOUS
 62
     7
 10
166.7787992402625
 20
101.5311014037749
 30
0.0
  0
VERTEX
  5
4E5
  8
0
  6
CONTINUOUS
 62
     7
 10
166.8000474939861
 20
101.543197730949
 30
0.0
  0
VERTEX
  5
4E6
  8
0
  6
CONTINUOUS
 62
     7
 10
166.8206674485062
 20
101.5563272297978
 30
0.0
  0
VERTEX
  5
4E7
  8
0
  6
CONTINUOUS
 62
     7
 10
166.8406094285463
 20
101.5704582702088
 30
0.0
  0
VERTEX
  5
4E8
  8
0
  6
CONTINUOUS
 62
     7
 10
166.8598253921298
 20
101.5855568092677
 30
0.0
  0
VERTEX
  5
4E9
  8
0
  6
CONTINUOUS
 62
     7
 10
166.8782690463174
 20
101.6015864732716
 30
0.0
  0
VERTEX
  5
4EA
  8
0
  6
CONTINUOUS
 62
     7
 10
166.8958959587306
 20
101.6185086453558
 30
0.0
  0
VERTEX
  5
4EB
  8
0
  6
CONTINUOUS
 62
     7
 10
166.9126636645934
 20
101.6362825585256
 30
0.0
  0
VERTEX
  5
4EC
  8
0
  6
CONTINUOUS
 62
     7
 10
166.9285317690338
 20
101.6548653938673
 30
0.0
  0
VERTEX
  5
4ED
  8
0
  6
CONTINUOUS
 62
     7
 10
166.9434620443983
 20
101.6742123837029
 30
0.0
  0
VERTEX
  5
4EE
  8
0
  6
CONTINUOUS
 62
     7
 10
166.9574185223458
 20
101.6942769194393
 30
0.0
  0
VERTEX
  5
4EF
  8
0
  6
CONTINUOUS
 62
     7
 10
166.9703675804985
 20
101.7150106638525
 30
0.0
  0
VERTEX
  5
4F0
  8
0
  6
CONTINUOUS
 62
     7
 10
166.9822780234411
 20
101.7363636675361
 30
0.0
  0
VERTEX
  5
4F1
  8
0
  6
CONTINUOUS
 62
     7
 10
166.9931211578732
 20
101.758284489234
 30
0.0
  0
VERTEX
  5
4F2
  8
0
  6
CONTINUOUS
 62
     7
 10
167.0028708617345
 20
101.7807203197666
 30
0.0
  0
VERTEX
  5
4F3
  8
0
  6
CONTINUOUS
 62
     7
 10
167.0115036471341
 20
101.803617109253
 30
0.0
  0
VERTEX
  5
4F4
  8
0
  6
CONTINUOUS
 62
     7
 10
167.018998716936
 20
101.8269196973219
 30
0.0
  0
VERTEX
  5
4F5
  8
0
  6
CONTINUOUS
 62
     7
 10
167.0253380148605
 20
101.8505719459975
 30
0.0
  0
VERTEX
  5
4F6
  8
0
  6
CONTINUOUS
 62
     7
 10
167.0305062689837
 20
101.8745168749411
 30
0.0
  0
VERTEX
  5
4F7
  8
0
  6
CONTINUOUS
 62
     7
 10
167.0344910285287
 20
101.8986967987214
 30
0.0
  0
VERTEX
  5
4F8
  8
0
  6
CONTINUOUS
 62
     7
 10
167.0372826938607
 20
101.9230534657843
 30
0.0
  0
VERTEX
  5
4F9
  8
0
  6
CONTINUOUS
 62
     7
 10
167.0388745396135
 20
101.9475281987854
 30
0.0
  0
VERTEX
  5
4FA
  8
0
  6
CONTINUOUS
 62
     7
 10
167.0392627308911
 20
101.9720620359491
 30
0.0
  0
SEQEND
  5
832
  8
0
  6
CONTINUOUS
 62
     7
  0
LINE
  5
10B
  8
0
  6
CONTINUOUS
 62
     7
 10
167.0392627308911
 20
101.9720620359491
 30
0.0
 11
167.187619483334
 21
84.97206203594911
 31
0.0
  0
POLYLINE
  5
10C
  8
0
  6
CONTINUOUS
 62
     7
 66
     1
 10
0.0
 20
0.0
 30
0.0
  0
VERTEX
  5
4FB
  8
0
  6
CONTINUOUS
 62
     7
 10
167.187619483334
 20
84.97206203594911
 30
0.0
  0
VERTEX
  5
4FC
  8
0
  6
CONTINUOUS
 62
     7
 10
167.1868030849497
 20
84.99659587311281
 30
0.0
  0
VERTEX
  5
4FD
  8
0
  6
CONTINUOUS
 62
     7
 10
167.1847840636787
 20
85.02107060611388
 30
0.0
  0
VERTEX
  5
4FE
  8
0
  6
CONTINUOUS
 62
     7
 10
167.1815672835201
 20
85.04542727317678
 30
0.0
  0
VERTEX
  5
4FF
  8
0
  6
CONTINUOUS
 62
     7
 10
167.1771604939791
 20
85.06960719695718
 30
0.0
  0
VERTEX
  5
500
  8
0
  6
CONTINUOUS
 62
     7
 10
167.1715743113976
 20
85.09355212590073
 30
0.0
  0
VERTEX
  5
501
  8
0
  6
CONTINUOUS
 62
     7
 10
167.1648221933788
 20
85.11720437457633
 30
0.0
  0
VERTEX
  5
502
  8
0
  6
CONTINUOUS
 62
     7
 10
167.1569204063664
 20
85.14050696264522
 30
0.0
  0
VERTEX
  5
503
  8
0
  6
CONTINUOUS
 62
     7
 10
167.1478879864574
 20
85.16340375213164
 30
0.0
  0
VERTEX
  5
504
  8
0
  6
CONTINUOUS
 62
     7
 10
167.1377466935425
 20
85.18583958266424
 30
0.0
  0
VERTEX
  5
505
  8
0
  6
CONTINUOUS
 62
     7
 10
167.1265209588847
 20
85.2077604043621
 30
0.0
  0
VERTEX
  5
506
  8
0
  6
CONTINUOUS
 62
     7
 10
167.114237826262
 20
85.22911340804572
 30
0.0
  0
VERTEX
  5
507
  8
0
  6
CONTINUOUS
 62
     7
 10
167.1009268868167
 20
85.24984715245891
 30
0.0
  0
VERTEX
  5
508
  8
0
  6
CONTINUOUS
 62
     7
 10
167.0866202077679
 20
85.26991168819532
 30
0.0
  0
VERTEX
  5
509
  8
0
  6
CONTINUOUS
 62
     7
 10
167.0713522551585
 20
85.28925867803093
 30
0.0
  0
VERTEX
  5
50A
  8
0
  6
CONTINUOUS
 62
     7
 10
167.0551598108237
 20
85.30784151337261
 30
0.0
  0
VERTEX
  5
50B
  8
0
  6
CONTINUOUS
 62
     7
 10
167.0380818837801
 20
85.32561542654237
 30
0.0
  0
VERTEX
  5
50C
  8
0
  6
CONTINUOUS
 62
     7
 10
167.0201596162499
 20
85.34253759862658
 30
0.0
  0
VERTEX
  5
50D
  8
0
  6
CONTINUOUS
 62
     7
 10
167.0014361845454
 20
85.35856726263047
 30
0.0
  0
VERTEX
  5
50E
  8
0
  6
CONTINUOUS
 62
     7
 10
166.9819566950534
 20
85.37366580168943
 30
0.0
  0
VERTEX
  5
50F
  8
0
  6
CONTINUOUS
 62
     7
 10
166.9617680755704
 20
85.38779684210037
 30
0.0
  0
VERTEX
  5
510
  8
0
  6
CONTINUOUS
 62
     7
 10
166.9409189622491
 20
85.40092634094924
 30
0.0
  0
VERTEX
  5
511
  8
0
  6
CONTINUOUS
 62
     7
 10
166.9194595824296
 20
85.41302266812328
 30
0.0
  0
VERTEX
  5
512
  8
0
  6
CONTINUOUS
 62
     7
 10
166.8974416336375
 20
85.42405668251082
 30
0.0
  0
VERTEX
  5
513
  8
0
  6
CONTINUOUS
 62
     7
 10
166.87491815904
 20
85.43400180220475
 30
0.0
  0
VERTEX
  5
514
  8
0
  6
CONTINUOUS
 62
     7
 10
166.8519434196601
 20
85.4428340685406
 30
0.0
  0
VERTEX
  5
515
  8
0
  6
CONTINUOUS
 62
     7
 10
166.8285727636575
 20
85.45053220381521
 30
0.0
  0
VERTEX
  5
516
  8
0
  6
CONTINUOUS
 62
     7
 10
166.8048624929895
 20
85.45707766254637
 30
0.0
  0
VERTEX
  5
517
  8
0
  6
CONTINUOUS
 62
     7
 10
166.7808697277749
 20
85.46245467615071
 30
0.0
  0
VERTEX
  5
518
  8
0
  6
CONTINUOUS
 62
     7
 10
166.7566522686865
 20
85.4666502909315
 30
0.0
  0
VERTEX
  5
519
  8
0
  6
CONTINUOUS
 62
     7
 10
166.7322684577046
 20
85.4696543992852
 30
0.0
  0
VERTEX
  5
51A
  8
0
  6
CONTINUOUS
 62
     7
 10
166.7077770375656
 20
85.4714597640517
 30
0.0
  0
VERTEX
  5
51B
  8
0
  6
CONTINUOUS
 62
     7
 10
166.6832370102458
 20
85.47206203594911
 30
0.0
  0
SEQEND
  5
833
  8
0
  6
CONTINUOUS
 62
     7
  0
LINE
  5
10D
  8
0
  6
CONTINUOUS
 62
     7
 10
166.0435880864007
 20
101.4720620359491
 30
0.0
 11
166.5436071255936
 21
101.4720620359491
 31
0.0
  0
LINE
  5
10E
  8
0
  6
CONTINUOUS
 62
     7
 10
166.6832370102458
 20
85.47206203594911
 30
0.0
 11
166.1832179710529
 21
85.47206203594911
 31
0.0
  0
LINE
  5
10F
  8
0
  6
CONTINUOUS
 62
     7
 10
167.1963463511247
 20
83.97206203594911
 30
0.0
 11
167.187619483334
 21
84.97206203594911
 31
0.0
  0
LINE
  5
110
  8
0
  6
CONTINUOUS
 62
     7
 10
167.0305358631003
 20
102.9720620359491
 30
0.0
 11
167.0392627308911
 21
101.9720620359491
 31
0.0
  0
POLYLINE
  5
111
  8
0
  6
CONTINUOUS
 62
     7
 66
     1
 10
0.0
 20
0.0
 30
0.0
  0
VERTEX
  5
51C
  8
0
  6
CONTINUOUS
 62
     7
 10
158.9887934208847
 20
105.6380874397336
 30
0.0
  0
VERTEX
  5
51D
  8
0
  6
CONTINUOUS
 62
     7
 10
158.9971736785786
 20
105.6158823660543
 30
0.0
  0
VERTEX
  5
51E
  8
0
  6
CONTINUOUS
 62
     7
 10
159.0065519638939
 20
105.5940136527421
 30
0.0
  0
VERTEX
  5
51F
  8
0
  6
CONTINUOUS
 62
     7
 10
159.0169080790451
 20
105.5725283979144
 30
0.0
  0
VERTEX
  5
520
  8
0
  6
CONTINUOUS
 62
     7
 10
159.0282197203181
 20
105.5514728738433
 30
0.0
  0
VERTEX
  5
521
  8
0
  6
CONTINUOUS
 62
     7
 10
159.0404625261055
 20
105.5308924273004
 30
0.0
  0
VERTEX
  5
522
  8
0
  6
CONTINUOUS
 62
     7
 10
159.0536101293734
 20
105.5108313818942
 30
0.0
  0
VERTEX
  5
523
  8
0
  6
CONTINUOUS
 62
     7
 10
159.0676342144476
 20
105.4913329426117
 30
0.0
  0
VERTEX
  5
524
  8
0
  6
CONTINUOUS
 62
     7
 10
159.082504577996
 20
105.4724391027686
 30
0.0
  0
VERTEX
  5
525
  8
0
  6
CONTINUOUS
 62
     7
 10
159.0981891940776
 20
105.4541905535695
 30
0.0
  0
VERTEX
  5
526
  8
0
  6
CONTINUOUS
 62
     7
 10
159.1146542831149
 20
105.4366265964722
 30
0.0
  0
VERTEX
  5
527
  8
0
  6
CONTINUOUS
 62
     7
 10
159.1318643846452
 20
105.4197850585451
 30
0.0
  0
VERTEX
  5
528
  8
0
  6
CONTINUOUS
 62
     7
 10
159.1497824336901
 20
105.403702211
 30
0.0
  0
VERTEX
  5
529
  8
0
  6
CONTINUOUS
 62
     7
 10
159.168369840582
 20
105.3884126910756
 30
0.0
  0
VERTEX
  5
52A
  8
0
  6
CONTINUOUS
 62
     7
 10
159.1875865740736
 20
105.37394942744
 30
0.0
  0
VERTEX
  5
52B
  8
0
  6
CONTINUOUS
 62
     7
 10
159.207391247552
 20
105.3603435692734
 30
0.0
  0
VERTEX
  5
52C
  8
0
  6
CONTINUOUS
 62
     7
 10
159.2277412081722
 20
105.3476244191826
 30
0.0
  0
VERTEX
  5
52D
  8
0
  6
CONTINUOUS
 62
     7
 10
159.2485926287177
 20
105.3358193700924
 30
0.0
  0
VERTEX
  5
52E
  8
0
  6
CONTINUOUS
 62
     7
 10
159.2699006019898
 20
105.324953846251
 30
0.0
  0
VERTEX
  5
52F
  8
0
  6
CONTINUOUS
 62
     7
 10
159.2916192375232
 20
105.3150512484733
 30
0.0
  0
VERTEX
  5
530
  8
0
  6
CONTINUOUS
 62
     7
 10
159.3137017604194
 20
105.3061329037441
 30
0.0
  0
VERTEX
  5
531
  8
0
  6
CONTINUOUS
 62
     7
 10
159.3361006120844
 20
105.2982180192862
 30
0.0
  0
VERTEX
  5
532
  8
0
  6
CONTINUOUS
 62
     7
 10
159.3587675526547
 20
105.2913236411941
 30
0.0
  0
VERTEX
  5
533
  8
0
  6
CONTINUOUS
 62
     7
 10
159.38165376489
 20
105.2854646177227
 30
0.0
  0
VERTEX
  5
534
  8
0
  6
CONTINUOUS
 62
     7
 10
159.4047099593104
 20
105.280653567309
 30
0.0
  0
VERTEX
  5
535
  8
0
  6
CONTINUOUS
 62
     7
 10
159.4278864803488
 20
105.2769008513953
 30
0.0
  0
VERTEX
  5
536
  8
0
  6
CONTINUOUS
 62
     7
 10
159.4511334132943
 20
105.2742145521149
 30
0.0
  0
VERTEX
  5
537
  8
0
  6
CONTINUOUS
 62
     7
 10
159.4744006917911
 20
105.2726004548855
 30
0.0
  0
VERTEX
  5
538
  8
0
  6
CONTINUOUS
 62
     7
 10
159.4976382056659
 20
105.2720620359491
 30
0.0
  0
SEQEND
  5
834
  8
0
  6
CONTINUOUS
 62
     7
  0
LINE
  5
112
  8
0
  6
CONTINUOUS
 62
     7
 10
145.350795380455
 20
105.6380874397336
 30
0.0
 11
145.3316128018815
 21
105.2720620359491
 31
0.0
  0
ARC
  5
113
  8
0
  6
CONTINUOUS
 62
     7
 10
181.8185034610025
 20
69.97206203594914
 30
0.0
 40
0.5000000000000016
 50
0.5000000000000118
 51
89.99999999999007
  0
LINE
  5
114
  8
0
  6
CONTINUOUS
 62
     7
 10
182.3184844225346
 20
69.97642530369832
 30
0.0
 11
182.3201482414952
 21
69.78577053493385
 31
0.0
  0
LINE
  5
115
  8
0
  6
CONTINUOUS
 62
     7
 10
167.3141590663
 20
70.47206203594914
 30
0.0
 11
181.8185034610026
 21
70.47206203594914
 31
0.0
  0
ARC
  5
116
  8
0
  6
CONTINUOUS
 62
     7
 10
127.3316128018815
 20
68.47206203594914
 30
0.0
 40
0.1000000000000167
 50
270.0
 51
0.0000000000000568
  0
LINE
  5
117
  8
0
  6
CONTINUOUS
 62
     7
 10
127.3316128018815
 20
68.47206203594914
 30
0.0
 11
127.3316128018815
 21
68.37206203594913
 31
0.0
  0
ARC
  5
118
  8
0
  6
CONTINUOUS
 62
     7
 10
127.3316128018815
 20
68.47206203594914
 30
0.0
 40
0.1000000000000029
 50
180.0
 51
270.0
  0
ARC
  5
119
  8
0
  6
CONTINUOUS
 62
     7
 10
162.3316128018815
 20
68.47206203594914
 30
0.0
 40
0.1000000000000167
 50
270.0
 51
0.0000000000000568
  0
LINE
  5
11A
  8
0
  6
CONTINUOUS
 62
     7
 10
162.3316128018815
 20
68.47206203594914
 30
0.0
 11
162.3316128018815
 21
68.37206203594913
 31
0.0
  0
ARC
  5
11B
  8
0
  6
CONTINUOUS
 62
     7
 10
162.3316128018815
 20
68.47206203594914
 30
0.0
 40
0.1000000000000029
 50
180.0
 51
270.0
  0
LINE
  5
11C
  8
0
  6
CONTINUOUS
 62
     7
 10
92.7704295335567
 20
77.48078857144748
 30
0.0
 11
92.80017349056891
 21
74.07246868791468
 31
0.0
  0
LINE
  5
11D
  8
0
  6
CONTINUOUS
 62
     7
 10
92.7704295335567
 20
78.47206203594911
 30
0.0
 11
92.7704295335567
 21
77.48078857144748
 31
0.0
  0
LINE
  5
11E
  8
0
  6
CONTINUOUS
 62
     7
 10
93.33494887008605
 20
78.47206203594911
 30
0.0
 11
120.7468364910314
 21
78.47206203594911
 31
0.0
  0
ARC
  5
11F
  8
0
  6
CONTINUOUS
 62
     7
 10
339.1316128018814
 20
68.47206203594915
 30
0.0
 40
252.0999999999999
 50
174.6483407141976
 51
180.0
  0
LINE
  5
120
  8
0
  6
CONTINUOUS
 62
     7
 10
89.60295612233931
 20
91.61962120971805
 30
0.0
 11
88.13051421270669
 21
91.98500542947917
 31
0.0
  0
ARC
  5
121
  8
0
  6
CONTINUOUS
 62
     7
 10
339.1316128018814
 20
68.47206203594915
 30
0.0
 40
250.5999999999999
 50
174.7001171134489
 51
180.0
  0
LINE
  5
122
  8
0
  6
CONTINUOUS
 62
     7
 10
87.03161280188152
 20
68.47206203594911
 30
0.0
 11
88.53161280188152
 21
68.47206203594914
 31
0.0
  0
ARC
  5
123
  8
0
  6
CONTINUOUS
 62
     7
 10
117.8208589472592
 20
79.78281589057143
 30
0.0
 40
32.1
 50
112.3417673041944
 51
157.6582326958056
  0
LINE
  5
124
  8
0
  6
CONTINUOUS
 62
     7
 10
105.9840536281126
 20
108.0007187154913
 30
0.0
 11
105.6186694083515
 21
109.473160625124
 31
0.0
  0
ARC
  5
125
  8
0
  6
CONTINUOUS
 62
     7
 10
117.8208589472592
 20
79.78281589057143
 30
0.0
 40
30.6
 50
112.7570047460817
 51
157.2429952539184
  0
ARC
  5
126
  8
0
  6
CONTINUOUS
 62
     7
 10
129.1316128018815
 20
-141.5279379640508
 30
0.0
 40
252.0999999999999
 50
90.0
 51
95.3516592858024
  0
LINE
  5
127
  8
0
  6
CONTINUOUS
 62
     7
 10
129.1316128018814
 20
109.0720620359491
 30
0.0
 11
129.1316128018814
 21
110.5720620359491
 31
0.0
  0
ARC
  5
128
  8
0
  6
CONTINUOUS
 62
     7
 10
129.1316128018815
 20
-141.5279379640508
 30
0.0
 40
250.5999999999999
 50
89.99999999999994
 51
95.29988288655103
  0
LINE
  5
129
  8
0
  6
CONTINUOUS
 62
     7
 10
129.1316128018815
 20
109.0720620359491
 30
0.0
 11
129.1316128018815
 21
108.5720620359491
 31
0.0
  0
ARC
  5
12A
  8
0
  6
CONTINUOUS
 62
     7
 10
129.1316128018815
 20
-141.5279379640508
 30
0.0
 40
250.0999999999999
 50
90.0
 51
95.28223090013766
  0
ARC
  5
12B
  8
0
  6
CONTINUOUS
 62
     7
 10
117.8208589472592
 20
79.78281589057143
 30
0.0
 40
30.09999999999997
 50
112.902616729588
 51
157.0973832704121
  0
ARC
  5
12C
  8
0
  6
CONTINUOUS
 62
     7
 10
339.1316128018814
 20
68.47206203594915
 30
0.0
 40
250.0999999999999
 50
174.7177690998624
 51
180.0
  0
LINE
  5
12D
  8
0
  6
CONTINUOUS
 62
     7
 10
88.53161280188152
 20
68.47206203594912
 30
0.0
 11
89.03161280188151
 21
68.47206203594912
 31
0.0
  0
ARC
  5
12E
  8
0
  6
CONTINUOUS
 62
     7
 10
127.6316128018815
 20
107.1380874397336
 30
0.0
 40
1.500000000000006
 50
239.9999999999999
 51
0.0
  0
LINE
  5
12F
  8
0
  6
CONTINUOUS
 62
     7
 10
126.3048178826384
 20
106.1720620359491
 30
0.0
 11
126.8816128018815
 21
105.8390493340569
 31
0.0
  0
ARC
  5
130
  8
0
  6
CONTINUOUS
 62
     7
 10
126.4048178826384
 20
106.345267116706
 30
0.0
 40
0.1999999999999904
 50
149.9999999999996
 51
239.9999999999996
  0
LINE
  5
131
  8
0
  6
CONTINUOUS
 62
     7
 10
127.4562787314418
 20
108.5664507290032
 30
0.0
 11
126.2316128018815
 21
106.445267116706
 31
0.0
  0
LINE
  5
132
  8
0
  6
CONTINUOUS
 62
     7
 10
129.1316128018815
 20
107.1380874397336
 30
0.0
 11
129.1316128018815
 21
108.5720620359491
 31
0.0
  0
LINE
  5
133
  8
0
  6
CONTINUOUS
 62
     7
 10
89.03722410882744
 20
70.14739610638878
 30
0.0
 11
91.15840772112459
 21
71.37206203594914
 31
0.0
  0
ARC
  5
134
  8
0
  6
CONTINUOUS
 62
     7
 10
91.25840772112458
 20
71.19885695519226
 30
0.0
 40
0.1999999999999973
 50
30.00000000000125
 51
120.0000000000008
  0
LINE
  5
135
  8
0
  6
CONTINUOUS
 62
     7
 10
91.43161280188147
 20
71.29885695519226
 30
0.0
 11
91.76462550377371
 21
70.72206203594912
 31
0.0
  0
ARC
  5
136
  8
0
  6
CONTINUOUS
 62
     7
 10
90.46558739809707
 20
69.97206203594912
 30
0.0
 40
1.499999999999994
 50
270.0
 51
30.00000000000023
  0
LINE
  5
137
  8
0
  6
CONTINUOUS
 62
     7
 10
90.46558739809707
 20
68.47206203594912
 30
0.0
 11
89.03161280188147
 21
68.47206203594912
 31
0.0
  0
LINE
  5
138
  8
0
  6
CONTINUOUS
 62
     7
 10
113.6316128018815
 20
107.9910993858074
 30
0.0
 11
113.6316128018815
 21
108.0912920644066
 31
0.0
  0
LINE
  5
139
  8
0
  6
CONTINUOUS
 62
     7
 10
110.6316128018815
 20
107.886897200179
 30
0.0
 11
110.6316128018815
 21
107.7866223809076
 31
0.0
  0
LINE
  5
13A
  8
0
  6
CONTINUOUS
 62
     7
 10
114.1316128018815
 20
108.1218367204057
 30
0.0
 11
114.1316128018815
 21
108.0216563053047
 31
0.0
  0
LINE
  5
13B
  8
0
  6
CONTINUOUS
 62
     7
 10
89.61257545202317
 20
83.97206203594912
 30
0.0
 11
89.51238277342397
 21
83.97206203594912
 31
0.0
  0
LINE
  5
13C
  8
0
  6
CONTINUOUS
 62
     7
 10
89.48183811742486
 20
83.47206203594912
 30
0.0
 11
89.5820185325259
 21
83.47206203594912
 31
0.0
  0
LINE
  5
13D
  8
0
  6
CONTINUOUS
 62
     7
 10
89.71677763765156
 20
86.97206203594914
 30
0.0
 11
89.81705245692292
 21
86.97206203594914
 31
0.0
  0
LINE
  5
13E
  8
0
  6
CONTINUOUS
 62
     7
 10
110.1316128018815
 20
107.7490164460991
 30
0.0
 11
110.1316128018815
 21
107.8493063867519
 31
0.0
  0
LINE
  5
13F
  8
0
  6
CONTINUOUS
 62
     7
 10
89.8546583917315
 20
87.47206203594912
 30
0.0
 11
89.7543684510787
 21
87.47206203594912
 31
0.0
  0
LINE
  5
140
  8
0
  6
CONTINUOUS
 62
     7
 10
129.1316128018815
 20
110.5720620359491
 30
0.0
 11
185.5316128018815
 21
110.5720620359491
 31
0.0
  0
LINE
  5
141
  8
0
  6
CONTINUOUS
 62
     7
 10
160.0316128018815
 20
108.5720620359492
 30
0.0
 11
187.0316128018815
 21
108.5720620359491
 31
0.0
  0
LINE
  5
142
  8
0
  6
CONTINUOUS
 62
     7
 10
160.0316128018815
 20
107.1380874397336
 30
0.0
 11
160.0316128018815
 21
108.5720620359492
 31
0.0
  0
LINE
  5
143
  8
0
  6
CONTINUOUS
 62
     7
 10
160.0316128018815
 20
107.1380874397336
 30
0.0
 11
145.0316128018815
 21
107.1380874397336
 31
0.0
  0
LINE
  5
144
  8
0
  6
CONTINUOUS
 62
     7
 10
145.0316128018815
 20
107.1380874397336
 30
0.0
 11
145.0316128018815
 21
108.5720620359491
 31
0.0
  0
LINE
  5
145
  8
0
  6
CONTINUOUS
 62
     7
 10
129.1316128018815
 20
108.5720620359491
 30
0.0
 11
145.0316128018815
 21
108.5720620359491
 31
0.0
  0
ARC
  5
146
  8
0
  6
CONTINUOUS
 62
     7
 10
185.5316128018815
 20
109.0720620359491
 30
0.0
 40
1.500000000000001
 50
0.0000000000000035
 51
90.00000000000107
  0
LINE
  5
147
  8
0
  6
CONTINUOUS
 62
     7
 10
187.0316128018815
 20
109.0720620359491
 30
0.0
 11
187.0316128018815
 21
108.5720620359491
 31
0.0
  0
LINE
  5
148
  8
0
  6
CONTINUOUS
 62
     7
 10
187.0316128018815
 20
107.509961646923
 30
0.0
 11
187.0316128018815
 21
108.5720620359489
 31
0.0
  0
LINE
  5
149
  8
0
  6
CONTINUOUS
 62
     7
 10
106.8852937634625
 20
107.5099616469232
 30
0.0
 11
107.2198680663665
 21
107.5099616469232
 31
0.0
  0
LINE
  5
14A
  8
0
  6
CONTINUOUS
 62
     7
 10
119.1316128018815
 20
107.5099616469232
 30
0.0
 11
123.9159041866381
 21
107.5099616469232
 31
0.0
  0
LINE
  5
14B
  8
0
  6
CONTINUOUS
 62
     7
 10
126.7236647446968
 20
107.5099616469232
 30
0.0
 11
126.8463144755071
 21
107.5099616469232
 31
0.0
  0
LINE
  5
14C
  8
0
  6
CONTINUOUS
 62
     7
 10
167.0316128018815
 20
107.5099616469232
 30
0.0
 11
187.0316128018815
 21
107.5099616469232
 31
0.0
  0
LINE
  5
14D
  8
0
  6
CONTINUOUS
 62
     7
 10
160.0316128018815
 20
105.6380874397336
 30
0.0
 11
160.0316128018815
 21
107.1380874397336
 31
0.0
  0
LINE
  5
14E
  8
0
  6
CONTINUOUS
 62
     7
 10
145.0316128018815
 20
107.1380874397336
 30
0.0
 11
145.0316128018815
 21
105.6380874397336
 31
0.0
  0
LINE
  5
14F
  8
0
  6
CONTINUOUS
 62
     7
 10
106.8852937634625
 20
107.5099616469233
 30
0.0
 11
106.8040262559328
 21
107.4730236385766
 31
0.0
  0
LINE
  5
150
  8
0
  6
CONTINUOUS
 62
     7
 10
90.26097318455612
 20
91.62484205080113
 30
0.0
 11
90.10037087527846
 21
91.5124595787306
 31
0.0
  0
LINE
  5
151
  8
0
  6
CONTINUOUS
 62
     7
 10
94.60912459167984
 20
91.49671311591943
 30
0.0
 11
124.1316128018815
 21
91.49671311591943
 31
0.0
  0
LINE
  5
152
  8
0
  6
CONTINUOUS
 62
     7
 10
167.1306797159783
 20
91.49671311591946
 30
0.0
 11
187.0316128018815
 21
91.49671311591946
 31
0.0
  0
LINE
  5
153
  8
0
  6
CONTINUOUS
 62
     7
 10
187.0316128018815
 20
107.5099616469233
 30
0.0
 11
187.0316128018815
 21
91.49671311591949
 31
0.0
  0
LINE
  5
154
  8
0
  6
CONTINUOUS
 62
     7
 10
187.0316128018815
 20
91.49671311591938
 30
0.0
 11
187.0316128018815
 21
68.47206203594914
 31
0.0
  0
LINE
  5
155
  8
0
  6
CONTINUOUS
 62
     7
 10
94.13161280188149
 20
68.47206203594912
 30
0.0
 11
96.13161280188149
 21
68.47206203594912
 31
0.0
  0
LINE
  5
156
  8
0
  6
CONTINUOUS
 62
     7
 10
112.1316128018815
 20
68.47206203594912
 30
0.0
 11
114.1316128018815
 21
68.47206203594912
 31
0.0
  0
LINE
  5
157
  8
0
  6
CONTINUOUS
 62
     7
 10
182.3316128018815
 20
68.47206203594914
 30
0.0
 11
187.0316128018815
 21
68.47206203594914
 31
0.0
  0
LINE
  5
158
  8
0
  6
CONTINUOUS
 62
     7
 10
167.0260423899217
 20
103.4869630618836
 30
0.0
 11
167.0316128018815
 21
103.4869630618836
 31
0.0
  0
LINE
  5
159
  8
0
  6
CONTINUOUS
 62
     7
 10
167.0192200483985
 20
104.2687259677446
 30
0.0
 11
167.0316128018815
 21
104.2687259677446
 31
0.0
  0
LINE
  5
15A
  8
0
  6
CONTINUOUS
 62
     7
 10
167.0316128018815
 20
103.4869630618836
 30
0.0
 11
167.0316128018815
 21
104.2687259677446
 31
0.0
  0
LINE
  5
15B
  8
0
  6
CONTINUOUS
 62
     7
 10
167.0316128018815
 20
108.2719819718851
 30
0.0
 11
167.0316128018815
 21
104.2687259677446
 31
0.0
  0
LINE
  5
15C
  8
0
  6
CONTINUOUS
 62
     7
 10
139.8405602961567
 20
108.2719819718851
 30
0.0
 11
145.0316128018815
 21
108.2719819718851
 31
0.0
  0
LINE
  5
15D
  8
0
  6
CONTINUOUS
 62
     7
 10
160.0316128018815
 20
108.2719819718851
 30
0.0
 11
167.0316128018815
 21
108.2719819718851
 31
0.0
  0
LINE
  5
15E
  8
0
  6
CONTINUOUS
 62
     7
 10
167.0316128018815
 20
102.8486570747447
 30
0.0
 11
167.0316128018815
 21
103.4869630618835
 31
0.0
  0
LINE
  5
15F
  8
0
  6
CONTINUOUS
 62
     7
 10
145.0316128018815
 20
105.6380874397336
 30
0.0
 11
160.0316128018815
 21
105.6380874397336
 31
0.0
  0
ENDBLK
  8
0
  0
BLOCK
  8
0
  2
D_FRAME_VIEW_2220
 70
     0
 10
0.0
 20
0.0
 30
0.0
  0
LINE
  5
164
  8
0
  6
CONTINUOUS
 62
     7
 10
229.1390713990751
 20
178.8466001920203
 30
0.0
 11
229.1390713990751
 21
184.0376526977431
 31
0.0
  0
LINE
  5
165
  8
0
  6
CONTINUOUS
 62
     7
 10
231.7729659312266
 20
164.7466001920204
 30
0.0
 11
231.9910323667967
 21
164.7466001920204
 31
0.0
  0
LINE
  5
166
  8
0
  6
CONTINUOUS
 62
     7
 10
267.4346280672618
 20
208.7334718126735
 30
0.0
 11
268.938991335011
 21
208.7466001920204
 31
0.0
  0
LINE
  5
167
  8
0
  6
CONTINUOUS
 62
     7
 10
268.9389913350111
 20
208.7466001920204
 30
0.0
 11
268.9389913350111
 21
207.7466382689562
 31
0.0
  0
LINE
  5
168
  8
0
  6
CONTINUOUS
 62
     7
 10
267.4346280672618
 20
204.7466001920204
 30
0.0
 11
267.6252828360263
 21
204.7466001920204
 31
0.0
  0
LINE
  5
169
  8
0
  6
CONTINUOUS
 62
     7
 10
267.6252828360263
 20
204.7466001920204
 30
0.0
 11
268.9389913350111
 21
206.0603086910051
 31
0.0
  0
LINE
  5
16A
  8
0
  6
CONTINUOUS
 62
     7
 10
268.9389913350111
 20
206.0603086910051
 30
0.0
 11
268.9389913350111
 21
207.7466382689562
 31
0.0
  0
LINE
  5
16B
  8
0
  6
CONTINUOUS
 62
     7
 10
266.9389913350111
 20
204.7466001920204
 30
0.0
 11
266.9389913350111
 21
207.7335098896093
 31
0.0
  0
LINE
  5
16C
  8
0
  6
CONTINUOUS
 62
     7
 10
267.4346280672618
 20
204.7466001920204
 30
0.0
 11
266.938991335011
 21
204.7466001920204
 31
0.0
  0
LINE
  5
16D
  8
0
  6
CONTINUOUS
 62
     7
 10
266.9389913350111
 20
207.7335098896093
 30
0.0
 11
266.9389913350111
 21
208.2334908511414
 31
0.0
  0
ARC
  5
16E
  8
0
  6
CONTINUOUS
 62
     7
 10
267.4389913350111
 20
208.2334908511414
 30
0.0
 40
0.5000000000000004
 50
90.5
 51
180.0
  0
LINE
  5
16F
  8
0
  6
CONTINUOUS
 62
     7
 10
257.6252828360263
 20
194.7466001920204
 30
0.0
 11
255.9302647995127
 21
194.7466001920204
 31
0.0
  0
LINE
  5
170
  8
0
  6
CONTINUOUS
 62
     7
 10
258.9389913350111
 20
196.1593505525807
 30
0.0
 11
258.9389913350111
 21
196.0603086910051
 31
0.0
  0
LINE
  5
171
  8
0
  6
CONTINUOUS
 62
     7
 10
258.9389913350111
 20
196.0603086910051
 30
0.0
 11
257.6252828360264
 21
194.7466001920204
 31
0.0
  0
LINE
  5
172
  8
0
  6
CONTINUOUS
 62
     7
 10
255.9302647995126
 20
196.633074755419
 30
0.0
 11
258.938991335011
 21
196.6593315141128
 31
0.0
  0
LINE
  5
173
  8
0
  6
CONTINUOUS
 62
     7
 10
258.9389913350111
 20
196.6593315141128
 30
0.0
 11
258.9389913350111
 21
196.1593505525807
 31
0.0
  0
ARC
  5
174
  8
0
  6
CONTINUOUS
 62
     7
 10
255.438991335011
 20
196.1287684376523
 30
0.0
 40
0.5000000000000004
 50
90.50000000000011
 51
180.0
  0
LINE
  5
175
  8
0
  6
CONTINUOUS
 62
     7
 10
255.4346280672619
 20
196.6287493991844
 30
0.0
 11
255.9302647995126
 21
196.633074755419
 31
0.0
  0
LINE
  5
176
  8
0
  6
CONTINUOUS
 62
     7
 10
254.9389913350111
 20
194.7466001920204
 30
0.0
 11
254.9389913350111
 21
196.1287684376523
 31
0.0
  0
LINE
  5
177
  8
0
  6
CONTINUOUS
 62
     7
 10
255.9302647995126
 20
194.7466001920204
 30
0.0
 11
254.938991335011
 21
194.7466001920204
 31
0.0
  0
LINE
  5
178
  8
0
  6
CONTINUOUS
 62
     7
 10
264.4389913350111
 20
231.5466001920203
 30
0.0
 11
264.4346280672618
 21
231.5465811535524
 31
0.0
  0
LINE
  5
179
  8
0
  6
CONTINUOUS
 62
     7
 10
264.4389913350111
 20
231.5466001920203
 30
0.0
 11
268.9389913350111
 21
231.5466001920203
 31
0.0
  0
LINE
  5
17A
  8
0
  6
CONTINUOUS
 62
     7
 10
268.9389913350111
 20
231.5466001920203
 30
0.0
 11
268.9389913350111
 21
229.7466001920204
 31
0.0
  0
LINE
  5
17B
  8
0
  6
CONTINUOUS
 62
     7
 10
268.4389913350111
 20
229.7466001920204
 30
0.0
 11
268.9389913350111
 21
229.7466001920204
 31
0.0
  0
POLYLINE
  5
17C
  8
0
  6
CONTINUOUS
 62
     7
 66
     1
 10
0.0
 20
0.0
 30
0.0
  0
VERTEX
  5
53B
  8
0
  6
CONTINUOUS
 62
     7
 10
267.9389913350111
 20
229.2466001920204
 30
0.0
  0
VERTEX
  5
53C
  8
0
  6
CONTINUOUS
 62
     7
 10
267.9395936069084
 20
229.2711340291841
 30
0.0
  0
VERTEX
  5
53D
  8
0
  6
CONTINUOUS
 62
     7
 10
267.9413989716749
 20
229.2956087621852
 30
0.0
  0
VERTEX
  5
53E
  8
0
  6
CONTINUOUS
 62
     7
 10
267.9444030800286
 20
229.3199654292481
 30
0.0
  0
VERTEX
  5
53F
  8
0
  6
CONTINUOUS
 62
     7
 10
267.9485986948094
 20
229.3441453530285
 30
0.0
  0
VERTEX
  5
540
  8
0
  6
CONTINUOUS
 62
     7
 10
267.9539757084137
 20
229.3680902819721
 30
0.0
  0
VERTEX
  5
541
  8
0
  6
CONTINUOUS
 62
     7
 10
267.9605211671449
 20
229.3917425306476
 30
0.0
  0
VERTEX
  5
542
  8
0
  6
CONTINUOUS
 62
     7
 10
267.9682193024195
 20
229.4150451187165
 30
0.0
  0
VERTEX
  5
543
  8
0
  6
CONTINUOUS
 62
     7
 10
267.9770515687554
 20
229.437941908203
 30
0.0
  0
VERTEX
  5
544
  8
0
  6
CONTINUOUS
 62
     7
 10
267.9869966884493
 20
229.4603777387356
 30
0.0
  0
VERTEX
  5
545
  8
0
  6
CONTINUOUS
 62
     7
 10
267.9980307028369
 20
229.4822985604334
 30
0.0
  0
VERTEX
  5
546
  8
0
  6
CONTINUOUS
 62
     7
 10
268.0101270300109
 20
229.503651564117
 30
0.0
  0
VERTEX
  5
547
  8
0
  6
CONTINUOUS
 62
     7
 10
268.0232565288597
 20
229.5243853085302
 30
0.0
  0
VERTEX
  5
548
  8
0
  6
CONTINUOUS
 62
     7
 10
268.0373875692707
 20
229.5444498442666
 30
0.0
  0
VERTEX
  5
549
  8
0
  6
CONTINUOUS
 62
     7
 10
268.0524861083297
 20
229.5637968341022
 30
0.0
  0
VERTEX
  5
54A
  8
0
  6
CONTINUOUS
 62
     7
 10
268.0685157723336
 20
229.5823796694439
 30
0.0
  0
VERTEX
  5
54B
  8
0
  6
CONTINUOUS
 62
     7
 10
268.0854379444177
 20
229.6001535826137
 30
0.0
  0
VERTEX
  5
54C
  8
0
  6
CONTINUOUS
 62
     7
 10
268.1032118575876
 20
229.6170757546979
 30
0.0
  0
VERTEX
  5
54D
  8
0
  6
CONTINUOUS
 62
     7
 10
268.1217946929292
 20
229.6331054187018
 30
0.0
  0
VERTEX
  5
54E
  8
0
  6
CONTINUOUS
 62
     7
 10
268.1411416827648
 20
229.6482039577608
 30
0.0
  0
VERTEX
  5
54F
  8
0
  6
CONTINUOUS
 62
     7
 10
268.1612062185013
 20
229.6623349981717
 30
0.0
  0
VERTEX
  5
550
  8
0
  6
CONTINUOUS
 62
     7
 10
268.1819399629144
 20
229.6754644970206
 30
0.0
  0
VERTEX
  5
551
  8
0
  6
CONTINUOUS
 62
     7
 10
268.203292966598
 20
229.6875608241946
 30
0.0
  0
VERTEX
  5
552
  8
0
  6
CONTINUOUS
 62
     7
 10
268.2252137882959
 20
229.6985948385821
 30
0.0
  0
VERTEX
  5
553
  8
0
  6
CONTINUOUS
 62
     7
 10
268.2476496188285
 20
229.708539958276
 30
0.0
  0
VERTEX
  5
554
  8
0
  6
CONTINUOUS
 62
     7
 10
268.2705464083149
 20
229.7173722246119
 30
0.0
  0
VERTEX
  5
555
  8
0
  6
CONTINUOUS
 62
     7
 10
268.2938489963838
 20
229.7250703598865
 30
0.0
  0
VERTEX
  5
556
  8
0
  6
CONTINUOUS
 62
     7
 10
268.3175012450594
 20
229.7316158186177
 30
0.0
  0
VERTEX
  5
557
  8
0
  6
CONTINUOUS
 62
     7
 10
268.341446174003
 20
229.736992832222
 30
0.0
  0
VERTEX
  5
558
  8
0
  6
CONTINUOUS
 62
     7
 10
268.3656260977834
 20
229.7411884470028
 30
0.0
  0
VERTEX
  5
559
  8
0
  6
CONTINUOUS
 62
     7
 10
268.3899827648463
 20
229.7441925553565
 30
0.0
  0
VERTEX
  5
55A
  8
0
  6
CONTINUOUS
 62
     7
 10
268.4144574978473
 20
229.745997920123
 30
0.0
  0
VERTEX
  5
55B
  8
0
  6
CONTINUOUS
 62
     7
 10
268.4389913350111
 20
229.7466001920204
 30
0.0
  0
SEQEND
  5
835
  8
0
  6
CONTINUOUS
 62
     7
  0
LINE
  5
17D
  8
0
  6
CONTINUOUS
 62
     7
 10
267.9389913350111
 20
228.2466001920204
 30
0.0
 11
267.9389913350111
 21
229.2466001920204
 31
0.0
  0
POLYLINE
  5
17E
  8
0
  6
CONTINUOUS
 62
     7
 66
     1
 10
0.0
 20
0.0
 30
0.0
  0
VERTEX
  5
55C
  8
0
  6
CONTINUOUS
 62
     7
 10
268.4389913350111
 20
227.7466001920204
 30
0.0
  0
VERTEX
  5
55D
  8
0
  6
CONTINUOUS
 62
     7
 10
268.4144574978473
 20
227.7472024639178
 30
0.0
  0
VERTEX
  5
55E
  8
0
  6
CONTINUOUS
 62
     7
 10
268.3899827648463
 20
227.7490078286843
 30
0.0
  0
VERTEX
  5
55F
  8
0
  6
CONTINUOUS
 62
     7
 10
268.3656260977834
 20
227.752011937038
 30
0.0
  0
VERTEX
  5
560
  8
0
  6
CONTINUOUS
 62
     7
 10
268.341446174003
 20
227.7562075518188
 30
0.0
  0
VERTEX
  5
561
  8
0
  6
CONTINUOUS
 62
     7
 10
268.3175012450594
 20
227.7615845654231
 30
0.0
  0
VERTEX
  5
562
  8
0
  6
CONTINUOUS
 62
     7
 10
268.2938489963838
 20
227.7681300241543
 30
0.0
  0
VERTEX
  5
563
  8
0
  6
CONTINUOUS
 62
     7
 10
268.2705464083149
 20
227.7758281594289
 30
0.0
  0
VERTEX
  5
564
  8
0
  6
CONTINUOUS
 62
     7
 10
268.2476496188285
 20
227.7846604257648
 30
0.0
  0
VERTEX
  5
565
  8
0
  6
CONTINUOUS
 62
     7
 10
268.2252137882959
 20
227.7946055454587
 30
0.0
  0
VERTEX
  5
566
  8
0
  6
CONTINUOUS
 62
     7
 10
268.203292966598
 20
227.8056395598462
 30
0.0
  0
VERTEX
  5
567
  8
0
  6
CONTINUOUS
 62
     7
 10
268.1819399629144
 20
227.8177358870203
 30
0.0
  0
VERTEX
  5
568
  8
0
  6
CONTINUOUS
 62
     7
 10
268.1612062185013
 20
227.8308653858691
 30
0.0
  0
VERTEX
  5
569
  8
0
  6
CONTINUOUS
 62
     7
 10
268.1411416827648
 20
227.8449964262801
 30
0.0
  0
VERTEX
  5
56A
  8
0
  6
CONTINUOUS
 62
     7
 10
268.1217946929292
 20
227.860094965339
 30
0.0
  0
VERTEX
  5
56B
  8
0
  6
CONTINUOUS
 62
     7
 10
268.1032118575876
 20
227.8761246293429
 30
0.0
  0
VERTEX
  5
56C
  8
0
  6
CONTINUOUS
 62
     7
 10
268.0854379444177
 20
227.8930468014271
 30
0.0
  0
VERTEX
  5
56D
  8
0
  6
CONTINUOUS
 62
     7
 10
268.0685157723336
 20
227.9108207145969
 30
0.0
  0
VERTEX
  5
56E
  8
0
  6
CONTINUOUS
 62
     7
 10
268.0524861083297
 20
227.9294035499386
 30
0.0
  0
VERTEX
  5
56F
  8
0
  6
CONTINUOUS
 62
     7
 10
268.0373875692707
 20
227.9487505397742
 30
0.0
  0
VERTEX
  5
570
  8
0
  6
CONTINUOUS
 62
     7
 10
268.0232565288597
 20
227.9688150755106
 30
0.0
  0
VERTEX
  5
571
  8
0
  6
CONTINUOUS
 62
     7
 10
268.0101270300109
 20
227.9895488199238
 30
0.0
  0
VERTEX
  5
572
  8
0
  6
CONTINUOUS
 62
     7
 10
267.9980307028369
 20
228.0109018236074
 30
0.0
  0
VERTEX
  5
573
  8
0
  6
CONTINUOUS
 62
     7
 10
267.9869966884493
 20
228.0328226453053
 30
0.0
  0
VERTEX
  5
574
  8
0
  6
CONTINUOUS
 62
     7
 10
267.9770515687554
 20
228.0552584758379
 30
0.0
  0
VERTEX
  5
575
  8
0
  6
CONTINUOUS
 62
     7
 10
267.9682193024195
 20
228.0781552653243
 30
0.0
  0
VERTEX
  5
576
  8
0
  6
CONTINUOUS
 62
     7
 10
267.9605211671449
 20
228.1014578533932
 30
0.0
  0
VERTEX
  5
577
  8
0
  6
CONTINUOUS
 62
     7
 10
267.9539757084137
 20
228.1251101020688
 30
0.0
  0
VERTEX
  5
578
  8
0
  6
CONTINUOUS
 62
     7
 10
267.9485986948094
 20
228.1490550310124
 30
0.0
  0
VERTEX
  5
579
  8
0
  6
CONTINUOUS
 62
     7
 10
267.9444030800286
 20
228.1732349547927
 30
0.0
  0
VERTEX
  5
57A
  8
0
  6
CONTINUOUS
 62
     7
 10
267.9413989716749
 20
228.1975916218556
 30
0.0
  0
VERTEX
  5
57B
  8
0
  6
CONTINUOUS
 62
     7
 10
267.9395936069084
 20
228.2220663548567
 30
0.0
  0
VERTEX
  5
57C
  8
0
  6
CONTINUOUS
 62
     7
 10
267.9389913350111
 20
228.2466001920204
 30
0.0
  0
SEQEND
  5
836
  8
0
  6
CONTINUOUS
 62
     7
  0
LINE
  5
17F
  8
0
  6
CONTINUOUS
 62
     7
 10
268.9389913350111
 20
227.7466001920204
 30
0.0
 11
268.4389913350111
 21
227.7466001920204
 31
0.0
  0
LINE
  5
180
  8
0
  6
CONTINUOUS
 62
     7
 10
268.9389913350111
 20
227.7466001920204
 30
0.0
 11
268.9389913350111
 21
211.7466001920204
 31
0.0
  0
LINE
  5
181
  8
0
  6
CONTINUOUS
 62
     7
 10
268.4389913350111
 20
211.7466001920204
 30
0.0
 11
268.9389913350111
 21
211.7466001920204
 31
0.0
  0
POLYLINE
  5
182
  8
0
  6
CONTINUOUS
 62
     7
 66
     1
 10
0.0
 20
0.0
 30
0.0
  0
VERTEX
  5
57D
  8
0
  6
CONTINUOUS
 62
     7
 10
267.9389913350111
 20
211.2466001920204
 30
0.0
  0
VERTEX
  5
57E
  8
0
  6
CONTINUOUS
 62
     7
 10
267.9395936069084
 20
211.2711340291841
 30
0.0
  0
VERTEX
  5
57F
  8
0
  6
CONTINUOUS
 62
     7
 10
267.9413989716749
 20
211.2956087621852
 30
0.0
  0
VERTEX
  5
580
  8
0
  6
CONTINUOUS
 62
     7
 10
267.9444030800286
 20
211.3199654292481
 30
0.0
  0
VERTEX
  5
581
  8
0
  6
CONTINUOUS
 62
     7
 10
267.9485986948094
 20
211.3441453530285
 30
0.0
  0
VERTEX
  5
582
  8
0
  6
CONTINUOUS
 62
     7
 10
267.9539757084137
 20
211.368090281972
 30
0.0
  0
VERTEX
  5
583
  8
0
  6
CONTINUOUS
 62
     7
 10
267.9605211671449
 20
211.3917425306476
 30
0.0
  0
VERTEX
  5
584
  8
0
  6
CONTINUOUS
 62
     7
 10
267.9682193024195
 20
211.4150451187165
 30
0.0
  0
VERTEX
  5
585
  8
0
  6
CONTINUOUS
 62
     7
 10
267.9770515687554
 20
211.4379419082029
 30
0.0
  0
VERTEX
  5
586
  8
0
  6
CONTINUOUS
 62
     7
 10
267.9869966884493
 20
211.4603777387356
 30
0.0
  0
VERTEX
  5
587
  8
0
  6
CONTINUOUS
 62
     7
 10
267.9980307028369
 20
211.4822985604334
 30
0.0
  0
VERTEX
  5
588
  8
0
  6
CONTINUOUS
 62
     7
 10
268.0101270300109
 20
211.503651564117
 30
0.0
  0
VERTEX
  5
589
  8
0
  6
CONTINUOUS
 62
     7
 10
268.0232565288597
 20
211.5243853085302
 30
0.0
  0
VERTEX
  5
58A
  8
0
  6
CONTINUOUS
 62
     7
 10
268.0373875692707
 20
211.5444498442666
 30
0.0
  0
VERTEX
  5
58B
  8
0
  6
CONTINUOUS
 62
     7
 10
268.0524861083297
 20
211.5637968341022
 30
0.0
  0
VERTEX
  5
58C
  8
0
  6
CONTINUOUS
 62
     7
 10
268.0685157723336
 20
211.5823796694439
 30
0.0
  0
VERTEX
  5
58D
  8
0
  6
CONTINUOUS
 62
     7
 10
268.0854379444177
 20
211.6001535826137
 30
0.0
  0
VERTEX
  5
58E
  8
0
  6
CONTINUOUS
 62
     7
 10
268.1032118575876
 20
211.6170757546979
 30
0.0
  0
VERTEX
  5
58F
  8
0
  6
CONTINUOUS
 62
     7
 10
268.1217946929292
 20
211.6331054187018
 30
0.0
  0
VERTEX
  5
590
  8
0
  6
CONTINUOUS
 62
     7
 10
268.1411416827648
 20
211.6482039577607
 30
0.0
  0
VERTEX
  5
591
  8
0
  6
CONTINUOUS
 62
     7
 10
268.1612062185013
 20
211.6623349981717
 30
0.0
  0
VERTEX
  5
592
  8
0
  6
CONTINUOUS
 62
     7
 10
268.1819399629144
 20
211.6754644970205
 30
0.0
  0
VERTEX
  5
593
  8
0
  6
CONTINUOUS
 62
     7
 10
268.203292966598
 20
211.6875608241946
 30
0.0
  0
VERTEX
  5
594
  8
0
  6
CONTINUOUS
 62
     7
 10
268.2252137882959
 20
211.6985948385821
 30
0.0
  0
VERTEX
  5
595
  8
0
  6
CONTINUOUS
 62
     7
 10
268.2476496188285
 20
211.708539958276
 30
0.0
  0
VERTEX
  5
596
  8
0
  6
CONTINUOUS
 62
     7
 10
268.2705464083149
 20
211.7173722246119
 30
0.0
  0
VERTEX
  5
597
  8
0
  6
CONTINUOUS
 62
     7
 10
268.2938489963838
 20
211.7250703598865
 30
0.0
  0
VERTEX
  5
598
  8
0
  6
CONTINUOUS
 62
     7
 10
268.3175012450594
 20
211.7316158186177
 30
0.0
  0
VERTEX
  5
599
  8
0
  6
CONTINUOUS
 62
     7
 10
268.341446174003
 20
211.736992832222
 30
0.0
  0
VERTEX
  5
59A
  8
0
  6
CONTINUOUS
 62
     7
 10
268.3656260977834
 20
211.7411884470028
 30
0.0
  0
VERTEX
  5
59B
  8
0
  6
CONTINUOUS
 62
     7
 10
268.3899827648463
 20
211.7441925553565
 30
0.0
  0
VERTEX
  5
59C
  8
0
  6
CONTINUOUS
 62
     7
 10
268.4144574978473
 20
211.745997920123
 30
0.0
  0
VERTEX
  5
59D
  8
0
  6
CONTINUOUS
 62
     7
 10
268.4389913350111
 20
211.7466001920204
 30
0.0
  0
SEQEND
  5
837
  8
0
  6
CONTINUOUS
 62
     7
  0
LINE
  5
183
  8
0
  6
CONTINUOUS
 62
     7
 10
267.9389913350111
 20
210.2466001920204
 30
0.0
 11
267.9389913350111
 21
211.2466001920204
 31
0.0
  0
POLYLINE
  5
184
  8
0
  6
CONTINUOUS
 62
     7
 66
     1
 10
0.0
 20
0.0
 30
0.0
  0
VERTEX
  5
59E
  8
0
  6
CONTINUOUS
 62
     7
 10
268.4389913350111
 20
209.7466001920204
 30
0.0
  0
VERTEX
  5
59F
  8
0
  6
CONTINUOUS
 62
     7
 10
268.4144574978473
 20
209.7472024639178
 30
0.0
  0
VERTEX
  5
5A0
  8
0
  6
CONTINUOUS
 62
     7
 10
268.3899827648463
 20
209.7490078286843
 30
0.0
  0
VERTEX
  5
5A1
  8
0
  6
CONTINUOUS
 62
     7
 10
268.3656260977834
 20
209.752011937038
 30
0.0
  0
VERTEX
  5
5A2
  8
0
  6
CONTINUOUS
 62
     7
 10
268.341446174003
 20
209.7562075518188
 30
0.0
  0
VERTEX
  5
5A3
  8
0
  6
CONTINUOUS
 62
     7
 10
268.3175012450594
 20
209.7615845654231
 30
0.0
  0
VERTEX
  5
5A4
  8
0
  6
CONTINUOUS
 62
     7
 10
268.2938489963838
 20
209.7681300241543
 30
0.0
  0
VERTEX
  5
5A5
  8
0
  6
CONTINUOUS
 62
     7
 10
268.2705464083149
 20
209.7758281594289
 30
0.0
  0
VERTEX
  5
5A6
  8
0
  6
CONTINUOUS
 62
     7
 10
268.2476496188285
 20
209.7846604257648
 30
0.0
  0
VERTEX
  5
5A7
  8
0
  6
CONTINUOUS
 62
     7
 10
268.2252137882959
 20
209.7946055454587
 30
0.0
  0
VERTEX
  5
5A8
  8
0
  6
CONTINUOUS
 62
     7
 10
268.203292966598
 20
209.8056395598462
 30
0.0
  0
VERTEX
  5
5A9
  8
0
  6
CONTINUOUS
 62
     7
 10
268.1819399629144
 20
209.8177358870203
 30
0.0
  0
VERTEX
  5
5AA
  8
0
  6
CONTINUOUS
 62
     7
 10
268.1612062185013
 20
209.8308653858691
 30
0.0
  0
VERTEX
  5
5AB
  8
0
  6
CONTINUOUS
 62
     7
 10
268.1411416827648
 20
209.8449964262801
 30
0.0
  0
VERTEX
  5
5AC
  8
0
  6
CONTINUOUS
 62
     7
 10
268.1217946929292
 20
209.860094965339
 30
0.0
  0
VERTEX
  5
5AD
  8
0
  6
CONTINUOUS
 62
     7
 10
268.1032118575876
 20
209.8761246293429
 30
0.0
  0
VERTEX
  5
5AE
  8
0
  6
CONTINUOUS
 62
     7
 10
268.0854379444177
 20
209.8930468014271
 30
0.0
  0
VERTEX
  5
5AF
  8
0
  6
CONTINUOUS
 62
     7
 10
268.0685157723336
 20
209.9108207145969
 30
0.0
  0
VERTEX
  5
5B0
  8
0
  6
CONTINUOUS
 62
     7
 10
268.0524861083297
 20
209.9294035499386
 30
0.0
  0
VERTEX
  5
5B1
  8
0
  6
CONTINUOUS
 62
     7
 10
268.0373875692707
 20
209.9487505397742
 30
0.0
  0
VERTEX
  5
5B2
  8
0
  6
CONTINUOUS
 62
     7
 10
268.0232565288597
 20
209.9688150755106
 30
0.0
  0
VERTEX
  5
5B3
  8
0
  6
CONTINUOUS
 62
     7
 10
268.0101270300109
 20
209.9895488199238
 30
0.0
  0
VERTEX
  5
5B4
  8
0
  6
CONTINUOUS
 62
     7
 10
267.9980307028369
 20
210.0109018236074
 30
0.0
  0
VERTEX
  5
5B5
  8
0
  6
CONTINUOUS
 62
     7
 10
267.9869966884493
 20
210.0328226453053
 30
0.0
  0
VERTEX
  5
5B6
  8
0
  6
CONTINUOUS
 62
     7
 10
267.9770515687554
 20
210.0552584758379
 30
0.0
  0
VERTEX
  5
5B7
  8
0
  6
CONTINUOUS
 62
     7
 10
267.9682193024195
 20
210.0781552653243
 30
0.0
  0
VERTEX
  5
5B8
  8
0
  6
CONTINUOUS
 62
     7
 10
267.9605211671449
 20
210.1014578533932
 30
0.0
  0
VERTEX
  5
5B9
  8
0
  6
CONTINUOUS
 62
     7
 10
267.9539757084137
 20
210.1251101020688
 30
0.0
  0
VERTEX
  5
5BA
  8
0
  6
CONTINUOUS
 62
     7
 10
267.9485986948094
 20
210.1490550310123
 30
0.0
  0
VERTEX
  5
5BB
  8
0
  6
CONTINUOUS
 62
     7
 10
267.9444030800286
 20
210.1732349547927
 30
0.0
  0
VERTEX
  5
5BC
  8
0
  6
CONTINUOUS
 62
     7
 10
267.9413989716749
 20
210.1975916218556
 30
0.0
  0
VERTEX
  5
5BD
  8
0
  6
CONTINUOUS
 62
     7
 10
267.9395936069084
 20
210.2220663548567
 30
0.0
  0
VERTEX
  5
5BE
  8
0
  6
CONTINUOUS
 62
     7
 10
267.9389913350111
 20
210.2466001920204
 30
0.0
  0
SEQEND
  5
838
  8
0
  6
CONTINUOUS
 62
     7
  0
LINE
  5
185
  8
0
  6
CONTINUOUS
 62
     7
 10
268.9389913350111
 20
209.7466001920204
 30
0.0
 11
268.4389913350111
 21
209.7466001920204
 31
0.0
  0
LINE
  5
186
  8
0
  6
CONTINUOUS
 62
     7
 10
253.438991335011
 20
195.7466001920204
 30
0.0
 11
254.938991335011
 21
195.7466001920204
 31
0.0
  0
LINE
  5
187
  8
0
  6
CONTINUOUS
 62
     7
 10
253.438991335011
 20
195.7466001920204
 30
0.0
 11
252.438991335011
 21
195.7466001920204
 31
0.0
  0
LINE
  5
188
  8
0
  6
CONTINUOUS
 62
     7
 10
235.4389913350111
 20
195.7466001920204
 30
0.0
 11
252.4389913350111
 21
195.7466001920204
 31
0.0
  0
LINE
  5
189
  8
0
  6
CONTINUOUS
 62
     7
 10
234.4389913350111
 20
195.7466001920204
 30
0.0
 11
235.4389913350111
 21
195.7466001920204
 31
0.0
  0
LINE
  5
18A
  8
0
  6
CONTINUOUS
 62
     7
 10
232.1389913350111
 20
195.7466001920204
 30
0.0
 11
234.4389913350111
 21
195.7466001920204
 31
0.0
  0
LINE
  5
18B
  8
0
  6
CONTINUOUS
 62
     7
 10
232.1389913350111
 20
199.2466001920204
 30
0.0
 11
232.1389913350111
 21
195.7466001920204
 31
0.0
  0
LINE
  5
18C
  8
0
  6
CONTINUOUS
 62
     7
 10
267.6252828360263
 20
204.7466001920204
 30
0.0
 11
258.9389913350111
 21
196.0603086910051
 31
0.0
  0
LINE
  5
18D
  8
0
  6
CONTINUOUS
 62
     7
 10
268.9389913350111
 20
209.7466001920204
 30
0.0
 11
268.9389913350111
 21
208.7466001920204
 31
0.0
  0
LINE
  5
18E
  8
0
  6
CONTINUOUS
 62
     7
 10
255.5542055050175
 20
199.7465906728771
 30
0.0
 11
263.9389913350111
 21
208.1313765028706
 31
0.0
  0
LINE
  5
18F
  8
0
  6
CONTINUOUS
 62
     7
 10
263.9389913350111
 20
208.1313765028706
 30
0.0
 11
263.9389913350111
 21
231.0466001920203
 31
0.0
  0
POLYLINE
  5
190
  8
0
  6
CONTINUOUS
 62
     7
 66
     1
 10
0.0
 20
0.0
 30
0.0
  0
VERTEX
  5
5BF
  8
0
  6
CONTINUOUS
 62
     7
 10
263.9389913350111
 20
231.0466001920203
 30
0.0
  0
VERTEX
  5
5C0
  8
0
  6
CONTINUOUS
 62
     7
 10
263.9395869349123
 20
231.0709978386699
 30
0.0
  0
VERTEX
  5
5C1
  8
0
  6
CONTINUOUS
 62
     7
 10
263.9413723156592
 20
231.0953373603756
 30
0.0
  0
VERTEX
  5
5C2
  8
0
  6
CONTINUOUS
 62
     7
 10
263.9443432237613
 20
231.1195607706707
 30
0.0
  0
VERTEX
  5
5C3
  8
0
  6
CONTINUOUS
 62
     7
 10
263.9484925813282
 20
231.143610359712
 30
0.0
  0
VERTEX
  5
5C4
  8
0
  6
CONTINUOUS
 62
     7
 10
263.9538105029322
 20
231.1674288317681
 30
0.0
  0
VERTEX
  5
5C5
  8
0
  6
CONTINUOUS
 62
     7
 10
263.960284319159
 20
231.1909594417207
 30
0.0
  0
VERTEX
  5
5C6
  8
0
  6
CONTINUOUS
 62
     7
 10
263.9678986067913
 20
231.2141461302537
 30
0.0
  0
VERTEX
  5
5C7
  8
0
  6
CONTINUOUS
 62
     7
 10
263.9766352255533
 20
231.2369336574096
 30
0.0
  0
VERTEX
  5
5C8
  8
0
  6
CONTINUOUS
 62
     7
 10
263.9864733613279
 20
231.2592677341928
 30
0.0
  0
VERTEX
  5
5C9
  8
0
  6
CONTINUOUS
 62
     7
 10
263.9973895757443
 20
231.2810951519075
 30
0.0
  0
VERTEX
  5
5CA
  8
0
  6
CONTINUOUS
 62
     7
 10
264.0093578620175
 20
231.3023639089223
 30
0.0
  0
VERTEX
  5
5CB
  8
0
  6
CONTINUOUS
 62
     7
 10
264.0223497069072
 20
231.323023334559
 30
0.0
  0
VERTEX
  5
5CC
  8
0
  6
CONTINUOUS
 62
     7
 10
264.0363341586471
 20
231.3430242098101
 30
0.0
  0
VERTEX
  5
5CD
  8
0
  6
CONTINUOUS
 62
     7
 10
264.051277900685
 20
231.3623188845982
 30
0.0
  0
VERTEX
  5
5CE
  8
0
  6
CONTINUOUS
 62
     7
 10
264.0671453310557
 20
231.3808613912979
 30
0.0
  0
VERTEX
  5
5CF
  8
0
  6
CONTINUOUS
 62
     7
 10
264.0838986471994
 20
231.3986075542483
 30
0.0
  0
VERTEX
  5
5D0
  8
0
  6
CONTINUOUS
 62
     7
 10
264.1014979360223
 20
231.4155150949981
 30
0.0
  0
VERTEX
  5
5D1
  8
0
  6
CONTINUOUS
 62
     7
 10
264.1199012689857
 20
231.4315437330286
 30
0.0
  0
VERTEX
  5
5D2
  8
0
  6
CONTINUOUS
 62
     7
 10
264.1390648019964
 20
231.446655281719
 30
0.0
  0
VERTEX
  5
5D3
  8
0
  6
CONTINUOUS
 62
     7
 10
264.1589428798608
 20
231.4608137393218
 30
0.0
  0
VERTEX
  5
5D4
  8
0
  6
CONTINUOUS
 62
     7
 10
264.1794881450543
 20
231.473985374733
 30
0.0
  0
VERTEX
  5
5D5
  8
0
  6
CONTINUOUS
 62
     7
 10
264.2006516505451
 20
231.4861388078537
 30
0.0
  0
VERTEX
  5
5D6
  8
0
  6
CONTINUOUS
 62
     7
 10
264.222382976406
 20
231.4972450843496
 30
0.0
  0
VERTEX
  5
5D7
  8
0
  6
CONTINUOUS
 62
     7
 10
264.2446303499348
 20
231.507277744632
 30
0.0
  0
VERTEX
  5
5D8
  8
0
  6
CONTINUOUS
 62
     7
 10
264.2673407689978
 20
231.5162128868949
 30
0.0
  0
VERTEX
  5
5D9
  8
0
  6
CONTINUOUS
 62
     7
 10
264.2904601283015
 20
231.5240292240591
 30
0.0
  0
VERTEX
  5
5DA
  8
0
  6
CONTINUOUS
 62
     7
 10
264.3139333482933
 20
231.5307081344858
 30
0.0
  0
VERTEX
  5
5DB
  8
0
  6
CONTINUOUS
 62
     7
 10
264.3377045063834
 20
231.5362337063416
 30
0.0
  0
VERTEX
  5
5DC
  8
0
  6
CONTINUOUS
 62
     7
 10
264.361716970174
 20
231.5405927755062
 30
0.0
  0
VERTEX
  5
5DD
  8
0
  6
CONTINUOUS
 62
     7
 10
264.3859135323808
 20
231.543774956935
 30
0.0
  0
VERTEX
  5
5DE
  8
0
  6
CONTINUOUS
 62
     7
 10
264.4102365471237
 20
231.5457726694002
 30
0.0
  0
VERTEX
  5
5DF
  8
0
  6
CONTINUOUS
 62
     7
 10
264.4346280672618
 20
231.5465811535524
 30
0.0
  0
SEQEND
  5
839
  8
0
  6
CONTINUOUS
 62
     7
  0
POLYLINE
  5
191
  8
0
  6
CONTINUOUS
 62
     7
 66
     1
 10
0.0
 20
0.0
 30
0.0
  0
VERTEX
  5
5E0
  8
0
  6
CONTINUOUS
 62
     7
 10
232.1389913350111
 20
199.2466001920204
 30
0.0
  0
VERTEX
  5
5E1
  8
0
  6
CONTINUOUS
 62
     7
 10
232.1395936069085
 20
199.2711340291841
 30
0.0
  0
VERTEX
  5
5E2
  8
0
  6
CONTINUOUS
 62
     7
 10
232.141398971675
 20
199.2956087621852
 30
0.0
  0
VERTEX
  5
5E3
  8
0
  6
CONTINUOUS
 62
     7
 10
232.1444030800287
 20
199.3199654292481
 30
0.0
  0
VERTEX
  5
5E4
  8
0
  6
CONTINUOUS
 62
     7
 10
232.1485986948095
 20
199.3441453530285
 30
0.0
  0
VERTEX
  5
5E5
  8
0
  6
CONTINUOUS
 62
     7
 10
232.1539757084138
 20
199.3680902819721
 30
0.0
  0
VERTEX
  5
5E6
  8
0
  6
CONTINUOUS
 62
     7
 10
232.160521167145
 20
199.3917425306476
 30
0.0
  0
VERTEX
  5
5E7
  8
0
  6
CONTINUOUS
 62
     7
 10
232.1682193024196
 20
199.4150451187165
 30
0.0
  0
VERTEX
  5
5E8
  8
0
  6
CONTINUOUS
 62
     7
 10
232.1770515687554
 20
199.437941908203
 30
0.0
  0
VERTEX
  5
5E9
  8
0
  6
CONTINUOUS
 62
     7
 10
232.1869966884493
 20
199.4603777387356
 30
0.0
  0
VERTEX
  5
5EA
  8
0
  6
CONTINUOUS
 62
     7
 10
232.1980307028369
 20
199.4822985604334
 30
0.0
  0
VERTEX
  5
5EB
  8
0
  6
CONTINUOUS
 62
     7
 10
232.2101270300109
 20
199.503651564117
 30
0.0
  0
VERTEX
  5
5EC
  8
0
  6
CONTINUOUS
 62
     7
 10
232.2232565288598
 20
199.5243853085302
 30
0.0
  0
VERTEX
  5
5ED
  8
0
  6
CONTINUOUS
 62
     7
 10
232.2373875692708
 20
199.5444498442666
 30
0.0
  0
VERTEX
  5
5EE
  8
0
  6
CONTINUOUS
 62
     7
 10
232.2524861083297
 20
199.5637968341022
 30
0.0
  0
VERTEX
  5
5EF
  8
0
  6
CONTINUOUS
 62
     7
 10
232.2685157723336
 20
199.5823796694439
 30
0.0
  0
VERTEX
  5
5F0
  8
0
  6
CONTINUOUS
 62
     7
 10
232.2854379444178
 20
199.6001535826137
 30
0.0
  0
VERTEX
  5
5F1
  8
0
  6
CONTINUOUS
 62
     7
 10
232.3032118575876
 20
199.6170757546979
 30
0.0
  0
VERTEX
  5
5F2
  8
0
  6
CONTINUOUS
 62
     7
 10
232.3217946929292
 20
199.6331054187018
 30
0.0
  0
VERTEX
  5
5F3
  8
0
  6
CONTINUOUS
 62
     7
 10
232.3411416827649
 20
199.6482039577607
 30
0.0
  0
VERTEX
  5
5F4
  8
0
  6
CONTINUOUS
 62
     7
 10
232.3612062185013
 20
199.6623349981717
 30
0.0
  0
VERTEX
  5
5F5
  8
0
  6
CONTINUOUS
 62
     7
 10
232.3819399629145
 20
199.6754644970206
 30
0.0
  0
VERTEX
  5
5F6
  8
0
  6
CONTINUOUS
 62
     7
 10
232.4032929665981
 20
199.6875608241946
 30
0.0
  0
VERTEX
  5
5F7
  8
0
  6
CONTINUOUS
 62
     7
 10
232.4252137882959
 20
199.6985948385821
 30
0.0
  0
VERTEX
  5
5F8
  8
0
  6
CONTINUOUS
 62
     7
 10
232.4476496188285
 20
199.708539958276
 30
0.0
  0
VERTEX
  5
5F9
  8
0
  6
CONTINUOUS
 62
     7
 10
232.470546408315
 20
199.7173722246119
 30
0.0
  0
VERTEX
  5
5FA
  8
0
  6
CONTINUOUS
 62
     7
 10
232.4938489963838
 20
199.7250703598865
 30
0.0
  0
VERTEX
  5
5FB
  8
0
  6
CONTINUOUS
 62
     7
 10
232.5175012450594
 20
199.7316158186177
 30
0.0
  0
VERTEX
  5
5FC
  8
0
  6
CONTINUOUS
 62
     7
 10
232.541446174003
 20
199.736992832222
 30
0.0
  0
VERTEX
  5
5FD
  8
0
  6
CONTINUOUS
 62
     7
 10
232.5656260977834
 20
199.7411884470028
 30
0.0
  0
VERTEX
  5
5FE
  8
0
  6
CONTINUOUS
 62
     7
 10
232.5899827648463
 20
199.7441925553565
 30
0.0
  0
VERTEX
  5
5FF
  8
0
  6
CONTINUOUS
 62
     7
 10
232.6144574978474
 20
199.745997920123
 30
0.0
  0
VERTEX
  5
600
  8
0
  6
CONTINUOUS
 62
     7
 10
232.6389913350111
 20
199.7466001920204
 30
0.0
  0
SEQEND
  5
83A
  8
0
  6
CONTINUOUS
 62
     7
  0
LINE
  5
192
  8
0
  6
CONTINUOUS
 62
     7
 10
232.6389913350111
 20
199.7466001920204
 30
0.0
 11
255.5542150241608
 21
199.7466001920204
 31
0.0
  0
POLYLINE
  5
193
  8
0
  6
CONTINUOUS
 62
     7
 66
     1
 10
0.0
 20
0.0
 30
0.0
  0
VERTEX
  5
601
  8
0
  6
CONTINUOUS
 62
     7
 10
253.9389913350111
 20
195.2466001920204
 30
0.0
  0
VERTEX
  5
602
  8
0
  6
CONTINUOUS
 62
     7
 10
253.9383890631136
 20
195.2711340291841
 30
0.0
  0
VERTEX
  5
603
  8
0
  6
CONTINUOUS
 62
     7
 10
253.9365836983471
 20
195.2956087621852
 30
0.0
  0
VERTEX
  5
604
  8
0
  6
CONTINUOUS
 62
     7
 10
253.9335795899935
 20
195.3199654292481
 30
0.0
  0
VERTEX
  5
605
  8
0
  6
CONTINUOUS
 62
     7
 10
253.9293839752127
 20
195.3441453530285
 30
0.0
  0
VERTEX
  5
606
  8
0
  6
CONTINUOUS
 62
     7
 10
253.9240069616083
 20
195.3680902819721
 30
0.0
  0
VERTEX
  5
607
  8
0
  6
CONTINUOUS
 62
     7
 10
253.9174615028772
 20
195.3917425306476
 30
0.0
  0
VERTEX
  5
608
  8
0
  6
CONTINUOUS
 62
     7
 10
253.9097633676026
 20
195.4150451187165
 30
0.0
  0
VERTEX
  5
609
  8
0
  6
CONTINUOUS
 62
     7
 10
253.9009311012667
 20
195.437941908203
 30
0.0
  0
VERTEX
  5
60A
  8
0
  6
CONTINUOUS
 62
     7
 10
253.8909859815728
 20
195.4603777387356
 30
0.0
  0
VERTEX
  5
60B
  8
0
  6
CONTINUOUS
 62
     7
 10
253.8799519671853
 20
195.4822985604334
 30
0.0
  0
VERTEX
  5
60C
  8
0
  6
CONTINUOUS
 62
     7
 10
253.8678556400112
 20
195.503651564117
 30
0.0
  0
VERTEX
  5
60D
  8
0
  6
CONTINUOUS
 62
     7
 10
253.8547261411623
 20
195.5243853085302
 30
0.0
  0
VERTEX
  5
60E
  8
0
  6
CONTINUOUS
 62
     7
 10
253.8405951007514
 20
195.5444498442666
 30
0.0
  0
VERTEX
  5
60F
  8
0
  6
CONTINUOUS
 62
     7
 10
253.8254965616924
 20
195.5637968341022
 30
0.0
  0
VERTEX
  5
610
  8
0
  6
CONTINUOUS
 62
     7
 10
253.8094668976886
 20
195.5823796694439
 30
0.0
  0
VERTEX
  5
611
  8
0
  6
CONTINUOUS
 62
     7
 10
253.7925447256043
 20
195.6001535826137
 30
0.0
  0
VERTEX
  5
612
  8
0
  6
CONTINUOUS
 62
     7
 10
253.7747708124346
 20
195.6170757546979
 30
0.0
  0
VERTEX
  5
613
  8
0
  6
CONTINUOUS
 62
     7
 10
253.7561879770929
 20
195.6331054187018
 30
0.0
  0
VERTEX
  5
614
  8
0
  6
CONTINUOUS
 62
     7
 10
253.7368409872572
 20
195.6482039577608
 30
0.0
  0
VERTEX
  5
615
  8
0
  6
CONTINUOUS
 62
     7
 10
253.7167764515208
 20
195.6623349981717
 30
0.0
  0
VERTEX
  5
616
  8
0
  6
CONTINUOUS
 62
     7
 10
253.6960427071077
 20
195.6754644970206
 30
0.0
  0
VERTEX
  5
617
  8
0
  6
CONTINUOUS
 62
     7
 10
253.674689703424
 20
195.6875608241946
 30
0.0
  0
VERTEX
  5
618
  8
0
  6
CONTINUOUS
 62
     7
 10
253.6527688817262
 20
195.6985948385822
 30
0.0
  0
VERTEX
  5
619
  8
0
  6
CONTINUOUS
 62
     7
 10
253.6303330511936
 20
195.708539958276
 30
0.0
  0
VERTEX
  5
61A
  8
0
  6
CONTINUOUS
 62
     7
 10
253.6074362617072
 20
195.7173722246119
 30
0.0
  0
VERTEX
  5
61B
  8
0
  6
CONTINUOUS
 62
     7
 10
253.5841336736383
 20
195.7250703598865
 30
0.0
  0
VERTEX
  5
61C
  8
0
  6
CONTINUOUS
 62
     7
 10
253.5604814249627
 20
195.7316158186177
 30
0.0
  0
VERTEX
  5
61D
  8
0
  6
CONTINUOUS
 62
     7
 10
253.5365364960192
 20
195.736992832222
 30
0.0
  0
VERTEX
  5
61E
  8
0
  6
CONTINUOUS
 62
     7
 10
253.5123565722388
 20
195.7411884470028
 30
0.0
  0
VERTEX
  5
61F
  8
0
  6
CONTINUOUS
 62
     7
 10
253.4879999051758
 20
195.7441925553565
 30
0.0
  0
VERTEX
  5
620
  8
0
  6
CONTINUOUS
 62
     7
 10
253.4635251721747
 20
195.745997920123
 30
0.0
  0
VERTEX
  5
621
  8
0
  6
CONTINUOUS
 62
     7
 10
253.4389913350111
 20
195.7466001920204
 30
0.0
  0
SEQEND
  5
83B
  8
0
  6
CONTINUOUS
 62
     7
  0
LINE
  5
194
  8
0
  6
CONTINUOUS
 62
     7
 10
253.9389913350111
 20
194.7466001920204
 30
0.0
 11
253.9389913350111
 21
195.2466001920204
 31
0.0
  0
LINE
  5
195
  8
0
  6
CONTINUOUS
 62
     7
 10
254.9389913350111
 20
194.7466001920204
 30
0.0
 11
253.9389913350111
 21
194.7466001920204
 31
0.0
  0
POLYLINE
  5
196
  8
0
  6
CONTINUOUS
 62
     7
 66
     1
 10
0.0
 20
0.0
 30
0.0
  0
VERTEX
  5
622
  8
0
  6
CONTINUOUS
 62
     7
 10
235.9389913350111
 20
195.2466001920204
 30
0.0
  0
VERTEX
  5
623
  8
0
  6
CONTINUOUS
 62
     7
 10
235.9383890631136
 20
195.2711340291841
 30
0.0
  0
VERTEX
  5
624
  8
0
  6
CONTINUOUS
 62
     7
 10
235.9365836983471
 20
195.2956087621852
 30
0.0
  0
VERTEX
  5
625
  8
0
  6
CONTINUOUS
 62
     7
 10
235.9335795899934
 20
195.3199654292481
 30
0.0
  0
VERTEX
  5
626
  8
0
  6
CONTINUOUS
 62
     7
 10
235.9293839752127
 20
195.3441453530285
 30
0.0
  0
VERTEX
  5
627
  8
0
  6
CONTINUOUS
 62
     7
 10
235.9240069616083
 20
195.3680902819721
 30
0.0
  0
VERTEX
  5
628
  8
0
  6
CONTINUOUS
 62
     7
 10
235.9174615028772
 20
195.3917425306476
 30
0.0
  0
VERTEX
  5
629
  8
0
  6
CONTINUOUS
 62
     7
 10
235.9097633676026
 20
195.4150451187165
 30
0.0
  0
VERTEX
  5
62A
  8
0
  6
CONTINUOUS
 62
     7
 10
235.9009311012667
 20
195.437941908203
 30
0.0
  0
VERTEX
  5
62B
  8
0
  6
CONTINUOUS
 62
     7
 10
235.8909859815728
 20
195.4603777387356
 30
0.0
  0
VERTEX
  5
62C
  8
0
  6
CONTINUOUS
 62
     7
 10
235.8799519671852
 20
195.4822985604334
 30
0.0
  0
VERTEX
  5
62D
  8
0
  6
CONTINUOUS
 62
     7
 10
235.8678556400112
 20
195.503651564117
 30
0.0
  0
VERTEX
  5
62E
  8
0
  6
CONTINUOUS
 62
     7
 10
235.8547261411623
 20
195.5243853085302
 30
0.0
  0
VERTEX
  5
62F
  8
0
  6
CONTINUOUS
 62
     7
 10
235.8405951007514
 20
195.5444498442666
 30
0.0
  0
VERTEX
  5
630
  8
0
  6
CONTINUOUS
 62
     7
 10
235.8254965616924
 20
195.5637968341022
 30
0.0
  0
VERTEX
  5
631
  8
0
  6
CONTINUOUS
 62
     7
 10
235.8094668976885
 20
195.5823796694439
 30
0.0
  0
VERTEX
  5
632
  8
0
  6
CONTINUOUS
 62
     7
 10
235.7925447256043
 20
195.6001535826137
 30
0.0
  0
VERTEX
  5
633
  8
0
  6
CONTINUOUS
 62
     7
 10
235.7747708124346
 20
195.6170757546979
 30
0.0
  0
VERTEX
  5
634
  8
0
  6
CONTINUOUS
 62
     7
 10
235.7561879770929
 20
195.6331054187018
 30
0.0
  0
VERTEX
  5
635
  8
0
  6
CONTINUOUS
 62
     7
 10
235.7368409872573
 20
195.6482039577608
 30
0.0
  0
VERTEX
  5
636
  8
0
  6
CONTINUOUS
 62
     7
 10
235.7167764515209
 20
195.6623349981717
 30
0.0
  0
VERTEX
  5
637
  8
0
  6
CONTINUOUS
 62
     7
 10
235.6960427071077
 20
195.6754644970206
 30
0.0
  0
VERTEX
  5
638
  8
0
  6
CONTINUOUS
 62
     7
 10
235.6746897034241
 20
195.6875608241946
 30
0.0
  0
VERTEX
  5
639
  8
0
  6
CONTINUOUS
 62
     7
 10
235.6527688817262
 20
195.6985948385822
 30
0.0
  0
VERTEX
  5
63A
  8
0
  6
CONTINUOUS
 62
     7
 10
235.6303330511936
 20
195.708539958276
 30
0.0
  0
VERTEX
  5
63B
  8
0
  6
CONTINUOUS
 62
     7
 10
235.6074362617072
 20
195.7173722246119
 30
0.0
  0
VERTEX
  5
63C
  8
0
  6
CONTINUOUS
 62
     7
 10
235.5841336736383
 20
195.7250703598865
 30
0.0
  0
VERTEX
  5
63D
  8
0
  6
CONTINUOUS
 62
     7
 10
235.5604814249627
 20
195.7316158186177
 30
0.0
  0
VERTEX
  5
63E
  8
0
  6
CONTINUOUS
 62
     7
 10
235.5365364960191
 20
195.736992832222
 30
0.0
  0
VERTEX
  5
63F
  8
0
  6
CONTINUOUS
 62
     7
 10
235.5123565722387
 20
195.7411884470028
 30
0.0
  0
VERTEX
  5
640
  8
0
  6
CONTINUOUS
 62
     7
 10
235.4879999051758
 20
195.7441925553565
 30
0.0
  0
VERTEX
  5
641
  8
0
  6
CONTINUOUS
 62
     7
 10
235.4635251721748
 20
195.745997920123
 30
0.0
  0
VERTEX
  5
642
  8
0
  6
CONTINUOUS
 62
     7
 10
235.4389913350111
 20
195.7466001920204
 30
0.0
  0
SEQEND
  5
83C
  8
0
  6
CONTINUOUS
 62
     7
  0
POLYLINE
  5
197
  8
0
  6
CONTINUOUS
 62
     7
 66
     1
 10
0.0
 20
0.0
 30
0.0
  0
VERTEX
  5
643
  8
0
  6
CONTINUOUS
 62
     7
 10
252.4389913350111
 20
195.7466001920204
 30
0.0
  0
VERTEX
  5
644
  8
0
  6
CONTINUOUS
 62
     7
 10
252.4144574978473
 20
195.745997920123
 30
0.0
  0
VERTEX
  5
645
  8
0
  6
CONTINUOUS
 62
     7
 10
252.3899827648463
 20
195.7441925553565
 30
0.0
  0
VERTEX
  5
646
  8
0
  6
CONTINUOUS
 62
     7
 10
252.3656260977833
 20
195.7411884470028
 30
0.0
  0
VERTEX
  5
647
  8
0
  6
CONTINUOUS
 62
     7
 10
252.341446174003
 20
195.736992832222
 30
0.0
  0
VERTEX
  5
648
  8
0
  6
CONTINUOUS
 62
     7
 10
252.3175012450594
 20
195.7316158186177
 30
0.0
  0
VERTEX
  5
649
  8
0
  6
CONTINUOUS
 62
     7
 10
252.2938489963838
 20
195.7250703598865
 30
0.0
  0
VERTEX
  5
64A
  8
0
  6
CONTINUOUS
 62
     7
 10
252.2705464083149
 20
195.7173722246119
 30
0.0
  0
VERTEX
  5
64B
  8
0
  6
CONTINUOUS
 62
     7
 10
252.2476496188285
 20
195.708539958276
 30
0.0
  0
VERTEX
  5
64C
  8
0
  6
CONTINUOUS
 62
     7
 10
252.2252137882959
 20
195.6985948385821
 30
0.0
  0
VERTEX
  5
64D
  8
0
  6
CONTINUOUS
 62
     7
 10
252.203292966598
 20
195.6875608241946
 30
0.0
  0
VERTEX
  5
64E
  8
0
  6
CONTINUOUS
 62
     7
 10
252.1819399629145
 20
195.6754644970206
 30
0.0
  0
VERTEX
  5
64F
  8
0
  6
CONTINUOUS
 62
     7
 10
252.1612062185012
 20
195.6623349981717
 30
0.0
  0
VERTEX
  5
650
  8
0
  6
CONTINUOUS
 62
     7
 10
252.1411416827648
 20
195.6482039577607
 30
0.0
  0
VERTEX
  5
651
  8
0
  6
CONTINUOUS
 62
     7
 10
252.1217946929293
 20
195.6331054187018
 30
0.0
  0
VERTEX
  5
652
  8
0
  6
CONTINUOUS
 62
     7
 10
252.1032118575876
 20
195.6170757546979
 30
0.0
  0
VERTEX
  5
653
  8
0
  6
CONTINUOUS
 62
     7
 10
252.0854379444178
 20
195.6001535826137
 30
0.0
  0
VERTEX
  5
654
  8
0
  6
CONTINUOUS
 62
     7
 10
252.0685157723336
 20
195.5823796694439
 30
0.0
  0
VERTEX
  5
655
  8
0
  6
CONTINUOUS
 62
     7
 10
252.0524861083297
 20
195.5637968341022
 30
0.0
  0
VERTEX
  5
656
  8
0
  6
CONTINUOUS
 62
     7
 10
252.0373875692707
 20
195.5444498442666
 30
0.0
  0
VERTEX
  5
657
  8
0
  6
CONTINUOUS
 62
     7
 10
252.0232565288598
 20
195.5243853085302
 30
0.0
  0
VERTEX
  5
658
  8
0
  6
CONTINUOUS
 62
     7
 10
252.0101270300109
 20
195.503651564117
 30
0.0
  0
VERTEX
  5
659
  8
0
  6
CONTINUOUS
 62
     7
 10
251.9980307028369
 20
195.4822985604334
 30
0.0
  0
VERTEX
  5
65A
  8
0
  6
CONTINUOUS
 62
     7
 10
251.9869966884494
 20
195.4603777387356
 30
0.0
  0
VERTEX
  5
65B
  8
0
  6
CONTINUOUS
 62
     7
 10
251.9770515687554
 20
195.437941908203
 30
0.0
  0
VERTEX
  5
65C
  8
0
  6
CONTINUOUS
 62
     7
 10
251.9682193024195
 20
195.4150451187165
 30
0.0
  0
VERTEX
  5
65D
  8
0
  6
CONTINUOUS
 62
     7
 10
251.9605211671449
 20
195.3917425306476
 30
0.0
  0
VERTEX
  5
65E
  8
0
  6
CONTINUOUS
 62
     7
 10
251.9539757084138
 20
195.3680902819721
 30
0.0
  0
VERTEX
  5
65F
  8
0
  6
CONTINUOUS
 62
     7
 10
251.9485986948094
 20
195.3441453530285
 30
0.0
  0
VERTEX
  5
660
  8
0
  6
CONTINUOUS
 62
     7
 10
251.9444030800287
 20
195.3199654292481
 30
0.0
  0
VERTEX
  5
661
  8
0
  6
CONTINUOUS
 62
     7
 10
251.941398971675
 20
195.2956087621852
 30
0.0
  0
VERTEX
  5
662
  8
0
  6
CONTINUOUS
 62
     7
 10
251.9395936069085
 20
195.2711340291841
 30
0.0
  0
VERTEX
  5
663
  8
0
  6
CONTINUOUS
 62
     7
 10
251.9389913350111
 20
195.2466001920204
 30
0.0
  0
SEQEND
  5
83D
  8
0
  6
CONTINUOUS
 62
     7
  0
LINE
  5
198
  8
0
  6
CONTINUOUS
 62
     7
 10
251.9389913350111
 20
195.2466001920204
 30
0.0
 11
251.9389913350111
 21
194.7466001920204
 31
0.0
  0
LINE
  5
199
  8
0
  6
CONTINUOUS
 62
     7
 10
251.9389913350111
 20
194.7466001920204
 30
0.0
 11
235.9389913350111
 21
194.7466001920204
 31
0.0
  0
LINE
  5
19A
  8
0
  6
CONTINUOUS
 62
     7
 10
235.9389913350111
 20
194.7466001920204
 30
0.0
 11
235.9389913350111
 21
195.2466001920204
 31
0.0
  0
POLYLINE
  5
19B
  8
0
  6
CONTINUOUS
 62
     7
 66
     1
 10
0.0
 20
0.0
 30
0.0
  0
VERTEX
  5
664
  8
0
  6
CONTINUOUS
 62
     7
 10
234.4389913350111
 20
195.7466001920204
 30
0.0
  0
VERTEX
  5
665
  8
0
  6
CONTINUOUS
 62
     7
 10
234.4144574978473
 20
195.745997920123
 30
0.0
  0
VERTEX
  5
666
  8
0
  6
CONTINUOUS
 62
     7
 10
234.3899827648463
 20
195.7441925553565
 30
0.0
  0
VERTEX
  5
667
  8
0
  6
CONTINUOUS
 62
     7
 10
234.3656260977834
 20
195.7411884470028
 30
0.0
  0
VERTEX
  5
668
  8
0
  6
CONTINUOUS
 62
     7
 10
234.341446174003
 20
195.736992832222
 30
0.0
  0
VERTEX
  5
669
  8
0
  6
CONTINUOUS
 62
     7
 10
234.3175012450594
 20
195.7316158186177
 30
0.0
  0
VERTEX
  5
66A
  8
0
  6
CONTINUOUS
 62
     7
 10
234.2938489963838
 20
195.7250703598865
 30
0.0
  0
VERTEX
  5
66B
  8
0
  6
CONTINUOUS
 62
     7
 10
234.2705464083149
 20
195.7173722246119
 30
0.0
  0
VERTEX
  5
66C
  8
0
  6
CONTINUOUS
 62
     7
 10
234.2476496188285
 20
195.708539958276
 30
0.0
  0
VERTEX
  5
66D
  8
0
  6
CONTINUOUS
 62
     7
 10
234.2252137882959
 20
195.6985948385822
 30
0.0
  0
VERTEX
  5
66E
  8
0
  6
CONTINUOUS
 62
     7
 10
234.203292966598
 20
195.6875608241946
 30
0.0
  0
VERTEX
  5
66F
  8
0
  6
CONTINUOUS
 62
     7
 10
234.1819399629144
 20
195.6754644970206
 30
0.0
  0
VERTEX
  5
670
  8
0
  6
CONTINUOUS
 62
     7
 10
234.1612062185013
 20
195.6623349981717
 30
0.0
  0
VERTEX
  5
671
  8
0
  6
CONTINUOUS
 62
     7
 10
234.1411416827648
 20
195.6482039577608
 30
0.0
  0
VERTEX
  5
672
  8
0
  6
CONTINUOUS
 62
     7
 10
234.1217946929292
 20
195.6331054187018
 30
0.0
  0
VERTEX
  5
673
  8
0
  6
CONTINUOUS
 62
     7
 10
234.1032118575875
 20
195.6170757546979
 30
0.0
  0
VERTEX
  5
674
  8
0
  6
CONTINUOUS
 62
     7
 10
234.0854379444178
 20
195.6001535826137
 30
0.0
  0
VERTEX
  5
675
  8
0
  6
CONTINUOUS
 62
     7
 10
234.0685157723336
 20
195.5823796694439
 30
0.0
  0
VERTEX
  5
676
  8
0
  6
CONTINUOUS
 62
     7
 10
234.0524861083297
 20
195.5637968341022
 30
0.0
  0
VERTEX
  5
677
  8
0
  6
CONTINUOUS
 62
     7
 10
234.0373875692707
 20
195.5444498442666
 30
0.0
  0
VERTEX
  5
678
  8
0
  6
CONTINUOUS
 62
     7
 10
234.0232565288598
 20
195.5243853085302
 30
0.0
  0
VERTEX
  5
679
  8
0
  6
CONTINUOUS
 62
     7
 10
234.0101270300109
 20
195.503651564117
 30
0.0
  0
VERTEX
  5
67A
  8
0
  6
CONTINUOUS
 62
     7
 10
233.9980307028369
 20
195.4822985604334
 30
0.0
  0
VERTEX
  5
67B
  8
0
  6
CONTINUOUS
 62
     7
 10
233.9869966884493
 20
195.4603777387356
 30
0.0
  0
VERTEX
  5
67C
  8
0
  6
CONTINUOUS
 62
     7
 10
233.9770515687554
 20
195.437941908203
 30
0.0
  0
VERTEX
  5
67D
  8
0
  6
CONTINUOUS
 62
     7
 10
233.9682193024195
 20
195.4150451187165
 30
0.0
  0
VERTEX
  5
67E
  8
0
  6
CONTINUOUS
 62
     7
 10
233.9605211671449
 20
195.3917425306476
 30
0.0
  0
VERTEX
  5
67F
  8
0
  6
CONTINUOUS
 62
     7
 10
233.9539757084138
 20
195.3680902819721
 30
0.0
  0
VERTEX
  5
680
  8
0
  6
CONTINUOUS
 62
     7
 10
233.9485986948094
 20
195.3441453530285
 30
0.0
  0
VERTEX
  5
681
  8
0
  6
CONTINUOUS
 62
     7
 10
233.9444030800287
 20
195.3199654292481
 30
0.0
  0
VERTEX
  5
682
  8
0
  6
CONTINUOUS
 62
     7
 10
233.9413989716749
 20
195.2956087621852
 30
0.0
  0
VERTEX
  5
683
  8
0
  6
CONTINUOUS
 62
     7
 10
233.9395936069085
 20
195.2711340291841
 30
0.0
  0
VERTEX
  5
684
  8
0
  6
CONTINUOUS
 62
     7
 10
233.9389913350111
 20
195.2466001920204
 30
0.0
  0
SEQEND
  5
83E
  8
0
  6
CONTINUOUS
 62
     7
  0
LINE
  5
19C
  8
0
  6
CONTINUOUS
 62
     7
 10
233.9389913350111
 20
195.2466001920204
 30
0.0
 11
233.9389913350111
 21
194.7466001920204
 31
0.0
  0
LINE
  5
19D
  8
0
  6
CONTINUOUS
 62
     7
 10
233.9389913350111
 20
194.7466001920204
 30
0.0
 11
232.1389913350111
 21
194.7466001920204
 31
0.0
  0
LINE
  5
19E
  8
0
  6
CONTINUOUS
 62
     7
 10
232.1389913350111
 20
194.7466001920204
 30
0.0
 11
232.1389913350111
 21
195.7466001920204
 31
0.0
  0
ARC
  5
19F
  8
0
  6
CONTINUOUS
 62
     7
 10
231.138991335011
 20
198.3914477207415
 30
0.0
 40
2.0
 50
92.99999999999935
 51
180.0
  0
LINE
  5
1A0
  8
0
  6
CONTINUOUS
 62
     7
 10
233.1096223265795
 20
200.4974688067918
 30
0.0
 11
231.0343194225252
 21
200.3887067902507
 31
0.0
  0
LINE
  5
1A1
  8
0
  6
CONTINUOUS
 62
     7
 10
233.5431365234438
 20
199.7466001920204
 30
0.0
 11
233.1096223265795
 21
200.4974688067918
 31
0.0
  0
POLYLINE
  5
1A2
  8
0
  6
CONTINUOUS
 62
     7
 66
     1
 10
0.0
 20
0.0
 30
0.0
  0
VERTEX
  5
685
  8
0
  6
CONTINUOUS
 62
     7
 10
231.3889913350111
 20
198.0135874901282
 30
0.0
  0
VERTEX
  5
686
  8
0
  6
CONTINUOUS
 62
     7
 10
231.4098780741474
 20
198.0249925125634
 30
0.0
  0
VERTEX
  5
687
  8
0
  6
CONTINUOUS
 62
     7
 10
231.4312838285101
 20
198.0353907859133
 30
0.0
  0
VERTEX
  5
688
  8
0
  6
CONTINUOUS
 62
     7
 10
231.4531601071809
 20
198.044758754744
 30
0.0
  0
VERTEX
  5
689
  8
0
  6
CONTINUOUS
 62
     7
 10
231.4754573533524
 20
198.0530751975933
 30
0.0
  0
VERTEX
  5
68A
  8
0
  6
CONTINUOUS
 62
     7
 10
231.4981250565904
 20
198.0603212750432
 30
0.0
  0
VERTEX
  5
68B
  8
0
  6
CONTINUOUS
 62
     7
 10
231.5211118672564
 20
198.0664805723978
 30
0.0
  0
VERTEX
  5
68C
  8
0
  6
CONTINUOUS
 62
     7
 10
231.5443657128309
 20
198.0715391368673
 30
0.0
  0
VERTEX
  5
68D
  8
0
  6
CONTINUOUS
 62
     7
 10
231.5678339158744
 20
198.0754855091765
 30
0.0
  0
VERTEX
  5
68E
  8
0
  6
CONTINUOUS
 62
     7
 10
231.591463313359
 20
198.0783107495225
 30
0.0
  0
VERTEX
  5
68F
  8
0
  6
CONTINUOUS
 62
     7
 10
231.6152003770992
 20
198.0800084578275
 30
0.0
  0
VERTEX
  5
690
  8
0
  6
CONTINUOUS
 62
     7
 10
231.6389913350111
 20
198.080574788236
 30
0.0
  0
VERTEX
  5
691
  8
0
  6
CONTINUOUS
 62
     7
 10
231.6627822929229
 20
198.0800084578275
 30
0.0
  0
VERTEX
  5
692
  8
0
  6
CONTINUOUS
 62
     7
 10
231.6865193566632
 20
198.0783107495225
 30
0.0
  0
VERTEX
  5
693
  8
0
  6
CONTINUOUS
 62
     7
 10
231.7101487541477
 20
198.0754855091765
 30
0.0
  0
VERTEX
  5
694
  8
0
  6
CONTINUOUS
 62
     7
 10
231.7336169571913
 20
198.0715391368673
 30
0.0
  0
VERTEX
  5
695
  8
0
  6
CONTINUOUS
 62
     7
 10
231.7568708027658
 20
198.0664805723978
 30
0.0
  0
VERTEX
  5
696
  8
0
  6
CONTINUOUS
 62
     7
 10
231.7798576134318
 20
198.0603212750432
 30
0.0
  0
VERTEX
  5
697
  8
0
  6
CONTINUOUS
 62
     7
 10
231.8025253166698
 20
198.0530751975933
 30
0.0
  0
VERTEX
  5
698
  8
0
  6
CONTINUOUS
 62
     7
 10
231.8248225628412
 20
198.044758754744
 30
0.0
  0
VERTEX
  5
699
  8
0
  6
CONTINUOUS
 62
     7
 10
231.846698841512
 20
198.0353907859133
 30
0.0
  0
VERTEX
  5
69A
  8
0
  6
CONTINUOUS
 62
     7
 10
231.8681045958748
 20
198.0249925125634
 30
0.0
  0
VERTEX
  5
69B
  8
0
  6
CONTINUOUS
 62
     7
 10
231.8889913350111
 20
198.0135874901282
 30
0.0
  0
VERTEX
  5
69C
  8
0
  6
CONTINUOUS
 62
     7
 10
231.9093117437389
 20
198.0012015546516
 30
0.0
  0
VERTEX
  5
69D
  8
0
  6
CONTINUOUS
 62
     7
 10
231.9290197897967
 20
197.9878627642612
 30
0.0
  0
VERTEX
  5
69E
  8
0
  6
CONTINUOUS
 62
     7
 10
231.9480708281214
 20
197.9736013356074
 30
0.0
  0
VERTEX
  5
69F
  8
0
  6
CONTINUOUS
 62
     7
 10
231.9664217019837
 20
197.9584495754131
 30
0.0
  0
VERTEX
  5
6A0
  8
0
  6
CONTINUOUS
 62
     7
 10
231.9840308407521
 20
197.9424418072885
 30
0.0
  0
VERTEX
  5
6A1
  8
0
  6
CONTINUOUS
 62
     7
 10
232.0008583540636
 20
197.925614293977
 30
0.0
  0
VERTEX
  5
6A2
  8
0
  6
CONTINUOUS
 62
     7
 10
232.0168661221882
 20
197.9080051552087
 30
0.0
  0
VERTEX
  5
6A3
  8
0
  6
CONTINUOUS
 62
     7
 10
232.0320178823825
 20
197.8896542813463
 30
0.0
  0
VERTEX
  5
6A4
  8
0
  6
CONTINUOUS
 62
     7
 10
232.0462793110362
 20
197.8706032430216
 30
0.0
  0
VERTEX
  5
6A5
  8
0
  6
CONTINUOUS
 62
     7
 10
232.0596181014267
 20
197.8508951969638
 30
0.0
  0
VERTEX
  5
6A6
  8
0
  6
CONTINUOUS
 62
     7
 10
232.0720040369033
 20
197.830574788236
 30
0.0
  0
VERTEX
  5
6A7
  8
0
  6
CONTINUOUS
 62
     7
 10
232.0834090593385
 20
197.8096880490997
 30
0.0
  0
VERTEX
  5
6A8
  8
0
  6
CONTINUOUS
 62
     7
 10
232.0938073326883
 20
197.7882822947369
 30
0.0
  0
VERTEX
  5
6A9
  8
0
  6
CONTINUOUS
 62
     7
 10
232.1031753015191
 20
197.7664060160662
 30
0.0
  0
VERTEX
  5
6AA
  8
0
  6
CONTINUOUS
 62
     7
 10
232.1114917443684
 20
197.7441087698947
 30
0.0
  0
VERTEX
  5
6AB
  8
0
  6
CONTINUOUS
 62
     7
 10
232.1187378218183
 20
197.7214410666567
 30
0.0
  0
VERTEX
  5
6AC
  8
0
  6
CONTINUOUS
 62
     7
 10
232.1248971191728
 20
197.6984542559907
 30
0.0
  0
VERTEX
  5
6AD
  8
0
  6
CONTINUOUS
 62
     7
 10
232.1299556836424
 20
197.6752004104162
 30
0.0
  0
VERTEX
  5
6AE
  8
0
  6
CONTINUOUS
 62
     7
 10
232.1339020559515
 20
197.6517322073726
 30
0.0
  0
VERTEX
  5
6AF
  8
0
  6
CONTINUOUS
 62
     7
 10
232.1367272962976
 20
197.6281028098881
 30
0.0
  0
VERTEX
  5
6B0
  8
0
  6
CONTINUOUS
 62
     7
 10
232.1384250046026
 20
197.6043657461479
 30
0.0
  0
VERTEX
  5
6B1
  8
0
  6
CONTINUOUS
 62
     7
 10
232.1389913350111
 20
197.580574788236
 30
0.0
  0
SEQEND
  5
83F
  8
0
  6
CONTINUOUS
 62
     7
  0
LINE
  5
1A3
  8
0
  6
CONTINUOUS
 62
     7
 10
229.888991335011
 20
197.1475620863438
 30
0.0
 11
231.3889913350111
 21
198.0135874901282
 31
0.0
  0
POLYLINE
  5
1A4
  8
0
  6
CONTINUOUS
 62
     7
 66
     1
 10
0.0
 20
0.0
 30
0.0
  0
VERTEX
  5
6B2
  8
0
  6
CONTINUOUS
 62
     7
 10
229.138991335011
 20
197.580574788236
 30
0.0
  0
VERTEX
  5
6B3
  8
0
  6
CONTINUOUS
 62
     7
 10
229.1395576654195
 20
197.5567838303241
 30
0.0
  0
VERTEX
  5
6B4
  8
0
  6
CONTINUOUS
 62
     7
 10
229.1412553737245
 20
197.5330467665839
 30
0.0
  0
VERTEX
  5
6B5
  8
0
  6
CONTINUOUS
 62
     7
 10
229.1440806140706
 20
197.5094173690993
 30
0.0
  0
VERTEX
  5
6B6
  8
0
  6
CONTINUOUS
 62
     7
 10
229.1480269863797
 20
197.4859491660558
 30
0.0
  0
VERTEX
  5
6B7
  8
0
  6
CONTINUOUS
 62
     7
 10
229.1530855508493
 20
197.4626953204813
 30
0.0
  0
VERTEX
  5
6B8
  8
0
  6
CONTINUOUS
 62
     7
 10
229.1592448482038
 20
197.4397085098153
 30
0.0
  0
VERTEX
  5
6B9
  8
0
  6
CONTINUOUS
 62
     7
 10
229.1664909256537
 20
197.4170408065773
 30
0.0
  0
VERTEX
  5
6BA
  8
0
  6
CONTINUOUS
 62
     7
 10
229.174807368503
 20
197.3947435604058
 30
0.0
  0
VERTEX
  5
6BB
  8
0
  6
CONTINUOUS
 62
     7
 10
229.1841753373338
 20
197.372867281735
 30
0.0
  0
VERTEX
  5
6BC
  8
0
  6
CONTINUOUS
 62
     7
 10
229.1945736106836
 20
197.3514615273723
 30
0.0
  0
VERTEX
  5
6BD
  8
0
  6
CONTINUOUS
 62
     7
 10
229.2059786331188
 20
197.330574788236
 30
0.0
  0
VERTEX
  5
6BE
  8
0
  6
CONTINUOUS
 62
     7
 10
229.2183645685955
 20
197.3102543795082
 30
0.0
  0
VERTEX
  5
6BF
  8
0
  6
CONTINUOUS
 62
     7
 10
229.2317033589859
 20
197.2905463334504
 30
0.0
  0
VERTEX
  5
6C0
  8
0
  6
CONTINUOUS
 62
     7
 10
229.2459647876397
 20
197.2714952951257
 30
0.0
  0
VERTEX
  5
6C1
  8
0
  6
CONTINUOUS
 62
     7
 10
229.2611165478339
 20
197.2531444212633
 30
0.0
  0
VERTEX
  5
6C2
  8
0
  6
CONTINUOUS
 62
     7
 10
229.2771243159585
 20
197.2355352824949
 30
0.0
  0
VERTEX
  5
6C3
  8
0
  6
CONTINUOUS
 62
     7
 10
229.29395182927
 20
197.2187077691834
 30
0.0
  0
VERTEX
  5
6C4
  8
0
  6
CONTINUOUS
 62
     7
 10
229.3115609680384
 20
197.2027000010588
 30
0.0
  0
VERTEX
  5
6C5
  8
0
  6
CONTINUOUS
 62
     7
 10
229.3299118419007
 20
197.1875482408646
 30
0.0
  0
VERTEX
  5
6C6
  8
0
  6
CONTINUOUS
 62
     7
 10
229.3489628802254
 20
197.1732868122108
 30
0.0
  0
VERTEX
  5
6C7
  8
0
  6
CONTINUOUS
 62
     7
 10
229.3686709262832
 20
197.1599480218204
 30
0.0
  0
VERTEX
  5
6C8
  8
0
  6
CONTINUOUS
 62
     7
 10
229.3889913350111
 20
197.1475620863438
 30
0.0
  0
VERTEX
  5
6C9
  8
0
  6
CONTINUOUS
 62
     7
 10
229.4098780741473
 20
197.1361570639085
 30
0.0
  0
VERTEX
  5
6CA
  8
0
  6
CONTINUOUS
 62
     7
 10
229.4312838285101
 20
197.1257587905587
 30
0.0
  0
VERTEX
  5
6CB
  8
0
  6
CONTINUOUS
 62
     7
 10
229.4531601071808
 20
197.1163908217279
 30
0.0
  0
VERTEX
  5
6CC
  8
0
  6
CONTINUOUS
 62
     7
 10
229.4754573533523
 20
197.1080743788787
 30
0.0
  0
VERTEX
  5
6CD
  8
0
  6
CONTINUOUS
 62
     7
 10
229.4981250565903
 20
197.1008283014287
 30
0.0
  0
VERTEX
  5
6CE
  8
0
  6
CONTINUOUS
 62
     7
 10
229.5211118672563
 20
197.0946690040742
 30
0.0
  0
VERTEX
  5
6CF
  8
0
  6
CONTINUOUS
 62
     7
 10
229.5443657128308
 20
197.0896104396046
 30
0.0
  0
VERTEX
  5
6D0
  8
0
  6
CONTINUOUS
 62
     7
 10
229.5678339158744
 20
197.0856640672955
 30
0.0
  0
VERTEX
  5
6D1
  8
0
  6
CONTINUOUS
 62
     7
 10
229.5914633133589
 20
197.0828388269494
 30
0.0
  0
VERTEX
  5
6D2
  8
0
  6
CONTINUOUS
 62
     7
 10
229.6152003770992
 20
197.0811411186445
 30
0.0
  0
VERTEX
  5
6D3
  8
0
  6
CONTINUOUS
 62
     7
 10
229.638991335011
 20
197.080574788236
 30
0.0
  0
VERTEX
  5
6D4
  8
0
  6
CONTINUOUS
 62
     7
 10
229.6627822929229
 20
197.0811411186445
 30
0.0
  0
VERTEX
  5
6D5
  8
0
  6
CONTINUOUS
 62
     7
 10
229.6865193566631
 20
197.0828388269494
 30
0.0
  0
VERTEX
  5
6D6
  8
0
  6
CONTINUOUS
 62
     7
 10
229.7101487541477
 20
197.0856640672955
 30
0.0
  0
VERTEX
  5
6D7
  8
0
  6
CONTINUOUS
 62
     7
 10
229.7336169571912
 20
197.0896104396046
 30
0.0
  0
VERTEX
  5
6D8
  8
0
  6
CONTINUOUS
 62
     7
 10
229.7568708027657
 20
197.0946690040742
 30
0.0
  0
VERTEX
  5
6D9
  8
0
  6
CONTINUOUS
 62
     7
 10
229.7798576134317
 20
197.1008283014287
 30
0.0
  0
VERTEX
  5
6DA
  8
0
  6
CONTINUOUS
 62
     7
 10
229.8025253166697
 20
197.1080743788787
 30
0.0
  0
VERTEX
  5
6DB
  8
0
  6
CONTINUOUS
 62
     7
 10
229.8248225628412
 20
197.1163908217279
 30
0.0
  0
VERTEX
  5
6DC
  8
0
  6
CONTINUOUS
 62
     7
 10
229.846698841512
 20
197.1257587905587
 30
0.0
  0
VERTEX
  5
6DD
  8
0
  6
CONTINUOUS
 62
     7
 10
229.8681045958747
 20
197.1361570639085
 30
0.0
  0
VERTEX
  5
6DE
  8
0
  6
CONTINUOUS
 62
     7
 10
229.8889913350111
 20
197.1475620863438
 30
0.0
  0
SEQEND
  5
840
  8
0
  6
CONTINUOUS
 62
     7
  0
LINE
  5
1A5
  8
0
  6
CONTINUOUS
 62
     7
 10
229.138991335011
 20
198.3914477207415
 30
0.0
 11
229.138991335011
 21
197.580574788236
 31
0.0
  0
ARC
  5
1A6
  8
0
  6
CONTINUOUS
 62
     7
 10
265.2389913350111
 20
232.5466001920204
 30
0.0
 40
2.0
 50
90.0
 51
180.0
  0
LINE
  5
1A7
  8
0
  6
CONTINUOUS
 62
     7
 10
265.2389913350111
 20
234.5466001920204
 30
0.0
 11
266.1050167387955
 21
234.5466001920204
 31
0.0
  0
POLYLINE
  5
1A8
  8
0
  6
CONTINUOUS
 62
     7
 66
     1
 10
0.0
 20
0.0
 30
0.0
  0
VERTEX
  5
6DF
  8
0
  6
CONTINUOUS
 62
     7
 10
266.5380294406877
 20
233.7966001920204
 30
0.0
  0
VERTEX
  5
6E0
  8
0
  6
CONTINUOUS
 62
     7
 10
266.549434463123
 20
233.8174869311567
 30
0.0
  0
VERTEX
  5
6E1
  8
0
  6
CONTINUOUS
 62
     7
 10
266.5598327364727
 20
233.8388926855195
 30
0.0
  0
VERTEX
  5
6E2
  8
0
  6
CONTINUOUS
 62
     7
 10
266.5692007053035
 20
233.8607689641902
 30
0.0
  0
VERTEX
  5
6E3
  8
0
  6
CONTINUOUS
 62
     7
 10
266.5775171481528
 20
233.8830662103617
 30
0.0
  0
VERTEX
  5
6E4
  8
0
  6
CONTINUOUS
 62
     7
 10
266.5847632256027
 20
233.9057339135997
 30
0.0
  0
VERTEX
  5
6E5
  8
0
  6
CONTINUOUS
 62
     7
 10
266.5909225229572
 20
233.9287207242657
 30
0.0
  0
VERTEX
  5
6E6
  8
0
  6
CONTINUOUS
 62
     7
 10
266.5959810874268
 20
233.9519745698402
 30
0.0
  0
VERTEX
  5
6E7
  8
0
  6
CONTINUOUS
 62
     7
 10
266.5999274597359
 20
233.9754427728838
 30
0.0
  0
VERTEX
  5
6E8
  8
0
  6
CONTINUOUS
 62
     7
 10
266.602752700082
 20
233.9990721703683
 30
0.0
  0
VERTEX
  5
6E9
  8
0
  6
CONTINUOUS
 62
     7
 10
266.604450408387
 20
234.0228092341085
 30
0.0
  0
VERTEX
  5
6EA
  8
0
  6
CONTINUOUS
 62
     7
 10
266.6050167387954
 20
234.0466001920204
 30
0.0
  0
VERTEX
  5
6EB
  8
0
  6
CONTINUOUS
 62
     7
 10
266.604450408387
 20
234.0703911499323
 30
0.0
  0
VERTEX
  5
6EC
  8
0
  6
CONTINUOUS
 62
     7
 10
266.602752700082
 20
234.0941282136725
 30
0.0
  0
VERTEX
  5
6ED
  8
0
  6
CONTINUOUS
 62
     7
 10
266.5999274597359
 20
234.1177576111571
 30
0.0
  0
VERTEX
  5
6EE
  8
0
  6
CONTINUOUS
 62
     7
 10
266.5959810874268
 20
234.1412258142006
 30
0.0
  0
VERTEX
  5
6EF
  8
0
  6
CONTINUOUS
 62
     7
 10
266.5909225229572
 20
234.1644796597751
 30
0.0
  0
VERTEX
  5
6F0
  8
0
  6
CONTINUOUS
 62
     7
 10
266.5847632256027
 20
234.1874664704411
 30
0.0
  0
VERTEX
  5
6F1
  8
0
  6
CONTINUOUS
 62
     7
 10
266.5775171481528
 20
234.2101341736791
 30
0.0
  0
VERTEX
  5
6F2
  8
0
  6
CONTINUOUS
 62
     7
 10
266.5692007053036
 20
234.2324314198506
 30
0.0
  0
VERTEX
  5
6F3
  8
0
  6
CONTINUOUS
 62
     7
 10
266.5598327364727
 20
234.2543076985213
 30
0.0
  0
VERTEX
  5
6F4
  8
0
  6
CONTINUOUS
 62
     7
 10
266.549434463123
 20
234.2757134528841
 30
0.0
  0
VERTEX
  5
6F5
  8
0
  6
CONTINUOUS
 62
     7
 10
266.5380294406877
 20
234.2966001920204
 30
0.0
  0
VERTEX
  5
6F6
  8
0
  6
CONTINUOUS
 62
     7
 10
266.525643505211
 20
234.3169206007482
 30
0.0
  0
VERTEX
  5
6F7
  8
0
  6
CONTINUOUS
 62
     7
 10
266.5123047148206
 20
234.336628646806
 30
0.0
  0
VERTEX
  5
6F8
  8
0
  6
CONTINUOUS
 62
     7
 10
266.4980432861669
 20
234.3556796851307
 30
0.0
  0
VERTEX
  5
6F9
  8
0
  6
CONTINUOUS
 62
     7
 10
266.4828915259726
 20
234.374030558993
 30
0.0
  0
VERTEX
  5
6FA
  8
0
  6
CONTINUOUS
 62
     7
 10
266.466883757848
 20
234.3916396977615
 30
0.0
  0
VERTEX
  5
6FB
  8
0
  6
CONTINUOUS
 62
     7
 10
266.4500562445365
 20
234.4084672110729
 30
0.0
  0
VERTEX
  5
6FC
  8
0
  6
CONTINUOUS
 62
     7
 10
266.4324471057681
 20
234.4244749791976
 30
0.0
  0
VERTEX
  5
6FD
  8
0
  6
CONTINUOUS
 62
     7
 10
266.4140962319058
 20
234.4396267393918
 30
0.0
  0
VERTEX
  5
6FE
  8
0
  6
CONTINUOUS
 62
     7
 10
266.395045193581
 20
234.4538881680456
 30
0.0
  0
VERTEX
  5
6FF
  8
0
  6
CONTINUOUS
 62
     7
 10
266.3753371475233
 20
234.467226958436
 30
0.0
  0
VERTEX
  5
700
  8
0
  6
CONTINUOUS
 62
     7
 10
266.3550167387955
 20
234.4796128939126
 30
0.0
  0
VERTEX
  5
701
  8
0
  6
CONTINUOUS
 62
     7
 10
266.3341299996592
 20
234.4910179163479
 30
0.0
  0
VERTEX
  5
702
  8
0
  6
CONTINUOUS
 62
     7
 10
266.3127242452964
 20
234.5014161896977
 30
0.0
  0
VERTEX
  5
703
  8
0
  6
CONTINUOUS
 62
     7
 10
266.2908479666256
 20
234.5107841585284
 30
0.0
  0
VERTEX
  5
704
  8
0
  6
CONTINUOUS
 62
     7
 10
266.2685507204542
 20
234.5191006013777
 30
0.0
  0
VERTEX
  5
705
  8
0
  6
CONTINUOUS
 62
     7
 10
266.2458830172162
 20
234.5263466788277
 30
0.0
  0
VERTEX
  5
706
  8
0
  6
CONTINUOUS
 62
     7
 10
266.2228962065502
 20
234.5325059761822
 30
0.0
  0
VERTEX
  5
707
  8
0
  6
CONTINUOUS
 62
     7
 10
266.1996423609757
 20
234.5375645406518
 30
0.0
  0
VERTEX
  5
708
  8
0
  6
CONTINUOUS
 62
     7
 10
266.1761741579321
 20
234.5415109129609
 30
0.0
  0
VERTEX
  5
709
  8
0
  6
CONTINUOUS
 62
     7
 10
266.1525447604476
 20
234.5443361533069
 30
0.0
  0
VERTEX
  5
70A
  8
0
  6
CONTINUOUS
 62
     7
 10
266.1288076967073
 20
234.5460338616119
 30
0.0
  0
VERTEX
  5
70B
  8
0
  6
CONTINUOUS
 62
     7
 10
266.1050167387955
 20
234.5466001920204
 30
0.0
  0
SEQEND
  5
841
  8
0
  6
CONTINUOUS
 62
     7
  0
LINE
  5
1A9
  8
0
  6
CONTINUOUS
 62
     7
 10
266.5380294406877
 20
233.7966001920204
 30
0.0
 11
265.6720040369033
 21
232.2966001920203
 31
0.0
  0
POLYLINE
  5
1AA
  8
0
  6
CONTINUOUS
 62
     7
 66
     1
 10
0.0
 20
0.0
 30
0.0
  0
VERTEX
  5
70C
  8
0
  6
CONTINUOUS
 62
     7
 10
266.1050167387954
 20
231.5466001920203
 30
0.0
  0
VERTEX
  5
70D
  8
0
  6
CONTINUOUS
 62
     7
 10
266.0812257808835
 20
231.5471665224289
 30
0.0
  0
VERTEX
  5
70E
  8
0
  6
CONTINUOUS
 62
     7
 10
266.0574887171434
 20
231.5488642307338
 30
0.0
  0
VERTEX
  5
70F
  8
0
  6
CONTINUOUS
 62
     7
 10
266.0338593196589
 20
231.5516894710799
 30
0.0
  0
VERTEX
  5
710
  8
0
  6
CONTINUOUS
 62
     7
 10
266.0103911166152
 20
231.555635843389
 30
0.0
  0
VERTEX
  5
711
  8
0
  6
CONTINUOUS
 62
     7
 10
265.9871372710408
 20
231.5606944078586
 30
0.0
  0
VERTEX
  5
712
  8
0
  6
CONTINUOUS
 62
     7
 10
265.9641504603747
 20
231.5668537052131
 30
0.0
  0
VERTEX
  5
713
  8
0
  6
CONTINUOUS
 62
     7
 10
265.9414827571367
 20
231.574099782663
 30
0.0
  0
VERTEX
  5
714
  8
0
  6
CONTINUOUS
 62
     7
 10
265.9191855109653
 20
231.5824162255123
 30
0.0
  0
VERTEX
  5
715
  8
0
  6
CONTINUOUS
 62
     7
 10
265.8973092322945
 20
231.5917841943431
 30
0.0
  0
VERTEX
  5
716
  8
0
  6
CONTINUOUS
 62
     7
 10
265.8759034779318
 20
231.6021824676929
 30
0.0
  0
VERTEX
  5
717
  8
0
  6
CONTINUOUS
 62
     7
 10
265.8550167387954
 20
231.6135874901281
 30
0.0
  0
VERTEX
  5
718
  8
0
  6
CONTINUOUS
 62
     7
 10
265.8346963300676
 20
231.6259734256048
 30
0.0
  0
VERTEX
  5
719
  8
0
  6
CONTINUOUS
 62
     7
 10
265.8149882840098
 20
231.6393122159952
 30
0.0
  0
VERTEX
  5
71A
  8
0
  6
CONTINUOUS
 62
     7
 10
265.7959372456852
 20
231.653573644649
 30
0.0
  0
VERTEX
  5
71B
  8
0
  6
CONTINUOUS
 62
     7
 10
265.7775863718228
 20
231.6687254048432
 30
0.0
  0
VERTEX
  5
71C
  8
0
  6
CONTINUOUS
 62
     7
 10
265.7599772330544
 20
231.6847331729678
 30
0.0
  0
VERTEX
  5
71D
  8
0
  6
CONTINUOUS
 62
     7
 10
265.7431497197429
 20
231.7015606862793
 30
0.0
  0
VERTEX
  5
71E
  8
0
  6
CONTINUOUS
 62
     7
 10
265.7271419516183
 20
231.7191698250477
 30
0.0
  0
VERTEX
  5
71F
  8
0
  6
CONTINUOUS
 62
     7
 10
265.711990191424
 20
231.7375206989101
 30
0.0
  0
VERTEX
  5
720
  8
0
  6
CONTINUOUS
 62
     7
 10
265.6977287627703
 20
231.7565717372348
 30
0.0
  0
VERTEX
  5
721
  8
0
  6
CONTINUOUS
 62
     7
 10
265.6843899723798
 20
231.7762797832926
 30
0.0
  0
VERTEX
  5
722
  8
0
  6
CONTINUOUS
 62
     7
 10
265.6720040369032
 20
231.7966001920203
 30
0.0
  0
VERTEX
  5
723
  8
0
  6
CONTINUOUS
 62
     7
 10
265.6605990144679
 20
231.8174869311567
 30
0.0
  0
VERTEX
  5
724
  8
0
  6
CONTINUOUS
 62
     7
 10
265.6502007411182
 20
231.8388926855194
 30
0.0
  0
VERTEX
  5
725
  8
0
  6
CONTINUOUS
 62
     7
 10
265.6408327722875
 20
231.8607689641902
 30
0.0
  0
VERTEX
  5
726
  8
0
  6
CONTINUOUS
 62
     7
 10
265.6325163294381
 20
231.8830662103616
 30
0.0
  0
VERTEX
  5
727
  8
0
  6
CONTINUOUS
 62
     7
 10
265.6252702519882
 20
231.9057339135996
 30
0.0
  0
VERTEX
  5
728
  8
0
  6
CONTINUOUS
 62
     7
 10
265.6191109546336
 20
231.9287207242656
 30
0.0
  0
VERTEX
  5
729
  8
0
  6
CONTINUOUS
 62
     7
 10
265.6140523901641
 20
231.9519745698402
 30
0.0
  0
VERTEX
  5
72A
  8
0
  6
CONTINUOUS
 62
     7
 10
265.6101060178549
 20
231.9754427728837
 30
0.0
  0
VERTEX
  5
72B
  8
0
  6
CONTINUOUS
 62
     7
 10
265.6072807775089
 20
231.9990721703683
 30
0.0
  0
VERTEX
  5
72C
  8
0
  6
CONTINUOUS
 62
     7
 10
265.6055830692039
 20
232.0228092341085
 30
0.0
  0
VERTEX
  5
72D
  8
0
  6
CONTINUOUS
 62
     7
 10
265.6050167387954
 20
232.0466001920203
 30
0.0
  0
VERTEX
  5
72E
  8
0
  6
CONTINUOUS
 62
     7
 10
265.6055830692039
 20
232.0703911499322
 30
0.0
  0
VERTEX
  5
72F
  8
0
  6
CONTINUOUS
 62
     7
 10
265.6072807775089
 20
232.0941282136724
 30
0.0
  0
VERTEX
  5
730
  8
0
  6
CONTINUOUS
 62
     7
 10
265.6101060178549
 20
232.117757611157
 30
0.0
  0
VERTEX
  5
731
  8
0
  6
CONTINUOUS
 62
     7
 10
265.6140523901641
 20
232.1412258142006
 30
0.0
  0
VERTEX
  5
732
  8
0
  6
CONTINUOUS
 62
     7
 10
265.6191109546336
 20
232.1644796597751
 30
0.0
  0
VERTEX
  5
733
  8
0
  6
CONTINUOUS
 62
     7
 10
265.6252702519882
 20
232.1874664704411
 30
0.0
  0
VERTEX
  5
734
  8
0
  6
CONTINUOUS
 62
     7
 10
265.6325163294381
 20
232.2101341736791
 30
0.0
  0
VERTEX
  5
735
  8
0
  6
CONTINUOUS
 62
     7
 10
265.6408327722875
 20
232.2324314198505
 30
0.0
  0
VERTEX
  5
736
  8
0
  6
CONTINUOUS
 62
     7
 10
265.6502007411182
 20
232.2543076985213
 30
0.0
  0
VERTEX
  5
737
  8
0
  6
CONTINUOUS
 62
     7
 10
265.6605990144679
 20
232.275713452884
 30
0.0
  0
VERTEX
  5
738
  8
0
  6
CONTINUOUS
 62
     7
 10
265.6720040369032
 20
232.2966001920203
 30
0.0
  0
SEQEND
  5
842
  8
0
  6
CONTINUOUS
 62
     7
  0
ARC
  5
1AB
  8
0
  6
CONTINUOUS
 62
     7
 10
265.2389913350111
 20
231.7013007303996
 30
0.0
 40
2.0
 50
180.0
 51
229.4583981264955
  0
LINE
  5
1AC
  8
0
  6
CONTINUOUS
 62
     7
 10
263.2389913350111
 20
231.7013007303996
 30
0.0
 11
263.2389913350111
 21
232.5466001920204
 31
0.0
  0
LINE
  5
1AD
  8
0
  6
CONTINUOUS
 62
     7
 10
231.6389913350111
 20
194.7466001920204
 30
0.0
 11
231.6389913350111
 21
195.6269433545567
 31
0.0
  0
LINE
  5
1AE
  8
0
  6
CONTINUOUS
 62
     7
 10
232.1389913350111
 20
196.442905192902
 30
0.0
 11
231.7604975285057
 21
196.439602127493
 31
0.0
  0
LINE
  5
1AF
  8
0
  6
CONTINUOUS
 62
     7
 10
231.6389913350111
 20
194.7466001920204
 30
0.0
 11
232.1389913350111
 21
194.7466001920204
 31
0.0
  0
LINE
  5
1B0
  8
0
  6
CONTINUOUS
 62
     7
 10
231.6389913350111
 20
194.7466001920204
 30
0.0
 11
230.2729659312266
 21
194.7466001920204
 31
0.0
  0
LINE
  5
1B1
  8
0
  6
CONTINUOUS
 62
     7
 10
266.9389913350129
 20
231.5466001920204
 30
0.0
 11
266.0156116045206
 21
231.5546584048491
 31
0.0
  0
LINE
  5
1B2
  8
0
  6
CONTINUOUS
 62
     7
 10
263.2427429789005
 20
231.578856862746
 30
0.0
 11
259.9302647995127
 21
231.6077644218773
 31
0.0
  0
LINE
  5
1B3
  8
0
  6
CONTINUOUS
 62
     7
 10
266.9955242338838
 20
234.3765688527362
 30
0.0
 11
266.5138622371875
 21
234.334428888374
 31
0.0
  0
LINE
  5
1B4
  8
0
  6
CONTINUOUS
 62
     7
 10
263.9970053777701
 20
234.1142324454575
 30
0.0
 11
259.9302647995127
 21
233.7584387473591
 31
0.0
  0
LINE
  5
1B5
  8
0
  6
CONTINUOUS
 62
     7
 10
268.9389913350111
 20
231.5466001920203
 30
0.0
 11
268.9389913350111
 21
233.4126255958048
 31
0.0
  0
POLYLINE
  5
1B6
  8
0
  6
CONTINUOUS
 62
     7
 66
     1
 10
0.0
 20
0.0
 30
0.0
  0
VERTEX
  5
739
  8
0
  6
CONTINUOUS
 62
     7
 10
259.8518355922634
 20
233.7515770808355
 30
0.0
  0
VERTEX
  5
73A
  8
0
  6
CONTINUOUS
 62
     7
 10
259.8057618850654
 20
233.7464676029277
 30
0.0
  0
VERTEX
  5
73B
  8
0
  6
CONTINUOUS
 62
     7
 10
259.7599744737344
 20
233.7392283886708
 30
0.0
  0
VERTEX
  5
73C
  8
0
  6
CONTINUOUS
 62
     7
 10
259.7145717505299
 20
233.7298749943634
 30
0.0
  0
VERTEX
  5
73D
  8
0
  6
CONTINUOUS
 62
     7
 10
259.6696512810578
 20
233.7184275194515
 30
0.0
  0
VERTEX
  5
73E
  8
0
  6
CONTINUOUS
 62
     7
 10
259.6253095946121
 20
233.7049105633368
 30
0.0
  0
VERTEX
  5
73F
  8
0
  6
CONTINUOUS
 62
     7
 10
259.581641976744
 20
233.6893531725151
 30
0.0
  0
VERTEX
  5
740
  8
0
  6
CONTINUOUS
 62
     7
 10
259.5387422645032
 20
233.6717887781588
 30
0.0
  0
VERTEX
  5
741
  8
0
  6
CONTINUOUS
 62
     7
 10
259.4967026447921
 20
233.6522551242764
 30
0.0
  0
VERTEX
  5
742
  8
0
  6
CONTINUOUS
 62
     7
 10
259.4556134562661
 20
233.6307941866052
 30
0.0
  0
VERTEX
  5
743
  8
0
  6
CONTINUOUS
 62
     7
 10
259.4155629952054
 20
233.6074520824094
 30
0.0
  0
VERTEX
  5
744
  8
0
  6
CONTINUOUS
 62
     7
 10
259.3766373257761
 20
233.5822789713795
 30
0.0
  0
VERTEX
  5
745
  8
0
  6
CONTINUOUS
 62
     7
 10
259.3389200950866
 20
233.5553289478439
 30
0.0
  0
VERTEX
  5
746
  8
0
  6
CONTINUOUS
 62
     7
 10
259.3024923534397
 20
233.5266599245267
 30
0.0
  0
VERTEX
  5
747
  8
0
  6
CONTINUOUS
 62
     7
 10
259.2674323801641
 20
233.4963335080987
 30
0.0
  0
VERTEX
  5
748
  8
0
  6
CONTINUOUS
 62
     7
 10
259.2338155153997
 20
233.4644148667919
 30
0.0
  0
VERTEX
  5
749
  8
0
  6
CONTINUOUS
 62
     7
 10
259.2017139982009
 20
233.4309725903594
 30
0.0
  0
VERTEX
  5
74A
  8
0
  6
CONTINUOUS
 62
     7
 10
259.1711968113015
 20
233.3960785426836
 30
0.0
  0
VERTEX
  5
74B
  8
0
  6
CONTINUOUS
 62
     7
 10
259.1423295328788
 20
233.3598077073484
 30
0.0
  0
VERTEX
  5
74C
  8
0
  6
CONTINUOUS
 62
     7
 10
259.1151741956327
 20
233.3222380265072
 30
0.0
  0
VERTEX
  5
74D
  8
0
  6
CONTINUOUS
 62
     7
 10
259.0897891534844
 20
233.2834502333941
 30
0.0
  0
VERTEX
  5
74E
  8
0
  6
CONTINUOUS
 62
     7
 10
259.0662289561801
 20
233.2435276788362
 30
0.0
  0
VERTEX
  5
74F
  8
0
  6
CONTINUOUS
 62
     7
 10
259.0445442320686
 20
233.2025561521419
 30
0.0
  0
VERTEX
  5
750
  8
0
  6
CONTINUOUS
 62
     7
 10
259.0247815793075
 20
233.1606236967487
 30
0.0
  0
VERTEX
  5
751
  8
0
  6
CONTINUOUS
 62
     7
 10
259.0069834657282
 20
233.1178204210274
 30
0.0
  0
VERTEX
  5
752
  8
0
  6
CONTINUOUS
 62
     7
 10
258.991188137577
 20
233.0742383046487
 30
0.0
  0
VERTEX
  5
753
  8
0
  6
CONTINUOUS
 62
     7
 10
258.977429537328
 20
233.0299710009287
 30
0.0
  0
VERTEX
  5
754
  8
0
  6
CONTINUOUS
 62
     7
 10
258.9657372307447
 20
232.9851136355779
 30
0.0
  0
VERTEX
  5
755
  8
0
  6
CONTINUOUS
 62
     7
 10
258.9561363433457
 20
232.9397626022864
 30
0.0
  0
VERTEX
  5
756
  8
0
  6
CONTINUOUS
 62
     7
 10
258.9486475064134
 20
232.8940153555839
 30
0.0
  0
VERTEX
  5
757
  8
0
  6
CONTINUOUS
 62
     7
 10
258.9432868126588
 20
232.8479702014207
 30
0.0
  0
VERTEX
  5
758
  8
0
  6
CONTINUOUS
 62
     7
 10
258.9400657816407
 20
232.8017260859179
 30
0.0
  0
VERTEX
  5
759
  8
0
  6
CONTINUOUS
 62
     7
 10
258.9389913350111
 20
232.7553823827437
 30
0.0
  0
SEQEND
  5
843
  8
0
  6
CONTINUOUS
 62
     7
  0
POLYLINE
  5
1B7
  8
0
  6
CONTINUOUS
 62
     7
 66
     1
 10
0.0
 20
0.0
 30
0.0
  0
VERTEX
  5
75A
  8
0
  6
CONTINUOUS
 62
     7
 10
258.9389913350111
 20
232.6077263449415
 30
0.0
  0
VERTEX
  5
75B
  8
0
  6
CONTINUOUS
 62
     7
 10
258.9401825348136
 20
232.5589310516425
 30
0.0
  0
VERTEX
  5
75C
  8
0
  6
CONTINUOUS
 62
     7
 10
258.9437532963073
 20
232.510252008231
 30
0.0
  0
VERTEX
  5
75D
  8
0
  6
CONTINUOUS
 62
     7
 10
258.9496951125114
 20
232.4618051876408
 30
0.0
  0
VERTEX
  5
75E
  8
0
  6
CONTINUOUS
 62
     7
 10
258.9579938276453
 20
232.4137060095582
 30
0.0
  0
VERTEX
  5
75F
  8
0
  6
CONTINUOUS
 62
     7
 10
258.9686296708534
 20
232.3660690654459
 30
0.0
  0
VERTEX
  5
760
  8
0
  6
CONTINUOUS
 62
     7
 10
258.9815773033069
 20
232.3190078455409
 30
0.0
  0
VERTEX
  5
761
  8
0
  6
CONTINUOUS
 62
     7
 10
258.9968058785715
 20
232.2726344684748
 30
0.0
  0
VERTEX
  5
762
  8
0
  6
CONTINUOUS
 62
     7
 10
259.0142791160955
 20
232.2270594141629
 30
0.0
  0
VERTEX
  5
763
  8
0
  6
CONTINUOUS
 62
     7
 10
259.0339553876447
 20
232.1823912605965
 30
0.0
  0
VERTEX
  5
764
  8
0
  6
CONTINUOUS
 62
     7
 10
259.0557878164774
 20
232.1387364251672
 30
0.0
  0
VERTEX
  5
765
  8
0
  6
CONTINUOUS
 62
     7
 10
259.0797243890239
 20
232.0961989111375
 30
0.0
  0
VERTEX
  5
766
  8
0
  6
CONTINUOUS
 62
     7
 10
259.1057080788033
 20
232.0548800598641
 30
0.0
  0
VERTEX
  5
767
  8
0
  6
CONTINUOUS
 62
     7
 10
259.1336769822832
 20
232.014878309362
 30
0.0
  0
VERTEX
  5
768
  8
0
  6
CONTINUOUS
 62
     7
 10
259.1635644663589
 20
231.9762889597857
 30
0.0
  0
VERTEX
  5
769
  8
0
  6
CONTINUOUS
 62
     7
 10
259.1952993271004
 20
231.9392039463864
 30
0.0
  0
VERTEX
  5
76A
  8
0
  6
CONTINUOUS
 62
     7
 10
259.2288059593878
 20
231.9037116204855
 30
0.0
  0
VERTEX
  5
76B
  8
0
  6
CONTINUOUS
 62
     7
 10
259.2640045370335
 20
231.8698965389861
 30
0.0
  0
VERTEX
  5
76C
  8
0
  6
CONTINUOUS
 62
     7
 10
259.3008112029604
 20
231.837839262925
 30
0.0
  0
VERTEX
  5
76D
  8
0
  6
CONTINUOUS
 62
     7
 10
259.3391382689817
 20
231.8076161655441
 30
0.0
  0
VERTEX
  5
76E
  8
0
  6
CONTINUOUS
 62
     7
 10
259.3788944247107
 20
231.7792992503386
 30
0.0
  0
VERTEX
  5
76F
  8
0
  6
CONTINUOUS
 62
     7
 10
259.4199849550977
 20
231.7529559795162
 30
0.0
  0
VERTEX
  5
770
  8
0
  6
CONTINUOUS
 62
     7
 10
259.4623119660791
 20
231.7286491132748
 30
0.0
  0
VERTEX
  5
771
  8
0
  6
CONTINUOUS
 62
     7
 10
259.5057746178009
 20
231.706436560283
 30
0.0
  0
VERTEX
  5
772
  8
0
  6
CONTINUOUS
 62
     7
 10
259.5502693648587
 20
231.6863712397183
 30
0.0
  0
VERTEX
  5
773
  8
0
  6
CONTINUOUS
 62
     7
 10
259.5956902029846
 20
231.6685009551923
 30
0.0
  0
VERTEX
  5
774
  8
0
  6
CONTINUOUS
 62
     7
 10
259.641928921592
 20
231.6528682808641
 30
0.0
  0
VERTEX
  5
775
  8
0
  6
CONTINUOUS
 62
     7
 10
259.6888753615757
 20
231.6395104600106
 30
0.0
  0
VERTEX
  5
776
  8
0
  6
CONTINUOUS
 62
     7
 10
259.7364176777558
 20
231.628459316299
 30
0.0
  0
VERTEX
  5
777
  8
0
  6
CONTINUOUS
 62
     7
 10
259.7844426053369
 20
231.6197411779697
 30
0.0
  0
VERTEX
  5
778
  8
0
  6
CONTINUOUS
 62
     7
 10
259.8328357297506
 20
231.6133768151121
 30
0.0
  0
VERTEX
  5
779
  8
0
  6
CONTINUOUS
 62
     7
 10
259.8814817592363
 20
231.6093813901817
 30
0.0
  0
VERTEX
  5
77A
  8
0
  6
CONTINUOUS
 62
     7
 10
259.9302647995127
 20
231.6077644218773
 30
0.0
  0
SEQEND
  5
844
  8
0
  6
CONTINUOUS
 62
     7
  0
LINE
  5
1B8
  8
0
  6
CONTINUOUS
 62
     7
 10
259.8518355922634
 20
233.7515770808355
 30
0.0
 11
259.9302647995127
 21
233.7584387473591
 31
0.0
  0
ARC
  5
1B9
  8
0
  6
CONTINUOUS
 62
     7
 10
231.6389913350112
 20
183.0466001920206
 30
0.0
 40
0.5000000000000004
 50
0.0000000000023874
 51
90.0
  0
LINE
  5
1BA
  8
0
  6
CONTINUOUS
 62
     7
 10
231.6389913350112
 20
183.5466001920206
 30
0.0
 11
229.638991335011
 21
183.5466001920206
 31
0.0
  0
ARC
  5
1BB
  8
0
  6
CONTINUOUS
 62
     7
 10
229.638991335011
 20
184.0466001920206
 30
0.0
 40
0.5000000000000004
 50
179.9999999999984
 51
270.0
  0
LINE
  5
1BC
  8
0
  6
CONTINUOUS
 62
     7
 10
232.1389913350112
 20
157.8677870051062
 30
0.0
 11
233.9389913350111
 21
157.8520786430829
 31
0.0
  0
LINE
  5
1BD
  8
0
  6
CONTINUOUS
 62
     7
 10
232.1389913350112
 20
157.8677870051062
 30
0.0
 11
232.1389913350112
 21
183.0466001920206
 31
0.0
  0
LINE
  5
1BE
  8
0
  6
CONTINUOUS
 62
     7
 10
229.138991335011
 20
194.7466001920204
 30
0.0
 11
229.1389913350111
 21
184.0466001920206
 31
0.0
  0
LINE
  5
1BF
  8
0
  6
CONTINUOUS
 62
     7
 10
233.9389913350111
 20
157.8520786430829
 30
0.0
 11
233.938991335011
 21
194.7466001920205
 31
0.0
  0
LINE
  5
1C0
  8
0
  6
CONTINUOUS
 62
     7
 10
254.9389913350112
 20
157.6688144194768
 30
0.0
 11
254.9389913350112
 21
142.6600875516861
 31
0.0
  0
LINE
  5
1C1
  8
0
  6
CONTINUOUS
 62
     7
 10
253.9389913350111
 20
157.6775412872677
 30
0.0
 11
254.9389913350112
 21
157.6688144194768
 31
0.0
  0
LINE
  5
1C2
  8
0
  6
CONTINUOUS
 62
     7
 10
257.6252828360264
 20
141.6453334303144
 30
0.0
 11
255.9302647995127
 21
141.660125628622
 31
0.0
  0
ARC
  5
1C3
  8
0
  6
CONTINUOUS
 62
     7
 10
255.9389913350112
 20
142.6600875516862
 30
0.0
 40
1.000000000000001
 50
180.0000000000043
 51
269.5000000000003
  0
LINE
  5
1C4
  8
0
  6
CONTINUOUS
 62
     7
 10
253.9389913350111
 20
157.6775412872677
 30
0.0
 11
253.9389913350111
 21
194.7466001920205
 31
0.0
  0
LINE
  5
1C5
  8
0
  6
CONTINUOUS
 62
     7
 10
235.9389913350111
 20
157.8346249075013
 30
0.0
 11
251.9389913350111
 21
157.6949950228492
 31
0.0
  0
LINE
  5
1C6
  8
0
  6
CONTINUOUS
 62
     7
 10
235.9389913350111
 20
157.8346249075013
 30
0.0
 11
235.938991335011
 21
194.7466001920205
 31
0.0
  0
LINE
  5
1C7
  8
0
  6
CONTINUOUS
 62
     7
 10
251.9389913350111
 20
157.6949950228492
 30
0.0
 11
251.9389913350111
 21
194.7466001920205
 31
0.0
  0
POLYLINE
  5
1C8
  8
0
  6
CONTINUOUS
 62
     7
 66
     1
 10
0.0
 20
0.0
 30
0.0
  0
VERTEX
  5
77B
  8
0
  6
CONTINUOUS
 62
     7
 10
251.9389913350111
 20
157.1949759836563
 30
0.0
  0
VERTEX
  5
77C
  8
0
  6
CONTINUOUS
 62
     7
 10
251.9395936069085
 20
157.1704359563365
 30
0.0
  0
VERTEX
  5
77D
  8
0
  6
CONTINUOUS
 62
     7
 10
251.941398971675
 20
157.1459445361974
 30
0.0
  0
VERTEX
  5
77E
  8
0
  6
CONTINUOUS
 62
     7
 10
251.9444030800287
 20
157.1215607252155
 30
0.0
  0
VERTEX
  5
77F
  8
0
  6
CONTINUOUS
 62
     7
 10
251.9485986948094
 20
157.0973432661272
 30
0.0
  0
VERTEX
  5
780
  8
0
  6
CONTINUOUS
 62
     7
 10
251.9539757084138
 20
157.0733505009126
 30
0.0
  0
VERTEX
  5
781
  8
0
  6
CONTINUOUS
 62
     7
 10
251.9605211671449
 20
157.0496402302445
 30
0.0
  0
VERTEX
  5
782
  8
0
  6
CONTINUOUS
 62
     7
 10
251.9682193024195
 20
157.026269574242
 30
0.0
  0
VERTEX
  5
783
  8
0
  6
CONTINUOUS
 62
     7
 10
251.9770515687554
 20
157.0032948348621
 30
0.0
  0
VERTEX
  5
784
  8
0
  6
CONTINUOUS
 62
     7
 10
251.9869966884494
 20
156.9807713602646
 30
0.0
  0
VERTEX
  5
785
  8
0
  6
CONTINUOUS
 62
     7
 10
251.9980307028369
 20
156.9587534114725
 30
0.0
  0
VERTEX
  5
786
  8
0
  6
CONTINUOUS
 62
     7
 10
252.0101270300109
 20
156.9372940316529
 30
0.0
  0
VERTEX
  5
787
  8
0
  6
CONTINUOUS
 62
     7
 10
252.0232565288598
 20
156.9164449183316
 30
0.0
  0
VERTEX
  5
788
  8
0
  6
CONTINUOUS
 62
     7
 10
252.0373875692707
 20
156.8962562988487
 30
0.0
  0
VERTEX
  5
789
  8
0
  6
CONTINUOUS
 62
     7
 10
252.0524861083297
 20
156.8767768093567
 30
0.0
  0
VERTEX
  5
78A
  8
0
  6
CONTINUOUS
 62
     7
 10
252.0685157723336
 20
156.8580533776521
 30
0.0
  0
VERTEX
  5
78B
  8
0
  6
CONTINUOUS
 62
     7
 10
252.0854379444178
 20
156.8401311101219
 30
0.0
  0
VERTEX
  5
78C
  8
0
  6
CONTINUOUS
 62
     7
 10
252.1032118575876
 20
156.8230531830784
 30
0.0
  0
VERTEX
  5
78D
  8
0
  6
CONTINUOUS
 62
     7
 10
252.1217946929293
 20
156.8068607387436
 30
0.0
  0
VERTEX
  5
78E
  8
0
  6
CONTINUOUS
 62
     7
 10
252.1411416827648
 20
156.7915927861342
 30
0.0
  0
VERTEX
  5
78F
  8
0
  6
CONTINUOUS
 62
     7
 10
252.1612062185012
 20
156.7772861070854
 30
0.0
  0
VERTEX
  5
790
  8
0
  6
CONTINUOUS
 62
     7
 10
252.1819399629145
 20
156.7639751676401
 30
0.0
  0
VERTEX
  5
791
  8
0
  6
CONTINUOUS
 62
     7
 10
252.203292966598
 20
156.7516920350174
 30
0.0
  0
VERTEX
  5
792
  8
0
  6
CONTINUOUS
 62
     7
 10
252.2252137882959
 20
156.7404663003595
 30
0.0
  0
VERTEX
  5
793
  8
0
  6
CONTINUOUS
 62
     7
 10
252.2476496188285
 20
156.7303250074447
 30
0.0
  0
VERTEX
  5
794
  8
0
  6
CONTINUOUS
 62
     7
 10
252.2705464083149
 20
156.7212925875357
 30
0.0
  0
VERTEX
  5
795
  8
0
  6
CONTINUOUS
 62
     7
 10
252.2938489963838
 20
156.7133908005233
 30
0.0
  0
VERTEX
  5
796
  8
0
  6
CONTINUOUS
 62
     7
 10
252.3175012450595
 20
156.7066386825045
 30
0.0
  0
VERTEX
  5
797
  8
0
  6
CONTINUOUS
 62
     7
 10
252.341446174003
 20
156.701052499923
 30
0.0
  0
VERTEX
  5
798
  8
0
  6
CONTINUOUS
 62
     7
 10
252.3656260977833
 20
156.6966457103819
 30
0.0
  0
VERTEX
  5
799
  8
0
  6
CONTINUOUS
 62
     7
 10
252.3899827648463
 20
156.6934289302233
 30
0.0
  0
VERTEX
  5
79A
  8
0
  6
CONTINUOUS
 62
     7
 10
252.4144574978473
 20
156.6914099089524
 30
0.0
  0
VERTEX
  5
79B
  8
0
  6
CONTINUOUS
 62
     7
 10
252.4389913350111
 20
156.6905935105681
 30
0.0
  0
SEQEND
  5
845
  8
0
  6
CONTINUOUS
 62
     7
  0
LINE
  5
1C9
  8
0
  6
CONTINUOUS
 62
     7
 10
252.4389913350111
 20
156.6905935105681
 30
0.0
 11
235.4389913350111
 21
156.838950263011
 31
0.0
  0
POLYLINE
  5
1CA
  8
0
  6
CONTINUOUS
 62
     7
 66
     1
 10
0.0
 20
0.0
 30
0.0
  0
VERTEX
  5
79C
  8
0
  6
CONTINUOUS
 62
     7
 10
235.4389913350111
 20
156.838950263011
 30
0.0
  0
VERTEX
  5
79D
  8
0
  6
CONTINUOUS
 62
     7
 10
235.4635251721747
 20
156.8393384542886
 30
0.0
  0
VERTEX
  5
79E
  8
0
  6
CONTINUOUS
 62
     7
 10
235.4879999051758
 20
156.8409303000414
 30
0.0
  0
VERTEX
  5
79F
  8
0
  6
CONTINUOUS
 62
     7
 10
235.5123565722387
 20
156.8437219653734
 30
0.0
  0
VERTEX
  5
7A0
  8
0
  6
CONTINUOUS
 62
     7
 10
235.5365364960191
 20
156.8477067249184
 30
0.0
  0
VERTEX
  5
7A1
  8
0
  6
CONTINUOUS
 62
     7
 10
235.5604814249627
 20
156.8528749790415
 30
0.0
  0
VERTEX
  5
7A2
  8
0
  6
CONTINUOUS
 62
     7
 10
235.5841336736383
 20
156.8592142769661
 30
0.0
  0
VERTEX
  5
7A3
  8
0
  6
CONTINUOUS
 62
     7
 10
235.6074362617072
 20
156.866709346768
 30
0.0
  0
VERTEX
  5
7A4
  8
0
  6
CONTINUOUS
 62
     7
 10
235.6303330511936
 20
156.8753421321676
 30
0.0
  0
VERTEX
  5
7A5
  8
0
  6
CONTINUOUS
 62
     7
 10
235.6527688817262
 20
156.8850918360288
 30
0.0
  0
VERTEX
  5
7A6
  8
0
  6
CONTINUOUS
 62
     7
 10
235.674689703424
 20
156.895934970461
 30
0.0
  0
VERTEX
  5
7A7
  8
0
  6
CONTINUOUS
 62
     7
 10
235.6960427071077
 20
156.9078454134035
 30
0.0
  0
VERTEX
  5
7A8
  8
0
  6
CONTINUOUS
 62
     7
 10
235.7167764515208
 20
156.9207944715562
 30
0.0
  0
VERTEX
  5
7A9
  8
0
  6
CONTINUOUS
 62
     7
 10
235.7368409872573
 20
156.9347509495037
 30
0.0
  0
VERTEX
  5
7AA
  8
0
  6
CONTINUOUS
 62
     7
 10
235.7561879770928
 20
156.9496812248682
 30
0.0
  0
VERTEX
  5
7AB
  8
0
  6
CONTINUOUS
 62
     7
 10
235.7747708124346
 20
156.9655493293086
 30
0.0
  0
VERTEX
  5
7AC
  8
0
  6
CONTINUOUS
 62
     7
 10
235.7925447256043
 20
156.9823170351715
 30
0.0
  0
VERTEX
  5
7AD
  8
0
  6
CONTINUOUS
 62
     7
 10
235.8094668976885
 20
156.9999439475847
 30
0.0
  0
VERTEX
  5
7AE
  8
0
  6
CONTINUOUS
 62
     7
 10
235.8254965616924
 20
157.0183876017722
 30
0.0
  0
VERTEX
  5
7AF
  8
0
  6
CONTINUOUS
 62
     7
 10
235.8405951007514
 20
157.0376035653558
 30
0.0
  0
VERTEX
  5
7B0
  8
0
  6
CONTINUOUS
 62
     7
 10
235.8547261411623
 20
157.0575455453959
 30
0.0
  0
VERTEX
  5
7B1
  8
0
  6
CONTINUOUS
 62
     7
 10
235.8678556400112
 20
157.078165499916
 30
0.0
  0
VERTEX
  5
7B2
  8
0
  6
CONTINUOUS
 62
     7
 10
235.8799519671852
 20
157.0994137536395
 30
0.0
  0
VERTEX
  5
7B3
  8
0
  6
CONTINUOUS
 62
     7
 10
235.8909859815728
 20
157.1212391176621
 30
0.0
  0
VERTEX
  5
7B4
  8
0
  6
CONTINUOUS
 62
     7
 10
235.9009311012667
 20
157.1435890127702
 30
0.0
  0
VERTEX
  5
7B5
  8
0
  6
CONTINUOUS
 62
     7
 10
235.9097633676026
 20
157.1664095961088
 30
0.0
  0
VERTEX
  5
7B6
  8
0
  6
CONTINUOUS
 62
     7
 10
235.9174615028772
 20
157.1896458908938
 30
0.0
  0
VERTEX
  5
7B7
  8
0
  6
CONTINUOUS
 62
     7
 10
235.9240069616083
 20
157.2132419188559
 30
0.0
  0
VERTEX
  5
7B8
  8
0
  6
CONTINUOUS
 62
     7
 10
235.9293839752127
 20
157.2371408350969
 30
0.0
  0
VERTEX
  5
7B9
  8
0
  6
CONTINUOUS
 62
     7
 10
235.9335795899934
 20
157.2612850650343
 30
0.0
  0
VERTEX
  5
7BA
  8
0
  6
CONTINUOUS
 62
     7
 10
235.9365836983471
 20
157.2856164431033
 30
0.0
  0
VERTEX
  5
7BB
  8
0
  6
CONTINUOUS
 62
     7
 10
235.9383890631136
 20
157.3100763528831
 30
0.0
  0
VERTEX
  5
7BC
  8
0
  6
CONTINUOUS
 62
     7
 10
235.9389913350111
 20
157.3346058683085
 30
0.0
  0
SEQEND
  5
846
  8
0
  6
CONTINUOUS
 62
     7
  0
LINE
  5
1CB
  8
0
  6
CONTINUOUS
 62
     7
 10
235.9389913350111
 20
157.3346058683085
 30
0.0
 11
235.9389913350111
 21
157.8346249075013
 31
0.0
  0
LINE
  5
1CC
  8
0
  6
CONTINUOUS
 62
     7
 10
251.9389913350111
 20
157.6949950228492
 30
0.0
 11
251.9389913350111
 21
157.1949759836563
 31
0.0
  0
POLYLINE
  5
1CD
  8
0
  6
CONTINUOUS
 62
     7
 66
     1
 10
0.0
 20
0.0
 30
0.0
  0
VERTEX
  5
7BD
  8
0
  6
CONTINUOUS
 62
     7
 10
233.9389913350111
 20
157.35205960389
 30
0.0
  0
VERTEX
  5
7BE
  8
0
  6
CONTINUOUS
 62
     7
 10
233.9395936069085
 20
157.3275195765702
 30
0.0
  0
VERTEX
  5
7BF
  8
0
  6
CONTINUOUS
 62
     7
 10
233.9413989716749
 20
157.3030281564311
 30
0.0
  0
VERTEX
  5
7C0
  8
0
  6
CONTINUOUS
 62
     7
 10
233.9444030800287
 20
157.2786443454492
 30
0.0
  0
VERTEX
  5
7C1
  8
0
  6
CONTINUOUS
 62
     7
 10
233.9485986948094
 20
157.2544268863609
 30
0.0
  0
VERTEX
  5
7C2
  8
0
  6
CONTINUOUS
 62
     7
 10
233.9539757084138
 20
157.2304341211462
 30
0.0
  0
VERTEX
  5
7C3
  8
0
  6
CONTINUOUS
 62
     7
 10
233.9605211671449
 20
157.2067238504782
 30
0.0
  0
VERTEX
  5
7C4
  8
0
  6
CONTINUOUS
 62
     7
 10
233.9682193024195
 20
157.1833531944756
 30
0.0
  0
VERTEX
  5
7C5
  8
0
  6
CONTINUOUS
 62
     7
 10
233.9770515687554
 20
157.1603784550958
 30
0.0
  0
VERTEX
  5
7C6
  8
0
  6
CONTINUOUS
 62
     7
 10
233.9869966884493
 20
157.1378549804982
 30
0.0
  0
VERTEX
  5
7C7
  8
0
  6
CONTINUOUS
 62
     7
 10
233.9980307028369
 20
157.1158370317061
 30
0.0
  0
VERTEX
  5
7C8
  8
0
  6
CONTINUOUS
 62
     7
 10
234.0101270300109
 20
157.0943776518866
 30
0.0
  0
VERTEX
  5
7C9
  8
0
  6
CONTINUOUS
 62
     7
 10
234.0232565288598
 20
157.0735285385653
 30
0.0
  0
VERTEX
  5
7CA
  8
0
  6
CONTINUOUS
 62
     7
 10
234.0373875692707
 20
157.0533399190823
 30
0.0
  0
VERTEX
  5
7CB
  8
0
  6
CONTINUOUS
 62
     7
 10
234.0524861083297
 20
157.0338604295904
 30
0.0
  0
VERTEX
  5
7CC
  8
0
  6
CONTINUOUS
 62
     7
 10
234.0685157723336
 20
157.0151369978858
 30
0.0
  0
VERTEX
  5
7CD
  8
0
  6
CONTINUOUS
 62
     7
 10
234.0854379444178
 20
156.9972147303556
 30
0.0
  0
VERTEX
  5
7CE
  8
0
  6
CONTINUOUS
 62
     7
 10
234.1032118575875
 20
156.9801368033121
 30
0.0
  0
VERTEX
  5
7CF
  8
0
  6
CONTINUOUS
 62
     7
 10
234.1217946929292
 20
156.9639443589772
 30
0.0
  0
VERTEX
  5
7D0
  8
0
  6
CONTINUOUS
 62
     7
 10
234.1411416827648
 20
156.9486764063678
 30
0.0
  0
VERTEX
  5
7D1
  8
0
  6
CONTINUOUS
 62
     7
 10
234.1612062185013
 20
156.934369727319
 30
0.0
  0
VERTEX
  5
7D2
  8
0
  6
CONTINUOUS
 62
     7
 10
234.1819399629144
 20
156.9210587878737
 30
0.0
  0
VERTEX
  5
7D3
  8
0
  6
CONTINUOUS
 62
     7
 10
234.203292966598
 20
156.908775655251
 30
0.0
  0
VERTEX
  5
7D4
  8
0
  6
CONTINUOUS
 62
     7
 10
234.2252137882959
 20
156.8975499205932
 30
0.0
  0
VERTEX
  5
7D5
  8
0
  6
CONTINUOUS
 62
     7
 10
234.2476496188285
 20
156.8874086276783
 30
0.0
  0
VERTEX
  5
7D6
  8
0
  6
CONTINUOUS
 62
     7
 10
234.2705464083149
 20
156.8783762077693
 30
0.0
  0
VERTEX
  5
7D7
  8
0
  6
CONTINUOUS
 62
     7
 10
234.2938489963838
 20
156.8704744207569
 30
0.0
  0
VERTEX
  5
7D8
  8
0
  6
CONTINUOUS
 62
     7
 10
234.3175012450594
 20
156.8637223027381
 30
0.0
  0
VERTEX
  5
7D9
  8
0
  6
CONTINUOUS
 62
     7
 10
234.341446174003
 20
156.8581361201566
 30
0.0
  0
VERTEX
  5
7DA
  8
0
  6
CONTINUOUS
 62
     7
 10
234.3656260977834
 20
156.8537293306156
 30
0.0
  0
VERTEX
  5
7DB
  8
0
  6
CONTINUOUS
 62
     7
 10
234.3899827648463
 20
156.850512550457
 30
0.0
  0
VERTEX
  5
7DC
  8
0
  6
CONTINUOUS
 62
     7
 10
234.4144574978473
 20
156.848493529186
 30
0.0
  0
VERTEX
  5
7DD
  8
0
  6
CONTINUOUS
 62
     7
 10
234.4389913350111
 20
156.8476771308017
 30
0.0
  0
SEQEND
  5
847
  8
0
  6
CONTINUOUS
 62
     7
  0
LINE
  5
1CE
  8
0
  6
CONTINUOUS
 62
     7
 10
234.4389913350111
 20
156.8476771308017
 30
0.0
 11
232.1389913350112
 21
156.8677489267205
 31
0.0
  0
LINE
  5
1CF
  8
0
  6
CONTINUOUS
 62
     7
 10
232.1389913350112
 20
156.8677489267205
 30
0.0
 11
232.1389913350112
 21
157.8677870051062
 31
0.0
  0
LINE
  5
1D0
  8
0
  6
CONTINUOUS
 62
     7
 10
233.9389913350111
 20
157.8520786430829
 30
0.0
 11
233.9389913350111
 21
157.35205960389
 31
0.0
  0
LINE
  5
1D1
  8
0
  6
CONTINUOUS
 62
     7
 10
254.9389913350112
 20
156.6687763410912
 30
0.0
 11
253.4389913350111
 21
156.6818666427773
 31
0.0
  0
POLYLINE
  5
1D2
  8
0
  6
CONTINUOUS
 62
     7
 66
     1
 10
0.0
 20
0.0
 30
0.0
  0
VERTEX
  5
7DE
  8
0
  6
CONTINUOUS
 62
     7
 10
253.4389913350111
 20
156.6818666427773
 30
0.0
  0
VERTEX
  5
7DF
  8
0
  6
CONTINUOUS
 62
     7
 10
253.4635251721747
 20
156.682254834055
 30
0.0
  0
VERTEX
  5
7E0
  8
0
  6
CONTINUOUS
 62
     7
 10
253.4879999051758
 20
156.6838466798077
 30
0.0
  0
VERTEX
  5
7E1
  8
0
  6
CONTINUOUS
 62
     7
 10
253.5123565722388
 20
156.6866383451397
 30
0.0
  0
VERTEX
  5
7E2
  8
0
  6
CONTINUOUS
 62
     7
 10
253.5365364960192
 20
156.6906231046847
 30
0.0
  0
VERTEX
  5
7E3
  8
0
  6
CONTINUOUS
 62
     7
 10
253.5604814249627
 20
156.6957913588079
 30
0.0
  0
VERTEX
  5
7E4
  8
0
  6
CONTINUOUS
 62
     7
 10
253.5841336736383
 20
156.7021306567324
 30
0.0
  0
VERTEX
  5
7E5
  8
0
  6
CONTINUOUS
 62
     7
 10
253.6074362617072
 20
156.7096257265343
 30
0.0
  0
VERTEX
  5
7E6
  8
0
  6
CONTINUOUS
 62
     7
 10
253.6303330511936
 20
156.7182585119339
 30
0.0
  0
VERTEX
  5
7E7
  8
0
  6
CONTINUOUS
 62
     7
 10
253.6527688817262
 20
156.7280082157951
 30
0.0
  0
VERTEX
  5
7E8
  8
0
  6
CONTINUOUS
 62
     7
 10
253.674689703424
 20
156.7388513502273
 30
0.0
  0
VERTEX
  5
7E9
  8
0
  6
CONTINUOUS
 62
     7
 10
253.6960427071077
 20
156.7507617931699
 30
0.0
  0
VERTEX
  5
7EA
  8
0
  6
CONTINUOUS
 62
     7
 10
253.7167764515208
 20
156.7637108513226
 30
0.0
  0
VERTEX
  5
7EB
  8
0
  6
CONTINUOUS
 62
     7
 10
253.7368409872572
 20
156.7776673292701
 30
0.0
  0
VERTEX
  5
7EC
  8
0
  6
CONTINUOUS
 62
     7
 10
253.7561879770929
 20
156.7925976046346
 30
0.0
  0
VERTEX
  5
7ED
  8
0
  6
CONTINUOUS
 62
     7
 10
253.7747708124346
 20
156.808465709075
 30
0.0
  0
VERTEX
  5
7EE
  8
0
  6
CONTINUOUS
 62
     7
 10
253.7925447256043
 20
156.8252334149378
 30
0.0
  0
VERTEX
  5
7EF
  8
0
  6
CONTINUOUS
 62
     7
 10
253.8094668976886
 20
156.842860327351
 30
0.0
  0
VERTEX
  5
7F0
  8
0
  6
CONTINUOUS
 62
     7
 10
253.8254965616924
 20
156.8613039815386
 30
0.0
  0
VERTEX
  5
7F1
  8
0
  6
CONTINUOUS
 62
     7
 10
253.8405951007514
 20
156.8805199451221
 30
0.0
  0
VERTEX
  5
7F2
  8
0
  6
CONTINUOUS
 62
     7
 10
253.8547261411623
 20
156.9004619251623
 30
0.0
  0
VERTEX
  5
7F3
  8
0
  6
CONTINUOUS
 62
     7
 10
253.8678556400112
 20
156.9210818796824
 30
0.0
  0
VERTEX
  5
7F4
  8
0
  6
CONTINUOUS
 62
     7
 10
253.8799519671853
 20
156.9423301334059
 30
0.0
  0
VERTEX
  5
7F5
  8
0
  6
CONTINUOUS
 62
     7
 10
253.8909859815728
 20
156.9641554974285
 30
0.0
  0
VERTEX
  5
7F6
  8
0
  6
CONTINUOUS
 62
     7
 10
253.9009311012667
 20
156.9865053925365
 30
0.0
  0
VERTEX
  5
7F7
  8
0
  6
CONTINUOUS
 62
     7
 10
253.9097633676026
 20
157.0093259758752
 30
0.0
  0
VERTEX
  5
7F8
  8
0
  6
CONTINUOUS
 62
     7
 10
253.9174615028772
 20
157.0325622706602
 30
0.0
  0
VERTEX
  5
7F9
  8
0
  6
CONTINUOUS
 62
     7
 10
253.9240069616083
 20
157.0561582986223
 30
0.0
  0
VERTEX
  5
7FA
  8
0
  6
CONTINUOUS
 62
     7
 10
253.9293839752127
 20
157.0800572148632
 30
0.0
  0
VERTEX
  5
7FB
  8
0
  6
CONTINUOUS
 62
     7
 10
253.9335795899935
 20
157.1042014448006
 30
0.0
  0
VERTEX
  5
7FC
  8
0
  6
CONTINUOUS
 62
     7
 10
253.9365836983471
 20
157.1285328228697
 30
0.0
  0
VERTEX
  5
7FD
  8
0
  6
CONTINUOUS
 62
     7
 10
253.9383890631136
 20
157.1529927326494
 30
0.0
  0
VERTEX
  5
7FE
  8
0
  6
CONTINUOUS
 62
     7
 10
253.9389913350111
 20
157.1775222480748
 30
0.0
  0
SEQEND
  5
848
  8
0
  6
CONTINUOUS
 62
     7
  0
LINE
  5
1D3
  8
0
  6
CONTINUOUS
 62
     7
 10
253.9389913350111
 20
157.1775222480748
 30
0.0
 11
253.9389913350111
 21
157.6775412872677
 31
0.0
  0
LINE
  5
1D4
  8
0
  6
CONTINUOUS
 62
     7
 10
267.6252828360264
 20
141.5580647524068
 30
0.0
 11
268.9389913350112
 21
141.5466001920206
 31
0.0
  0
LINE
  5
1D5
  8
0
  6
CONTINUOUS
 62
     7
 10
267.6252828360264
 20
156.5580647524068
 30
0.0
 11
258.9389913350112
 21
156.6338688699281
 31
0.0
  0
LINE
  5
1D6
  8
0
  6
CONTINUOUS
 62
     7
 10
258.9389913350112
 20
156.6338688699281
 30
0.0
 11
258.9389913350112
 21
141.6338688699282
 31
0.0
  0
LINE
  5
1D7
  8
0
  6
CONTINUOUS
 62
     7
 10
265.0500799015881
 20
166.5321658551236
 30
0.0
 11
265.0500799015882
 21
180.2713972575824
 31
0.0
  0
LINE
  5
1D8
  8
0
  6
CONTINUOUS
 62
     7
 10
265.0500799015882
 20
180.2713972575824
 30
0.0
 11
259.4146211882109
 21
179.976055381173
 31
0.0
  0
LINE
  5
1D9
  8
0
  6
CONTINUOUS
 62
     7
 10
259.4146211882108
 20
179.976055381173
 30
0.0
 11
259.4146211882108
 21
171.135938544205
 31
0.0
  0
LINE
  5
1DA
  8
0
  6
CONTINUOUS
 62
     7
 10
259.4146211882108
 20
171.135938544205
 30
0.0
 11
259.3252828360264
 21
171.0466001920206
 31
0.0
  0
LINE
  5
1DB
  8
0
  6
CONTINUOUS
 62
     7
 10
259.3252828360264
 20
171.0466001920206
 30
0.0
 11
259.4146211882108
 21
170.9572618398361
 31
0.0
  0
LINE
  5
1DC
  8
0
  6
CONTINUOUS
 62
     7
 10
259.4146211882108
 20
170.9572618398361
 30
0.0
 11
259.4146211882108
 21
161.3143836289011
 31
0.0
  0
LINE
  5
1DD
  8
0
  6
CONTINUOUS
 62
     7
 10
265.0500799015881
 20
166.5321658551236
 30
0.0
 11
259.4146211882107
 21
161.3143836289011
 31
0.0
  0
LINE
  5
1DE
  8
0
  6
CONTINUOUS
 62
     7
 10
258.9389913350112
 20
141.6338688699282
 30
0.0
 11
257.6252828360265
 21
141.6453334303144
 31
0.0
  0
LINE
  5
1DF
  8
0
  6
CONTINUOUS
 62
     7
 10
268.9389913350111
 20
206.0603086910051
 30
0.0
 11
268.9389913350112
 21
141.5466001920206
 31
0.0
  0
LINE
  5
1E0
  8
0
  6
CONTINUOUS
 62
     7
 10
253.4389913350111
 20
156.6818666427773
 30
0.0
 11
252.4389913350111
 21
156.6905935105681
 31
0.0
  0
LINE
  5
1E1
  8
0
  6
CONTINUOUS
 62
     7
 10
235.4389913350111
 20
156.838950263011
 30
0.0
 11
234.4389913350111
 21
156.8476771308017
 31
0.0
  0
LINE
  5
1E2
  8
0
  6
CONTINUOUS
 62
     7
 10
259.4146211882108
 20
163.8599680411726
 30
0.0
 11
262.3637087425409
 21
166.5904816350404
 31
0.0
  0
LINE
  5
1E3
  8
0
  6
CONTINUOUS
 62
     7
 10
265.0500799015881
 20
166.5321658551236
 30
0.0
 11
262.3637087425409
 21
166.5904816350404
 31
0.0
  0
LINE
  5
1E4
  8
0
  6
CONTINUOUS
 62
     7
 10
232.1389913350112
 20
178.5466001920205
 30
0.0
 11
231.7729659312266
 21
178.527417613447
 31
0.0
  0
POLYLINE
  5
1E5
  8
0
  6
CONTINUOUS
 62
     7
 66
     1
 10
0.0
 20
0.0
 30
0.0
  0
VERTEX
  5
7FF
  8
0
  6
CONTINUOUS
 62
     7
 10
232.1389913350112
 20
164.3805747882362
 30
0.0
  0
VERTEX
  5
800
  8
0
  6
CONTINUOUS
 62
     7
 10
232.1384529160748
 20
164.403812302111
 30
0.0
  0
VERTEX
  5
801
  8
0
  6
CONTINUOUS
 62
     7
 10
232.1368388188453
 20
164.4270795806078
 30
0.0
  0
VERTEX
  5
802
  8
0
  6
CONTINUOUS
 62
     7
 10
232.134152519565
 20
164.4503265135532
 30
0.0
  0
VERTEX
  5
803
  8
0
  6
CONTINUOUS
 62
     7
 10
232.1303998036513
 20
164.4735030345917
 30
0.0
  0
VERTEX
  5
804
  8
0
  6
CONTINUOUS
 62
     7
 10
232.1255887532375
 20
164.496559229012
 30
0.0
  0
VERTEX
  5
805
  8
0
  6
CONTINUOUS
 62
     7
 10
232.1197297297662
 20
164.5194454412474
 30
0.0
  0
VERTEX
  5
806
  8
0
  6
CONTINUOUS
 62
     7
 10
232.1128353516741
 20
164.5421123818176
 30
0.0
  0
VERTEX
  5
807
  8
0
  6
CONTINUOUS
 62
     7
 10
232.1049204672161
 20
164.5645112334827
 30
0.0
  0
VERTEX
  5
808
  8
0
  6
CONTINUOUS
 62
     7
 10
232.096002122487
 20
164.5865937563788
 30
0.0
  0
VERTEX
  5
809
  8
0
  6
CONTINUOUS
 62
     7
 10
232.0860995247093
 20
164.6083123919123
 30
0.0
  0
VERTEX
  5
80A
  8
0
  6
CONTINUOUS
 62
     7
 10
232.0752340008678
 20
164.6296203651844
 30
0.0
  0
VERTEX
  5
80B
  8
0
  6
CONTINUOUS
 62
     7
 10
232.0634289517777
 20
164.6504717857299
 30
0.0
  0
VERTEX
  5
80C
  8
0
  6
CONTINUOUS
 62
     7
 10
232.0507098016868
 20
164.6708217463501
 30
0.0
  0
VERTEX
  5
80D
  8
0
  6
CONTINUOUS
 62
     7
 10
232.0371039435202
 20
164.6906264198285
 30
0.0
  0
VERTEX
  5
80E
  8
0
  6
CONTINUOUS
 62
     7
 10
232.0226406798847
 20
164.70984315332
 30
0.0
  0
VERTEX
  5
80F
  8
0
  6
CONTINUOUS
 62
     7
 10
232.0073511599602
 20
164.728430560212
 30
0.0
  0
VERTEX
  5
810
  8
0
  6
CONTINUOUS
 62
     7
 10
231.9912683124151
 20
164.7463486092569
 30
0.0
  0
VERTEX
  5
811
  8
0
  6
CONTINUOUS
 62
     7
 10
231.974426774488
 20
164.7635587107872
 30
0.0
  0
VERTEX
  5
812
  8
0
  6
CONTINUOUS
 62
     7
 10
231.9568628173908
 20
164.7800237998245
 30
0.0
  0
VERTEX
  5
813
  8
0
  6
CONTINUOUS
 62
     7
 10
231.9386142681917
 20
164.795708415906
 30
0.0
  0
VERTEX
  5
814
  8
0
  6
CONTINUOUS
 62
     7
 10
231.9197204283485
 20
164.8105787794545
 30
0.0
  0
VERTEX
  5
815
  8
0
  6
CONTINUOUS
 62
     7
 10
231.900221989066
 20
164.8246028645287
 30
0.0
  0
VERTEX
  5
816
  8
0
  6
CONTINUOUS
 62
     7
 10
231.8801609436598
 20
164.8377504677966
 30
0.0
  0
VERTEX
  5
817
  8
0
  6
CONTINUOUS
 62
     7
 10
231.8595804971169
 20
164.849993273584
 30
0.0
  0
VERTEX
  5
818
  8
0
  6
CONTINUOUS
 62
     7
 10
231.8385249730458
 20
164.861304914857
 30
0.0
  0
VERTEX
  5
819
  8
0
  6
CONTINUOUS
 62
     7
 10
231.817039718218
 20
164.8716610300082
 30
0.0
  0
VERTEX
  5
81A
  8
0
  6
CONTINUOUS
 62
     7
 10
231.7951710049058
 20
164.8810393153235
 30
0.0
  0
VERTEX
  5
81B
  8
0
  6
CONTINUOUS
 62
     7
 10
231.7729659312266
 20
164.8894195730173
 30
0.0
  0
SEQEND
  5
849
  8
0
  6
CONTINUOUS
 62
     7
  0
LINE
  5
1E6
  8
0
  6
CONTINUOUS
 62
     7
 10
262.363708742541
 20
180.1306105108067
 30
0.0
 11
262.363708742541
 21
166.5904816350404
 31
0.0
  0
LINE
  5
1E7
  8
0
  6
CONTINUOUS
 62
     7
 10
267.4346280672619
 20
141.5597285713675
 30
0.0
 11
267.6252828360264
 21
141.5580647524068
 31
0.0
  0
LINE
  5
1E8
  8
0
  6
CONTINUOUS
 62
     7
 10
266.9389913350112
 20
156.5640539276021
 30
0.0
 11
266.9389913350112
 21
142.0597095328995
 31
0.0
  0
ARC
  5
1E9
  8
0
  6
CONTINUOUS
 62
     7
 10
267.4389913350112
 20
142.0597095328996
 30
0.0
 40
0.5000000000000004
 50
180.0000000000095
 51
269.5000000000001
  0
LINE
  5
1EA
  8
0
  6
CONTINUOUS
 62
     7
 10
263.3385846830454
 20
231.078039503333
 30
0.0
 11
259.9302647995127
 21
231.1077834603452
 31
0.0
  0
LINE
  5
1EB
  8
0
  6
CONTINUOUS
 62
     7
 10
258.9389913350111
 20
231.1077834603452
 30
0.0
 11
259.9302647995127
 21
231.1077834603452
 31
0.0
  0
LINE
  5
1EC
  8
0
  6
CONTINUOUS
 62
     7
 10
258.9389913350111
 20
203.1313765028707
 30
0.0
 11
258.9389913350111
 21
230.5432641238158
 31
0.0
  0
ARC
  5
1ED
  8
0
  6
CONTINUOUS
 62
     7
 10
478.938991335011
 20
194.7466001920205
 30
0.0
 40
250.5999999999999
 50
174.700117113449
 51
180.0
  0
LINE
  5
1EE
  8
0
  6
CONTINUOUS
 62
     7
 10
228.3389913350111
 20
194.7466001920205
 30
0.0
 11
226.8389913350111
 21
194.7466001920205
 31
0.0
  0
ARC
  5
1EF
  8
0
  6
CONTINUOUS
 62
     7
 10
478.938991335011
 20
194.7466001920205
 30
0.0
 40
252.0999999999999
 50
174.6483407141976
 51
180.0
  0
LINE
  5
1F0
  8
0
  6
CONTINUOUS
 62
     7
 10
229.4103346554688
 20
217.8941593657893
 30
0.0
 11
227.9378927458362
 21
218.2595435855505
 31
0.0
  0
ARC
  5
1F1
  8
0
  6
CONTINUOUS
 62
     7
 10
257.6282374803887
 20
206.0573540466427
 30
0.0
 40
30.6
 50
112.7570047460817
 51
157.2429952539183
  0
ARC
  5
1F2
  8
0
  6
CONTINUOUS
 62
     7
 10
257.6282374803887
 20
206.0573540466427
 30
0.0
 40
32.10000000000002
 50
112.3417673041944
 51
157.6582326958056
  0
LINE
  5
1F3
  8
0
  6
CONTINUOUS
 62
     7
 10
245.7914321612421
 20
234.2752568715626
 30
0.0
 11
245.426047941481
 21
235.7476987811952
 31
0.0
  0
ARC
  5
1F4
  8
0
  6
CONTINUOUS
 62
     7
 10
268.9389913350111
 20
-15.25339980797954
 30
0.0
 40
250.5999999999999
 50
90.0
 51
95.29988288655105
  0
ARC
  5
1F5
  8
0
  6
CONTINUOUS
 62
     7
 10
268.9389913350111
 20
-15.25339980797954
 30
0.0
 40
252.0999999999999
 50
90.0
 51
95.3516592858024
  0
LINE
  5
1F6
  8
0
  6
CONTINUOUS
 62
     7
 10
268.9389913350111
 20
236.8466001920204
 30
0.0
 11
268.9389913350111
 21
235.3466001920204
 31
0.0
  0
ARC
  5
1F7
  8
0
  6
CONTINUOUS
 62
     7
 10
268.9389913350111
 20
-15.25339980797954
 30
0.0
 40
250.0999999999999
 50
90.0
 51
95.28223090013766
  0
ARC
  5
1F8
  8
0
  6
CONTINUOUS
 62
     7
 10
257.6282374803887
 20
206.0573540466427
 30
0.0
 40
30.09999999999998
 50
112.9026167295879
 51
157.0973832704121
  0
ARC
  5
1F9
  8
0
  6
CONTINUOUS
 62
     7
 10
478.938991335011
 20
194.7466001920205
 30
0.0
 40
250.0999999999999
 50
174.7177690998624
 51
180.0
  0
LINE
  5
1FA
  8
0
  6
CONTINUOUS
 62
     7
 10
228.3389913350111
 20
194.7466001920204
 30
0.0
 11
228.8389913350111
 21
194.7466001920204
 31
0.0
  0
LINE
  5
1FB
  8
0
  6
CONTINUOUS
 62
     7
 10
268.9389913350111
 20
235.3466001920204
 30
0.0
 11
268.9389913350111
 21
234.8466001920204
 31
0.0
  0
LINE
  5
1FC
  8
0
  6
CONTINUOUS
 62
     7
 10
228.844602641957
 20
196.4219342624601
 30
0.0
 11
230.9657862542541
 21
197.6466001920204
 31
0.0
  0
ARC
  5
1FD
  8
0
  6
CONTINUOUS
 62
     7
 10
231.0657862542541
 20
197.4733951112636
 30
0.0
 40
0.2000000000000043
 50
30.00000000000023
 51
120.0000000000008
  0
LINE
  5
1FE
  8
0
  6
CONTINUOUS
 62
     7
 10
231.238991335011
 20
197.5733951112635
 30
0.0
 11
231.5720040369033
 21
196.9966001920204
 31
0.0
  0
ARC
  5
1FF
  8
0
  6
CONTINUOUS
 62
     7
 10
230.2729659312266
 20
196.2466001920204
 30
0.0
 40
1.500000000000006
 50
270.0
 51
30.00000000000005
  0
LINE
  5
200
  8
0
  6
CONTINUOUS
 62
     7
 10
230.2729659312266
 20
194.7466001920204
 30
0.0
 11
228.838991335011
 21
194.7466001920204
 31
0.0
  0
ARC
  5
201
  8
0
  6
CONTINUOUS
 62
     7
 10
267.4389913350111
 20
233.4126255958048
 30
0.0
 40
1.500000000000006
 50
239.9999999999999
 51
0.0
  0
LINE
  5
202
  8
0
  6
CONTINUOUS
 62
     7
 10
266.1121964157679
 20
232.4466001920204
 30
0.0
 11
266.688991335011
 21
232.1135874901282
 31
0.0
  0
ARC
  5
203
  8
0
  6
CONTINUOUS
 62
     7
 10
266.2121964157679
 20
232.6198052727773
 30
0.0
 40
0.1999999999999904
 50
149.9999999999992
 51
239.9999999999997
  0
LINE
  5
204
  8
0
  6
CONTINUOUS
 62
     7
 10
267.2636572645713
 20
234.8409888850745
 30
0.0
 11
266.038991335011
 21
232.7198052727773
 31
0.0
  0
LINE
  5
205
  8
0
  6
CONTINUOUS
 62
     7
 10
268.9389913350111
 20
233.4126255958048
 30
0.0
 11
268.9389913350111
 21
234.8466001920204
 31
0.0
  0
LINE
  5
206
  8
0
  6
CONTINUOUS
 62
     7
 10
229.5241561707811
 20
213.2466001920204
 30
0.0
 11
229.6244309900524
 21
213.2466001920204
 31
0.0
  0
LINE
  5
207
  8
0
  6
CONTINUOUS
 62
     7
 10
229.4199539851527
 20
210.2466001920204
 30
0.0
 11
229.3197613065535
 21
210.2466001920204
 31
0.0
  0
LINE
  5
208
  8
0
  6
CONTINUOUS
 62
     7
 10
229.2892166505544
 20
209.7466001920204
 30
0.0
 11
229.3893970656554
 21
209.7466001920204
 31
0.0
  0
LINE
  5
209
  8
0
  6
CONTINUOUS
 62
     7
 10
229.662036924861
 20
213.7466001920204
 30
0.0
 11
229.5617469842082
 21
213.7466001920204
 31
0.0
  0
LINE
  5
20A
  8
0
  6
CONTINUOUS
 62
     7
 10
250.438991335011
 20
234.1614353562503
 30
0.0
 11
250.438991335011
 21
234.061160536979
 31
0.0
  0
LINE
  5
20B
  8
0
  6
CONTINUOUS
 62
     7
 10
249.9389913350111
 20
234.0235546021704
 30
0.0
 11
249.9389913350111
 21
234.1238445428232
 31
0.0
  0
LINE
  5
20C
  8
0
  6
CONTINUOUS
 62
     7
 10
253.438991335011
 20
234.2656375418788
 30
0.0
 11
253.438991335011
 21
234.3658302204779
 31
0.0
  0
LINE
  5
20D
  8
0
  6
CONTINUOUS
 62
     7
 10
253.9389913350111
 20
234.396374876477
 30
0.0
 11
253.9389913350111
 21
234.296194461376
 31
0.0
  0
ARC
  5
20E
  8
0
  6
CONTINUOUS
 62
     7
 10
228.3389913350111
 20
138.3466001920203
 30
0.0
 40
1.500000000000001
 50
179.9999999999989
 51
270.0
  0
LINE
  5
20F
  8
0
  6
CONTINUOUS
 62
     7
 10
226.838991335011
 20
194.7466001920204
 30
0.0
 11
226.838991335011
 21
138.3466001920203
 31
0.0
  0
LINE
  5
210
  8
0
  6
CONTINUOUS
 62
     7
 10
228.8389913350111
 20
194.7466001920204
 30
0.0
 11
228.8389913350111
 21
178.8466001920203
 31
0.0
  0
LINE
  5
211
  8
0
  6
CONTINUOUS
 62
     7
 10
230.2729659312266
 20
178.8466001920203
 30
0.0
 11
228.8389913350111
 21
178.8466001920203
 31
0.0
  0
LINE
  5
212
  8
0
  6
CONTINUOUS
 62
     7
 10
230.2729659312266
 20
163.8466001920203
 30
0.0
 11
230.2729659312266
 21
178.8466001920203
 31
0.0
  0
LINE
  5
213
  8
0
  6
CONTINUOUS
 62
     7
 10
230.2729659312266
 20
163.8466001920203
 30
0.0
 11
228.838991335011
 21
163.8466001920203
 31
0.0
  0
LINE
  5
214
  8
0
  6
CONTINUOUS
 62
     7
 10
228.838991335011
 20
163.8466001920203
 30
0.0
 11
228.8389913350111
 21
136.8466001920203
 31
0.0
  0
LINE
  5
215
  8
0
  6
CONTINUOUS
 62
     7
 10
228.3389913350111
 20
136.8466001920203
 30
0.0
 11
228.8389913350111
 21
136.8466001920203
 31
0.0
  0
LINE
  5
216
  8
0
  6
CONTINUOUS
 62
     7
 10
231.7729659312266
 20
163.8466001920203
 30
0.0
 11
230.2729659312266
 21
163.8466001920203
 31
0.0
  0
LINE
  5
217
  8
0
  6
CONTINUOUS
 62
     7
 10
230.2729659312266
 20
178.8466001920203
 30
0.0
 11
231.7729659312266
 21
178.8466001920203
 31
0.0
  0
LINE
  5
218
  8
0
  6
CONTINUOUS
 62
     7
 10
229.9010917240371
 20
136.8466001920203
 30
0.0
 11
228.8389913350113
 21
136.8466001920203
 31
0.0
  0
LINE
  5
219
  8
0
  6
CONTINUOUS
 62
     7
 10
229.9010917240369
 20
216.9929192304395
 30
0.0
 11
229.9010917240369
 21
216.658344927536
 31
0.0
  0
LINE
  5
21A
  8
0
  6
CONTINUOUS
 62
     7
 10
229.9010917240369
 20
204.7466001920204
 30
0.0
 11
229.9010917240369
 21
199.9623088072639
 31
0.0
  0
LINE
  5
21B
  8
0
  6
CONTINUOUS
 62
     7
 10
229.9010917240369
 20
197.1545482492052
 30
0.0
 11
229.9010917240369
 21
197.0318985183948
 31
0.0
  0
LINE
  5
21C
  8
0
  6
CONTINUOUS
 62
     7
 10
229.9010917240369
 20
163.8466001920203
 30
0.0
 11
229.9010917240369
 21
136.8466001920203
 31
0.0
  0
LINE
  5
21D
  8
0
  6
CONTINUOUS
 62
     7
 10
245.8985937922286
 20
233.7778421186244
 30
0.0
 11
245.7862467542353
 21
233.6173523399804
 31
0.0
  0
LINE
  5
21E
  8
0
  6
CONTINUOUS
 62
     7
 10
229.9380297323835
 20
217.074186737969
 30
0.0
 11
229.9010917240369
 21
216.9929192304394
 31
0.0
  0
LINE
  5
21F
  8
0
  6
CONTINUOUS
 62
     7
 10
245.9143402550407
 20
156.7475332779238
 30
0.0
 11
245.9143402550407
 21
136.8466001920203
 31
0.0
  0
LINE
  5
220
  8
0
  6
CONTINUOUS
 62
     7
 10
229.9010917240369
 20
136.8466001920203
 30
0.0
 11
245.9143402550407
 21
136.8466001920203
 31
0.0
  0
LINE
  5
221
  8
0
  6
CONTINUOUS
 62
     7
 10
245.9143402550408
 20
136.8466001920203
 30
0.0
 11
268.9389913350111
 21
136.8466001920203
 31
0.0
  0
LINE
  5
222
  8
0
  6
CONTINUOUS
 62
     7
 10
268.9389913350111
 20
141.5466001920206
 30
0.0
 11
268.9389913350111
 21
136.8466001920203
 31
0.0
  0
LINE
  5
223
  8
0
  6
CONTINUOUS
 62
     7
 10
268.9389913350111
 20
229.7466001920205
 30
0.0
 11
268.9389913350111
 21
227.7466001920204
 31
0.0
  0
LINE
  5
224
  8
0
  6
CONTINUOUS
 62
     7
 10
268.9389913350111
 20
211.7466001920204
 30
0.0
 11
268.9389913350111
 21
209.7466001920204
 31
0.0
  0
ARC
  5
225
  8
0
  6
CONTINUOUS
 62
     7
 10
257.6282374803887
 20
206.0573540466427
 30
0.0
 40
30.0
 50
112.932196701848
 51
157.0678032981518
  0
ARC
  5
226
  8
0
  6
CONTINUOUS
 62
     7
 10
268.9389913350111
 20
-15.25339980797957
 30
0.0
 40
250.0
 50
92.29244277595589
 51
95.27867610332108
  0
LINE
  5
227
  8
0
  6
CONTINUOUS
 62
     7
 10
258.9389913350108
 20
230.5432641238158
 30
0.0
 11
258.9389913350111
 21
234.5465201279563
 31
0.0
  0
ARC
  5
228
  8
0
  6
CONTINUOUS
 62
     7
 10
268.9389913350111
 20
-15.25339980797957
 30
0.0
 40
246.0
 50
92.32973866043493
 51
95.12926388889878
  0
ARC
  5
229
  8
0
  6
CONTINUOUS
 62
     7
 10
478.938991335011
 20
194.7466001920204
 30
0.0
 40
250.0
 50
174.7213238966789
 51
177.7075572240442
  0
ARC
  5
22A
  8
0
  6
CONTINUOUS
 62
     7
 10
478.938991335011
 20
194.7466001920204
 30
0.0
 40
246.0
 50
174.8707361111013
 51
177.6702613395652
  0
LINE
  5
22B
  8
0
  6
CONTINUOUS
 62
     7
 10
229.1390713990751
 20
204.7466001920204
 30
0.0
 11
233.1423274032156
 21
204.7466001920204
 31
0.0
  0
ARC
  5
22C
  8
0
  6
CONTINUOUS
 62
     7
 10
257.6282374803887
 20
206.0573540466427
 30
0.0
 40
25.99999999999999
 50
114.2589370559113
 51
155.7410629440883
  0
LINE
  5
22D
  8
0
  6
CONTINUOUS
 62
     7
 10
231.7729659312266
 20
163.8466001920203
 30
0.0
 11
231.7729659312266
 21
178.8466001920203
 31
0.0
  0
ENDBLK
  8
0
  0
ENDSEC
  0
SECTION
  2
ENTITIES
  0
TEXT
  5
6F
  8
0
  6
CONTINUOUS
 62
     7
 10
236.9319677035225
 20
112.8004820684613
 30
0.0
 40
3.0
  1
RMGD-20
  0
LINE
  5
70
  8
0
  6
CENTER
 62
     1
 10
89.60270590857293
 20
107.0009689292577
 30
0.0
 11
129.6027059085729
 21
67.00096892925772
 31
0.0
  0
LINE
  5
72
  8
0
  6
CENTER
 62
     1
 10
230.4100844417025
 20
234.2755070853289
 30
0.0
 11
267.9100844417025
 21
196.7755070853289
 31
0.0
  0
INSERT
  5
8C
  8
0
  6
CONTINUOUS
 62
     7
  2
D_FRAME_VIEW_1709
 10
0.0
 20
0.0
 30
0.0
  0
INSERT
  5
160
  8
0
  6
CONTINUOUS
 62
     7
  2
D_FRAME_VIEW_1988
 10
0.0
 20
0.0
 30
0.0
  0
INSERT
  5
22E
  8
0
  6
CONTINUOUS
 62
     7
  2
D_FRAME_VIEW_2220
 10
0.0
 20
0.0
 30
0.0
  0
ENDSEC
  0
EOF
