  0
SECTION
  2
HEADER
  9
$ACADVER
  1
AC1006
  9
$DWGCODEPAGE
  3
ansi_932
  9
$INSBASE
 10
0.0
 20
0.0
 30
0.0
  9
$EXTMIN
 10
434.1666666666667
 20
281.4999956888266
  9
$EXTMAX
 10
517.6666709778401
 20
357.7842817809973
  9
$LIMMIN
 10
0.0
 20
0.0
  9
$LIMMAX
 10
12.0
 20
9.0
  9
$ORTHOMODE
 70
     0
  9
$REGENMODE
 70
     1
  9
$FILLMODE
 70
     1
  9
$QTEXTMODE
 70
     0
  9
$MIRRTEXT
 70
     1
  9
$DRAGMODE
 70
     2
  9
$LTSCALE
 40
1.0
  9
$OSMODE
 70
    37
  9
$ATTMODE
 70
     1
  9
$TEXTSIZE
 40
0.2
  9
$TRACEWID
 40
0.05
  9
$TEXTSTYLE
  7
STANDARD
  9
$CLAYER
  8
0
  9
$CELTYPE
  6
BYLAYER
  9
$CECOLOR
 62
   256
  9
$DIMSCALE
 40
1.0
  9
$DIMASZ
 40
3.0
  9
$DIMEXO
 40
0.0625
  9
$DIMDLI
 40
0.38
  9
$DIMRND
 40
0.0
  9
$DIMDLE
 40
0.0
  9
$DIMEXE
 40
1.5
  9
$DIMTP
 40
0.0
  9
$DIMTM
 40
0.0
  9
$DIMTXT
 40
3.0
  9
$DIMCEN
 40
0.09
  9
$DIMTSZ
 40
0.0
  9
$DIMTOL
 70
     0
  9
$DIMLIM
 70
     0
  9
$DIMTIH
 70
     1
  9
$DIMTOH
 70
     1
  9
$DIMSE1
 70
     0
  9
$DIMSE2
 70
     0
  9
$DIMTAD
 70
     1
  9
$DIMZIN
 70
     0
  9
$DIMBLK
  1

  9
$DIMASO
 70
     1
  9
$DIMSHO
 70
     1
  9
$DIMPOST
  1

  9
$DIMAPOST
  1

  9
$DIMALT
 70
     0
  9
$DIMALTD
 70
     2
  9
$DIMALTF
 40
25.4
  9
$DIMLFAC
 40
1.0
  9
$DIMTOFL
 70
     0
  9
$DIMTVP
 40
0.0
  9
$DIMTIX
 70
     0
  9
$DIMSOXD
 70
     0
  9
$DIMSAH
 70
     0
  9
$DIMBLK1
  1

  9
$DIMBLK2
  1

  9
$LUNITS
 70
     2
  9
$LUPREC
 70
     4
  9
$SKETCHINC
 40
0.1
  9
$FILLETRAD
 40
0.5
  9
$AUNITS
 70
     0
  9
$AUPREC
 70
     0
  9
$MENU
  1
.
  9
$ELEVATION
 40
0.0
  9
$THICKNESS
 40
0.0
  9
$LIMCHECK
 70
     0
  9
$CHAMFERA
 40
0.0
  9
$CHAMFERB
 40
0.0
  9
$SKPOLY
 70
     0
  9
$TDCREATE
 40
2460423.548453565
  9
$TDUPDATE
 40
2460423.548453773
  9
$TDINDWG
 40
0.0000000116
  9
$TDUSRTIMER
 40
0.0000000116
  9
$USRTIMER
 70
     1
  9
$ANGBASE
 50
0.0
  9
$ANGDIR
 70
     0
  9
$PDMODE
 70
     0
  9
$PDSIZE
 40
0.0
  9
$PLINEWID
 40
0.0
  9
$COORDS
 70
     1
  9
$SPLFRAME
 70
     0
  9
$SPLINETYPE
 70
     6
  9
$SPLINESEGS
 70
     8
  9
$ATTDIA
 70
     0
  9
$ATTREQ
 70
     1
  9
$HANDLING
 70
     1
  9
$HANDSEED
  5
F7
  9
$SURFTAB1
 70
     6
  9
$SURFTAB2
 70
     6
  9
$SURFTYPE
 70
     6
  9
$SURFU
 70
     6
  9
$SURFV
 70
     6
  9
$UCSNAME
  2

  9
$UCSORG
 10
0.0
 20
0.0
 30
0.0
  9
$UCSXDIR
 10
1.0
 20
0.0
 30
0.0
  9
$UCSYDIR
 10
0.0
 20
1.0
 30
0.0
  9
$USERI1
 70
     0
  9
$USERI2
 70
     0
  9
$USERI3
 70
     0
  9
$USERI4
 70
     0
  9
$USERI5
 70
     0
  9
$USERR1
 40
0.0
  9
$USERR2
 40
0.0
  9
$USERR3
 40
0.0
  9
$USERR4
 40
0.0
  9
$USERR5
 40
0.0
  9
$WORLDVIEW
 70
     1
  0
ENDSEC
  0
SECTION
  2
TABLES
  0
TABLE
  2
VPORT
 70
     1
  0
VPORT
  2
*ACTIVE
 70
     0
 10
0.0
 20
0.0
 11
1.0
 21
1.0
 12
475.9166688222534
 22
319.6421387349119
 13
0.0
 23
0.0
 14
0.5
 24
0.5
 15
0.5
 25
0.5
 16
0.0
 26
0.0
 36
1.0
 17
0.0
 27
0.0
 37
0.0
 40
76.2842860921707
 41
1.6
 42
50.0
 43
0.0
 44
0.0
 50
0.0
 51
0.0
 71
     0
 72
   100
 73
     1
 74
     3
 75
     0
 76
     0
 77
     0
 78
     0
  0
ENDTAB
  0
TABLE
  2
LTYPE
 70
     2
  0
LTYPE
  2
CONTINUOUS
 70
     0
  3
Solid line
 72
    65
 73
     0
 40
0.0
  0
LTYPE
  2
________________
 70
     0
  3

 72
    65
 73
     4
 40
6.0
 49
2.25
 49
-1.5
 49
0.7499999999999999
 49
-1.5
  0
ENDTAB
  0
TABLE
  2
LAYER
 70
     2
  0
LAYER
  2
0
 70
     0
 62
     7
  6
CONTINUOUS
  0
LAYER
  2
1
 70
     0
 62
     7
  6
CONTINUOUS
  0
ENDTAB
  0
TABLE
  2
STYLE
 70
     2
  0
STYLE
  2
STANDARD
 70
     0
 40
0.0
 41
1.0
 50
0.0
 71
     0
 42
0.2
  3
txt
  4

  0
STYLE
  2
ＭＳ_ゴシック
 70
     0
 40
0.0
 41
1.0
 50
0.0
 71
     0
 42
0.2
  3
ＭＳ ゴシック.shx
  4

  0
ENDTAB
  0
TABLE
  2
VIEW
 70
     0
  0
ENDTAB
  0
TABLE
  2
UCS
 70
     0
  0
ENDTAB
  0
ENDSEC
  0
SECTION
  2
BLOCKS
  0
ENDSEC
  0
SECTION
  2
ENTITIES
  0
ARC
  5
70
  8
1
  6
CONTINUOUS
 62
     7
 10
435.566553713315
 20
105.566553713315
 30
0.0
 40
252.2176984821929
 50
84.64435043369639
 51
89.97326267518069
  0
LINE
  5
71
  8
1
  6
CONTINUOUS
 62
     7
 10
435.684252195508
 20
357.784224733253
 30
0.0
 11
435.6974567301764
 21
356.2842751378215
 31
0.0
  0
ARC
  5
72
  8
1
  6
CONTINUOUS
 62
     7
 10
225.5665537133151
 20
315.566553713315
 30
0.0
 40
252.2176984821929
 50
0.0267373248194076
 51
5.355649566303669
  0
LINE
  5
73
  8
1
  6
CONTINUOUS
 62
     7
 10
477.784224733253
 20
315.6842521955079
 30
0.0
 11
476.2842751378215
 21
315.6974567301763
 31
0.0
  0
LINE
  5
74
  8
1
  6
CONTINUOUS
 62
     7
 10
437.6983462982236
 20
315.5560814719661
 30
0.0
 11
437.7053277924562
 21
315.5490999777334
 31
0.0
  0
LINE
  5
75
  8
1
  6
CONTINUOUS
 62
     7
 10
446.8907344536487
 20
315.5560814719661
 30
0.0
 11
437.6983462982236
 21
315.5560814719661
 31
0.0
  0
LINE
  5
76
  8
1
  6
CONTINUOUS
 62
     7
 10
446.8802622122997
 20
315.566553713315
 30
0.0
 11
446.8907344536487
 21
315.5560814719661
 31
0.0
  0
LINE
  5
77
  8
1
  6
CONTINUOUS
 62
     7
 10
475.1708981080175
 20
315.566553713315
 30
0.0
 11
446.8802622122997
 21
315.566553713315
 31
0.0
  0
LINE
  5
78
  8
1
  6
CONTINUOUS
 62
     7
 10
475.6708790321478
 20
315.5708790695496
 30
0.0
 11
475.1708981080175
 21
315.566553713315
 31
0.0
  0
LINE
  5
79
  8
1
  6
CONTINUOUS
 62
     7
 10
475.6708790321478
 20
315.5708790695496
 30
0.0
 11
475.7974224905985
 21
315.6974567301763
 31
0.0
  0
LINE
  5
7A
  8
1
  6
CONTINUOUS
 62
     7
 10
476.2842751378215
 20
315.6974567301763
 30
0.0
 11
475.7974224905984
 21
315.6974567301763
 31
0.0
  0
LINE
  5
7B
  8
1
  6
CONTINUOUS
 62
     7
 10
477.6620760066717
 20
315.5620760464373
 30
0.0
 11
477.784224733253
 21
315.6842521955079
 31
0.0
  0
LINE
  5
7C
  8
1
  6
CONTINUOUS
 62
     7
 10
476.1621325540234
 20
315.5490999777334
 30
0.0
 11
477.6620760066717
 21
315.5620760464373
 31
0.0
  0
LINE
  5
7D
  8
1
  6
CONTINUOUS
 62
     7
 10
476.1621325540234
 20
315.5490999777334
 30
0.0
 11
437.7053277924562
 21
315.5490999777334
 31
0.0
  0
LINE
  5
7E
  8
1
  6
CONTINUOUS
 62
     7
 10
435.5490999777335
 20
356.1621325540233
 30
0.0
 11
435.5620760464373
 21
357.6620760066717
 31
0.0
  0
LINE
  5
7F
  8
1
  6
CONTINUOUS
 62
     7
 10
435.5620760464373
 20
357.6620760066716
 30
0.0
 11
435.684252195508
 21
357.784224733253
 31
0.0
  0
LINE
  5
80
  8
1
  6
CONTINUOUS
 62
     7
 10
435.6974567301764
 20
356.2842751378215
 30
0.0
 11
435.6974567301764
 21
355.7974224905984
 31
0.0
  0
LINE
  5
81
  8
1
  6
CONTINUOUS
 62
     7
 10
435.5708790695496
 20
355.6708790321476
 30
0.0
 11
435.6974567301764
 21
355.7974224905984
 31
0.0
  0
LINE
  5
82
  8
1
  6
CONTINUOUS
 62
     7
 10
435.5708790695496
 20
355.6708790321476
 30
0.0
 11
435.566553713315
 21
355.1708981080174
 31
0.0
  0
LINE
  5
83
  8
1
  6
CONTINUOUS
 62
     7
 10
435.566553713315
 20
355.1708981080174
 30
0.0
 11
435.566553713315
 21
326.8802622122997
 31
0.0
  0
LINE
  5
84
  8
1
  6
CONTINUOUS
 62
     7
 10
435.566553713315
 20
326.8802622122997
 30
0.0
 11
435.5560814719661
 21
326.8907344536486
 31
0.0
  0
LINE
  5
85
  8
1
  6
CONTINUOUS
 62
     7
 10
435.5560814719661
 20
326.8907344536486
 30
0.0
 11
435.5560814719661
 21
317.6983462982235
 31
0.0
  0
LINE
  5
86
  8
1
  6
CONTINUOUS
 62
     7
 10
435.5560814719661
 20
317.6983462982235
 30
0.0
 11
435.5490999777335
 21
317.7053277924562
 31
0.0
  0
LINE
  5
87
  8
1
  6
CONTINUOUS
 62
     7
 10
435.5490999777335
 20
356.1621325540233
 30
0.0
 11
435.5490999777335
 21
317.7053277924562
 31
0.0
  0
ARC
  5
88
  8
1
  6
CONTINUOUS
 62
     7
 10
446.8773075679374
 20
326.8773075679373
 30
0.0
 40
32.21769848219284
 50
22.31047930003103
 51
67.68952069996897
  0
ARC
  5
89
  8
1
  6
CONTINUOUS
 62
     7
 10
435.566553713315
 20
105.5665537133149
 30
0.0
 40
250.2309030168615
 50
84.71312812952932
 51
89.97002692056276
  0
ARC
  5
8A
  8
1
  6
CONTINUOUS
 62
     7
 10
446.8773075679373
 20
326.8773075679372
 30
0.0
 40
30.23090301686138
 50
22.86412855535649
 51
67.13587144464353
  0
ARC
  5
8B
  8
1
  6
CONTINUOUS
 62
     7
 10
225.5665537133149
 20
315.5665537133149
 30
0.0
 40
250.2309030168615
 50
0.0299730794372443
 51
5.286871870470691
  0
CIRCLE
  5
8C
  8
1
  6
CONTINUOUS
 62
     7
 10
440.466553713315
 20
341.366553713315
 30
0.0
 40
1.54363433895377
  0
CIRCLE
  5
8D
  8
1
  6
CONTINUOUS
 62
     7
 10
461.366553713315
 20
320.466553713315
 30
0.0
 40
1.54363433895377
  0
CIRCLE
  5
8E
  8
1
  6
CONTINUOUS
 62
     7
 10
440.466553713315
 20
341.366553713315
 30
0.0
 40
1.500000000000001
  0
CIRCLE
  5
8F
  8
1
  6
CONTINUOUS
 62
     7
 10
461.366553713315
 20
320.466553713315
 30
0.0
 40
1.500000000000001
  0
CIRCLE
  5
90
  8
1
  6
CONTINUOUS
 62
     7
 10
440.466553713315
 20
341.366553713315
 30
0.0
 40
2.899999999999958
  0
CIRCLE
  5
91
  8
1
  6
CONTINUOUS
 62
     7
 10
461.366553713315
 20
320.466553713315
 30
0.0
 40
2.900000000000014
  0
LINE
  5
92
  8
1
  6
CONTINUOUS
 62
     7
 10
435.566553713315
 20
326.8802622122997
 30
0.0
 11
446.8802622122997
 21
315.566553713315
 31
0.0
  0
LINE
  5
93
  8
1
  6
CONTINUOUS
 62
     7
 10
435.5560814719661
 20
317.6983462982235
 30
0.0
 11
437.6983462982236
 21
315.5560814719661
 31
0.0
  0
LINE
  5
94
  8
1
  6
CONTINUOUS
 62
     7
 10
437.6983462982236
 20
282.2999956888267
 30
0.0
 11
437.7053277924562
 21
281.4999956888266
 31
0.0
  0
LINE
  5
95
  8
1
  6
CONTINUOUS
 62
     7
 10
446.8907344536487
 20
282.2999956888266
 30
0.0
 11
437.6983462982236
 21
282.2999956888267
 31
0.0
  0
LINE
  5
96
  8
1
  6
CONTINUOUS
 62
     7
 10
446.8802622122997
 20
283.4999956888266
 30
0.0
 11
446.8907344536487
 21
282.2999956888266
 31
0.0
  0
LINE
  5
97
  8
1
  6
CONTINUOUS
 62
     7
 10
475.1708981080175
 20
283.4999956888266
 30
0.0
 11
446.8802622122997
 21
283.4999956888266
 31
0.0
  0
LINE
  5
98
  8
1
  6
CONTINUOUS
 62
     7
 10
475.6708790321478
 20
283.9956324210775
 30
0.0
 11
475.67026459511
 21
283.9748679999364
 31
0.0
  0
LINE
  5
99
  8
1
  6
CONTINUOUS
 62
     7
 10
475.67026459511
 20
283.9748679999364
 30
0.0
 11
475.6687868936204
 21
283.9541290983563
 31
0.0
  0
LINE
  5
9A
  8
1
  6
CONTINUOUS
 62
     7
 10
475.6687868936204
 20
283.9541290983563
 30
0.0
 11
475.6664508596683
 21
283.9334692621348
 31
0.0
  0
LINE
  5
9B
  8
1
  6
CONTINUOUS
 62
     7
 10
475.6664508596683
 20
283.9334692621348
 30
0.0
 11
475.6632614252424
 21
283.9129420370696
 31
0.0
  0
LINE
  5
9C
  8
1
  6
CONTINUOUS
 62
     7
 10
475.6632614252424
 20
283.9129420370696
 30
0.0
 11
475.6590885944623
 21
283.8919764956814
 31
0.0
  0
LINE
  5
9D
  8
1
  6
CONTINUOUS
 62
     7
 10
475.6590885944623
 20
283.8919764956814
 30
0.0
 11
475.6540187831201
 21
283.8711894419092
 31
0.0
  0
LINE
  5
9E
  8
1
  6
CONTINUOUS
 62
     7
 10
475.6540187831201
 20
283.8711894419092
 30
0.0
 11
475.6480670838422
 21
283.8506374930956
 31
0.0
  0
LINE
  5
9F
  8
1
  6
CONTINUOUS
 62
     7
 10
475.6480670838422
 20
283.8506374930956
 30
0.0
 11
475.6412485892553
 21
283.8303772665836
 31
0.0
  0
LINE
  5
A0
  8
1
  6
CONTINUOUS
 62
     7
 10
475.6412485892553
 20
283.8303772665836
 30
0.0
 11
475.633795417929
 21
283.8109867202983
 31
0.0
  0
LINE
  5
A1
  8
1
  6
CONTINUOUS
 62
     7
 10
475.633795417929
 20
283.8109867202983
 30
0.0
 11
475.6255360791159
 21
283.7919059931908
 31
0.0
  0
LINE
  5
A2
  8
1
  6
CONTINUOUS
 62
     7
 10
475.6255360791159
 20
283.7919059931908
 30
0.0
 11
475.6164929501289
 21
283.7731839829975
 31
0.0
  0
LINE
  5
A3
  8
1
  6
CONTINUOUS
 62
     7
 10
475.6164929501289
 20
283.7731839829975
 30
0.0
 11
475.6066884082807
 21
283.7548695874543
 31
0.0
  0
LINE
  5
A4
  8
1
  6
CONTINUOUS
 62
     7
 10
475.6066884082807
 20
283.7548695874543
 30
0.0
 11
475.5958107802041
 21
283.7364670688692
 31
0.0
  0
LINE
  5
A5
  8
1
  6
CONTINUOUS
 62
     7
 10
475.5958107802041
 20
283.7364670688692
 30
0.0
 11
475.5841457957892
 21
283.7185298856327
 31
0.0
  0
LINE
  5
A6
  8
1
  6
CONTINUOUS
 62
     7
 10
475.5841457957892
 20
283.7185298856327
 30
0.0
 11
475.5717264388667
 21
283.7011064718673
 31
0.0
  0
LINE
  5
A7
  8
1
  6
CONTINUOUS
 62
     7
 10
475.5717264388667
 20
283.7011064718673
 30
0.0
 11
475.5585856932677
 21
283.6842452616956
 31
0.0
  0
LINE
  5
A8
  8
1
  6
CONTINUOUS
 62
     7
 10
475.5585856932677
 20
283.6842452616956
 30
0.0
 11
475.545134178552
 21
283.6684151050999
 31
0.0
  0
LINE
  5
A9
  8
1
  6
CONTINUOUS
 62
     7
 10
475.545134178552
 20
283.6684151050999
 30
0.0
 11
475.5310245018459
 21
283.6531441417846
 31
0.0
  0
LINE
  5
AA
  8
1
  6
CONTINUOUS
 62
     7
 10
475.5310245018459
 20
283.6531441417846
 30
0.0
 11
475.5162939652552
 21
283.6384711073415
 31
0.0
  0
LINE
  5
AB
  8
1
  6
CONTINUOUS
 62
     7
 10
475.5162939652552
 20
283.6384711073415
 30
0.0
 11
475.5009798708855
 21
283.6244347373627
 31
0.0
  0
LINE
  5
AC
  8
1
  6
CONTINUOUS
 62
     7
 10
475.5009798708855
 20
283.6244347373627
 30
0.0
 11
475.4846240030657
 21
283.6106703991152
 31
0.0
  0
LINE
  5
AD
  8
1
  6
CONTINUOUS
 62
     7
 10
475.4846240030657
 20
283.6106703991152
 30
0.0
 11
475.4676792021743
 21
283.5976057823411
 31
0.0
  0
LINE
  5
AE
  8
1
  6
CONTINUOUS
 62
     7
 10
475.4676792021743
 20
283.5976057823411
 30
0.0
 11
475.4501926267434
 21
283.5852756738767
 31
0.0
  0
LINE
  5
AF
  8
1
  6
CONTINUOUS
 62
     7
 10
475.4501926267434
 20
283.5852756738767
 30
0.0
 11
475.4322114353048
 21
283.5737148605582
 31
0.0
  0
LINE
  5
B0
  8
1
  6
CONTINUOUS
 62
     7
 10
475.4322114353048
 20
283.5737148605582
 30
0.0
 11
475.4142786448317
 21
283.5632300340027
 31
0.0
  0
LINE
  5
B1
  8
1
  6
CONTINUOUS
 62
     7
 10
475.4142786448317
 20
283.5632300340027
 30
0.0
 11
475.39590992195
 21
283.5534907043201
 31
0.0
  0
LINE
  5
B2
  8
1
  6
CONTINUOUS
 62
     7
 10
475.39590992195
 20
283.5534907043201
 30
0.0
 11
475.3771532870788
 21
283.5445210745831
 31
0.0
  0
LINE
  5
B3
  8
1
  6
CONTINUOUS
 62
     7
 10
475.3771532870788
 20
283.5445210745831
 30
0.0
 11
475.3580567606373
 21
283.5363453478646
 31
0.0
  0
LINE
  5
B4
  8
1
  6
CONTINUOUS
 62
     7
 10
475.3580567606373
 20
283.5363453478646
 30
0.0
 11
475.3380672777571
 21
283.5287711263331
 31
0.0
  0
LINE
  5
B5
  8
1
  6
CONTINUOUS
 62
     7
 10
475.3380672777571
 20
283.5287711263331
 30
0.0
 11
475.3177537051818
 21
283.5220520842103
 31
0.0
  0
LINE
  5
B6
  8
1
  6
CONTINUOUS
 62
     7
 10
475.3177537051818
 20
283.5220520842103
 30
0.0
 11
475.297172056131
 21
283.5162054350265
 31
0.0
  0
LINE
  5
B7
  8
1
  6
CONTINUOUS
 62
     7
 10
475.297172056131
 20
283.5162054350265
 30
0.0
 11
475.2763783438245
 21
283.5112483923123
 31
0.0
  0
LINE
  5
B8
  8
1
  6
CONTINUOUS
 62
     7
 10
475.2763783438245
 20
283.5112483923123
 30
0.0
 11
475.2555304367766
 21
283.5072136763236
 31
0.0
  0
LINE
  5
B9
  8
1
  6
CONTINUOUS
 62
     7
 10
475.2555304367766
 20
283.5072136763236
 30
0.0
 11
475.234501321353
 21
283.5040649515058
 31
0.0
  0
LINE
  5
BA
  8
1
  6
CONTINUOUS
 62
     7
 10
475.234501321353
 20
283.5040649515058
 30
0.0
 11
475.2133481358726
 21
283.5018083143339
 31
0.0
  0
LINE
  5
BB
  8
1
  6
CONTINUOUS
 62
     7
 10
475.2133481358726
 20
283.5018083143339
 30
0.0
 11
475.1921280186545
 21
283.5004498612826
 31
0.0
  0
LINE
  5
BC
  8
1
  6
CONTINUOUS
 62
     7
 10
475.1921280186545
 20
283.5004498612826
 30
0.0
 11
475.1708981080175
 21
283.4999956888266
 31
0.0
  0
LINE
  5
BD
  8
1
  6
CONTINUOUS
 62
     7
 10
475.6708790321478
 20
283.9956324210774
 30
0.0
 11
475.7974224905985
 21
298.4999956888266
 31
0.0
  0
LINE
  5
BE
  8
1
  6
CONTINUOUS
 62
     7
 10
476.2842751378215
 20
298.4999956888266
 30
0.0
 11
475.7974224905984
 21
298.4999956888266
 31
0.0
  0
ARC
  5
BF
  8
1
  6
CONTINUOUS
 62
     7
 10
476.284252555473
 20
296.9999666500501
 30
0.0
 40
1.500029038946545
 50
359.5011188999343
 51
89.99913743452315
  0
LINE
  5
C0
  8
1
  6
CONTINUOUS
 62
     7
 10
477.6620760066717
 20
282.9869058855791
 30
0.0
 11
477.6649501145247
 21
283.3162420525164
 31
0.0
  0
ARC
  5
C1
  8
1
  6
CONTINUOUS
 62
     7
 10
476.1621108005714
 20
283.0000182059858
 30
0.0
 40
1.500022517316929
 50
270.0008309081858
 51
359.4991473938284
  0
LINE
  5
C2
  8
1
  6
CONTINUOUS
 62
     7
 10
476.1621325540234
 20
281.4999956888266
 30
0.0
 11
437.7053277924562
 21
281.4999956888266
 31
0.0
  0
LINE
  5
C3
  8
1
  6
CONTINUOUS
 62
     7
 10
435.5560814719661
 20
282.2999956888267
 30
0.0
 11
435.5490999777335
 21
281.4999956888266
 31
0.0
  0
LINE
  5
C4
  8
1
  6
CONTINUOUS
 62
     7
 10
435.5560814719661
 20
282.2999956888267
 30
0.0
 11
437.6983462982236
 21
282.2999956888267
 31
0.0
  0
LINE
  5
C5
  8
1
  6
CONTINUOUS
 62
     7
 10
435.5490999777335
 20
281.4999956888266
 30
0.0
 11
437.7053277924562
 21
281.4999956888266
 31
0.0
  0
LINE
  5
C6
  8
1
  6
CONTINUOUS
 62
     7
 10
435.566553713315
 20
283.4999956888266
 30
0.0
 11
435.5560814719661
 21
282.2999956888266
 31
0.0
  0
LINE
  5
C7
  8
1
  6
CONTINUOUS
 62
     7
 10
435.566553713315
 20
283.4999956888266
 30
0.0
 11
446.8802622122997
 21
283.4999956888266
 31
0.0
  0
LINE
  5
C8
  8
1
  6
CONTINUOUS
 62
     7
 10
477.6681573012777
 20
283.683749253255
 30
0.0
 11
477.784224733253
 21
296.9869058855791
 31
0.0
  0
LINE
  5
C9
  8
1
  6
CONTINUOUS
 62
     7
 10
477.6649501145247
 20
283.3162420525164
 30
0.0
 11
477.6681573012777
 21
283.683749253255
 31
0.0
  0
LINE
  5
CA
  8
1
  6
CONTINUOUS
 62
     7
 10
474.7329336397498
 20
298.4999956888266
 30
0.0
 11
475.7974224905985
 21
298.4999956888266
 31
0.0
  0
LINE
  5
CB
  8
1
  6
CONTINUOUS
 62
     7
 10
459.2030748930877
 20
288.4999956888266
 30
0.0
 11
463.5300325335424
 21
288.4999956888266
 31
0.0
  0
LINE
  5
CC
  8
1
  6
CONTINUOUS
 62
     7
 10
458.6234385633859
 20
298.4999956888266
 30
0.0
 11
474.7329336397498
 21
298.4999956888266
 31
0.0
  0
LINE
  5
CD
  8
1
  6
CONTINUOUS
 62
     7
 10
442.6300325335424
 20
288.4999956888266
 30
0.0
 11
440.466553713315
 21
288.4999956888266
 31
0.0
  0
LINE
  5
CE
  8
1
  6
CONTINUOUS
 62
     7
 10
440.466553713315
 20
288.4999956888266
 30
0.0
 11
438.3030748930877
 21
288.4999956888266
 31
0.0
  0
LINE
  5
CF
  8
1
  6
CONTINUOUS
 62
     7
 10
435.5708790695496
 20
283.9956324210775
 30
0.0
 11
435.566553713315
 21
283.4999956888266
 31
0.0
  0
LINE
  5
D0
  8
1
  6
CONTINUOUS
 62
     7
 10
435.5708790695496
 20
283.9956324210774
 30
0.0
 11
435.6974567301764
 21
298.4999956888266
 31
0.0
  0
LINE
  5
D1
  8
1
  6
CONTINUOUS
 62
     7
 10
458.6234385633864
 20
298.4999956888266
 30
0.0
 11
435.6974567301764
 21
298.4999956888266
 31
0.0
  0
LINE
  5
D2
  8
1
  6
CONTINUOUS
 62
     7
 10
477.6620760464373
 20
282.9869058855791
 30
0.0
 11
477.6649499975069
 21
283.3162280591886
 31
0.0
  0
LINE
  5
D3
  8
1
  6
CONTINUOUS
 62
     7
 10
464.266553713315
 20
283.4999956888266
 30
0.0
 11
464.0293473009197
 21
288.026163666948
 31
0.0
  0
LINE
  5
D4
  8
1
  6
CONTINUOUS
 62
     7
 10
458.7037601257104
 20
288.026163666948
 30
0.0
 11
458.466553713315
 21
283.4999956888266
 31
0.0
  0
ARC
  5
D5
  8
1
  6
CONTINUOUS
 62
     7
 10
463.5300325335424
 20
287.9999956888266
 30
0.0
 40
0.4999999999999572
 50
2.999999999997127
 51
89.99999999999996
  0
ARC
  5
D6
  8
1
  6
CONTINUOUS
 62
     7
 10
459.2030748930877
 20
287.9999956888266
 30
0.0
 40
0.5000000000000004
 50
90.0
 51
177.0000000000028
  0
LINE
  5
D7
  8
1
  6
CONTINUOUS
 62
     7
 10
443.366553713315
 20
283.4999956888266
 30
0.0
 11
443.1293473009197
 21
288.026163666948
 31
0.0
  0
LINE
  5
D8
  8
1
  6
CONTINUOUS
 62
     7
 10
437.8037601257104
 20
288.026163666948
 30
0.0
 11
437.566553713315
 21
283.4999956888266
 31
0.0
  0
ARC
  5
D9
  8
1
  6
CONTINUOUS
 62
     7
 10
442.6300325335424
 20
287.9999956888266
 30
0.0
 40
0.5000000000000125
 50
2.999999999997127
 51
89.99999999999996
  0
ARC
  5
DA
  8
1
  6
CONTINUOUS
 62
     7
 10
438.3030748930877
 20
287.9999956888266
 30
0.0
 40
0.5000000000000004
 50
90.0
 51
177.0000000000028
  0
LINE
  5
DB
  8
1
  6
CONTINUOUS
 62
     7
 10
500.6666709778401
 20
315.6974567301763
 30
0.0
 11
500.6666709778401
 21
338.7429760393452
 31
0.0
  0
LINE
  5
DC
  8
1
  6
CONTINUOUS
 62
     7
 10
502.1797607810877
 20
315.6842521955079
 30
0.0
 11
500.6666709778401
 21
315.6974567301763
 31
0.0
  0
LINE
  5
DD
  8
1
  6
CONTINUOUS
 62
     7
 10
516.1797607810877
 20
315.5620760464373
 30
0.0
 11
502.1797607810877
 21
315.6842521955079
 31
0.0
  0
LINE
  5
DE
  8
1
  6
CONTINUOUS
 62
     7
 10
517.6666709778401
 20
338.713028751715
 30
0.0
 11
517.6666709778401
 21
315.5490999777331
 31
0.0
  0
LINE
  5
DF
  8
1
  6
CONTINUOUS
 62
     7
 10
517.6666709778401
 20
315.5490999777334
 30
0.0
 11
516.1797607810877
 21
315.5620760464373
 31
0.0
  0
LINE
  5
E0
  8
1
  6
CONTINUOUS
 62
     7
 10
500.6666709778401
 20
338.7429760393448
 30
0.0
 11
500.6666709778401
 21
355.2107934226697
 31
0.0
  0
LINE
  5
E1
  8
1
  6
CONTINUOUS
 62
     7
 10
517.6666709778401
 20
355.0908714309259
 30
0.0
 11
517.6666709778401
 21
338.713028751715
 31
0.0
  0
ARC
  5
E2
  8
1
  6
CONTINUOUS
 62
     7
 10
502.1666786994784
 20
356.2842740593586
 30
0.0
 40
1.500007721638637
 50
89.50029752849201
 51
179.9999588059647
  0
LINE
  5
E3
  8
1
  6
CONTINUOUS
 62
     7
 10
500.6666709778401
 20
356.2842751378211
 30
0.0
 11
500.6666709778401
 21
355.2107934226693
 31
0.0
  0
ARC
  5
E4
  8
1
  6
CONTINUOUS
 62
     7
 10
516.1666704002232
 20
356.1621325494774
 30
0.0
 40
1.5000005776169
 50
0.0000001736412558
 51
89.49997812837023
  0
LINE
  5
E5
  8
1
  6
CONTINUOUS
 62
     7
 10
517.6666709778401
 20
355.0908714309257
 30
0.0
 11
517.6666709778401
 21
356.1621331618409
 31
0.0
  0
LINE
  5
E6
  8
1
  6
CONTINUOUS
 62
     7
 10
515.4829174134085
 20
357.6681573012777
 30
0.0
 11
502.1797607810877
 21
357.784224733253
 31
0.0
  0
LINE
  5
E7
  8
1
  6
CONTINUOUS
 62
     7
 10
515.8504246141471
 20
357.6649501145247
 30
0.0
 11
515.4829174134085
 21
357.6681573012777
 31
0.0
  0
LINE
  5
E8
  8
1
  6
CONTINUOUS
 62
     7
 10
516.1797607810877
 20
357.6620760464373
 30
0.0
 11
515.8504386074749
 21
357.664949997507
 31
0.0
  0
TEXT
  5
E9
  8
1
  6
CONTINUOUS
 62
     7
 10
496.6691080821975
 20
289.371601850694
 30
0.0
 40
3.0
  1
RMGE-20
  0
LINE
  5
EA
  8
1
  6
________________
 62
     1
 10
435.566553713315
 20
341.366553713315
 30
0.0
 11
445.366553713315
 21
341.366553713315
 31
0.0
  0
LINE
  5
EC
  8
1
  6
________________
 62
     1
 10
471.6666666666667
 20
351.6666666666667
 30
0.0
 11
434.1666666666667
 21
314.1666666666666
 31
0.0
  0
LINE
  5
ED
  8
1
  6
________________
 62
     1
 10
440.466553713315
 20
336.466553713315
 30
0.0
 11
440.466553713315
 21
346.266553713315
 31
0.0
  0
LINE
  5
EE
  8
1
  6
________________
 62
     1
 10
456.466553713315
 20
320.466553713315
 30
0.0
 11
466.266553713315
 21
320.466553713315
 31
0.0
  0
LINE
  5
EF
  8
1
  6
________________
 62
     1
 10
461.366553713315
 20
315.566553713315
 30
0.0
 11
461.366553713315
 21
325.366553713315
 31
0.0
  0
ENDSEC
  0
EOF
