  0
SECTION
  2
HEADER
  9
$ACADVER
  1
AC1006
  9
$DWGCODEPAGE
  3
ansi_932
  9
$INSBASE
 10
0.0
 20
0.0
 30
0.0
  9
$EXTMIN
 10
-11.29218621338295
 20
312.55
  9
$EXTMAX
 10
314.2921862133829
 20
475.2960931066914
  9
$LIMMIN
 10
0.0
 20
0.0
  9
$LIMMAX
 10
12.0
 20
9.0
  9
$ORTHOMODE
 70
     0
  9
$REGENMODE
 70
     1
  9
$FILLMODE
 70
     1
  9
$QTEXTMODE
 70
     0
  9
$MIRRTEXT
 70
     1
  9
$DRAGMODE
 70
     2
  9
$LTSCALE
 40
1.0
  9
$OSMODE
 70
    37
  9
$ATTMODE
 70
     1
  9
$TEXTSIZE
 40
0.2
  9
$TRACEWID
 40
0.05
  9
$TEXTSTYLE
  7
STANDARD
  9
$CLAYER
  8
0
  9
$CELTYPE
  6
BYLAYER
  9
$CECOLOR
 62
   256
  9
$DIMSCALE
 40
1.0
  9
$DIMASZ
 40
3.0
  9
$DIMEXO
 40
0.0625
  9
$DIMDLI
 40
0.38
  9
$DIMRND
 40
0.0
  9
$DIMDLE
 40
0.0
  9
$DIMEXE
 40
1.5
  9
$DIMTP
 40
0.0
  9
$DIMTM
 40
0.0
  9
$DIMTXT
 40
3.0
  9
$DIMCEN
 40
0.09
  9
$DIMTSZ
 40
0.0
  9
$DIMTOL
 70
     0
  9
$DIMLIM
 70
     0
  9
$DIMTIH
 70
     1
  9
$DIMTOH
 70
     1
  9
$DIMSE1
 70
     0
  9
$DIMSE2
 70
     0
  9
$DIMTAD
 70
     1
  9
$DIMZIN
 70
     0
  9
$DIMBLK
  1

  9
$DIMASO
 70
     1
  9
$DIMSHO
 70
     1
  9
$DIMPOST
  1

  9
$DIMAPOST
  1

  9
$DIMALT
 70
     0
  9
$DIMALTD
 70
     2
  9
$DIMALTF
 40
25.4
  9
$DIMLFAC
 40
1.0
  9
$DIMTOFL
 70
     0
  9
$DIMTVP
 40
0.0
  9
$DIMTIX
 70
     0
  9
$DIMSOXD
 70
     0
  9
$DIMSAH
 70
     0
  9
$DIMBLK1
  1

  9
$DIMBLK2
  1

  9
$LUNITS
 70
     2
  9
$LUPREC
 70
     4
  9
$SKETCHINC
 40
0.1
  9
$FILLETRAD
 40
0.5
  9
$AUNITS
 70
     0
  9
$AUPREC
 70
     0
  9
$MENU
  1
.
  9
$ELEVATION
 40
0.0
  9
$THICKNESS
 40
0.0
  9
$LIMCHECK
 70
     0
  9
$CHAMFERA
 40
0.0
  9
$CHAMFERB
 40
0.0
  9
$SKPOLY
 70
     0
  9
$TDCREATE
 40
2460384.780805486
  9
$TDUPDATE
 40
2460384.780805775
  9
$TDINDWG
 40
0.0000000116
  9
$TDUSRTIMER
 40
0.0000000116
  9
$USRTIMER
 70
     1
  9
$ANGBASE
 50
0.0
  9
$ANGDIR
 70
     0
  9
$PDMODE
 70
     0
  9
$PDSIZE
 40
0.0
  9
$PLINEWID
 40
0.0
  9
$COORDS
 70
     1
  9
$SPLFRAME
 70
     0
  9
$SPLINETYPE
 70
     6
  9
$SPLINESEGS
 70
     8
  9
$ATTDIA
 70
     0
  9
$ATTREQ
 70
     1
  9
$HANDLING
 70
     1
  9
$HANDSEED
  5
548
  9
$SURFTAB1
 70
     6
  9
$SURFTAB2
 70
     6
  9
$SURFTYPE
 70
     6
  9
$SURFU
 70
     6
  9
$SURFV
 70
     6
  9
$UCSNAME
  2

  9
$UCSORG
 10
0.0
 20
0.0
 30
0.0
  9
$UCSXDIR
 10
1.0
 20
0.0
 30
0.0
  9
$UCSYDIR
 10
0.0
 20
1.0
 30
0.0
  9
$USERI1
 70
     0
  9
$USERI2
 70
     0
  9
$USERI3
 70
     0
  9
$USERI4
 70
     0
  9
$USERI5
 70
     0
  9
$USERR1
 40
0.0
  9
$USERR2
 40
0.0
  9
$USERR3
 40
0.0
  9
$USERR4
 40
0.0
  9
$USERR5
 40
0.0
  9
$WORLDVIEW
 70
     1
  0
ENDSEC
  0
SECTION
  2
TABLES
  0
TABLE
  2
VPORT
 70
     1
  0
VPORT
  2
*ACTIVE
 70
     0
 10
0.0
 20
0.0
 11
1.0
 21
1.0
 12
151.5
 22
393.9230465533457
 13
0.0
 23
0.0
 14
0.5
 24
0.5
 15
0.5
 25
0.5
 16
0.0
 26
0.0
 36
1.0
 17
0.0
 27
0.0
 37
0.0
 40
162.7460931066914
 41
1.6
 42
50.0
 43
0.0
 44
0.0
 50
0.0
 51
0.0
 71
     0
 72
   100
 73
     1
 74
     3
 75
     0
 76
     0
 77
     0
 78
     0
  0
ENDTAB
  0
TABLE
  2
LTYPE
 70
     2
  0
LTYPE
  2
CONTINUOUS
 70
     0
  3
Solid line
 72
    65
 73
     0
 40
0.0
  0
LTYPE
  2
________________
 70
     0
  3

 72
    65
 73
     4
 40
6.0
 49
2.25
 49
-1.5
 49
0.7499999999999999
 49
-1.5
  0
ENDTAB
  0
TABLE
  2
LAYER
 70
     2
  0
LAYER
  2
0
 70
     0
 62
     7
  6
CONTINUOUS
  0
LAYER
  2
1
 70
     0
 62
     7
  6
CONTINUOUS
  0
ENDTAB
  0
TABLE
  2
STYLE
 70
     2
  0
STYLE
  2
STANDARD
 70
     0
 40
0.0
 41
1.0
 50
0.0
 71
     0
 42
0.2
  3
txt
  4

  0
STYLE
  2
ＭＳ_ゴシック
 70
     0
 40
0.0
 41
1.0
 50
0.0
 71
     0
 42
0.2
  3
ＭＳ ゴシック.shx
  4

  0
ENDTAB
  0
TABLE
  2
VIEW
 70
     0
  0
ENDTAB
  0
TABLE
  2
UCS
 70
     0
  0
ENDTAB
  0
ENDSEC
  0
SECTION
  2
BLOCKS
  0
ENDSEC
  0
SECTION
  2
ENTITIES
  0
TEXT
  5
70
  8
1
  6
CONTINUOUS
 62
     7
 10
183.3606508690759
 20
351.6416187320245
 30
0.0
 40
3.0
  1
RMGI-20
  0
LINE
  5
71
  8
1
  6
________________
 62
     1
 10
249.292186213383
 20
445.5421862133828
 30
0.0
 11
249.292186213383
 21
453.5421862133828
 31
0.0
  0
LINE
  5
73
  8
1
  6
________________
 62
     1
 10
162.9539068933086
 20
475.2960931066914
 30
0.0
 11
113.4539068933085
 21
425.7960931066915
 31
0.0
  0
LINE
  5
74
  8
1
  6
CONTINUOUS
 62
     7
 10
122.4000800640642
 20
464.5421862133829
 30
0.0
 11
126.4033360682046
 21
464.5421862133826
 31
0.0
  0
ARC
  5
75
  8
1
  6
CONTINUOUS
 62
     7
 10
372.1999999999983
 20
474.5421862133876
 30
0.0
 40
245.9999999999985
 50
182.329738660436
 51
185.1292638889
  0
ARC
  5
76
  8
1
  6
CONTINUOUS
 62
     7
 10
150.8892461453777
 20
463.2314323587607
 30
0.0
 40
25.99999999999996
 50
204.2589370559132
 51
245.7410629440883
  0
ARC
  5
77
  8
1
  6
CONTINUOUS
 62
     7
 10
162.1999999999992
 20
684.5421862133805
 30
0.0
 40
245.9999999999975
 50
264.8707361111013
 51
267.6702613395652
  0
LINE
  5
78
  8
1
  6
CONTINUOUS
 62
     7
 10
152.2
 20
438.7455222815876
 30
0.0
 11
152.2000000000001
 21
434.742266277447
 31
0.0
  0
ARC
  5
79
  8
1
  6
CONTINUOUS
 62
     7
 10
162.1999999999998
 20
684.5421862133821
 30
0.0
 40
249.9999999999992
 50
264.7213238966791
 51
267.7075572240442
  0
ARC
  5
7A
  8
1
  6
CONTINUOUS
 62
     7
 10
150.8892461453779
 20
463.2314323587607
 30
0.0
 40
30.00000000000007
 50
202.9321967018487
 51
247.0678032981516
  0
ARC
  5
7B
  8
1
  6
CONTINUOUS
 62
     7
 10
372.1999999999983
 20
474.5421862133847
 30
0.0
 40
249.9999999999983
 50
182.2924427759563
 51
185.2786761033215
  0
LINE
  5
7C
  8
1
  6
________________
 62
     1
 10
245.292186213383
 20
449.5421862133828
 30
0.0
 11
253.292186213383
 21
449.5421862133828
 31
0.0
  0
LINE
  5
7D
  8
1
  6
________________
 62
     1
 10
36.7039068933086
 20
360.5460931066914
 30
0.0
 11
-10.79609310669145
 21
313.0460931066914
 31
0.0
  0
LINE
  5
7E
  8
1
  6
CONTINUOUS
 62
     7
 10
24.50447771841255
 20
322.5500000000002
 30
0.0
 11
28.50773372255302
 21
322.55
 31
0.0
  0
ARC
  5
7F
  8
1
  6
CONTINUOUS
 62
     7
 10
-221.2921862133829
 20
312.55
 30
0.0
 40
246.0
 50
2.329738660434941
 51
5.12926388889889
  0
ARC
  5
80
  8
1
  6
CONTINUOUS
 62
     7
 10
0.0185676412394128
 20
323.8607538546223
 30
0.0
 40
26.0
 50
24.25893705591131
 51
65.74106294408831
  0
ARC
  5
81
  8
1
  6
CONTINUOUS
 62
     7
 10
-11.2921862133829
 20
102.55
 30
0.0
 40
246.0
 50
84.87073611110132
 51
87.67026133956512
  0
LINE
  5
82
  8
1
  6
CONTINUOUS
 62
     7
 10
-1.292186213382889
 20
352.3499199359359
 30
0.0
 11
-1.292186213382889
 21
348.3466639317955
 31
0.0
  0
LINE
  5
83
  8
1
  6
CONTINUOUS
 62
     7
 10
2.694685407270181
 20
314.0543632677491
 30
0.0
 11
2.707813786617101
 21
312.55
 31
0.0
  0
LINE
  5
84
  8
1
  6
CONTINUOUS
 62
     7
 10
2.707813786617101
 20
312.55
 30
0.0
 11
1.707851863552927
 21
312.55
 31
0.0
  0
LINE
  5
85
  8
1
  6
CONTINUOUS
 62
     7
 10
-1.280820837132591
 20
313.8523431227344
 30
0.0
 11
0.0215222856018223
 21
312.55
 31
0.0
  0
LINE
  5
86
  8
1
  6
CONTINUOUS
 62
     7
 10
-1.279057834035976
 20
314.0543632677491
 30
0.0
 11
-1.280820837132591
 21
313.8523431227344
 31
0.0
  0
LINE
  5
87
  8
1
  6
CONTINUOUS
 62
     7
 10
0.021522285601823
 20
312.55
 30
0.0
 11
1.707851863552927
 21
312.55
 31
0.0
  0
LINE
  5
88
  8
1
  6
CONTINUOUS
 62
     7
 10
1.694723484206004
 20
314.55
 30
0.0
 11
2.194704445738093
 21
314.55
 31
0.0
  0
ARC
  5
89
  8
1
  6
CONTINUOUS
 62
     7
 10
2.194704445738094
 20
314.05
 30
0.0
 40
0.5000000000000004
 50
0.5
 51
90.0
  0
LINE
  5
8A
  8
1
  6
CONTINUOUS
 62
     7
 10
-1.274732477801381
 20
314.55
 30
0.0
 11
1.694723484206004
 21
314.55
 31
0.0
  0
LINE
  5
8B
  8
1
  6
CONTINUOUS
 62
     7
 10
-1.279057834035978
 20
314.0543632677491
 30
0.0
 11
-1.274732477801381
 21
314.55
 31
0.0
  0
LINE
  5
8C
  8
1
  6
CONTINUOUS
 62
     7
 10
-9.405711649984326
 20
325.5587265354984
 30
0.0
 11
-9.379454891290482
 21
322.55
 31
0.0
  0
LINE
  5
8D
  8
1
  6
CONTINUOUS
 62
     7
 10
-9.379454891290482
 20
322.55
 30
0.0
 11
-9.879435852822569
 21
322.55
 31
0.0
  0
LINE
  5
8E
  8
1
  6
CONTINUOUS
 62
     7
 10
-11.29218621338289
 20
323.8637084989847
 30
0.0
 11
-11.2921862133829
 21
325.5587265354984
 31
0.0
  0
LINE
  5
8F
  8
1
  6
CONTINUOUS
 62
     7
 10
-9.879435852822569
 20
322.55
 30
0.0
 11
-9.978477714398183
 21
322.55
 31
0.0
  0
LINE
  5
90
  8
1
  6
CONTINUOUS
 62
     7
 10
-9.978477714398183
 20
322.55
 30
0.0
 11
-11.29218621338289
 21
323.8637084989847
 31
0.0
  0
ARC
  5
91
  8
1
  6
CONTINUOUS
 62
     7
 10
-9.910017967751008
 20
326.05
 30
0.0
 40
0.5000000000000004
 50
0.5000000000001136
 51
90.0
  0
LINE
  5
92
  8
1
  6
CONTINUOUS
 62
     7
 10
-9.410037006218923
 20
326.0543632677492
 30
0.0
 11
-9.405711649984326
 21
325.5587265354984
 31
0.0
  0
LINE
  5
93
  8
1
  6
CONTINUOUS
 62
     7
 10
-11.29218621338289
 20
326.55
 30
0.0
 11
-9.910017967751008
 21
326.55
 31
0.0
  0
LINE
  5
94
  8
1
  6
CONTINUOUS
 62
     7
 10
-11.2921862133829
 20
325.5587265354984
 30
0.0
 11
-11.2921862133829
 21
326.55
 31
0.0
  0
LINE
  5
95
  8
1
  6
CONTINUOUS
 62
     7
 10
23.20781378661711
 20
313.55
 30
0.0
 11
23.23234762378082
 21
313.5493977281026
 31
0.0
  0
LINE
  5
96
  8
1
  6
CONTINUOUS
 62
     7
 10
23.23234762378082
 20
313.5493977281026
 30
0.0
 11
23.25682235678189
 21
313.547592363336
 31
0.0
  0
LINE
  5
97
  8
1
  6
CONTINUOUS
 62
     7
 10
23.25682235678189
 20
313.547592363336
 30
0.0
 11
23.28117902384479
 21
313.5445882549824
 31
0.0
  0
LINE
  5
98
  8
1
  6
CONTINUOUS
 62
     7
 10
23.28117902384479
 20
313.5445882549824
 30
0.0
 11
23.30535894762518
 21
313.5403926402016
 31
0.0
  0
LINE
  5
99
  8
1
  6
CONTINUOUS
 62
     7
 10
23.30535894762518
 20
313.5403926402016
 30
0.0
 11
23.32930387656874
 21
313.5350156265972
 31
0.0
  0
LINE
  5
9A
  8
1
  6
CONTINUOUS
 62
     7
 10
23.32930387656874
 20
313.5350156265972
 30
0.0
 11
23.35295612524434
 21
313.5284701678661
 31
0.0
  0
LINE
  5
9B
  8
1
  6
CONTINUOUS
 62
     7
 10
23.35295612524434
 20
313.5284701678661
 30
0.0
 11
23.37625871331322
 21
313.5207720325915
 31
0.0
  0
LINE
  5
9C
  8
1
  6
CONTINUOUS
 62
     7
 10
23.37625871331322
 20
313.5207720325915
 30
0.0
 11
23.39915550279965
 21
313.5119397662556
 31
0.0
  0
LINE
  5
9D
  8
1
  6
CONTINUOUS
 62
     7
 10
23.39915550279965
 20
313.5119397662556
 30
0.0
 11
23.42159133333226
 21
313.5019946465617
 31
0.0
  0
LINE
  5
9E
  8
1
  6
CONTINUOUS
 62
     7
 10
23.42159133333226
 20
313.5019946465617
 30
0.0
 11
23.44351215503011
 21
313.4909606321742
 31
0.0
  0
LINE
  5
9F
  8
1
  6
CONTINUOUS
 62
     7
 10
23.44351215503011
 20
313.4909606321742
 30
0.0
 11
23.46486515871372
 21
313.4788643050001
 31
0.0
  0
LINE
  5
A0
  8
1
  6
CONTINUOUS
 62
     7
 10
23.46486515871372
 20
313.4788643050001
 30
0.0
 11
23.48559890312692
 21
313.4657348061513
 31
0.0
  0
LINE
  5
A1
  8
1
  6
CONTINUOUS
 62
     7
 10
23.48559890312692
 20
313.4657348061513
 30
0.0
 11
23.50566343886333
 21
313.4516037657403
 31
0.0
  0
LINE
  5
A2
  8
1
  6
CONTINUOUS
 62
     7
 10
23.50566343886333
 20
313.4516037657403
 30
0.0
 11
23.52501042869894
 21
313.4365052266814
 31
0.0
  0
LINE
  5
A3
  8
1
  6
CONTINUOUS
 62
     7
 10
23.52501042869894
 20
313.4365052266814
 30
0.0
 11
23.54359326404062
 21
313.4204755626775
 31
0.0
  0
LINE
  5
A4
  8
1
  6
CONTINUOUS
 62
     7
 10
23.54359326404062
 20
313.4204755626775
 30
0.0
 11
23.56136717721039
 21
313.4035533905933
 31
0.0
  0
LINE
  5
A5
  8
1
  6
CONTINUOUS
 62
     7
 10
23.56136717721039
 20
313.4035533905933
 30
0.0
 11
23.5782893492946
 21
313.3857794774235
 31
0.0
  0
LINE
  5
A6
  8
1
  6
CONTINUOUS
 62
     7
 10
23.5782893492946
 20
313.3857794774235
 30
0.0
 11
23.59431901329848
 21
313.3671966420818
 31
0.0
  0
LINE
  5
A7
  8
1
  6
CONTINUOUS
 62
     7
 10
23.59431901329848
 20
313.3671966420818
 30
0.0
 11
23.60941755235744
 21
313.3478496522462
 31
0.0
  0
LINE
  5
A8
  8
1
  6
CONTINUOUS
 62
     7
 10
23.60941755235744
 20
313.3478496522462
 30
0.0
 11
23.62354859276838
 21
313.3277851165097
 31
0.0
  0
LINE
  5
A9
  8
1
  6
CONTINUOUS
 62
     7
 10
23.62354859276838
 20
313.3277851165097
 30
0.0
 11
23.63667809161725
 21
313.3070513720966
 31
0.0
  0
LINE
  5
AA
  8
1
  6
CONTINUOUS
 62
     7
 10
23.63667809161725
 20
313.3070513720966
 30
0.0
 11
23.64877441879129
 21
313.285698368413
 31
0.0
  0
LINE
  5
AB
  8
1
  6
CONTINUOUS
 62
     7
 10
23.64877441879129
 20
313.285698368413
 30
0.0
 11
23.65980843317884
 21
313.2637775467151
 31
0.0
  0
LINE
  5
AC
  8
1
  6
CONTINUOUS
 62
     7
 10
23.65980843317884
 20
313.2637775467151
 30
0.0
 11
23.66975355287276
 21
313.2413417161825
 31
0.0
  0
LINE
  5
AD
  8
1
  6
CONTINUOUS
 62
     7
 10
23.66975355287276
 20
313.2413417161825
 30
0.0
 11
23.67858581920862
 21
313.2184449266961
 31
0.0
  0
LINE
  5
AE
  8
1
  6
CONTINUOUS
 62
     7
 10
23.67858581920862
 20
313.2184449266961
 30
0.0
 11
23.68628395448322
 21
313.1951423386272
 31
0.0
  0
LINE
  5
AF
  8
1
  6
CONTINUOUS
 62
     7
 10
23.68628395448322
 20
313.1951423386272
 30
0.0
 11
23.69282941321438
 21
313.1714900899516
 31
0.0
  0
LINE
  5
B0
  8
1
  6
CONTINUOUS
 62
     7
 10
23.69282941321438
 20
313.1714900899516
 30
0.0
 11
23.69820642681873
 21
313.1475451610081
 31
0.0
  0
LINE
  5
B1
  8
1
  6
CONTINUOUS
 62
     7
 10
23.69820642681873
 20
313.1475451610081
 30
0.0
 11
23.70240204159951
 21
313.1233652372277
 31
0.0
  0
LINE
  5
B2
  8
1
  6
CONTINUOUS
 62
     7
 10
23.70240204159951
 20
313.1233652372277
 30
0.0
 11
23.70540614995321
 21
313.0990085701648
 31
0.0
  0
LINE
  5
B3
  8
1
  6
CONTINUOUS
 62
     7
 10
23.70540614995321
 20
313.0990085701648
 30
0.0
 11
23.7072115147197
 21
313.0745338371637
 31
0.0
  0
LINE
  5
B4
  8
1
  6
CONTINUOUS
 62
     7
 10
23.7072115147197
 20
313.0745338371637
 30
0.0
 11
23.70781378661711
 21
313.05
 31
0.0
  0
LINE
  5
B5
  8
1
  6
CONTINUOUS
 62
     7
 10
22.20781378661711
 20
313.55
 30
0.0
 11
23.20781378661711
 21
313.55
 31
0.0
  0
LINE
  5
B6
  8
1
  6
CONTINUOUS
 62
     7
 10
21.70781378661711
 20
313.05
 30
0.0
 11
21.70841605851453
 21
313.0745338371637
 31
0.0
  0
LINE
  5
B7
  8
1
  6
CONTINUOUS
 62
     7
 10
21.70841605851453
 20
313.0745338371637
 30
0.0
 11
21.71022142328102
 21
313.0990085701648
 31
0.0
  0
LINE
  5
B8
  8
1
  6
CONTINUOUS
 62
     7
 10
21.71022142328102
 20
313.0990085701648
 30
0.0
 11
21.71322553163472
 21
313.1233652372277
 31
0.0
  0
LINE
  5
B9
  8
1
  6
CONTINUOUS
 62
     7
 10
21.71322553163472
 20
313.1233652372277
 30
0.0
 11
21.7174211464155
 21
313.1475451610081
 31
0.0
  0
LINE
  5
BA
  8
1
  6
CONTINUOUS
 62
     7
 10
21.7174211464155
 20
313.1475451610081
 30
0.0
 11
21.72279816001984
 21
313.1714900899516
 31
0.0
  0
LINE
  5
BB
  8
1
  6
CONTINUOUS
 62
     7
 10
21.72279816001984
 20
313.1714900899516
 30
0.0
 11
21.72934361875101
 21
313.1951423386272
 31
0.0
  0
LINE
  5
BC
  8
1
  6
CONTINUOUS
 62
     7
 10
21.72934361875101
 20
313.1951423386272
 30
0.0
 11
21.7370417540256
 21
313.2184449266961
 31
0.0
  0
LINE
  5
BD
  8
1
  6
CONTINUOUS
 62
     7
 10
21.7370417540256
 20
313.2184449266961
 30
0.0
 11
21.74587402036147
 21
313.2413417161825
 31
0.0
  0
LINE
  5
BE
  8
1
  6
CONTINUOUS
 62
     7
 10
21.74587402036147
 20
313.2413417161825
 30
0.0
 11
21.75581914005539
 21
313.2637775467151
 31
0.0
  0
LINE
  5
BF
  8
1
  6
CONTINUOUS
 62
     7
 10
21.75581914005539
 20
313.2637775467151
 30
0.0
 11
21.76685315444293
 21
313.285698368413
 31
0.0
  0
LINE
  5
C0
  8
1
  6
CONTINUOUS
 62
     7
 10
21.76685315444293
 20
313.285698368413
 30
0.0
 11
21.77894948161697
 21
313.3070513720966
 31
0.0
  0
LINE
  5
C1
  8
1
  6
CONTINUOUS
 62
     7
 10
21.77894948161697
 20
313.3070513720966
 30
0.0
 11
21.79207898046584
 21
313.3277851165097
 31
0.0
  0
LINE
  5
C2
  8
1
  6
CONTINUOUS
 62
     7
 10
21.79207898046584
 20
313.3277851165097
 30
0.0
 11
21.80621002087679
 21
313.3478496522462
 31
0.0
  0
LINE
  5
C3
  8
1
  6
CONTINUOUS
 62
     7
 10
21.80621002087679
 20
313.3478496522462
 30
0.0
 11
21.82130855993574
 21
313.3671966420818
 31
0.0
  0
LINE
  5
C4
  8
1
  6
CONTINUOUS
 62
     7
 10
21.82130855993574
 20
313.3671966420818
 30
0.0
 11
21.83733822393964
 21
313.3857794774235
 31
0.0
  0
LINE
  5
C5
  8
1
  6
CONTINUOUS
 62
     7
 10
21.83733822393964
 20
313.3857794774235
 30
0.0
 11
21.85426039602384
 21
313.4035533905933
 31
0.0
  0
LINE
  5
C6
  8
1
  6
CONTINUOUS
 62
     7
 10
21.85426039602384
 20
313.4035533905933
 30
0.0
 11
21.8720343091936
 21
313.4204755626775
 31
0.0
  0
LINE
  5
C7
  8
1
  6
CONTINUOUS
 62
     7
 10
21.8720343091936
 20
313.4204755626775
 30
0.0
 11
21.89061714453529
 21
313.4365052266814
 31
0.0
  0
LINE
  5
C8
  8
1
  6
CONTINUOUS
 62
     7
 10
21.89061714453529
 20
313.4365052266814
 30
0.0
 11
21.90996413437089
 21
313.4516037657403
 31
0.0
  0
LINE
  5
C9
  8
1
  6
CONTINUOUS
 62
     7
 10
21.90996413437089
 20
313.4516037657403
 30
0.0
 11
21.93002867010731
 21
313.4657348061513
 31
0.0
  0
LINE
  5
CA
  8
1
  6
CONTINUOUS
 62
     7
 10
21.93002867010731
 20
313.4657348061513
 30
0.0
 11
21.9507624145205
 21
313.4788643050001
 31
0.0
  0
LINE
  5
CB
  8
1
  6
CONTINUOUS
 62
     7
 10
21.9507624145205
 20
313.4788643050001
 30
0.0
 11
21.97211541820411
 21
313.4909606321742
 31
0.0
  0
LINE
  5
CC
  8
1
  6
CONTINUOUS
 62
     7
 10
21.97211541820411
 20
313.4909606321742
 30
0.0
 11
21.99403623990197
 21
313.5019946465617
 31
0.0
  0
LINE
  5
CD
  8
1
  6
CONTINUOUS
 62
     7
 10
21.99403623990197
 20
313.5019946465617
 30
0.0
 11
22.01647207043457
 21
313.5119397662556
 31
0.0
  0
LINE
  5
CE
  8
1
  6
CONTINUOUS
 62
     7
 10
22.01647207043457
 20
313.5119397662556
 30
0.0
 11
22.039368859921
 21
313.5207720325915
 31
0.0
  0
LINE
  5
CF
  8
1
  6
CONTINUOUS
 62
     7
 10
22.039368859921
 20
313.5207720325915
 30
0.0
 11
22.06267144798988
 21
313.5284701678661
 31
0.0
  0
LINE
  5
D0
  8
1
  6
CONTINUOUS
 62
     7
 10
22.06267144798988
 20
313.5284701678661
 30
0.0
 11
22.08632369666548
 21
313.5350156265972
 31
0.0
  0
LINE
  5
D1
  8
1
  6
CONTINUOUS
 62
     7
 10
22.08632369666548
 20
313.5350156265972
 30
0.0
 11
22.11026862560905
 21
313.5403926402016
 31
0.0
  0
LINE
  5
D2
  8
1
  6
CONTINUOUS
 62
     7
 10
22.11026862560905
 20
313.5403926402016
 30
0.0
 11
22.13444854938943
 21
313.5445882549824
 31
0.0
  0
LINE
  5
D3
  8
1
  6
CONTINUOUS
 62
     7
 10
22.13444854938943
 20
313.5445882549824
 30
0.0
 11
22.15880521645233
 21
313.547592363336
 31
0.0
  0
LINE
  5
D4
  8
1
  6
CONTINUOUS
 62
     7
 10
22.15880521645233
 20
313.547592363336
 30
0.0
 11
22.1832799494534
 21
313.5493977281026
 31
0.0
  0
LINE
  5
D5
  8
1
  6
CONTINUOUS
 62
     7
 10
22.1832799494534
 20
313.5493977281026
 30
0.0
 11
22.20781378661711
 21
313.55
 31
0.0
  0
LINE
  5
D6
  8
1
  6
CONTINUOUS
 62
     7
 10
5.2078137866171
 20
313.55
 30
0.0
 11
5.23234762378081
 21
313.5493977281026
 31
0.0
  0
LINE
  5
D7
  8
1
  6
CONTINUOUS
 62
     7
 10
5.23234762378081
 20
313.5493977281026
 30
0.0
 11
5.256822356781879
 21
313.547592363336
 31
0.0
  0
LINE
  5
D8
  8
1
  6
CONTINUOUS
 62
     7
 10
5.256822356781879
 20
313.547592363336
 30
0.0
 11
5.28117902384478
 21
313.5445882549824
 31
0.0
  0
LINE
  5
D9
  8
1
  6
CONTINUOUS
 62
     7
 10
5.28117902384478
 20
313.5445882549824
 30
0.0
 11
5.305358947625165
 21
313.5403926402016
 31
0.0
  0
LINE
  5
DA
  8
1
  6
CONTINUOUS
 62
     7
 10
5.305358947625165
 20
313.5403926402016
 30
0.0
 11
5.329303876568731
 21
313.5350156265972
 31
0.0
  0
LINE
  5
DB
  8
1
  6
CONTINUOUS
 62
     7
 10
5.329303876568731
 20
313.5350156265972
 30
0.0
 11
5.352956125244331
 21
313.5284701678661
 31
0.0
  0
LINE
  5
DC
  8
1
  6
CONTINUOUS
 62
     7
 10
5.352956125244331
 20
313.5284701678661
 30
0.0
 11
5.376258713313208
 21
313.5207720325915
 31
0.0
  0
LINE
  5
DD
  8
1
  6
CONTINUOUS
 62
     7
 10
5.376258713313208
 20
313.5207720325915
 30
0.0
 11
5.399155502799645
 21
313.5119397662556
 31
0.0
  0
LINE
  5
DE
  8
1
  6
CONTINUOUS
 62
     7
 10
5.399155502799645
 20
313.5119397662556
 30
0.0
 11
5.42159133333224
 21
313.5019946465617
 31
0.0
  0
LINE
  5
DF
  8
1
  6
CONTINUOUS
 62
     7
 10
5.42159133333224
 20
313.5019946465617
 30
0.0
 11
5.443512155030097
 21
313.4909606321742
 31
0.0
  0
LINE
  5
E0
  8
1
  6
CONTINUOUS
 62
     7
 10
5.443512155030097
 20
313.4909606321742
 30
0.0
 11
5.464865158713711
 21
313.4788643050001
 31
0.0
  0
LINE
  5
E1
  8
1
  6
CONTINUOUS
 62
     7
 10
5.464865158713711
 20
313.4788643050001
 30
0.0
 11
5.485598903126901
 21
313.4657348061513
 31
0.0
  0
LINE
  5
E2
  8
1
  6
CONTINUOUS
 62
     7
 10
5.485598903126901
 20
313.4657348061513
 30
0.0
 11
5.505663438863318
 21
313.4516037657403
 31
0.0
  0
LINE
  5
E3
  8
1
  6
CONTINUOUS
 62
     7
 10
5.505663438863318
 20
313.4516037657403
 30
0.0
 11
5.525010428698923
 21
313.4365052266814
 31
0.0
  0
LINE
  5
E4
  8
1
  6
CONTINUOUS
 62
     7
 10
5.525010428698923
 20
313.4365052266814
 30
0.0
 11
5.543593264040608
 21
313.4204755626775
 31
0.0
  0
LINE
  5
E5
  8
1
  6
CONTINUOUS
 62
     7
 10
5.543593264040608
 20
313.4204755626775
 30
0.0
 11
5.561367177210372
 21
313.4035533905933
 31
0.0
  0
LINE
  5
E6
  8
1
  6
CONTINUOUS
 62
     7
 10
5.561367177210372
 20
313.4035533905933
 30
0.0
 11
5.57828934929458
 21
313.3857794774235
 31
0.0
  0
LINE
  5
E7
  8
1
  6
CONTINUOUS
 62
     7
 10
5.57828934929458
 20
313.3857794774235
 30
0.0
 11
5.594319013298467
 21
313.3671966420818
 31
0.0
  0
LINE
  5
E8
  8
1
  6
CONTINUOUS
 62
     7
 10
5.594319013298467
 20
313.3671966420818
 30
0.0
 11
5.609417552357422
 21
313.3478496522462
 31
0.0
  0
LINE
  5
E9
  8
1
  6
CONTINUOUS
 62
     7
 10
5.609417552357422
 20
313.3478496522462
 30
0.0
 11
5.623548592768372
 21
313.3277851165097
 31
0.0
  0
LINE
  5
EA
  8
1
  6
CONTINUOUS
 62
     7
 10
5.623548592768372
 20
313.3277851165097
 30
0.0
 11
5.636678091617237
 21
313.3070513720966
 31
0.0
  0
LINE
  5
EB
  8
1
  6
CONTINUOUS
 62
     7
 10
5.636678091617237
 20
313.3070513720966
 30
0.0
 11
5.648774418791279
 21
313.285698368413
 31
0.0
  0
LINE
  5
EC
  8
1
  6
CONTINUOUS
 62
     7
 10
5.648774418791279
 20
313.285698368413
 30
0.0
 11
5.659808433178822
 21
313.2637775467151
 31
0.0
  0
LINE
  5
ED
  8
1
  6
CONTINUOUS
 62
     7
 10
5.659808433178822
 20
313.2637775467151
 30
0.0
 11
5.669753552872743
 21
313.2413417161825
 31
0.0
  0
LINE
  5
EE
  8
1
  6
CONTINUOUS
 62
     7
 10
5.669753552872743
 20
313.2413417161825
 30
0.0
 11
5.67858581920861
 21
313.2184449266961
 31
0.0
  0
LINE
  5
EF
  8
1
  6
CONTINUOUS
 62
     7
 10
5.67858581920861
 20
313.2184449266961
 30
0.0
 11
5.686283954483205
 21
313.1951423386272
 31
0.0
  0
LINE
  5
F0
  8
1
  6
CONTINUOUS
 62
     7
 10
5.686283954483205
 20
313.1951423386272
 30
0.0
 11
5.692829413214373
 21
313.1714900899516
 31
0.0
  0
LINE
  5
F1
  8
1
  6
CONTINUOUS
 62
     7
 10
5.692829413214373
 20
313.1714900899516
 30
0.0
 11
5.698206426818716
 21
313.1475451610081
 31
0.0
  0
LINE
  5
F2
  8
1
  6
CONTINUOUS
 62
     7
 10
5.698206426818716
 20
313.1475451610081
 30
0.0
 11
5.70240204159949
 21
313.1233652372277
 31
0.0
  0
LINE
  5
F3
  8
1
  6
CONTINUOUS
 62
     7
 10
5.70240204159949
 20
313.1233652372277
 30
0.0
 11
5.705406149953198
 21
313.0990085701648
 31
0.0
  0
LINE
  5
F4
  8
1
  6
CONTINUOUS
 62
     7
 10
5.705406149953198
 20
313.0990085701648
 30
0.0
 11
5.707211514719687
 21
313.0745338371637
 31
0.0
  0
LINE
  5
F5
  8
1
  6
CONTINUOUS
 62
     7
 10
5.707211514719687
 20
313.0745338371637
 30
0.0
 11
5.7078137866171
 21
313.05
 31
0.0
  0
LINE
  5
F6
  8
1
  6
CONTINUOUS
 62
     7
 10
4.207813786617103
 20
313.55
 30
0.0
 11
5.2078137866171
 21
313.55
 31
0.0
  0
LINE
  5
F7
  8
1
  6
CONTINUOUS
 62
     7
 10
3.7078137866171
 20
313.05
 30
0.0
 11
3.708416058514515
 21
313.0745338371637
 31
0.0
  0
LINE
  5
F8
  8
1
  6
CONTINUOUS
 62
     7
 10
3.708416058514515
 20
313.0745338371637
 30
0.0
 11
3.710221423281002
 21
313.0990085701648
 31
0.0
  0
LINE
  5
F9
  8
1
  6
CONTINUOUS
 62
     7
 10
3.710221423281002
 20
313.0990085701648
 30
0.0
 11
3.71322553163471
 21
313.1233652372277
 31
0.0
  0
LINE
  5
FA
  8
1
  6
CONTINUOUS
 62
     7
 10
3.71322553163471
 20
313.1233652372277
 30
0.0
 11
3.717421146415486
 21
313.1475451610081
 31
0.0
  0
LINE
  5
FB
  8
1
  6
CONTINUOUS
 62
     7
 10
3.717421146415486
 20
313.1475451610081
 30
0.0
 11
3.722798160019828
 21
313.1714900899516
 31
0.0
  0
LINE
  5
FC
  8
1
  6
CONTINUOUS
 62
     7
 10
3.722798160019828
 20
313.1714900899516
 30
0.0
 11
3.729343618750996
 21
313.1951423386272
 31
0.0
  0
LINE
  5
FD
  8
1
  6
CONTINUOUS
 62
     7
 10
3.729343618750996
 20
313.1951423386272
 30
0.0
 11
3.73704175402559
 21
313.2184449266961
 31
0.0
  0
LINE
  5
FE
  8
1
  6
CONTINUOUS
 62
     7
 10
3.73704175402559
 20
313.2184449266961
 30
0.0
 11
3.745874020361457
 21
313.2413417161825
 31
0.0
  0
LINE
  5
FF
  8
1
  6
CONTINUOUS
 62
     7
 10
3.745874020361457
 20
313.2413417161825
 30
0.0
 11
3.755819140055379
 21
313.2637775467151
 31
0.0
  0
LINE
  5
100
  8
1
  6
CONTINUOUS
 62
     7
 10
3.755819140055379
 20
313.2637775467151
 30
0.0
 11
3.766853154442923
 21
313.285698368413
 31
0.0
  0
LINE
  5
101
  8
1
  6
CONTINUOUS
 62
     7
 10
3.766853154442923
 20
313.285698368413
 30
0.0
 11
3.778949481616965
 21
313.3070513720966
 31
0.0
  0
LINE
  5
102
  8
1
  6
CONTINUOUS
 62
     7
 10
3.778949481616965
 20
313.3070513720966
 30
0.0
 11
3.792078980465827
 21
313.3277851165097
 31
0.0
  0
LINE
  5
103
  8
1
  6
CONTINUOUS
 62
     7
 10
3.792078980465827
 20
313.3277851165097
 30
0.0
 11
3.806210020876779
 21
313.3478496522462
 31
0.0
  0
LINE
  5
104
  8
1
  6
CONTINUOUS
 62
     7
 10
3.806210020876779
 20
313.3478496522462
 30
0.0
 11
3.821308559935732
 21
313.3671966420818
 31
0.0
  0
LINE
  5
105
  8
1
  6
CONTINUOUS
 62
     7
 10
3.821308559935732
 20
313.3671966420818
 30
0.0
 11
3.837338223939621
 21
313.3857794774235
 31
0.0
  0
LINE
  5
106
  8
1
  6
CONTINUOUS
 62
     7
 10
3.837338223939621
 20
313.3857794774235
 30
0.0
 11
3.854260396023827
 21
313.4035533905933
 31
0.0
  0
LINE
  5
107
  8
1
  6
CONTINUOUS
 62
     7
 10
3.854260396023827
 20
313.4035533905933
 30
0.0
 11
3.87203430919359
 21
313.4204755626775
 31
0.0
  0
LINE
  5
108
  8
1
  6
CONTINUOUS
 62
     7
 10
3.87203430919359
 20
313.4204755626775
 30
0.0
 11
3.890617144535279
 21
313.4365052266814
 31
0.0
  0
LINE
  5
109
  8
1
  6
CONTINUOUS
 62
     7
 10
3.890617144535279
 20
313.4365052266814
 30
0.0
 11
3.909964134370884
 21
313.4516037657403
 31
0.0
  0
LINE
  5
10A
  8
1
  6
CONTINUOUS
 62
     7
 10
3.909964134370884
 20
313.4516037657403
 30
0.0
 11
3.9300286701073
 21
313.4657348061513
 31
0.0
  0
LINE
  5
10B
  8
1
  6
CONTINUOUS
 62
     7
 10
3.9300286701073
 20
313.4657348061513
 30
0.0
 11
3.950762414520489
 21
313.4788643050001
 31
0.0
  0
LINE
  5
10C
  8
1
  6
CONTINUOUS
 62
     7
 10
3.950762414520489
 20
313.4788643050001
 30
0.0
 11
3.972115418204103
 21
313.4909606321742
 31
0.0
  0
LINE
  5
10D
  8
1
  6
CONTINUOUS
 62
     7
 10
3.972115418204103
 20
313.4909606321742
 30
0.0
 11
3.99403623990196
 21
313.5019946465617
 31
0.0
  0
LINE
  5
10E
  8
1
  6
CONTINUOUS
 62
     7
 10
3.99403623990196
 20
313.5019946465617
 30
0.0
 11
4.016472070434555
 21
313.5119397662556
 31
0.0
  0
LINE
  5
10F
  8
1
  6
CONTINUOUS
 62
     7
 10
4.016472070434555
 20
313.5119397662556
 30
0.0
 11
4.03936885992099
 21
313.5207720325915
 31
0.0
  0
LINE
  5
110
  8
1
  6
CONTINUOUS
 62
     7
 10
4.03936885992099
 20
313.5207720325915
 30
0.0
 11
4.062671447989869
 21
313.5284701678661
 31
0.0
  0
LINE
  5
111
  8
1
  6
CONTINUOUS
 62
     7
 10
4.062671447989869
 20
313.5284701678661
 30
0.0
 11
4.086323696665469
 21
313.5350156265972
 31
0.0
  0
LINE
  5
112
  8
1
  6
CONTINUOUS
 62
     7
 10
4.086323696665469
 20
313.5350156265972
 30
0.0
 11
4.110268625609037
 21
313.5403926402016
 31
0.0
  0
LINE
  5
113
  8
1
  6
CONTINUOUS
 62
     7
 10
4.110268625609037
 20
313.5403926402016
 30
0.0
 11
4.13444854938942
 21
313.5445882549824
 31
0.0
  0
LINE
  5
114
  8
1
  6
CONTINUOUS
 62
     7
 10
4.13444854938942
 20
313.5445882549824
 30
0.0
 11
4.158805216452321
 21
313.547592363336
 31
0.0
  0
LINE
  5
115
  8
1
  6
CONTINUOUS
 62
     7
 10
4.158805216452321
 20
313.547592363336
 30
0.0
 11
4.183279949453392
 21
313.5493977281026
 31
0.0
  0
LINE
  5
116
  8
1
  6
CONTINUOUS
 62
     7
 10
4.183279949453392
 20
313.5493977281026
 30
0.0
 11
4.207813786617101
 21
313.55
 31
0.0
  0
LINE
  5
117
  8
1
  6
CONTINUOUS
 62
     7
 10
-11.29218621338289
 20
327.55
 30
0.0
 11
-10.79218621338289
 21
327.55
 31
0.0
  0
LINE
  5
118
  8
1
  6
CONTINUOUS
 62
     7
 10
-10.29218621338289
 20
328.05
 30
0.0
 11
-10.2927884852803
 21
328.0254661628362
 31
0.0
  0
LINE
  5
119
  8
1
  6
CONTINUOUS
 62
     7
 10
-10.2927884852803
 20
328.0254661628362
 30
0.0
 11
-10.29459385004679
 21
328.0009914298352
 31
0.0
  0
LINE
  5
11A
  8
1
  6
CONTINUOUS
 62
     7
 10
-10.29459385004679
 20
328.0009914298352
 30
0.0
 11
-10.2975979584005
 21
327.9766347627723
 31
0.0
  0
LINE
  5
11B
  8
1
  6
CONTINUOUS
 62
     7
 10
-10.2975979584005
 20
327.9766347627723
 30
0.0
 11
-10.30179357318127
 21
327.9524548389919
 31
0.0
  0
LINE
  5
11C
  8
1
  6
CONTINUOUS
 62
     7
 10
-10.30179357318127
 20
327.9524548389919
 30
0.0
 11
-10.30717058678562
 21
327.9285099100483
 31
0.0
  0
LINE
  5
11D
  8
1
  6
CONTINUOUS
 62
     7
 10
-10.30717058678562
 20
327.9285099100483
 30
0.0
 11
-10.31371604551678
 21
327.9048576613727
 31
0.0
  0
LINE
  5
11E
  8
1
  6
CONTINUOUS
 62
     7
 10
-10.31371604551678
 20
327.9048576613727
 30
0.0
 11
-10.32141418079138
 21
327.8815550733038
 31
0.0
  0
LINE
  5
11F
  8
1
  6
CONTINUOUS
 62
     7
 10
-10.32141418079138
 20
327.8815550733038
 30
0.0
 11
-10.33024644712724
 21
327.8586582838174
 31
0.0
  0
LINE
  5
120
  8
1
  6
CONTINUOUS
 62
     7
 10
-10.33024644712724
 20
327.8586582838174
 30
0.0
 11
-10.34019156682117
 21
327.8362224532848
 31
0.0
  0
LINE
  5
121
  8
1
  6
CONTINUOUS
 62
     7
 10
-10.34019156682117
 20
327.8362224532848
 30
0.0
 11
-10.35122558120871
 21
327.814301631587
 31
0.0
  0
LINE
  5
122
  8
1
  6
CONTINUOUS
 62
     7
 10
-10.35122558120871
 20
327.814301631587
 30
0.0
 11
-10.36332190838275
 21
327.7929486279033
 31
0.0
  0
LINE
  5
123
  8
1
  6
CONTINUOUS
 62
     7
 10
-10.36332190838275
 20
327.7929486279033
 30
0.0
 11
-10.37645140723161
 21
327.7722148834902
 31
0.0
  0
LINE
  5
124
  8
1
  6
CONTINUOUS
 62
     7
 10
-10.37645140723161
 20
327.7722148834902
 30
0.0
 11
-10.39058244764257
 21
327.7521503477537
 31
0.0
  0
LINE
  5
125
  8
1
  6
CONTINUOUS
 62
     7
 10
-10.39058244764257
 20
327.7521503477537
 30
0.0
 11
-10.40568098670152
 21
327.7328033579182
 31
0.0
  0
LINE
  5
126
  8
1
  6
CONTINUOUS
 62
     7
 10
-10.40568098670152
 20
327.7328033579182
 30
0.0
 11
-10.42171065070541
 21
327.7142205225765
 31
0.0
  0
LINE
  5
127
  8
1
  6
CONTINUOUS
 62
     7
 10
-10.42171065070541
 20
327.7142205225765
 30
0.0
 11
-10.43863282278961
 21
327.6964466094067
 31
0.0
  0
LINE
  5
128
  8
1
  6
CONTINUOUS
 62
     7
 10
-10.43863282278961
 20
327.6964466094067
 30
0.0
 11
-10.45640673595938
 21
327.6795244373225
 31
0.0
  0
LINE
  5
129
  8
1
  6
CONTINUOUS
 62
     7
 10
-10.45640673595938
 20
327.6795244373225
 30
0.0
 11
-10.47498957130106
 21
327.6634947733186
 31
0.0
  0
LINE
  5
12A
  8
1
  6
CONTINUOUS
 62
     7
 10
-10.47498957130106
 20
327.6634947733186
 30
0.0
 11
-10.49433656113667
 21
327.6483962342596
 31
0.0
  0
LINE
  5
12B
  8
1
  6
CONTINUOUS
 62
     7
 10
-10.49433656113667
 20
327.6483962342596
 30
0.0
 11
-10.51440109687308
 21
327.6342651938487
 31
0.0
  0
LINE
  5
12C
  8
1
  6
CONTINUOUS
 62
     7
 10
-10.51440109687308
 20
327.6342651938487
 30
0.0
 11
-10.53513484128628
 21
327.6211356949999
 31
0.0
  0
LINE
  5
12D
  8
1
  6
CONTINUOUS
 62
     7
 10
-10.53513484128628
 20
327.6211356949999
 30
0.0
 11
-10.55648784496989
 21
327.6090393678257
 31
0.0
  0
LINE
  5
12E
  8
1
  6
CONTINUOUS
 62
     7
 10
-10.55648784496989
 20
327.6090393678257
 30
0.0
 11
-10.57840866666775
 21
327.5980053534382
 31
0.0
  0
LINE
  5
12F
  8
1
  6
CONTINUOUS
 62
     7
 10
-10.57840866666775
 20
327.5980053534382
 30
0.0
 11
-10.60084449720034
 21
327.5880602337443
 31
0.0
  0
LINE
  5
130
  8
1
  6
CONTINUOUS
 62
     7
 10
-10.60084449720034
 20
327.5880602337443
 30
0.0
 11
-10.62374128668678
 21
327.5792279674084
 31
0.0
  0
LINE
  5
131
  8
1
  6
CONTINUOUS
 62
     7
 10
-10.62374128668678
 20
327.5792279674084
 30
0.0
 11
-10.64704387475566
 21
327.5715298321338
 31
0.0
  0
LINE
  5
132
  8
1
  6
CONTINUOUS
 62
     7
 10
-10.64704387475566
 20
327.5715298321338
 30
0.0
 11
-10.67069612343125
 21
327.5649843734027
 31
0.0
  0
LINE
  5
133
  8
1
  6
CONTINUOUS
 62
     7
 10
-10.67069612343125
 20
327.5649843734027
 30
0.0
 11
-10.69464105237482
 21
327.5596073597983
 31
0.0
  0
LINE
  5
134
  8
1
  6
CONTINUOUS
 62
     7
 10
-10.69464105237482
 20
327.5596073597983
 30
0.0
 11
-10.71882097615521
 21
327.5554117450176
 31
0.0
  0
LINE
  5
135
  8
1
  6
CONTINUOUS
 62
     7
 10
-10.71882097615521
 20
327.5554117450176
 30
0.0
 11
-10.74317764321811
 21
327.5524076366639
 31
0.0
  0
LINE
  5
136
  8
1
  6
CONTINUOUS
 62
     7
 10
-10.74317764321811
 20
327.5524076366639
 30
0.0
 11
-10.76765237621918
 21
327.5506022718973
 31
0.0
  0
LINE
  5
137
  8
1
  6
CONTINUOUS
 62
     7
 10
-10.76765237621918
 20
327.5506022718973
 30
0.0
 11
-10.79218621338289
 21
327.55
 31
0.0
  0
LINE
  5
138
  8
1
  6
CONTINUOUS
 62
     7
 10
-10.29218621338289
 20
328.05
 30
0.0
 11
-10.29218621338289
 21
329.05
 31
0.0
  0
LINE
  5
139
  8
1
  6
CONTINUOUS
 62
     7
 10
-10.79218621338289
 20
329.55
 30
0.0
 11
-10.76765237621918
 21
329.5493977281025
 31
0.0
  0
LINE
  5
13A
  8
1
  6
CONTINUOUS
 62
     7
 10
-10.76765237621918
 20
329.5493977281025
 30
0.0
 11
-10.74317764321811
 21
329.5475923633361
 31
0.0
  0
LINE
  5
13B
  8
1
  6
CONTINUOUS
 62
     7
 10
-10.74317764321811
 20
329.5475923633361
 30
0.0
 11
-10.71882097615521
 21
329.5445882549823
 31
0.0
  0
LINE
  5
13C
  8
1
  6
CONTINUOUS
 62
     7
 10
-10.71882097615521
 20
329.5445882549823
 30
0.0
 11
-10.69464105237483
 21
329.5403926402016
 31
0.0
  0
LINE
  5
13D
  8
1
  6
CONTINUOUS
 62
     7
 10
-10.69464105237483
 20
329.5403926402016
 30
0.0
 11
-10.67069612343126
 21
329.5350156265973
 31
0.0
  0
LINE
  5
13E
  8
1
  6
CONTINUOUS
 62
     7
 10
-10.67069612343126
 20
329.5350156265973
 30
0.0
 11
-10.64704387475566
 21
329.5284701678661
 31
0.0
  0
LINE
  5
13F
  8
1
  6
CONTINUOUS
 62
     7
 10
-10.64704387475566
 20
329.5284701678661
 30
0.0
 11
-10.62374128668678
 21
329.5207720325914
 31
0.0
  0
LINE
  5
140
  8
1
  6
CONTINUOUS
 62
     7
 10
-10.62374128668678
 20
329.5207720325914
 30
0.0
 11
-10.60084449720035
 21
329.5119397662556
 31
0.0
  0
LINE
  5
141
  8
1
  6
CONTINUOUS
 62
     7
 10
-10.60084449720035
 20
329.5119397662556
 30
0.0
 11
-10.57840866666775
 21
329.5019946465617
 31
0.0
  0
LINE
  5
142
  8
1
  6
CONTINUOUS
 62
     7
 10
-10.57840866666775
 20
329.5019946465617
 30
0.0
 11
-10.55648784496989
 21
329.4909606321742
 31
0.0
  0
LINE
  5
143
  8
1
  6
CONTINUOUS
 62
     7
 10
-10.55648784496989
 20
329.4909606321742
 30
0.0
 11
-10.53513484128628
 21
329.4788643050001
 31
0.0
  0
LINE
  5
144
  8
1
  6
CONTINUOUS
 62
     7
 10
-10.53513484128628
 20
329.4788643050001
 30
0.0
 11
-10.51440109687309
 21
329.4657348061512
 31
0.0
  0
LINE
  5
145
  8
1
  6
CONTINUOUS
 62
     7
 10
-10.51440109687309
 20
329.4657348061512
 30
0.0
 11
-10.49433656113667
 21
329.4516037657403
 31
0.0
  0
LINE
  5
146
  8
1
  6
CONTINUOUS
 62
     7
 10
-10.49433656113667
 20
329.4516037657403
 30
0.0
 11
-10.47498957130107
 21
329.4365052266813
 31
0.0
  0
LINE
  5
147
  8
1
  6
CONTINUOUS
 62
     7
 10
-10.47498957130107
 20
329.4365052266813
 30
0.0
 11
-10.45640673595938
 21
329.4204755626774
 31
0.0
  0
LINE
  5
148
  8
1
  6
CONTINUOUS
 62
     7
 10
-10.45640673595938
 20
329.4204755626774
 30
0.0
 11
-10.43863282278962
 21
329.4035533905932
 31
0.0
  0
LINE
  5
149
  8
1
  6
CONTINUOUS
 62
     7
 10
-10.43863282278962
 20
329.4035533905932
 30
0.0
 11
-10.42171065070541
 21
329.3857794774235
 31
0.0
  0
LINE
  5
14A
  8
1
  6
CONTINUOUS
 62
     7
 10
-10.42171065070541
 20
329.3857794774235
 30
0.0
 11
-10.40568098670152
 21
329.3671966420818
 31
0.0
  0
LINE
  5
14B
  8
1
  6
CONTINUOUS
 62
     7
 10
-10.40568098670152
 20
329.3671966420818
 30
0.0
 11
-10.39058244764257
 21
329.3478496522462
 31
0.0
  0
LINE
  5
14C
  8
1
  6
CONTINUOUS
 62
     7
 10
-10.39058244764257
 20
329.3478496522462
 30
0.0
 11
-10.37645140723162
 21
329.3277851165098
 31
0.0
  0
LINE
  5
14D
  8
1
  6
CONTINUOUS
 62
     7
 10
-10.37645140723162
 20
329.3277851165098
 30
0.0
 11
-10.36332190838275
 21
329.3070513720966
 31
0.0
  0
LINE
  5
14E
  8
1
  6
CONTINUOUS
 62
     7
 10
-10.36332190838275
 20
329.3070513720966
 30
0.0
 11
-10.35122558120871
 21
329.285698368413
 31
0.0
  0
LINE
  5
14F
  8
1
  6
CONTINUOUS
 62
     7
 10
-10.35122558120871
 20
329.285698368413
 30
0.0
 11
-10.34019156682117
 21
329.2637775467151
 31
0.0
  0
LINE
  5
150
  8
1
  6
CONTINUOUS
 62
     7
 10
-10.34019156682117
 20
329.2637775467151
 30
0.0
 11
-10.33024644712725
 21
329.2413417161825
 31
0.0
  0
LINE
  5
151
  8
1
  6
CONTINUOUS
 62
     7
 10
-10.33024644712725
 20
329.2413417161825
 30
0.0
 11
-10.32141418079138
 21
329.2184449266961
 31
0.0
  0
LINE
  5
152
  8
1
  6
CONTINUOUS
 62
     7
 10
-10.32141418079138
 20
329.2184449266961
 30
0.0
 11
-10.31371604551678
 21
329.1951423386272
 31
0.0
  0
LINE
  5
153
  8
1
  6
CONTINUOUS
 62
     7
 10
-10.31371604551678
 20
329.1951423386272
 30
0.0
 11
-10.30717058678562
 21
329.1714900899516
 31
0.0
  0
LINE
  5
154
  8
1
  6
CONTINUOUS
 62
     7
 10
-10.30717058678562
 20
329.1714900899516
 30
0.0
 11
-10.30179357318127
 21
329.147545161008
 31
0.0
  0
LINE
  5
155
  8
1
  6
CONTINUOUS
 62
     7
 10
-10.30179357318127
 20
329.147545161008
 30
0.0
 11
-10.2975979584005
 21
329.1233652372276
 31
0.0
  0
LINE
  5
156
  8
1
  6
CONTINUOUS
 62
     7
 10
-10.2975979584005
 20
329.1233652372276
 30
0.0
 11
-10.29459385004679
 21
329.0990085701647
 31
0.0
  0
LINE
  5
157
  8
1
  6
CONTINUOUS
 62
     7
 10
-10.29459385004679
 20
329.0990085701647
 30
0.0
 11
-10.2927884852803
 21
329.0745338371636
 31
0.0
  0
LINE
  5
158
  8
1
  6
CONTINUOUS
 62
     7
 10
-10.2927884852803
 20
329.0745338371636
 30
0.0
 11
-10.29218621338289
 21
329.05
 31
0.0
  0
LINE
  5
159
  8
1
  6
CONTINUOUS
 62
     7
 10
-10.79218621338289
 20
329.55
 30
0.0
 11
-11.29218621338289
 21
329.55
 31
0.0
  0
LINE
  5
15A
  8
1
  6
CONTINUOUS
 62
     7
 10
-11.29218621338289
 20
345.55
 30
0.0
 11
-11.29218621338289
 21
329.55
 31
0.0
  0
LINE
  5
15B
  8
1
  6
CONTINUOUS
 62
     7
 10
-10.79218621338289
 20
345.55
 30
0.0
 11
-11.29218621338289
 21
345.55
 31
0.0
  0
LINE
  5
15C
  8
1
  6
CONTINUOUS
 62
     7
 10
-10.29218621338289
 20
346.05
 30
0.0
 11
-10.2927884852803
 21
346.0254661628363
 31
0.0
  0
LINE
  5
15D
  8
1
  6
CONTINUOUS
 62
     7
 10
-10.2927884852803
 20
346.0254661628363
 30
0.0
 11
-10.29459385004679
 21
346.0009914298352
 31
0.0
  0
LINE
  5
15E
  8
1
  6
CONTINUOUS
 62
     7
 10
-10.29459385004679
 20
346.0009914298352
 30
0.0
 11
-10.2975979584005
 21
345.9766347627723
 31
0.0
  0
LINE
  5
15F
  8
1
  6
CONTINUOUS
 62
     7
 10
-10.2975979584005
 20
345.9766347627723
 30
0.0
 11
-10.30179357318127
 21
345.9524548389919
 31
0.0
  0
LINE
  5
160
  8
1
  6
CONTINUOUS
 62
     7
 10
-10.30179357318127
 20
345.9524548389919
 30
0.0
 11
-10.30717058678561
 21
345.9285099100484
 31
0.0
  0
LINE
  5
161
  8
1
  6
CONTINUOUS
 62
     7
 10
-10.30717058678561
 20
345.9285099100484
 30
0.0
 11
-10.31371604551678
 21
345.9048576613727
 31
0.0
  0
LINE
  5
162
  8
1
  6
CONTINUOUS
 62
     7
 10
-10.31371604551678
 20
345.9048576613727
 30
0.0
 11
-10.32141418079138
 21
345.8815550733038
 31
0.0
  0
LINE
  5
163
  8
1
  6
CONTINUOUS
 62
     7
 10
-10.32141418079138
 20
345.8815550733038
 30
0.0
 11
-10.33024644712724
 21
345.8586582838174
 31
0.0
  0
LINE
  5
164
  8
1
  6
CONTINUOUS
 62
     7
 10
-10.33024644712724
 20
345.8586582838174
 30
0.0
 11
-10.34019156682117
 21
345.8362224532848
 31
0.0
  0
LINE
  5
165
  8
1
  6
CONTINUOUS
 62
     7
 10
-10.34019156682117
 20
345.8362224532848
 30
0.0
 11
-10.35122558120871
 21
345.814301631587
 31
0.0
  0
LINE
  5
166
  8
1
  6
CONTINUOUS
 62
     7
 10
-10.35122558120871
 20
345.814301631587
 30
0.0
 11
-10.36332190838275
 21
345.7929486279034
 31
0.0
  0
LINE
  5
167
  8
1
  6
CONTINUOUS
 62
     7
 10
-10.36332190838275
 20
345.7929486279034
 30
0.0
 11
-10.37645140723161
 21
345.7722148834902
 31
0.0
  0
LINE
  5
168
  8
1
  6
CONTINUOUS
 62
     7
 10
-10.37645140723161
 20
345.7722148834902
 30
0.0
 11
-10.39058244764256
 21
345.7521503477537
 31
0.0
  0
LINE
  5
169
  8
1
  6
CONTINUOUS
 62
     7
 10
-10.39058244764256
 20
345.7521503477537
 30
0.0
 11
-10.40568098670152
 21
345.7328033579182
 31
0.0
  0
LINE
  5
16A
  8
1
  6
CONTINUOUS
 62
     7
 10
-10.40568098670152
 20
345.7328033579182
 30
0.0
 11
-10.42171065070541
 21
345.7142205225765
 31
0.0
  0
LINE
  5
16B
  8
1
  6
CONTINUOUS
 62
     7
 10
-10.42171065070541
 20
345.7142205225765
 30
0.0
 11
-10.43863282278961
 21
345.6964466094067
 31
0.0
  0
LINE
  5
16C
  8
1
  6
CONTINUOUS
 62
     7
 10
-10.43863282278961
 20
345.6964466094067
 30
0.0
 11
-10.45640673595938
 21
345.6795244373225
 31
0.0
  0
LINE
  5
16D
  8
1
  6
CONTINUOUS
 62
     7
 10
-10.45640673595938
 20
345.6795244373225
 30
0.0
 11
-10.47498957130107
 21
345.6634947733186
 31
0.0
  0
LINE
  5
16E
  8
1
  6
CONTINUOUS
 62
     7
 10
-10.47498957130107
 20
345.6634947733186
 30
0.0
 11
-10.49433656113667
 21
345.6483962342596
 31
0.0
  0
LINE
  5
16F
  8
1
  6
CONTINUOUS
 62
     7
 10
-10.49433656113667
 20
345.6483962342596
 30
0.0
 11
-10.51440109687309
 21
345.6342651938487
 31
0.0
  0
LINE
  5
170
  8
1
  6
CONTINUOUS
 62
     7
 10
-10.51440109687309
 20
345.6342651938487
 30
0.0
 11
-10.53513484128628
 21
345.6211356949999
 31
0.0
  0
LINE
  5
171
  8
1
  6
CONTINUOUS
 62
     7
 10
-10.53513484128628
 20
345.6211356949999
 30
0.0
 11
-10.55648784496989
 21
345.6090393678257
 31
0.0
  0
LINE
  5
172
  8
1
  6
CONTINUOUS
 62
     7
 10
-10.55648784496989
 20
345.6090393678257
 30
0.0
 11
-10.57840866666775
 21
345.5980053534383
 31
0.0
  0
LINE
  5
173
  8
1
  6
CONTINUOUS
 62
     7
 10
-10.57840866666775
 20
345.5980053534383
 30
0.0
 11
-10.60084449720035
 21
345.5880602337443
 31
0.0
  0
LINE
  5
174
  8
1
  6
CONTINUOUS
 62
     7
 10
-10.60084449720035
 20
345.5880602337443
 30
0.0
 11
-10.62374128668678
 21
345.5792279674085
 31
0.0
  0
LINE
  5
175
  8
1
  6
CONTINUOUS
 62
     7
 10
-10.62374128668678
 20
345.5792279674085
 30
0.0
 11
-10.64704387475566
 21
345.5715298321338
 31
0.0
  0
LINE
  5
176
  8
1
  6
CONTINUOUS
 62
     7
 10
-10.64704387475566
 20
345.5715298321338
 30
0.0
 11
-10.67069612343126
 21
345.5649843734027
 31
0.0
  0
LINE
  5
177
  8
1
  6
CONTINUOUS
 62
     7
 10
-10.67069612343126
 20
345.5649843734027
 30
0.0
 11
-10.69464105237483
 21
345.5596073597983
 31
0.0
  0
LINE
  5
178
  8
1
  6
CONTINUOUS
 62
     7
 10
-10.69464105237483
 20
345.5596073597983
 30
0.0
 11
-10.71882097615521
 21
345.5554117450176
 31
0.0
  0
LINE
  5
179
  8
1
  6
CONTINUOUS
 62
     7
 10
-10.71882097615521
 20
345.5554117450176
 30
0.0
 11
-10.74317764321811
 21
345.5524076366639
 31
0.0
  0
LINE
  5
17A
  8
1
  6
CONTINUOUS
 62
     7
 10
-10.74317764321811
 20
345.5524076366639
 30
0.0
 11
-10.76765237621919
 21
345.5506022718974
 31
0.0
  0
LINE
  5
17B
  8
1
  6
CONTINUOUS
 62
     7
 10
-10.76765237621919
 20
345.5506022718974
 30
0.0
 11
-10.7921862133829
 21
345.55
 31
0.0
  0
LINE
  5
17C
  8
1
  6
CONTINUOUS
 62
     7
 10
-10.29218621338289
 20
347.05
 30
0.0
 11
-10.29218621338289
 21
346.05
 31
0.0
  0
LINE
  5
17D
  8
1
  6
CONTINUOUS
 62
     7
 10
-10.79218621338289
 20
347.55
 30
0.0
 11
-10.76765237621918
 21
347.5493977281026
 31
0.0
  0
LINE
  5
17E
  8
1
  6
CONTINUOUS
 62
     7
 10
-10.76765237621918
 20
347.5493977281026
 30
0.0
 11
-10.74317764321811
 21
347.5475923633361
 31
0.0
  0
LINE
  5
17F
  8
1
  6
CONTINUOUS
 62
     7
 10
-10.74317764321811
 20
347.5475923633361
 30
0.0
 11
-10.71882097615521
 21
347.5445882549823
 31
0.0
  0
LINE
  5
180
  8
1
  6
CONTINUOUS
 62
     7
 10
-10.71882097615521
 20
347.5445882549823
 30
0.0
 11
-10.69464105237483
 21
347.5403926402016
 31
0.0
  0
LINE
  5
181
  8
1
  6
CONTINUOUS
 62
     7
 10
-10.69464105237483
 20
347.5403926402016
 30
0.0
 11
-10.67069612343126
 21
347.5350156265973
 31
0.0
  0
LINE
  5
182
  8
1
  6
CONTINUOUS
 62
     7
 10
-10.67069612343126
 20
347.5350156265973
 30
0.0
 11
-10.64704387475566
 21
347.5284701678661
 31
0.0
  0
LINE
  5
183
  8
1
  6
CONTINUOUS
 62
     7
 10
-10.64704387475566
 20
347.5284701678661
 30
0.0
 11
-10.62374128668678
 21
347.5207720325915
 31
0.0
  0
LINE
  5
184
  8
1
  6
CONTINUOUS
 62
     7
 10
-10.62374128668678
 20
347.5207720325915
 30
0.0
 11
-10.60084449720035
 21
347.5119397662556
 31
0.0
  0
LINE
  5
185
  8
1
  6
CONTINUOUS
 62
     7
 10
-10.60084449720035
 20
347.5119397662556
 30
0.0
 11
-10.57840866666775
 21
347.5019946465617
 31
0.0
  0
LINE
  5
186
  8
1
  6
CONTINUOUS
 62
     7
 10
-10.57840866666775
 20
347.5019946465617
 30
0.0
 11
-10.55648784496989
 21
347.4909606321742
 31
0.0
  0
LINE
  5
187
  8
1
  6
CONTINUOUS
 62
     7
 10
-10.55648784496989
 20
347.4909606321742
 30
0.0
 11
-10.53513484128628
 21
347.4788643050001
 31
0.0
  0
LINE
  5
188
  8
1
  6
CONTINUOUS
 62
     7
 10
-10.53513484128628
 20
347.4788643050001
 30
0.0
 11
-10.51440109687309
 21
347.4657348061512
 31
0.0
  0
LINE
  5
189
  8
1
  6
CONTINUOUS
 62
     7
 10
-10.51440109687309
 20
347.4657348061512
 30
0.0
 11
-10.49433656113667
 21
347.4516037657403
 31
0.0
  0
LINE
  5
18A
  8
1
  6
CONTINUOUS
 62
     7
 10
-10.49433656113667
 20
347.4516037657403
 30
0.0
 11
-10.47498957130107
 21
347.4365052266813
 31
0.0
  0
LINE
  5
18B
  8
1
  6
CONTINUOUS
 62
     7
 10
-10.47498957130107
 20
347.4365052266813
 30
0.0
 11
-10.45640673595938
 21
347.4204755626774
 31
0.0
  0
LINE
  5
18C
  8
1
  6
CONTINUOUS
 62
     7
 10
-10.45640673595938
 20
347.4204755626774
 30
0.0
 11
-10.43863282278962
 21
347.4035533905932
 31
0.0
  0
LINE
  5
18D
  8
1
  6
CONTINUOUS
 62
     7
 10
-10.43863282278962
 20
347.4035533905932
 30
0.0
 11
-10.42171065070541
 21
347.3857794774235
 31
0.0
  0
LINE
  5
18E
  8
1
  6
CONTINUOUS
 62
     7
 10
-10.42171065070541
 20
347.3857794774235
 30
0.0
 11
-10.40568098670152
 21
347.3671966420818
 31
0.0
  0
LINE
  5
18F
  8
1
  6
CONTINUOUS
 62
     7
 10
-10.40568098670152
 20
347.3671966420818
 30
0.0
 11
-10.39058244764257
 21
347.3478496522462
 31
0.0
  0
LINE
  5
190
  8
1
  6
CONTINUOUS
 62
     7
 10
-10.39058244764257
 20
347.3478496522462
 30
0.0
 11
-10.37645140723162
 21
347.3277851165098
 31
0.0
  0
LINE
  5
191
  8
1
  6
CONTINUOUS
 62
     7
 10
-10.37645140723162
 20
347.3277851165098
 30
0.0
 11
-10.36332190838275
 21
347.3070513720966
 31
0.0
  0
LINE
  5
192
  8
1
  6
CONTINUOUS
 62
     7
 10
-10.36332190838275
 20
347.3070513720966
 30
0.0
 11
-10.35122558120871
 21
347.285698368413
 31
0.0
  0
LINE
  5
193
  8
1
  6
CONTINUOUS
 62
     7
 10
-10.35122558120871
 20
347.285698368413
 30
0.0
 11
-10.34019156682117
 21
347.2637775467151
 31
0.0
  0
LINE
  5
194
  8
1
  6
CONTINUOUS
 62
     7
 10
-10.34019156682117
 20
347.2637775467151
 30
0.0
 11
-10.33024644712725
 21
347.2413417161825
 31
0.0
  0
LINE
  5
195
  8
1
  6
CONTINUOUS
 62
     7
 10
-10.33024644712725
 20
347.2413417161825
 30
0.0
 11
-10.32141418079138
 21
347.2184449266961
 31
0.0
  0
LINE
  5
196
  8
1
  6
CONTINUOUS
 62
     7
 10
-10.32141418079138
 20
347.2184449266961
 30
0.0
 11
-10.31371604551678
 21
347.1951423386272
 31
0.0
  0
LINE
  5
197
  8
1
  6
CONTINUOUS
 62
     7
 10
-10.31371604551678
 20
347.1951423386272
 30
0.0
 11
-10.30717058678561
 21
347.1714900899516
 31
0.0
  0
LINE
  5
198
  8
1
  6
CONTINUOUS
 62
     7
 10
-10.30717058678561
 20
347.1714900899516
 30
0.0
 11
-10.30179357318127
 21
347.1475451610081
 31
0.0
  0
LINE
  5
199
  8
1
  6
CONTINUOUS
 62
     7
 10
-10.30179357318127
 20
347.1475451610081
 30
0.0
 11
-10.2975979584005
 21
347.1233652372276
 31
0.0
  0
LINE
  5
19A
  8
1
  6
CONTINUOUS
 62
     7
 10
-10.2975979584005
 20
347.1233652372276
 30
0.0
 11
-10.29459385004679
 21
347.0990085701648
 31
0.0
  0
LINE
  5
19B
  8
1
  6
CONTINUOUS
 62
     7
 10
-10.29459385004679
 20
347.0990085701648
 30
0.0
 11
-10.2927884852803
 21
347.0745338371637
 31
0.0
  0
LINE
  5
19C
  8
1
  6
CONTINUOUS
 62
     7
 10
-10.2927884852803
 20
347.0745338371637
 30
0.0
 11
-10.29218621338289
 21
347.05
 31
0.0
  0
LINE
  5
19D
  8
1
  6
CONTINUOUS
 62
     7
 10
-11.29218621338289
 20
347.55
 30
0.0
 11
-10.79218621338289
 21
347.55
 31
0.0
  0
LINE
  5
19E
  8
1
  6
CONTINUOUS
 62
     7
 10
-11.29218621338289
 20
352.35
 30
0.0
 11
-11.29218621338289
 21
347.55
 31
0.0
  0
LINE
  5
19F
  8
1
  6
CONTINUOUS
 62
     7
 10
-6.792186213382887
 20
352.35
 30
0.0
 11
-11.29218621338289
 21
352.35
 31
0.0
  0
LINE
  5
1A0
  8
1
  6
CONTINUOUS
 62
     7
 10
3.7078137866171
 20
312.55
 30
0.0
 11
3.707813786617102
 21
313.05
 31
0.0
  0
LINE
  5
1A1
  8
1
  6
CONTINUOUS
 62
     7
 10
21.70781378661711
 20
312.55
 30
0.0
 11
21.70781378661711
 21
313.05
 31
0.0
  0
LINE
  5
1A2
  8
1
  6
CONTINUOUS
 62
     7
 10
28.5078137866171
 20
312.55
 30
0.0
 11
23.70781378661711
 21
312.55
 31
0.0
  0
LINE
  5
1A3
  8
1
  6
CONTINUOUS
 62
     7
 10
23.70781378661711
 20
313.05
 30
0.0
 11
23.70781378661711
 21
312.55
 31
0.0
  0
LINE
  5
1A4
  8
1
  6
CONTINUOUS
 62
     7
 10
5.7078137866171
 20
313.05
 30
0.0
 11
5.7078137866171
 21
312.55
 31
0.0
  0
LINE
  5
1A5
  8
1
  6
CONTINUOUS
 62
     7
 10
28.4685048038979
 20
317.0543632677492
 30
0.0
 11
28.5078137866171
 21
312.55
 31
0.0
  0
LINE
  5
1A6
  8
1
  6
CONTINUOUS
 62
     7
 10
21.70781378661711
 20
312.55
 30
0.0
 11
5.7078137866171
 21
312.55
 31
0.0
  0
LINE
  5
1A7
  8
1
  6
CONTINUOUS
 62
     7
 10
-11.29218621338289
 20
327.55
 30
0.0
 11
-11.29218621338289
 21
326.55
 31
0.0
  0
LINE
  5
1A8
  8
1
  6
CONTINUOUS
 62
     7
 10
-1.280820837132591
 20
313.8523431227344
 30
0.0
 11
-9.978477714398183
 21
322.55
 31
0.0
  0
LINE
  5
1A9
  8
1
  6
CONTINUOUS
 62
     7
 10
3.7078137866171
 20
312.55
 30
0.0
 11
2.707813786617101
 21
312.55
 31
0.0
  0
LINE
  5
1AA
  8
1
  6
CONTINUOUS
 62
     7
 10
2.092590097467314
 20
317.55
 30
0.0
 11
27.9685238423658
 21
317.55
 31
0.0
  0
LINE
  5
1AB
  8
1
  6
CONTINUOUS
 62
     7
 10
28.4685048038979
 20
317.0543632677492
 30
0.0
 11
28.46769631974567
 21
317.0787547878874
 31
0.0
  0
LINE
  5
1AC
  8
1
  6
CONTINUOUS
 62
     7
 10
28.46769631974567
 20
317.0787547878874
 30
0.0
 11
28.46569860728047
 21
317.1030778026303
 31
0.0
  0
LINE
  5
1AD
  8
1
  6
CONTINUOUS
 62
     7
 10
28.46569860728047
 20
317.1030778026303
 30
0.0
 11
28.46251642585167
 21
317.127274364837
 31
0.0
  0
LINE
  5
1AE
  8
1
  6
CONTINUOUS
 62
     7
 10
28.46251642585167
 20
317.127274364837
 30
0.0
 11
28.45815735668704
 21
317.1512868286276
 31
0.0
  0
LINE
  5
1AF
  8
1
  6
CONTINUOUS
 62
     7
 10
28.45815735668704
 20
317.1512868286276
 30
0.0
 11
28.45263178483125
 21
317.1750579867177
 31
0.0
  0
LINE
  5
1B0
  8
1
  6
CONTINUOUS
 62
     7
 10
28.45263178483125
 20
317.1750579867177
 30
0.0
 11
28.4459528744045
 21
317.1985312067096
 31
0.0
  0
LINE
  5
1B1
  8
1
  6
CONTINUOUS
 62
     7
 10
28.4459528744045
 20
317.1985312067096
 30
0.0
 11
28.43813653724036
 21
317.2216505660132
 31
0.0
  0
LINE
  5
1B2
  8
1
  6
CONTINUOUS
 62
     7
 10
28.43813653724036
 20
317.2216505660132
 30
0.0
 11
28.4292013949774
 21
317.2443609850762
 31
0.0
  0
LINE
  5
1B3
  8
1
  6
CONTINUOUS
 62
     7
 10
28.4292013949774
 20
317.2443609850762
 30
0.0
 11
28.41916873469503
 21
317.2666083586051
 31
0.0
  0
LINE
  5
1B4
  8
1
  6
CONTINUOUS
 62
     7
 10
28.41916873469503
 20
317.2666083586051
 30
0.0
 11
28.40806245819912
 21
317.2883396844659
 31
0.0
  0
LINE
  5
1B5
  8
1
  6
CONTINUOUS
 62
     7
 10
28.40806245819912
 20
317.2883396844659
 30
0.0
 11
28.39590902507843
 21
317.3095031899567
 31
0.0
  0
LINE
  5
1B6
  8
1
  6
CONTINUOUS
 62
     7
 10
28.39590902507843
 20
317.3095031899567
 30
0.0
 11
28.38273738966721
 21
317.3300484551502
 31
0.0
  0
LINE
  5
1B7
  8
1
  6
CONTINUOUS
 62
     7
 10
28.38273738966721
 20
317.3300484551502
 30
0.0
 11
28.36857893206448
 21
317.3499265330146
 31
0.0
  0
LINE
  5
1B8
  8
1
  6
CONTINUOUS
 62
     7
 10
28.36857893206448
 20
317.3499265330146
 30
0.0
 11
28.35346738337403
 21
317.3690900660253
 31
0.0
  0
LINE
  5
1B9
  8
1
  6
CONTINUOUS
 62
     7
 10
28.35346738337403
 20
317.3690900660253
 30
0.0
 11
28.3374387453435
 21
317.3874933989887
 31
0.0
  0
LINE
  5
1BA
  8
1
  6
CONTINUOUS
 62
     7
 10
28.3374387453435
 20
317.3874933989887
 30
0.0
 11
28.3205312045938
 21
317.4050926878116
 31
0.0
  0
LINE
  5
1BB
  8
1
  6
CONTINUOUS
 62
     7
 10
28.3205312045938
 20
317.4050926878116
 30
0.0
 11
28.30278504164333
 21
317.4218460039554
 31
0.0
  0
LINE
  5
1BC
  8
1
  6
CONTINUOUS
 62
     7
 10
28.30278504164333
 20
317.4218460039554
 30
0.0
 11
28.28424253494369
 21
317.437713434326
 31
0.0
  0
LINE
  5
1BD
  8
1
  6
CONTINUOUS
 62
     7
 10
28.28424253494369
 20
317.437713434326
 30
0.0
 11
28.26494786015555
 21
317.452657176364
 31
0.0
  0
LINE
  5
1BE
  8
1
  6
CONTINUOUS
 62
     7
 10
28.26494786015555
 20
317.452657176364
 30
0.0
 11
28.24494698490448
 21
317.4666416281039
 31
0.0
  0
LINE
  5
1BF
  8
1
  6
CONTINUOUS
 62
     7
 10
28.24494698490448
 20
317.4666416281039
 30
0.0
 11
28.22428755926778
 21
317.4796334729935
 31
0.0
  0
LINE
  5
1C0
  8
1
  6
CONTINUOUS
 62
     7
 10
28.22428755926778
 20
317.4796334729935
 30
0.0
 11
28.20301880225293
 21
317.4916017592668
 31
0.0
  0
LINE
  5
1C1
  8
1
  6
CONTINUOUS
 62
     7
 10
28.20301880225293
 20
317.4916017592668
 30
0.0
 11
28.18119138453825
 21
317.5025179736832
 31
0.0
  0
LINE
  5
1C2
  8
1
  6
CONTINUOUS
 62
     7
 10
28.18119138453825
 20
317.5025179736832
 30
0.0
 11
28.15885730775508
 21
317.5123561094578
 31
0.0
  0
LINE
  5
1C3
  8
1
  6
CONTINUOUS
 62
     7
 10
28.15885730775508
 20
317.5123561094578
 30
0.0
 11
28.13606978059913
 21
317.5210927282197
 31
0.0
  0
LINE
  5
1C4
  8
1
  6
CONTINUOUS
 62
     7
 10
28.13606978059913
 20
317.5210927282197
 30
0.0
 11
28.1128830920661
 21
317.528707015852
 31
0.0
  0
LINE
  5
1C5
  8
1
  6
CONTINUOUS
 62
     7
 10
28.1128830920661
 20
317.528707015852
 30
0.0
 11
28.08935248211359
 21
317.5351808320788
 31
0.0
  0
LINE
  5
1C6
  8
1
  6
CONTINUOUS
 62
     7
 10
28.08935248211359
 20
317.5351808320788
 30
0.0
 11
28.06553401005746
 21
317.5404987536828
 31
0.0
  0
LINE
  5
1C7
  8
1
  6
CONTINUOUS
 62
     7
 10
28.06553401005746
 20
317.5404987536828
 30
0.0
 11
28.04148442101613
 21
317.5446481112498
 31
0.0
  0
LINE
  5
1C8
  8
1
  6
CONTINUOUS
 62
     7
 10
28.04148442101613
 20
317.5446481112498
 30
0.0
 11
28.01726101072103
 21
317.5476190193518
 31
0.0
  0
LINE
  5
1C9
  8
1
  6
CONTINUOUS
 62
     7
 10
28.01726101072103
 20
317.5476190193518
 30
0.0
 11
27.99292148901529
 21
317.5494044000987
 31
0.0
  0
LINE
  5
1CA
  8
1
  6
CONTINUOUS
 62
     7
 10
27.99292148901529
 20
317.5494044000987
 30
0.0
 11
27.96852384236581
 21
317.55
 31
0.0
  0
LINE
  5
1CB
  8
1
  6
CONTINUOUS
 62
     7
 10
-6.292195732526231
 20
325.9347858299936
 30
0.0
 11
2.092590097467314
 21
317.55
 31
0.0
  0
LINE
  5
1CC
  8
1
  6
CONTINUOUS
 62
     7
 10
-6.292186213382888
 20
351.85
 30
0.0
 11
-6.292788485280303
 21
351.8745338371637
 31
0.0
  0
LINE
  5
1CD
  8
1
  6
CONTINUOUS
 62
     7
 10
-6.292788485280303
 20
351.8745338371637
 30
0.0
 11
-6.29459385004679
 21
351.8990085701648
 31
0.0
  0
LINE
  5
1CE
  8
1
  6
CONTINUOUS
 62
     7
 10
-6.29459385004679
 20
351.8990085701648
 30
0.0
 11
-6.297597958400498
 21
351.9233652372276
 31
0.0
  0
LINE
  5
1CF
  8
1
  6
CONTINUOUS
 62
     7
 10
-6.297597958400498
 20
351.9233652372276
 30
0.0
 11
-6.301793573181273
 21
351.9475451610081
 31
0.0
  0
LINE
  5
1D0
  8
1
  6
CONTINUOUS
 62
     7
 10
-6.301793573181273
 20
351.9475451610081
 30
0.0
 11
-6.307170586785617
 21
351.9714900899516
 31
0.0
  0
LINE
  5
1D1
  8
1
  6
CONTINUOUS
 62
     7
 10
-6.307170586785617
 20
351.9714900899516
 30
0.0
 11
-6.313716045516784
 21
351.9951423386272
 31
0.0
  0
LINE
  5
1D2
  8
1
  6
CONTINUOUS
 62
     7
 10
-6.313716045516784
 20
351.9951423386272
 30
0.0
 11
-6.321414180791378
 21
352.0184449266961
 31
0.0
  0
LINE
  5
1D3
  8
1
  6
CONTINUOUS
 62
     7
 10
-6.321414180791378
 20
352.0184449266961
 30
0.0
 11
-6.330246447127245
 21
352.0413417161825
 31
0.0
  0
LINE
  5
1D4
  8
1
  6
CONTINUOUS
 62
     7
 10
-6.330246447127245
 20
352.0413417161825
 30
0.0
 11
-6.340191566821168
 21
352.0637775467151
 31
0.0
  0
LINE
  5
1D5
  8
1
  6
CONTINUOUS
 62
     7
 10
-6.340191566821168
 20
352.0637775467151
 30
0.0
 11
-6.351225581208712
 21
352.085698368413
 31
0.0
  0
LINE
  5
1D6
  8
1
  6
CONTINUOUS
 62
     7
 10
-6.351225581208712
 20
352.085698368413
 30
0.0
 11
-6.363321908382752
 21
352.1070513720966
 31
0.0
  0
LINE
  5
1D7
  8
1
  6
CONTINUOUS
 62
     7
 10
-6.363321908382752
 20
352.1070513720966
 30
0.0
 11
-6.376451407231617
 21
352.1277851165098
 31
0.0
  0
LINE
  5
1D8
  8
1
  6
CONTINUOUS
 62
     7
 10
-6.376451407231617
 20
352.1277851165098
 30
0.0
 11
-6.390582447642567
 21
352.1478496522462
 31
0.0
  0
LINE
  5
1D9
  8
1
  6
CONTINUOUS
 62
     7
 10
-6.390582447642567
 20
352.1478496522462
 30
0.0
 11
-6.40568098670152
 21
352.1671966420818
 31
0.0
  0
LINE
  5
1DA
  8
1
  6
CONTINUOUS
 62
     7
 10
-6.40568098670152
 20
352.1671966420818
 30
0.0
 11
-6.42171065070541
 21
352.1857794774235
 31
0.0
  0
LINE
  5
1DB
  8
1
  6
CONTINUOUS
 62
     7
 10
-6.42171065070541
 20
352.1857794774235
 30
0.0
 11
-6.438632822789614
 21
352.2035533905933
 31
0.0
  0
LINE
  5
1DC
  8
1
  6
CONTINUOUS
 62
     7
 10
-6.438632822789614
 20
352.2035533905933
 30
0.0
 11
-6.45640673595938
 21
352.2204755626774
 31
0.0
  0
LINE
  5
1DD
  8
1
  6
CONTINUOUS
 62
     7
 10
-6.45640673595938
 20
352.2204755626774
 30
0.0
 11
-6.474989571301066
 21
352.2365052266813
 31
0.0
  0
LINE
  5
1DE
  8
1
  6
CONTINUOUS
 62
     7
 10
-6.474989571301066
 20
352.2365052266813
 30
0.0
 11
-6.494336561136673
 21
352.2516037657403
 31
0.0
  0
LINE
  5
1DF
  8
1
  6
CONTINUOUS
 62
     7
 10
-6.494336561136673
 20
352.2516037657403
 30
0.0
 11
-6.514401096873088
 21
352.2657348061513
 31
0.0
  0
LINE
  5
1E0
  8
1
  6
CONTINUOUS
 62
     7
 10
-6.514401096873088
 20
352.2657348061513
 30
0.0
 11
-6.535134841286278
 21
352.2788643050001
 31
0.0
  0
LINE
  5
1E1
  8
1
  6
CONTINUOUS
 62
     7
 10
-6.535134841286278
 20
352.2788643050001
 30
0.0
 11
-6.556487844969889
 21
352.2909606321741
 31
0.0
  0
LINE
  5
1E2
  8
1
  6
CONTINUOUS
 62
     7
 10
-6.556487844969889
 20
352.2909606321741
 30
0.0
 11
-6.578408666667748
 21
352.3019946465617
 31
0.0
  0
LINE
  5
1E3
  8
1
  6
CONTINUOUS
 62
     7
 10
-6.578408666667748
 20
352.3019946465617
 30
0.0
 11
-6.600844497200343
 21
352.3119397662556
 31
0.0
  0
LINE
  5
1E4
  8
1
  6
CONTINUOUS
 62
     7
 10
-6.600844497200343
 20
352.3119397662556
 30
0.0
 11
-6.623741286686779
 21
352.3207720325915
 31
0.0
  0
LINE
  5
1E5
  8
1
  6
CONTINUOUS
 62
     7
 10
-6.623741286686779
 20
352.3207720325915
 30
0.0
 11
-6.647043874755657
 21
352.328470167866
 31
0.0
  0
LINE
  5
1E6
  8
1
  6
CONTINUOUS
 62
     7
 10
-6.647043874755657
 20
352.328470167866
 30
0.0
 11
-6.670696123431257
 21
352.3350156265972
 31
0.0
  0
LINE
  5
1E7
  8
1
  6
CONTINUOUS
 62
     7
 10
-6.670696123431257
 20
352.3350156265972
 30
0.0
 11
-6.694641052374824
 21
352.3403926402016
 31
0.0
  0
LINE
  5
1E8
  8
1
  6
CONTINUOUS
 62
     7
 10
-6.694641052374824
 20
352.3403926402016
 30
0.0
 11
-6.718820976155208
 21
352.3445882549824
 31
0.0
  0
LINE
  5
1E9
  8
1
  6
CONTINUOUS
 62
     7
 10
-6.718820976155208
 20
352.3445882549824
 30
0.0
 11
-6.743177643218108
 21
352.347592363336
 31
0.0
  0
LINE
  5
1EA
  8
1
  6
CONTINUOUS
 62
     7
 10
-6.743177643218108
 20
352.347592363336
 30
0.0
 11
-6.767652376219179
 21
352.3493977281026
 31
0.0
  0
LINE
  5
1EB
  8
1
  6
CONTINUOUS
 62
     7
 10
-6.767652376219179
 20
352.3493977281026
 30
0.0
 11
-6.792186213382889
 21
352.35
 31
0.0
  0
LINE
  5
1EC
  8
1
  6
CONTINUOUS
 62
     7
 10
-6.292186213382888
 20
351.85
 30
0.0
 11
-6.292186213382879
 21
325.9347763108502
 31
0.0
  0
ARC
  5
1ED
  8
1
  6
CONTINUOUS
 62
     7
 10
-7.490115346812653
 20
350.35
 30
0.0
 40
2.000000000000001
 50
2.999999999999436
 51
53.64742503651142
  0
LINE
  5
1EE
  8
1
  6
CONTINUOUS
 62
     7
 10
-5.388711754297302
 20
348.4674760337263
 30
0.0
 11
-5.492856277303504
 21
350.4546719124859
 31
0.0
  0
LINE
  5
1EF
  8
1
  6
CONTINUOUS
 62
     7
 10
-6.292186213382887
 20
347.9458548115672
 30
0.0
 11
-5.388711754297302
 21
348.4674760337263
 31
0.0
  0
ARC
  5
1F0
  8
1
  6
CONTINUOUS
 62
     7
 10
25.66251432499634
 20
316.2499999999999
 30
0.0
 40
2.0
 50
90.0000000000002
 51
139.458398126495
  0
LINE
  5
1F1
  8
1
  6
CONTINUOUS
 62
     7
 10
25.66251432499633
 20
318.2499999999999
 30
0.0
 11
26.5078137866171
 21
318.2499999999999
 31
0.0
  0
ARC
  5
1F2
  8
1
  6
CONTINUOUS
 62
     7
 10
26.5078137866171
 20
316.2499999999999
 30
0.0
 40
2.0
 50
40.54160187350472
 51
90.0000000000002
  0
LINE
  5
1F3
  8
1
  6
CONTINUOUS
 62
     7
 10
28.75782878361722
 20
317.55
 30
0.0
 11
28.02768220197418
 21
317.55
 31
0.0
  0
LINE
  5
1F4
  8
1
  6
CONTINUOUS
 62
     7
 10
0.5462027639974877
 20
324.3688629050086
 30
0.0
 11
7.365065669006229
 21
317.55
 31
0.0
  0
LINE
  5
1F5
  8
1
  6
CONTINUOUS
 62
     7
 10
-4.726272807541305
 20
324.3688629050086
 30
0.0
 11
0.5462027639974877
 21
324.3688629050086
 31
0.0
  0
LINE
  5
1F6
  8
1
  6
CONTINUOUS
 62
     7
 10
0.5859482405280829
 20
348.2630642067995
 30
0.0
 11
0.671860785726579
 21
324.4960911336142
 31
0.0
  0
LINE
  5
1F7
  8
1
  6
CONTINUOUS
 62
     7
 10
0.671860785726579
 20
324.4960911336142
 30
0.0
 11
0.5462027639974877
 21
324.3688629050086
 31
0.0
  0
LINE
  5
1F8
  8
1
  6
CONTINUOUS
 62
     7
 10
-6.79218621338289
 20
352.35
 30
0.0
 11
-1.292186213382881
 21
352.35
 31
0.0
  0
LINE
  5
1F9
  8
1
  6
CONTINUOUS
 62
     7
 10
0.671860785726579
 20
324.4960911336142
 30
0.0
 11
24.41758344714033
 21
324.4960911336142
 31
0.0
  0
ARC
  5
1FA
  8
1
  6
CONTINUOUS
 62
     7
 10
-11.29218621338286
 20
102.55
 30
0.0
 40
250.5999999999999
 50
84.70011711344898
 51
90.00000000000001
  0
LINE
  5
1FB
  8
1
  6
CONTINUOUS
 62
     7
 10
-11.29218621338283
 20
353.15
 30
0.0
 11
-11.29218621338283
 21
354.65
 31
0.0
  0
ARC
  5
1FC
  8
1
  6
CONTINUOUS
 62
     7
 10
-11.29218621338286
 20
102.55
 30
0.0
 40
252.0999999999999
 50
84.64834071419762
 51
90.0
  0
LINE
  5
1FD
  8
1
  6
CONTINUOUS
 62
     7
 10
11.85537296038604
 20
352.0786566795422
 30
0.0
 11
12.22075718014716
 21
353.5510985891748
 31
0.0
  0
ARC
  5
1FE
  8
1
  6
CONTINUOUS
 62
     7
 10
0.0185676412394163
 20
323.8607538546223
 30
0.0
 40
30.59999999999998
 50
22.75700474608169
 51
67.24299525391831
  0
LINE
  5
1FF
  8
1
  6
CONTINUOUS
 62
     7
 10
28.2364704661593
 20
335.6975591737689
 30
0.0
 11
29.70891237579192
 21
336.06294339353
 31
0.0
  0
ARC
  5
200
  8
1
  6
CONTINUOUS
 62
     7
 10
-221.2921862133829
 20
312.55
 30
0.0
 40
250.5999999999999
 50
0.0
 51
5.299882886551075
  0
LINE
  5
201
  8
1
  6
CONTINUOUS
 62
     7
 10
30.80781378661708
 20
312.55
 30
0.0
 11
29.30781378661708
 21
312.55
 31
0.0
  0
ARC
  5
202
  8
1
  6
CONTINUOUS
 62
     7
 10
-11.29218621338286
 20
102.55
 30
0.0
 40
250.0999999999999
 50
84.71776909986231
 51
90.0
  0
LINE
  5
203
  8
1
  6
CONTINUOUS
 62
     7
 10
-11.2921862133829
 20
353.15
 30
0.0
 11
-11.2921862133829
 21
352.65
 31
0.0
  0
LINE
  5
204
  8
1
  6
CONTINUOUS
 62
     7
 10
29.30781378661708
 20
312.55
 30
0.0
 11
28.80781378661709
 21
312.55
 31
0.0
  0
ARC
  5
205
  8
1
  6
CONTINUOUS
 62
     7
 10
0.0185676412394163
 20
323.8607538546223
 30
0.0
 40
30.09999999999997
 50
22.90261672958792
 51
67.09738327041208
  0
ARC
  5
206
  8
1
  6
CONTINUOUS
 62
     7
 10
-221.2921862133829
 20
312.55
 30
0.0
 40
250.0999999999999
 50
0.0
 51
5.282230900137677
  0
LINE
  5
207
  8
1
  6
CONTINUOUS
 62
     7
 10
28.5078137866171
 20
312.55
 30
0.0
 11
28.80781378661714
 21
312.55
 31
0.0
  0
LINE
  5
208
  8
1
  6
CONTINUOUS
 62
     7
 10
-11.29218621338291
 20
352.35
 30
0.0
 11
-11.29218621338291
 21
352.65
 31
0.0
  0
LINE
  5
209
  8
1
  6
CONTINUOUS
 62
     7
 10
-0.7921862133828915
 20
352.3294026736392
 30
0.0
 11
-0.7921862133828915
 21
352.4294909551402
 31
0.0
  0
LINE
  5
20A
  8
1
  6
CONTINUOUS
 62
     7
 10
-1.292186213382892
 20
352.4499999999999
 30
0.0
 11
-1.292186213382878
 21
352.3499199359359
 31
0.0
  0
LINE
  5
20B
  8
1
  6
CONTINUOUS
 62
     7
 10
28.48721646025633
 20
323.05
 30
0.0
 11
28.58730474175731
 21
323.05
 31
0.0
  0
LINE
  5
20C
  8
1
  6
CONTINUOUS
 62
     7
 10
28.60781378661706
 20
322.55
 30
0.0
 11
28.50773372255304
 21
322.55
 31
0.0
  0
LINE
  5
20D
  8
1
  6
CONTINUOUS
 62
     7
 10
2.207813786617106
 20
352.2853799524609
 30
0.0
 11
2.207813786617106
 21
352.185233891372
 31
0.0
  0
LINE
  5
20E
  8
1
  6
CONTINUOUS
 62
     7
 10
2.707813786617108
 20
352.1576921891631
 30
0.0
 11
2.707813786617105
 21
352.2578492959322
 31
0.0
  0
LINE
  5
20F
  8
1
  6
CONTINUOUS
 62
     7
 10
28.44319373907798
 20
326.05
 30
0.0
 11
28.34304767798911
 21
326.05
 31
0.0
  0
LINE
  5
210
  8
1
  6
CONTINUOUS
 62
     7
 10
28.31550597578024
 20
326.55
 30
0.0
 11
28.41566308254933
 21
326.55
 31
0.0
  0
ARC
  5
211
  8
1
  6
CONTINUOUS
 62
     7
 10
30.44189722601493
 20
340.1541344573713
 30
0.0
 40
4.25670461132004
 50
262.4195481519608
 51
285.3005057149733
  0
LINE
  5
212
  8
1
  6
CONTINUOUS
 62
     7
 10
29.88036041562882
 20
335.9346308658792
 30
0.0
 11
29.77239801598157
 21
335.9829865832072
 31
0.0
  0
LINE
  5
213
  8
1
  6
CONTINUOUS
 62
     7
 10
29.77239801598157
 20
335.9829865832072
 30
0.0
 11
29.71492289175307
 21
336.0483083605636
 31
0.0
  0
LINE
  5
214
  8
1
  6
CONTINUOUS
 62
     7
 10
31.56516309427733
 20
336.0483083605635
 30
0.0
 11
31.70019439553942
 21
336.0629433935299
 31
0.0
  0
LINE
  5
215
  8
1
  6
CONTINUOUS
 62
     7
 10
32.80781378661703
 20
312.55
 30
0.0
 11
31.70019439553937
 21
336.06294339353
 31
0.0
  0
LINE
  5
216
  8
1
  6
CONTINUOUS
 62
     7
 10
30.80781378661708
 20
312.55
 30
0.0
 11
32.80781378661705
 21
312.55
 31
0.0
  0
LINE
  5
217
  8
1
  6
CONTINUOUS
 62
     7
 10
12.47114622208281
 20
353.5275169842142
 30
0.0
 11
12.9810182106087
 21
353.5510985891748
 31
0.0
  0
POLYLINE
  5
218
  8
1
  6
CONTINUOUS
 62
     7
 66
     1
 10
0.0
 20
0.0
 30
0.0
  0
VERTEX
  5
4FC
  8
1
  6
CONTINUOUS
 62
     7
 10
31.56516309427731
 20
336.0483083605635
 30
0.0
  0
VERTEX
  5
4FD
  8
1
  6
CONTINUOUS
 62
     7
 10
28.4048009961534
 20
341.647810016166
 30
0.0
  0
VERTEX
  5
4FE
  8
1
  6
CONTINUOUS
 62
     7
 10
24.13685030120569
 20
346.5532872011995
 30
0.0
  0
VERTEX
  5
4FF
  8
1
  6
CONTINUOUS
 62
     7
 10
18.92784009634846
 20
350.5733354935208
 30
0.0
  0
VERTEX
  5
500
  8
1
  6
CONTINUOUS
 62
     7
 10
12.9810182106087
 20
353.5510985891748
 30
0.0
  0
SEQEND
  5
540
  8
1
  6
CONTINUOUS
 62
     7
  0
LINE
  5
219
  8
1
  6
CONTINUOUS
 62
     7
 10
87.20781378661704
 20
336.06294339353
 30
0.0
 11
87.20781378661704
 21
312.5500000000001
 31
0.0
  0
LINE
  5
21A
  8
1
  6
CONTINUOUS
 62
     7
 10
31.70019439553939
 20
336.06294339353
 30
0.0
 11
87.20781378661707
 21
336.06294339353
 31
0.0
  0
LINE
  5
21B
  8
1
  6
CONTINUOUS
 62
     7
 10
32.80781378661705
 20
312.55
 30
0.0
 11
87.20781378661707
 21
312.55
 31
0.0
  0
LINE
  5
21C
  8
1
  6
CONTINUOUS
 62
     7
 10
88.7078137866171
 20
335.6975591737689
 30
0.0
 11
88.65200475294843
 21
335.7967850394569
 31
0.0
  0
LINE
  5
21D
  8
1
  6
CONTINUOUS
 62
     7
 10
88.65200475294843
 20
335.7967850394569
 30
0.0
 11
88.56432468764096
 21
335.8541093138152
 31
0.0
  0
LINE
  5
21E
  8
1
  6
CONTINUOUS
 62
     7
 10
88.56432468764096
 20
335.8541093138152
 30
0.0
 11
88.47176545422117
 21
335.8949210433851
 31
0.0
  0
ARC
  5
21F
  8
1
  6
CONTINUOUS
 62
     7
 10
87.29441112493198
 20
331.8763110001974
 30
0.0
 40
4.187527897925589
 50
73.67070771087556
 51
91.18495108288641
  0
LINE
  5
220
  8
1
  6
CONTINUOUS
 62
     7
 10
88.70781378661704
 20
312.55
 30
0.0
 11
88.70781378661704
 21
335.697559173769
 31
0.0
  0
LINE
  5
221
  8
1
  6
CONTINUOUS
 62
     7
 10
87.20781378661707
 20
312.55
 30
0.0
 11
88.7078137866171
 21
312.55
 31
0.0
  0
LINE
  5
222
  8
1
  6
CONTINUOUS
 62
     7
 10
87.20781378661705
 20
353.5510985891748
 30
0.0
 11
87.20781378661707
 21
336.06294339353
 31
0.0
  0
LINE
  5
223
  8
1
  6
CONTINUOUS
 62
     7
 10
88.70781378661708
 20
335.6975591737689
 30
0.0
 11
88.70781378661708
 21
352.0786566795422
 31
0.0
  0
LINE
  5
224
  8
1
  6
CONTINUOUS
 62
     7
 10
87.20781378661705
 20
354.6499999999997
 30
0.0
 11
87.20781378661705
 21
353.5510985891746
 31
0.0
  0
ARC
  5
225
  8
1
  6
CONTINUOUS
 62
     7
 10
-9.792186213382998
 20
102.55
 30
0.0
 40
252.1
 50
89.99999999999996
 51
90.17045576367875
  0
LINE
  5
226
  8
1
  6
CONTINUOUS
 62
     7
 10
-9.792186213382886
 20
354.65
 30
0.0
 11
87.20781378661705
 21
354.65
 31
0.0
  0
ARC
  5
227
  8
1
  6
CONTINUOUS
 62
     7
 10
87.20781378661708
 20
353.15
 30
0.0
 40
1.500000000000001
 50
0.0
 51
90.00000000000107
  0
LINE
  5
228
  8
1
  6
CONTINUOUS
 62
     7
 10
88.70781378661708
 20
352.078656679542
 30
0.0
 11
88.70781378661708
 21
353.1499999999996
 31
0.0
  0
LINE
  5
229
  8
1
  6
CONTINUOUS
 62
     7
 10
162.4
 20
432.0421862133829
 30
0.0
 11
162.2
 21
432.0421862133829
 31
0.0
  0
LINE
  5
22A
  8
1
  6
CONTINUOUS
 62
     7
 10
162.4
 20
432.0421862133829
 30
0.0
 11
162.4
 21
402.0421862133828
 31
0.0
  0
LINE
  5
22B
  8
1
  6
CONTINUOUS
 62
     7
 10
162.4
 20
402.0421862133828
 30
0.0
 11
162.2
 21
402.0421862133828
 31
0.0
  0
LINE
  5
22C
  8
1
  6
CONTINUOUS
 62
     7
 10
126.4033360682046
 20
464.5421862133827
 30
0.0
 11
122.4000800640641
 21
464.5421862133829
 31
0.0
  0
LINE
  5
22D
  8
1
  6
CONTINUOUS
 62
     7
 10
152.2
 20
434.742266277447
 30
0.0
 11
152.2
 21
438.7455222815875
 31
0.0
  0
ARC
  5
22E
  8
1
  6
CONTINUOUS
 62
     7
 10
372.1999999999999
 20
474.5421862133829
 30
0.0
 40
249.9999999999997
 50
182.2924427759559
 51
185.2786761033209
  0
ARC
  5
22F
  8
1
  6
CONTINUOUS
 62
     7
 10
372.1999999999999
 20
474.5421862133829
 30
0.0
 40
245.9999999999998
 50
182.3297386604349
 51
185.1292638888987
  0
ARC
  5
230
  8
1
  6
CONTINUOUS
 62
     7
 10
162.2000000000001
 20
684.5421862133829
 30
0.0
 40
249.9999999999999
 50
264.7213238966789
 51
267.707557224044
  0
ARC
  5
231
  8
1
  6
CONTINUOUS
 62
     7
 10
162.2000000000001
 20
684.5421862133829
 30
0.0
 40
245.9999999999999
 50
264.8707361111013
 51
267.6702613395652
  0
ARC
  5
232
  8
1
  6
CONTINUOUS
 62
     7
 10
150.8892461453777
 20
463.2314323587606
 30
0.0
 40
29.99999999999995
 50
202.9321967018483
 51
247.0678032981518
  0
ARC
  5
233
  8
1
  6
CONTINUOUS
 62
     7
 10
150.8892461453777
 20
463.2314323587606
 30
0.0
 40
25.99999999999997
 50
204.2589370559115
 51
245.7410629440885
  0
LINE
  5
234
  8
1
  6
CONTINUOUS
 62
     7
 10
162.2
 20
461.5421481364471
 30
0.0
 11
162.2
 21
460.5421862133829
 31
0.0
  0
LINE
  5
235
  8
1
  6
CONTINUOUS
 62
     7
 10
162.2
 20
460.5421862133829
 30
0.0
 11
160.6956367322508
 21
460.5553145927299
 31
0.0
  0
LINE
  5
236
  8
1
  6
CONTINUOUS
 62
     7
 10
160.6956367322508
 20
464.529057834036
 30
0.0
 11
160.8976568772655
 21
464.5308208371326
 31
0.0
  0
LINE
  5
237
  8
1
  6
CONTINUOUS
 62
     7
 10
162.1999999999999
 20
463.2284777143982
 30
0.0
 11
162.2
 21
461.5421481364471
 31
0.0
  0
LINE
  5
238
  8
1
  6
CONTINUOUS
 62
     7
 10
160.8976568772655
 20
464.5308208371326
 30
0.0
 11
162.1999999999999
 21
463.2284777143982
 31
0.0
  0
LINE
  5
239
  8
1
  6
CONTINUOUS
 62
     7
 10
160.2
 20
461.555276515794
 30
0.0
 11
160.2
 21
464.5247324778015
 31
0.0
  0
LINE
  5
23A
  8
1
  6
CONTINUOUS
 62
     7
 10
160.2
 20
464.5247324778014
 30
0.0
 11
160.6956367322508
 21
464.529057834036
 31
0.0
  0
ARC
  5
23B
  8
1
  6
CONTINUOUS
 62
     7
 10
160.7
 20
461.0552955542619
 30
0.0
 40
0.5000000000000016
 50
180.0
 51
269.4999999999999
  0
LINE
  5
23C
  8
1
  6
CONTINUOUS
 62
     7
 10
160.2
 20
461.0552955542619
 30
0.0
 11
160.2
 21
461.555276515794
 31
0.0
  0
LINE
  5
23D
  8
1
  6
CONTINUOUS
 62
     7
 10
150.8862915010152
 20
474.5421862133829
 30
0.0
 11
149.1912734645016
 21
474.5421862133829
 31
0.0
  0
LINE
  5
23E
  8
1
  6
CONTINUOUS
 62
     7
 10
152.1999999999999
 20
473.1294358528226
 30
0.0
 11
152.1999999999999
 21
473.2284777143982
 31
0.0
  0
LINE
  5
23F
  8
1
  6
CONTINUOUS
 62
     7
 10
152.1999999999999
 20
473.2284777143982
 30
0.0
 11
150.8862915010152
 21
474.5421862133829
 31
0.0
  0
LINE
  5
240
  8
1
  6
CONTINUOUS
 62
     7
 10
152.1999999999999
 20
472.6294548912905
 30
0.0
 11
149.1912734645016
 21
472.6557116499844
 31
0.0
  0
LINE
  5
241
  8
1
  6
CONTINUOUS
 62
     7
 10
152.1999999999999
 20
473.1294358528226
 30
0.0
 11
152.1999999999999
 21
472.6294548912905
 31
0.0
  0
LINE
  5
242
  8
1
  6
CONTINUOUS
 62
     7
 10
149.1912734645016
 20
472.6557116499844
 30
0.0
 11
148.6956367322508
 21
472.6600370062189
 31
0.0
  0
ARC
  5
243
  8
1
  6
CONTINUOUS
 62
     7
 10
148.6999999999999
 20
473.1600179677511
 30
0.0
 40
0.5000000000000571
 50
180.0
 51
269.4999999999999
  0
LINE
  5
244
  8
1
  6
CONTINUOUS
 62
     7
 10
148.1999999999999
 20
473.1600179677511
 30
0.0
 11
148.2
 21
474.5421862133829
 31
0.0
  0
LINE
  5
245
  8
1
  6
CONTINUOUS
 62
     7
 10
148.1999999999999
 20
474.5421862133829
 30
0.0
 11
149.1912734645016
 21
474.5421862133829
 31
0.0
  0
LINE
  5
246
  8
1
  6
CONTINUOUS
 62
     7
 10
122.3999999999999
 20
474.5421862133829
 30
0.0
 11
127.2
 21
474.5421862133829
 31
0.0
  0
LINE
  5
247
  8
1
  6
CONTINUOUS
 62
     7
 10
127.2
 20
474.0421862133829
 30
0.0
 11
127.2
 21
474.5421862133829
 31
0.0
  0
LINE
  5
248
  8
1
  6
CONTINUOUS
 62
     7
 10
127.7
 20
473.5421862133829
 30
0.0
 11
127.6754661628363
 21
473.5427884852803
 31
0.0
  0
LINE
  5
249
  8
1
  6
CONTINUOUS
 62
     7
 10
127.6754661628363
 20
473.5427884852803
 30
0.0
 11
127.6509914298353
 21
473.5445938500467
 31
0.0
  0
LINE
  5
24A
  8
1
  6
CONTINUOUS
 62
     7
 10
127.6509914298353
 20
473.5445938500467
 30
0.0
 11
127.6266347627724
 21
473.5475979584005
 31
0.0
  0
LINE
  5
24B
  8
1
  6
CONTINUOUS
 62
     7
 10
127.6266347627724
 20
473.5475979584005
 30
0.0
 11
127.602454838992
 21
473.5517935731813
 31
0.0
  0
LINE
  5
24C
  8
1
  6
CONTINUOUS
 62
     7
 10
127.602454838992
 20
473.5517935731813
 30
0.0
 11
127.5785099100484
 21
473.5571705867856
 31
0.0
  0
LINE
  5
24D
  8
1
  6
CONTINUOUS
 62
     7
 10
127.5785099100484
 20
473.5571705867856
 30
0.0
 11
127.5548576613728
 21
473.5637160455168
 31
0.0
  0
LINE
  5
24E
  8
1
  6
CONTINUOUS
 62
     7
 10
127.5548576613728
 20
473.5637160455168
 30
0.0
 11
127.5315550733039
 21
473.5714141807914
 31
0.0
  0
LINE
  5
24F
  8
1
  6
CONTINUOUS
 62
     7
 10
127.5315550733039
 20
473.5714141807914
 30
0.0
 11
127.5086582838175
 21
473.5802464471273
 31
0.0
  0
LINE
  5
250
  8
1
  6
CONTINUOUS
 62
     7
 10
127.5086582838175
 20
473.5802464471273
 30
0.0
 11
127.4862224532849
 21
473.5901915668211
 31
0.0
  0
LINE
  5
251
  8
1
  6
CONTINUOUS
 62
     7
 10
127.4862224532849
 20
473.5901915668211
 30
0.0
 11
127.464301631587
 21
473.6012255812087
 31
0.0
  0
LINE
  5
252
  8
1
  6
CONTINUOUS
 62
     7
 10
127.464301631587
 20
473.6012255812087
 30
0.0
 11
127.4429486279034
 21
473.6133219083827
 31
0.0
  0
LINE
  5
253
  8
1
  6
CONTINUOUS
 62
     7
 10
127.4429486279034
 20
473.6133219083827
 30
0.0
 11
127.4222148834902
 21
473.6264514072316
 31
0.0
  0
LINE
  5
254
  8
1
  6
CONTINUOUS
 62
     7
 10
127.4222148834902
 20
473.6264514072316
 30
0.0
 11
127.4021503477538
 21
473.6405824476425
 31
0.0
  0
LINE
  5
255
  8
1
  6
CONTINUOUS
 62
     7
 10
127.4021503477538
 20
473.6405824476425
 30
0.0
 11
127.3828033579182
 21
473.6556809867015
 31
0.0
  0
LINE
  5
256
  8
1
  6
CONTINUOUS
 62
     7
 10
127.3828033579182
 20
473.6556809867015
 30
0.0
 11
127.3642205225765
 21
473.6717106507054
 31
0.0
  0
LINE
  5
257
  8
1
  6
CONTINUOUS
 62
     7
 10
127.3642205225765
 20
473.6717106507054
 30
0.0
 11
127.3464466094068
 21
473.6886328227896
 31
0.0
  0
LINE
  5
258
  8
1
  6
CONTINUOUS
 62
     7
 10
127.3464466094068
 20
473.6886328227896
 30
0.0
 11
127.3295244373226
 21
473.7064067359594
 31
0.0
  0
LINE
  5
259
  8
1
  6
CONTINUOUS
 62
     7
 10
127.3295244373226
 20
473.7064067359594
 30
0.0
 11
127.3134947733187
 21
473.724989571301
 31
0.0
  0
LINE
  5
25A
  8
1
  6
CONTINUOUS
 62
     7
 10
127.3134947733187
 20
473.724989571301
 30
0.0
 11
127.2983962342597
 21
473.7443365611367
 31
0.0
  0
LINE
  5
25B
  8
1
  6
CONTINUOUS
 62
     7
 10
127.2983962342597
 20
473.7443365611367
 30
0.0
 11
127.2842651938488
 21
473.764401096873
 31
0.0
  0
LINE
  5
25C
  8
1
  6
CONTINUOUS
 62
     7
 10
127.2842651938488
 20
473.764401096873
 30
0.0
 11
127.2711356949999
 21
473.7851348412863
 31
0.0
  0
LINE
  5
25D
  8
1
  6
CONTINUOUS
 62
     7
 10
127.2711356949999
 20
473.7851348412863
 30
0.0
 11
127.2590393678259
 21
473.8064878449699
 31
0.0
  0
LINE
  5
25E
  8
1
  6
CONTINUOUS
 62
     7
 10
127.2590393678259
 20
473.8064878449699
 30
0.0
 11
127.2480053534383
 21
473.8284086666678
 31
0.0
  0
LINE
  5
25F
  8
1
  6
CONTINUOUS
 62
     7
 10
127.2480053534383
 20
473.8284086666678
 30
0.0
 11
127.2380602337444
 21
473.8508444972003
 31
0.0
  0
LINE
  5
260
  8
1
  6
CONTINUOUS
 62
     7
 10
127.2380602337444
 20
473.8508444972003
 30
0.0
 11
127.2292279674085
 21
473.8737412866868
 31
0.0
  0
LINE
  5
261
  8
1
  6
CONTINUOUS
 62
     7
 10
127.2292279674085
 20
473.8737412866868
 30
0.0
 11
127.2215298321339
 21
473.8970438747556
 31
0.0
  0
LINE
  5
262
  8
1
  6
CONTINUOUS
 62
     7
 10
127.2215298321339
 20
473.8970438747556
 30
0.0
 11
127.2149843734028
 21
473.9206961234312
 31
0.0
  0
LINE
  5
263
  8
1
  6
CONTINUOUS
 62
     7
 10
127.2149843734028
 20
473.9206961234312
 30
0.0
 11
127.2096073597984
 21
473.9446410523748
 31
0.0
  0
LINE
  5
264
  8
1
  6
CONTINUOUS
 62
     7
 10
127.2096073597984
 20
473.9446410523748
 30
0.0
 11
127.2054117450176
 21
473.9688209761552
 31
0.0
  0
LINE
  5
265
  8
1
  6
CONTINUOUS
 62
     7
 10
127.2054117450176
 20
473.9688209761552
 30
0.0
 11
127.2024076366639
 21
473.9931776432181
 31
0.0
  0
LINE
  5
266
  8
1
  6
CONTINUOUS
 62
     7
 10
127.2024076366639
 20
473.9931776432181
 30
0.0
 11
127.2006022718974
 21
474.0176523762192
 31
0.0
  0
LINE
  5
267
  8
1
  6
CONTINUOUS
 62
     7
 10
127.2006022718974
 20
474.0176523762192
 30
0.0
 11
127.2
 21
474.0421862133829
 31
0.0
  0
LINE
  5
268
  8
1
  6
CONTINUOUS
 62
     7
 10
128.7
 20
473.5421862133829
 30
0.0
 11
127.7
 21
473.5421862133829
 31
0.0
  0
LINE
  5
269
  8
1
  6
CONTINUOUS
 62
     7
 10
129.2
 20
474.0421862133829
 30
0.0
 11
129.1993977281026
 21
474.0176523762192
 31
0.0
  0
LINE
  5
26A
  8
1
  6
CONTINUOUS
 62
     7
 10
129.1993977281026
 20
474.0176523762192
 30
0.0
 11
129.1975923633361
 21
473.9931776432181
 31
0.0
  0
LINE
  5
26B
  8
1
  6
CONTINUOUS
 62
     7
 10
129.1975923633361
 20
473.9931776432181
 30
0.0
 11
129.1945882549824
 21
473.9688209761552
 31
0.0
  0
LINE
  5
26C
  8
1
  6
CONTINUOUS
 62
     7
 10
129.1945882549824
 20
473.9688209761552
 30
0.0
 11
129.1903926402017
 21
473.9446410523748
 31
0.0
  0
LINE
  5
26D
  8
1
  6
CONTINUOUS
 62
     7
 10
129.1903926402017
 20
473.9446410523748
 30
0.0
 11
129.1850156265973
 21
473.9206961234312
 31
0.0
  0
LINE
  5
26E
  8
1
  6
CONTINUOUS
 62
     7
 10
129.1850156265973
 20
473.9206961234312
 30
0.0
 11
129.1784701678662
 21
473.8970438747556
 31
0.0
  0
LINE
  5
26F
  8
1
  6
CONTINUOUS
 62
     7
 10
129.1784701678662
 20
473.8970438747556
 30
0.0
 11
129.1707720325915
 21
473.8737412866868
 31
0.0
  0
LINE
  5
270
  8
1
  6
CONTINUOUS
 62
     7
 10
129.1707720325915
 20
473.8737412866868
 30
0.0
 11
129.1619397662557
 21
473.8508444972003
 31
0.0
  0
LINE
  5
271
  8
1
  6
CONTINUOUS
 62
     7
 10
129.1619397662557
 20
473.8508444972003
 30
0.0
 11
129.1519946465618
 21
473.8284086666678
 31
0.0
  0
LINE
  5
272
  8
1
  6
CONTINUOUS
 62
     7
 10
129.1519946465618
 20
473.8284086666678
 30
0.0
 11
129.1409606321742
 21
473.8064878449699
 31
0.0
  0
LINE
  5
273
  8
1
  6
CONTINUOUS
 62
     7
 10
129.1409606321742
 20
473.8064878449699
 30
0.0
 11
129.1288643050002
 21
473.7851348412863
 31
0.0
  0
LINE
  5
274
  8
1
  6
CONTINUOUS
 62
     7
 10
129.1288643050002
 20
473.7851348412863
 30
0.0
 11
129.1157348061513
 21
473.7644010968731
 31
0.0
  0
LINE
  5
275
  8
1
  6
CONTINUOUS
 62
     7
 10
129.1157348061513
 20
473.7644010968731
 30
0.0
 11
129.1016037657404
 21
473.7443365611367
 31
0.0
  0
LINE
  5
276
  8
1
  6
CONTINUOUS
 62
     7
 10
129.1016037657404
 20
473.7443365611367
 30
0.0
 11
129.0865052266814
 21
473.724989571301
 31
0.0
  0
LINE
  5
277
  8
1
  6
CONTINUOUS
 62
     7
 10
129.0865052266814
 20
473.724989571301
 30
0.0
 11
129.0704755626775
 21
473.7064067359594
 31
0.0
  0
LINE
  5
278
  8
1
  6
CONTINUOUS
 62
     7
 10
129.0704755626775
 20
473.7064067359594
 30
0.0
 11
129.0535533905933
 21
473.6886328227896
 31
0.0
  0
LINE
  5
279
  8
1
  6
CONTINUOUS
 62
     7
 10
129.0535533905933
 20
473.6886328227896
 30
0.0
 11
129.0357794774235
 21
473.6717106507054
 31
0.0
  0
LINE
  5
27A
  8
1
  6
CONTINUOUS
 62
     7
 10
129.0357794774235
 20
473.6717106507054
 30
0.0
 11
129.0171966420819
 21
473.6556809867015
 31
0.0
  0
LINE
  5
27B
  8
1
  6
CONTINUOUS
 62
     7
 10
129.0171966420819
 20
473.6556809867015
 30
0.0
 11
128.9978496522463
 21
473.6405824476425
 31
0.0
  0
LINE
  5
27C
  8
1
  6
CONTINUOUS
 62
     7
 10
128.9978496522463
 20
473.6405824476425
 30
0.0
 11
128.9777851165098
 21
473.6264514072316
 31
0.0
  0
LINE
  5
27D
  8
1
  6
CONTINUOUS
 62
     7
 10
128.9777851165098
 20
473.6264514072316
 30
0.0
 11
128.9570513720967
 21
473.6133219083827
 31
0.0
  0
LINE
  5
27E
  8
1
  6
CONTINUOUS
 62
     7
 10
128.9570513720967
 20
473.6133219083827
 30
0.0
 11
128.935698368413
 21
473.6012255812087
 31
0.0
  0
LINE
  5
27F
  8
1
  6
CONTINUOUS
 62
     7
 10
128.935698368413
 20
473.6012255812087
 30
0.0
 11
128.9137775467152
 21
473.5901915668211
 31
0.0
  0
LINE
  5
280
  8
1
  6
CONTINUOUS
 62
     7
 10
128.9137775467152
 20
473.5901915668211
 30
0.0
 11
128.8913417161826
 21
473.5802464471273
 31
0.0
  0
LINE
  5
281
  8
1
  6
CONTINUOUS
 62
     7
 10
128.8913417161826
 20
473.5802464471273
 30
0.0
 11
128.8684449266961
 21
473.5714141807914
 31
0.0
  0
LINE
  5
282
  8
1
  6
CONTINUOUS
 62
     7
 10
128.8684449266961
 20
473.5714141807914
 30
0.0
 11
128.8451423386273
 21
473.5637160455168
 31
0.0
  0
LINE
  5
283
  8
1
  6
CONTINUOUS
 62
     7
 10
128.8451423386273
 20
473.5637160455168
 30
0.0
 11
128.8214900899517
 21
473.5571705867856
 31
0.0
  0
LINE
  5
284
  8
1
  6
CONTINUOUS
 62
     7
 10
128.8214900899517
 20
473.5571705867856
 30
0.0
 11
128.7975451610081
 21
473.5517935731813
 31
0.0
  0
LINE
  5
285
  8
1
  6
CONTINUOUS
 62
     7
 10
128.7975451610081
 20
473.5517935731813
 30
0.0
 11
128.7733652372277
 21
473.5475979584005
 31
0.0
  0
LINE
  5
286
  8
1
  6
CONTINUOUS
 62
     7
 10
128.7733652372277
 20
473.5475979584005
 30
0.0
 11
128.7490085701648
 21
473.5445938500467
 31
0.0
  0
LINE
  5
287
  8
1
  6
CONTINUOUS
 62
     7
 10
128.7490085701648
 20
473.5445938500467
 30
0.0
 11
128.7245338371638
 21
473.5427884852803
 31
0.0
  0
LINE
  5
288
  8
1
  6
CONTINUOUS
 62
     7
 10
128.7245338371638
 20
473.5427884852803
 30
0.0
 11
128.7
 21
473.5421862133829
 31
0.0
  0
LINE
  5
289
  8
1
  6
CONTINUOUS
 62
     7
 10
129.2
 20
474.5421862133829
 30
0.0
 11
129.2
 21
474.0421862133829
 31
0.0
  0
LINE
  5
28A
  8
1
  6
CONTINUOUS
 62
     7
 10
129.2
 20
474.5421862133829
 30
0.0
 11
145.2
 21
474.5421862133829
 31
0.0
  0
LINE
  5
28B
  8
1
  6
CONTINUOUS
 62
     7
 10
145.2
 20
474.0421862133829
 30
0.0
 11
145.2
 21
474.5421862133829
 31
0.0
  0
LINE
  5
28C
  8
1
  6
CONTINUOUS
 62
     7
 10
145.7
 20
473.5421862133829
 30
0.0
 11
145.6754661628363
 21
473.5427884852803
 31
0.0
  0
LINE
  5
28D
  8
1
  6
CONTINUOUS
 62
     7
 10
145.6754661628363
 20
473.5427884852803
 30
0.0
 11
145.6509914298352
 21
473.5445938500467
 31
0.0
  0
LINE
  5
28E
  8
1
  6
CONTINUOUS
 62
     7
 10
145.6509914298352
 20
473.5445938500467
 30
0.0
 11
145.6266347627723
 21
473.5475979584005
 31
0.0
  0
LINE
  5
28F
  8
1
  6
CONTINUOUS
 62
     7
 10
145.6266347627723
 20
473.5475979584005
 30
0.0
 11
145.602454838992
 21
473.5517935731813
 31
0.0
  0
LINE
  5
290
  8
1
  6
CONTINUOUS
 62
     7
 10
145.602454838992
 20
473.5517935731813
 30
0.0
 11
145.5785099100484
 21
473.5571705867856
 31
0.0
  0
LINE
  5
291
  8
1
  6
CONTINUOUS
 62
     7
 10
145.5785099100484
 20
473.5571705867856
 30
0.0
 11
145.5548576613728
 21
473.5637160455168
 31
0.0
  0
LINE
  5
292
  8
1
  6
CONTINUOUS
 62
     7
 10
145.5548576613728
 20
473.5637160455168
 30
0.0
 11
145.5315550733039
 21
473.5714141807914
 31
0.0
  0
LINE
  5
293
  8
1
  6
CONTINUOUS
 62
     7
 10
145.5315550733039
 20
473.5714141807914
 30
0.0
 11
145.5086582838175
 21
473.5802464471273
 31
0.0
  0
LINE
  5
294
  8
1
  6
CONTINUOUS
 62
     7
 10
145.5086582838175
 20
473.5802464471273
 30
0.0
 11
145.4862224532849
 21
473.5901915668211
 31
0.0
  0
LINE
  5
295
  8
1
  6
CONTINUOUS
 62
     7
 10
145.4862224532849
 20
473.5901915668211
 30
0.0
 11
145.464301631587
 21
473.6012255812087
 31
0.0
  0
LINE
  5
296
  8
1
  6
CONTINUOUS
 62
     7
 10
145.464301631587
 20
473.6012255812087
 30
0.0
 11
145.4429486279034
 21
473.6133219083828
 31
0.0
  0
LINE
  5
297
  8
1
  6
CONTINUOUS
 62
     7
 10
145.4429486279034
 20
473.6133219083828
 30
0.0
 11
145.4222148834903
 21
473.6264514072316
 31
0.0
  0
LINE
  5
298
  8
1
  6
CONTINUOUS
 62
     7
 10
145.4222148834903
 20
473.6264514072316
 30
0.0
 11
145.4021503477538
 21
473.6405824476425
 31
0.0
  0
LINE
  5
299
  8
1
  6
CONTINUOUS
 62
     7
 10
145.4021503477538
 20
473.6405824476425
 30
0.0
 11
145.3828033579182
 21
473.6556809867015
 31
0.0
  0
LINE
  5
29A
  8
1
  6
CONTINUOUS
 62
     7
 10
145.3828033579182
 20
473.6556809867015
 30
0.0
 11
145.3642205225765
 21
473.6717106507054
 31
0.0
  0
LINE
  5
29B
  8
1
  6
CONTINUOUS
 62
     7
 10
145.3642205225765
 20
473.6717106507054
 30
0.0
 11
145.3464466094068
 21
473.6886328227896
 31
0.0
  0
LINE
  5
29C
  8
1
  6
CONTINUOUS
 62
     7
 10
145.3464466094068
 20
473.6886328227896
 30
0.0
 11
145.3295244373226
 21
473.7064067359594
 31
0.0
  0
LINE
  5
29D
  8
1
  6
CONTINUOUS
 62
     7
 10
145.3295244373226
 20
473.7064067359594
 30
0.0
 11
145.3134947733187
 21
473.724989571301
 31
0.0
  0
LINE
  5
29E
  8
1
  6
CONTINUOUS
 62
     7
 10
145.3134947733187
 20
473.724989571301
 30
0.0
 11
145.2983962342597
 21
473.7443365611367
 31
0.0
  0
LINE
  5
29F
  8
1
  6
CONTINUOUS
 62
     7
 10
145.2983962342597
 20
473.7443365611367
 30
0.0
 11
145.2842651938488
 21
473.764401096873
 31
0.0
  0
LINE
  5
2A0
  8
1
  6
CONTINUOUS
 62
     7
 10
145.2842651938488
 20
473.764401096873
 30
0.0
 11
145.2711356949999
 21
473.7851348412863
 31
0.0
  0
LINE
  5
2A1
  8
1
  6
CONTINUOUS
 62
     7
 10
145.2711356949999
 20
473.7851348412863
 30
0.0
 11
145.2590393678259
 21
473.8064878449699
 31
0.0
  0
LINE
  5
2A2
  8
1
  6
CONTINUOUS
 62
     7
 10
145.2590393678259
 20
473.8064878449699
 30
0.0
 11
145.2480053534383
 21
473.8284086666678
 31
0.0
  0
LINE
  5
2A3
  8
1
  6
CONTINUOUS
 62
     7
 10
145.2480053534383
 20
473.8284086666678
 30
0.0
 11
145.2380602337444
 21
473.8508444972003
 31
0.0
  0
LINE
  5
2A4
  8
1
  6
CONTINUOUS
 62
     7
 10
145.2380602337444
 20
473.8508444972003
 30
0.0
 11
145.2292279674085
 21
473.8737412866868
 31
0.0
  0
LINE
  5
2A5
  8
1
  6
CONTINUOUS
 62
     7
 10
145.2292279674085
 20
473.8737412866868
 30
0.0
 11
145.2215298321339
 21
473.8970438747556
 31
0.0
  0
LINE
  5
2A6
  8
1
  6
CONTINUOUS
 62
     7
 10
145.2215298321339
 20
473.8970438747556
 30
0.0
 11
145.2149843734028
 21
473.9206961234312
 31
0.0
  0
LINE
  5
2A7
  8
1
  6
CONTINUOUS
 62
     7
 10
145.2149843734028
 20
473.9206961234312
 30
0.0
 11
145.2096073597984
 21
473.9446410523748
 31
0.0
  0
LINE
  5
2A8
  8
1
  6
CONTINUOUS
 62
     7
 10
145.2096073597984
 20
473.9446410523748
 30
0.0
 11
145.2054117450176
 21
473.9688209761552
 31
0.0
  0
LINE
  5
2A9
  8
1
  6
CONTINUOUS
 62
     7
 10
145.2054117450176
 20
473.9688209761552
 30
0.0
 11
145.2024076366639
 21
473.9931776432181
 31
0.0
  0
LINE
  5
2AA
  8
1
  6
CONTINUOUS
 62
     7
 10
145.2024076366639
 20
473.9931776432181
 30
0.0
 11
145.2006022718975
 21
474.0176523762192
 31
0.0
  0
LINE
  5
2AB
  8
1
  6
CONTINUOUS
 62
     7
 10
145.2006022718975
 20
474.0176523762192
 30
0.0
 11
145.2
 21
474.0421862133829
 31
0.0
  0
LINE
  5
2AC
  8
1
  6
CONTINUOUS
 62
     7
 10
146.7
 20
473.5421862133829
 30
0.0
 11
145.7
 21
473.5421862133829
 31
0.0
  0
LINE
  5
2AD
  8
1
  6
CONTINUOUS
 62
     7
 10
147.2
 20
474.0421862133829
 30
0.0
 11
147.1993977281026
 21
474.0176523762192
 31
0.0
  0
LINE
  5
2AE
  8
1
  6
CONTINUOUS
 62
     7
 10
147.1993977281026
 20
474.0176523762192
 30
0.0
 11
147.1975923633361
 21
473.9931776432181
 31
0.0
  0
LINE
  5
2AF
  8
1
  6
CONTINUOUS
 62
     7
 10
147.1975923633361
 20
473.9931776432181
 30
0.0
 11
147.1945882549824
 21
473.9688209761552
 31
0.0
  0
LINE
  5
2B0
  8
1
  6
CONTINUOUS
 62
     7
 10
147.1945882549824
 20
473.9688209761552
 30
0.0
 11
147.1903926402017
 21
473.9446410523748
 31
0.0
  0
LINE
  5
2B1
  8
1
  6
CONTINUOUS
 62
     7
 10
147.1903926402017
 20
473.9446410523748
 30
0.0
 11
147.1850156265973
 21
473.9206961234312
 31
0.0
  0
LINE
  5
2B2
  8
1
  6
CONTINUOUS
 62
     7
 10
147.1850156265973
 20
473.9206961234312
 30
0.0
 11
147.1784701678662
 21
473.8970438747556
 31
0.0
  0
LINE
  5
2B3
  8
1
  6
CONTINUOUS
 62
     7
 10
147.1784701678662
 20
473.8970438747556
 30
0.0
 11
147.1707720325915
 21
473.8737412866868
 31
0.0
  0
LINE
  5
2B4
  8
1
  6
CONTINUOUS
 62
     7
 10
147.1707720325915
 20
473.8737412866868
 30
0.0
 11
147.1619397662557
 21
473.8508444972003
 31
0.0
  0
LINE
  5
2B5
  8
1
  6
CONTINUOUS
 62
     7
 10
147.1619397662557
 20
473.8508444972003
 30
0.0
 11
147.1519946465617
 21
473.8284086666678
 31
0.0
  0
LINE
  5
2B6
  8
1
  6
CONTINUOUS
 62
     7
 10
147.1519946465617
 20
473.8284086666678
 30
0.0
 11
147.1409606321742
 21
473.8064878449699
 31
0.0
  0
LINE
  5
2B7
  8
1
  6
CONTINUOUS
 62
     7
 10
147.1409606321742
 20
473.8064878449699
 30
0.0
 11
147.1288643050001
 21
473.7851348412863
 31
0.0
  0
LINE
  5
2B8
  8
1
  6
CONTINUOUS
 62
     7
 10
147.1288643050001
 20
473.7851348412863
 30
0.0
 11
147.1157348061513
 21
473.7644010968731
 31
0.0
  0
LINE
  5
2B9
  8
1
  6
CONTINUOUS
 62
     7
 10
147.1157348061513
 20
473.7644010968731
 30
0.0
 11
147.1016037657404
 21
473.7443365611367
 31
0.0
  0
LINE
  5
2BA
  8
1
  6
CONTINUOUS
 62
     7
 10
147.1016037657404
 20
473.7443365611367
 30
0.0
 11
147.0865052266814
 21
473.724989571301
 31
0.0
  0
LINE
  5
2BB
  8
1
  6
CONTINUOUS
 62
     7
 10
147.0865052266814
 20
473.724989571301
 30
0.0
 11
147.0704755626775
 21
473.7064067359594
 31
0.0
  0
LINE
  5
2BC
  8
1
  6
CONTINUOUS
 62
     7
 10
147.0704755626775
 20
473.7064067359594
 30
0.0
 11
147.0535533905933
 21
473.6886328227896
 31
0.0
  0
LINE
  5
2BD
  8
1
  6
CONTINUOUS
 62
     7
 10
147.0535533905933
 20
473.6886328227896
 30
0.0
 11
147.0357794774235
 21
473.6717106507054
 31
0.0
  0
LINE
  5
2BE
  8
1
  6
CONTINUOUS
 62
     7
 10
147.0357794774235
 20
473.6717106507054
 30
0.0
 11
147.0171966420818
 21
473.6556809867015
 31
0.0
  0
LINE
  5
2BF
  8
1
  6
CONTINUOUS
 62
     7
 10
147.0171966420818
 20
473.6556809867015
 30
0.0
 11
146.9978496522462
 21
473.6405824476425
 31
0.0
  0
LINE
  5
2C0
  8
1
  6
CONTINUOUS
 62
     7
 10
146.9978496522462
 20
473.6405824476425
 30
0.0
 11
146.9777851165098
 21
473.6264514072316
 31
0.0
  0
LINE
  5
2C1
  8
1
  6
CONTINUOUS
 62
     7
 10
146.9777851165098
 20
473.6264514072316
 30
0.0
 11
146.9570513720966
 21
473.6133219083827
 31
0.0
  0
LINE
  5
2C2
  8
1
  6
CONTINUOUS
 62
     7
 10
146.9570513720966
 20
473.6133219083827
 30
0.0
 11
146.935698368413
 21
473.6012255812087
 31
0.0
  0
LINE
  5
2C3
  8
1
  6
CONTINUOUS
 62
     7
 10
146.935698368413
 20
473.6012255812087
 30
0.0
 11
146.9137775467152
 21
473.5901915668211
 31
0.0
  0
LINE
  5
2C4
  8
1
  6
CONTINUOUS
 62
     7
 10
146.9137775467152
 20
473.5901915668211
 30
0.0
 11
146.8913417161826
 21
473.5802464471273
 31
0.0
  0
LINE
  5
2C5
  8
1
  6
CONTINUOUS
 62
     7
 10
146.8913417161826
 20
473.5802464471273
 30
0.0
 11
146.8684449266962
 21
473.5714141807914
 31
0.0
  0
LINE
  5
2C6
  8
1
  6
CONTINUOUS
 62
     7
 10
146.8684449266962
 20
473.5714141807914
 30
0.0
 11
146.8451423386273
 21
473.5637160455168
 31
0.0
  0
LINE
  5
2C7
  8
1
  6
CONTINUOUS
 62
     7
 10
146.8451423386273
 20
473.5637160455168
 30
0.0
 11
146.8214900899517
 21
473.5571705867856
 31
0.0
  0
LINE
  5
2C8
  8
1
  6
CONTINUOUS
 62
     7
 10
146.8214900899517
 20
473.5571705867856
 30
0.0
 11
146.7975451610081
 21
473.5517935731813
 31
0.0
  0
LINE
  5
2C9
  8
1
  6
CONTINUOUS
 62
     7
 10
146.7975451610081
 20
473.5517935731813
 30
0.0
 11
146.7733652372277
 21
473.5475979584005
 31
0.0
  0
LINE
  5
2CA
  8
1
  6
CONTINUOUS
 62
     7
 10
146.7733652372277
 20
473.5475979584005
 30
0.0
 11
146.7490085701648
 21
473.5445938500467
 31
0.0
  0
LINE
  5
2CB
  8
1
  6
CONTINUOUS
 62
     7
 10
146.7490085701648
 20
473.5445938500467
 30
0.0
 11
146.7245338371637
 21
473.5427884852803
 31
0.0
  0
LINE
  5
2CC
  8
1
  6
CONTINUOUS
 62
     7
 10
146.7245338371637
 20
473.5427884852803
 30
0.0
 11
146.7
 21
473.5421862133829
 31
0.0
  0
LINE
  5
2CD
  8
1
  6
CONTINUOUS
 62
     7
 10
147.2
 20
474.5421862133829
 30
0.0
 11
147.2
 21
474.0421862133829
 31
0.0
  0
LINE
  5
2CE
  8
1
  6
CONTINUOUS
 62
     7
 10
161.7
 20
459.5421862133829
 30
0.0
 11
162.2000000000001
 21
459.5421862133829
 31
0.0
  0
LINE
  5
2CF
  8
1
  6
CONTINUOUS
 62
     7
 10
161.2
 20
459.0421862133829
 30
0.0
 11
161.2006022718975
 21
459.0667200505466
 31
0.0
  0
LINE
  5
2D0
  8
1
  6
CONTINUOUS
 62
     7
 10
161.2006022718975
 20
459.0667200505466
 30
0.0
 11
161.202407636664
 21
459.0911947835476
 31
0.0
  0
LINE
  5
2D1
  8
1
  6
CONTINUOUS
 62
     7
 10
161.202407636664
 20
459.0911947835476
 30
0.0
 11
161.2054117450176
 21
459.1155514506106
 31
0.0
  0
LINE
  5
2D2
  8
1
  6
CONTINUOUS
 62
     7
 10
161.2054117450176
 20
459.1155514506106
 30
0.0
 11
161.2096073597984
 21
459.1397313743909
 31
0.0
  0
LINE
  5
2D3
  8
1
  6
CONTINUOUS
 62
     7
 10
161.2096073597984
 20
459.1397313743909
 30
0.0
 11
161.2149843734028
 21
459.1636763033345
 31
0.0
  0
LINE
  5
2D4
  8
1
  6
CONTINUOUS
 62
     7
 10
161.2149843734028
 20
459.1636763033345
 30
0.0
 11
161.2215298321339
 21
459.1873285520101
 31
0.0
  0
LINE
  5
2D5
  8
1
  6
CONTINUOUS
 62
     7
 10
161.2215298321339
 20
459.1873285520101
 30
0.0
 11
161.2292279674085
 21
459.210631140079
 31
0.0
  0
LINE
  5
2D6
  8
1
  6
CONTINUOUS
 62
     7
 10
161.2292279674085
 20
459.210631140079
 30
0.0
 11
161.2380602337444
 21
459.2335279295654
 31
0.0
  0
LINE
  5
2D7
  8
1
  6
CONTINUOUS
 62
     7
 10
161.2380602337444
 20
459.2335279295654
 30
0.0
 11
161.2480053534383
 21
459.255963760098
 31
0.0
  0
LINE
  5
2D8
  8
1
  6
CONTINUOUS
 62
     7
 10
161.2480053534383
 20
459.255963760098
 30
0.0
 11
161.2590393678259
 21
459.2778845817958
 31
0.0
  0
LINE
  5
2D9
  8
1
  6
CONTINUOUS
 62
     7
 10
161.2590393678259
 20
459.2778845817958
 30
0.0
 11
161.2711356949999
 21
459.2992375854794
 31
0.0
  0
LINE
  5
2DA
  8
1
  6
CONTINUOUS
 62
     7
 10
161.2711356949999
 20
459.2992375854794
 30
0.0
 11
161.2842651938488
 21
459.3199713298927
 31
0.0
  0
LINE
  5
2DB
  8
1
  6
CONTINUOUS
 62
     7
 10
161.2842651938488
 20
459.3199713298927
 30
0.0
 11
161.2983962342597
 21
459.3400358656291
 31
0.0
  0
LINE
  5
2DC
  8
1
  6
CONTINUOUS
 62
     7
 10
161.2983962342597
 20
459.3400358656291
 30
0.0
 11
161.3134947733187
 21
459.3593828554647
 31
0.0
  0
LINE
  5
2DD
  8
1
  6
CONTINUOUS
 62
     7
 10
161.3134947733187
 20
459.3593828554647
 30
0.0
 11
161.3295244373226
 21
459.3779656908063
 31
0.0
  0
LINE
  5
2DE
  8
1
  6
CONTINUOUS
 62
     7
 10
161.3295244373226
 20
459.3779656908063
 30
0.0
 11
161.3464466094068
 21
459.3957396039762
 31
0.0
  0
LINE
  5
2DF
  8
1
  6
CONTINUOUS
 62
     7
 10
161.3464466094068
 20
459.3957396039762
 30
0.0
 11
161.3642205225765
 21
459.4126617760603
 31
0.0
  0
LINE
  5
2E0
  8
1
  6
CONTINUOUS
 62
     7
 10
161.3642205225765
 20
459.4126617760603
 30
0.0
 11
161.3828033579182
 21
459.4286914400643
 31
0.0
  0
LINE
  5
2E1
  8
1
  6
CONTINUOUS
 62
     7
 10
161.3828033579182
 20
459.4286914400643
 30
0.0
 11
161.4021503477538
 21
459.4437899791232
 31
0.0
  0
LINE
  5
2E2
  8
1
  6
CONTINUOUS
 62
     7
 10
161.4021503477538
 20
459.4437899791232
 30
0.0
 11
161.4222148834902
 21
459.4579210195341
 31
0.0
  0
LINE
  5
2E3
  8
1
  6
CONTINUOUS
 62
     7
 10
161.4222148834902
 20
459.4579210195341
 30
0.0
 11
161.4429486279034
 21
459.471050518383
 31
0.0
  0
LINE
  5
2E4
  8
1
  6
CONTINUOUS
 62
     7
 10
161.4429486279034
 20
459.471050518383
 30
0.0
 11
161.464301631587
 21
459.483146845557
 31
0.0
  0
LINE
  5
2E5
  8
1
  6
CONTINUOUS
 62
     7
 10
161.464301631587
 20
459.483146845557
 30
0.0
 11
161.4862224532849
 21
459.4941808599446
 31
0.0
  0
LINE
  5
2E6
  8
1
  6
CONTINUOUS
 62
     7
 10
161.4862224532849
 20
459.4941808599446
 30
0.0
 11
161.5086582838175
 21
459.5041259796385
 31
0.0
  0
LINE
  5
2E7
  8
1
  6
CONTINUOUS
 62
     7
 10
161.5086582838175
 20
459.5041259796385
 30
0.0
 11
161.5315550733039
 21
459.5129582459743
 31
0.0
  0
LINE
  5
2E8
  8
1
  6
CONTINUOUS
 62
     7
 10
161.5315550733039
 20
459.5129582459743
 30
0.0
 11
161.5548576613728
 21
459.520656381249
 31
0.0
  0
LINE
  5
2E9
  8
1
  6
CONTINUOUS
 62
     7
 10
161.5548576613728
 20
459.520656381249
 30
0.0
 11
161.5785099100484
 21
459.5272018399801
 31
0.0
  0
LINE
  5
2EA
  8
1
  6
CONTINUOUS
 62
     7
 10
161.5785099100484
 20
459.5272018399801
 30
0.0
 11
161.602454838992
 21
459.5325788535845
 31
0.0
  0
LINE
  5
2EB
  8
1
  6
CONTINUOUS
 62
     7
 10
161.602454838992
 20
459.5325788535845
 30
0.0
 11
161.6266347627724
 21
459.5367744683653
 31
0.0
  0
LINE
  5
2EC
  8
1
  6
CONTINUOUS
 62
     7
 10
161.6266347627724
 20
459.5367744683653
 30
0.0
 11
161.6509914298353
 21
459.539778576719
 31
0.0
  0
LINE
  5
2ED
  8
1
  6
CONTINUOUS
 62
     7
 10
161.6509914298353
 20
459.539778576719
 30
0.0
 11
161.6754661628363
 21
459.5415839414854
 31
0.0
  0
LINE
  5
2EE
  8
1
  6
CONTINUOUS
 62
     7
 10
161.6754661628363
 20
459.5415839414854
 30
0.0
 11
161.7
 21
459.5421862133829
 31
0.0
  0
LINE
  5
2EF
  8
1
  6
CONTINUOUS
 62
     7
 10
161.2
 20
458.0421862133829
 30
0.0
 11
161.2
 21
459.0421862133829
 31
0.0
  0
LINE
  5
2F0
  8
1
  6
CONTINUOUS
 62
     7
 10
161.7
 20
457.5421862133829
 30
0.0
 11
161.6754661628363
 21
457.5427884852803
 31
0.0
  0
LINE
  5
2F1
  8
1
  6
CONTINUOUS
 62
     7
 10
161.6754661628363
 20
457.5427884852803
 30
0.0
 11
161.6509914298353
 21
457.5445938500467
 31
0.0
  0
LINE
  5
2F2
  8
1
  6
CONTINUOUS
 62
     7
 10
161.6509914298353
 20
457.5445938500467
 30
0.0
 11
161.6266347627724
 21
457.5475979584005
 31
0.0
  0
LINE
  5
2F3
  8
1
  6
CONTINUOUS
 62
     7
 10
161.6266347627724
 20
457.5475979584005
 30
0.0
 11
161.602454838992
 21
457.5517935731813
 31
0.0
  0
LINE
  5
2F4
  8
1
  6
CONTINUOUS
 62
     7
 10
161.602454838992
 20
457.5517935731813
 30
0.0
 11
161.5785099100484
 21
457.5571705867856
 31
0.0
  0
LINE
  5
2F5
  8
1
  6
CONTINUOUS
 62
     7
 10
161.5785099100484
 20
457.5571705867856
 30
0.0
 11
161.5548576613728
 21
457.5637160455167
 31
0.0
  0
LINE
  5
2F6
  8
1
  6
CONTINUOUS
 62
     7
 10
161.5548576613728
 20
457.5637160455167
 30
0.0
 11
161.5315550733039
 21
457.5714141807914
 31
0.0
  0
LINE
  5
2F7
  8
1
  6
CONTINUOUS
 62
     7
 10
161.5315550733039
 20
457.5714141807914
 30
0.0
 11
161.5086582838175
 21
457.5802464471273
 31
0.0
  0
LINE
  5
2F8
  8
1
  6
CONTINUOUS
 62
     7
 10
161.5086582838175
 20
457.5802464471273
 30
0.0
 11
161.4862224532849
 21
457.5901915668211
 31
0.0
  0
LINE
  5
2F9
  8
1
  6
CONTINUOUS
 62
     7
 10
161.4862224532849
 20
457.5901915668211
 30
0.0
 11
161.464301631587
 21
457.6012255812087
 31
0.0
  0
LINE
  5
2FA
  8
1
  6
CONTINUOUS
 62
     7
 10
161.464301631587
 20
457.6012255812087
 30
0.0
 11
161.4429486279034
 21
457.6133219083827
 31
0.0
  0
LINE
  5
2FB
  8
1
  6
CONTINUOUS
 62
     7
 10
161.4429486279034
 20
457.6133219083827
 30
0.0
 11
161.4222148834902
 21
457.6264514072316
 31
0.0
  0
LINE
  5
2FC
  8
1
  6
CONTINUOUS
 62
     7
 10
161.4222148834902
 20
457.6264514072316
 30
0.0
 11
161.4021503477538
 21
457.6405824476425
 31
0.0
  0
LINE
  5
2FD
  8
1
  6
CONTINUOUS
 62
     7
 10
161.4021503477538
 20
457.6405824476425
 30
0.0
 11
161.3828033579182
 21
457.6556809867015
 31
0.0
  0
LINE
  5
2FE
  8
1
  6
CONTINUOUS
 62
     7
 10
161.3828033579182
 20
457.6556809867015
 30
0.0
 11
161.3642205225765
 21
457.6717106507054
 31
0.0
  0
LINE
  5
2FF
  8
1
  6
CONTINUOUS
 62
     7
 10
161.3642205225765
 20
457.6717106507054
 30
0.0
 11
161.3464466094068
 21
457.6886328227896
 31
0.0
  0
LINE
  5
300
  8
1
  6
CONTINUOUS
 62
     7
 10
161.3464466094068
 20
457.6886328227896
 30
0.0
 11
161.3295244373226
 21
457.7064067359594
 31
0.0
  0
LINE
  5
301
  8
1
  6
CONTINUOUS
 62
     7
 10
161.3295244373226
 20
457.7064067359594
 30
0.0
 11
161.3134947733187
 21
457.724989571301
 31
0.0
  0
LINE
  5
302
  8
1
  6
CONTINUOUS
 62
     7
 10
161.3134947733187
 20
457.724989571301
 30
0.0
 11
161.2983962342597
 21
457.7443365611367
 31
0.0
  0
LINE
  5
303
  8
1
  6
CONTINUOUS
 62
     7
 10
161.2983962342597
 20
457.7443365611367
 30
0.0
 11
161.2842651938488
 21
457.764401096873
 31
0.0
  0
LINE
  5
304
  8
1
  6
CONTINUOUS
 62
     7
 10
161.2842651938488
 20
457.764401096873
 30
0.0
 11
161.2711356949999
 21
457.7851348412862
 31
0.0
  0
LINE
  5
305
  8
1
  6
CONTINUOUS
 62
     7
 10
161.2711356949999
 20
457.7851348412862
 30
0.0
 11
161.2590393678259
 21
457.8064878449699
 31
0.0
  0
LINE
  5
306
  8
1
  6
CONTINUOUS
 62
     7
 10
161.2590393678259
 20
457.8064878449699
 30
0.0
 11
161.2480053534383
 21
457.8284086666677
 31
0.0
  0
LINE
  5
307
  8
1
  6
CONTINUOUS
 62
     7
 10
161.2480053534383
 20
457.8284086666677
 30
0.0
 11
161.2380602337444
 21
457.8508444972003
 31
0.0
  0
LINE
  5
308
  8
1
  6
CONTINUOUS
 62
     7
 10
161.2380602337444
 20
457.8508444972003
 30
0.0
 11
161.2292279674085
 21
457.8737412866868
 31
0.0
  0
LINE
  5
309
  8
1
  6
CONTINUOUS
 62
     7
 10
161.2292279674085
 20
457.8737412866868
 30
0.0
 11
161.2215298321339
 21
457.8970438747556
 31
0.0
  0
LINE
  5
30A
  8
1
  6
CONTINUOUS
 62
     7
 10
161.2215298321339
 20
457.8970438747556
 30
0.0
 11
161.2149843734028
 21
457.9206961234312
 31
0.0
  0
LINE
  5
30B
  8
1
  6
CONTINUOUS
 62
     7
 10
161.2149843734028
 20
457.9206961234312
 30
0.0
 11
161.2096073597984
 21
457.9446410523748
 31
0.0
  0
LINE
  5
30C
  8
1
  6
CONTINUOUS
 62
     7
 10
161.2096073597984
 20
457.9446410523748
 30
0.0
 11
161.2054117450176
 21
457.9688209761552
 31
0.0
  0
LINE
  5
30D
  8
1
  6
CONTINUOUS
 62
     7
 10
161.2054117450176
 20
457.9688209761552
 30
0.0
 11
161.2024076366639
 21
457.9931776432181
 31
0.0
  0
LINE
  5
30E
  8
1
  6
CONTINUOUS
 62
     7
 10
161.2024076366639
 20
457.9931776432181
 30
0.0
 11
161.2006022718975
 21
458.0176523762191
 31
0.0
  0
LINE
  5
30F
  8
1
  6
CONTINUOUS
 62
     7
 10
161.2006022718975
 20
458.0176523762191
 30
0.0
 11
161.2
 21
458.0421862133829
 31
0.0
  0
LINE
  5
310
  8
1
  6
CONTINUOUS
 62
     7
 10
162.2
 20
441.5421862133829
 30
0.0
 11
162.2000000000001
 21
457.5421862133829
 31
0.0
  0
LINE
  5
311
  8
1
  6
CONTINUOUS
 62
     7
 10
161.7
 20
441.5421862133829
 30
0.0
 11
162.2
 21
441.5421862133829
 31
0.0
  0
LINE
  5
312
  8
1
  6
CONTINUOUS
 62
     7
 10
161.2
 20
441.0421862133829
 30
0.0
 11
161.2006022718975
 21
441.0667200505466
 31
0.0
  0
LINE
  5
313
  8
1
  6
CONTINUOUS
 62
     7
 10
161.2006022718975
 20
441.0667200505466
 30
0.0
 11
161.2024076366639
 21
441.0911947835476
 31
0.0
  0
LINE
  5
314
  8
1
  6
CONTINUOUS
 62
     7
 10
161.2024076366639
 20
441.0911947835476
 30
0.0
 11
161.2054117450176
 21
441.1155514506106
 31
0.0
  0
LINE
  5
315
  8
1
  6
CONTINUOUS
 62
     7
 10
161.2054117450176
 20
441.1155514506106
 30
0.0
 11
161.2096073597984
 21
441.1397313743909
 31
0.0
  0
LINE
  5
316
  8
1
  6
CONTINUOUS
 62
     7
 10
161.2096073597984
 20
441.1397313743909
 30
0.0
 11
161.2149843734028
 21
441.1636763033345
 31
0.0
  0
LINE
  5
317
  8
1
  6
CONTINUOUS
 62
     7
 10
161.2149843734028
 20
441.1636763033345
 30
0.0
 11
161.2215298321339
 21
441.1873285520101
 31
0.0
  0
LINE
  5
318
  8
1
  6
CONTINUOUS
 62
     7
 10
161.2215298321339
 20
441.1873285520101
 30
0.0
 11
161.2292279674085
 21
441.2106311400789
 31
0.0
  0
LINE
  5
319
  8
1
  6
CONTINUOUS
 62
     7
 10
161.2292279674085
 20
441.2106311400789
 30
0.0
 11
161.2380602337444
 21
441.2335279295654
 31
0.0
  0
LINE
  5
31A
  8
1
  6
CONTINUOUS
 62
     7
 10
161.2380602337444
 20
441.2335279295654
 30
0.0
 11
161.2480053534383
 21
441.255963760098
 31
0.0
  0
LINE
  5
31B
  8
1
  6
CONTINUOUS
 62
     7
 10
161.2480053534383
 20
441.255963760098
 30
0.0
 11
161.2590393678259
 21
441.2778845817958
 31
0.0
  0
LINE
  5
31C
  8
1
  6
CONTINUOUS
 62
     7
 10
161.2590393678259
 20
441.2778845817958
 30
0.0
 11
161.2711356949999
 21
441.2992375854795
 31
0.0
  0
LINE
  5
31D
  8
1
  6
CONTINUOUS
 62
     7
 10
161.2711356949999
 20
441.2992375854795
 30
0.0
 11
161.2842651938488
 21
441.3199713298926
 31
0.0
  0
LINE
  5
31E
  8
1
  6
CONTINUOUS
 62
     7
 10
161.2842651938488
 20
441.3199713298926
 30
0.0
 11
161.2983962342597
 21
441.3400358656291
 31
0.0
  0
LINE
  5
31F
  8
1
  6
CONTINUOUS
 62
     7
 10
161.2983962342597
 20
441.3400358656291
 30
0.0
 11
161.3134947733187
 21
441.3593828554647
 31
0.0
  0
LINE
  5
320
  8
1
  6
CONTINUOUS
 62
     7
 10
161.3134947733187
 20
441.3593828554647
 30
0.0
 11
161.3295244373226
 21
441.3779656908064
 31
0.0
  0
LINE
  5
321
  8
1
  6
CONTINUOUS
 62
     7
 10
161.3295244373226
 20
441.3779656908064
 30
0.0
 11
161.3464466094068
 21
441.3957396039762
 31
0.0
  0
LINE
  5
322
  8
1
  6
CONTINUOUS
 62
     7
 10
161.3464466094068
 20
441.3957396039762
 30
0.0
 11
161.3642205225765
 21
441.4126617760604
 31
0.0
  0
LINE
  5
323
  8
1
  6
CONTINUOUS
 62
     7
 10
161.3642205225765
 20
441.4126617760604
 30
0.0
 11
161.3828033579182
 21
441.4286914400643
 31
0.0
  0
LINE
  5
324
  8
1
  6
CONTINUOUS
 62
     7
 10
161.3828033579182
 20
441.4286914400643
 30
0.0
 11
161.4021503477538
 21
441.4437899791232
 31
0.0
  0
LINE
  5
325
  8
1
  6
CONTINUOUS
 62
     7
 10
161.4021503477538
 20
441.4437899791232
 30
0.0
 11
161.4222148834902
 21
441.4579210195342
 31
0.0
  0
LINE
  5
326
  8
1
  6
CONTINUOUS
 62
     7
 10
161.4222148834902
 20
441.4579210195342
 30
0.0
 11
161.4429486279034
 21
441.471050518383
 31
0.0
  0
LINE
  5
327
  8
1
  6
CONTINUOUS
 62
     7
 10
161.4429486279034
 20
441.471050518383
 30
0.0
 11
161.464301631587
 21
441.483146845557
 31
0.0
  0
LINE
  5
328
  8
1
  6
CONTINUOUS
 62
     7
 10
161.464301631587
 20
441.483146845557
 30
0.0
 11
161.4862224532849
 21
441.4941808599446
 31
0.0
  0
LINE
  5
329
  8
1
  6
CONTINUOUS
 62
     7
 10
161.4862224532849
 20
441.4941808599446
 30
0.0
 11
161.5086582838175
 21
441.5041259796385
 31
0.0
  0
LINE
  5
32A
  8
1
  6
CONTINUOUS
 62
     7
 10
161.5086582838175
 20
441.5041259796385
 30
0.0
 11
161.5315550733039
 21
441.5129582459743
 31
0.0
  0
LINE
  5
32B
  8
1
  6
CONTINUOUS
 62
     7
 10
161.5315550733039
 20
441.5129582459743
 30
0.0
 11
161.5548576613728
 21
441.520656381249
 31
0.0
  0
LINE
  5
32C
  8
1
  6
CONTINUOUS
 62
     7
 10
161.5548576613728
 20
441.520656381249
 30
0.0
 11
161.5785099100484
 21
441.5272018399802
 31
0.0
  0
LINE
  5
32D
  8
1
  6
CONTINUOUS
 62
     7
 10
161.5785099100484
 20
441.5272018399802
 30
0.0
 11
161.602454838992
 21
441.5325788535845
 31
0.0
  0
LINE
  5
32E
  8
1
  6
CONTINUOUS
 62
     7
 10
161.602454838992
 20
441.5325788535845
 30
0.0
 11
161.6266347627724
 21
441.5367744683653
 31
0.0
  0
LINE
  5
32F
  8
1
  6
CONTINUOUS
 62
     7
 10
161.6266347627724
 20
441.5367744683653
 30
0.0
 11
161.6509914298353
 21
441.539778576719
 31
0.0
  0
LINE
  5
330
  8
1
  6
CONTINUOUS
 62
     7
 10
161.6509914298353
 20
441.539778576719
 30
0.0
 11
161.6754661628363
 21
441.5415839414854
 31
0.0
  0
LINE
  5
331
  8
1
  6
CONTINUOUS
 62
     7
 10
161.6754661628363
 20
441.5415839414854
 30
0.0
 11
161.7
 21
441.5421862133829
 31
0.0
  0
LINE
  5
332
  8
1
  6
CONTINUOUS
 62
     7
 10
161.2
 20
440.0421862133829
 30
0.0
 11
161.2
 21
441.0421862133829
 31
0.0
  0
LINE
  5
333
  8
1
  6
CONTINUOUS
 62
     7
 10
161.7
 20
439.5421862133829
 30
0.0
 11
161.6754661628363
 21
439.5427884852803
 31
0.0
  0
LINE
  5
334
  8
1
  6
CONTINUOUS
 62
     7
 10
161.6754661628363
 20
439.5427884852803
 30
0.0
 11
161.6509914298353
 21
439.5445938500468
 31
0.0
  0
LINE
  5
335
  8
1
  6
CONTINUOUS
 62
     7
 10
161.6509914298353
 20
439.5445938500468
 30
0.0
 11
161.6266347627724
 21
439.5475979584004
 31
0.0
  0
LINE
  5
336
  8
1
  6
CONTINUOUS
 62
     7
 10
161.6266347627724
 20
439.5475979584004
 30
0.0
 11
161.602454838992
 21
439.5517935731812
 31
0.0
  0
LINE
  5
337
  8
1
  6
CONTINUOUS
 62
     7
 10
161.602454838992
 20
439.5517935731812
 30
0.0
 11
161.5785099100484
 21
439.5571705867856
 31
0.0
  0
LINE
  5
338
  8
1
  6
CONTINUOUS
 62
     7
 10
161.5785099100484
 20
439.5571705867856
 30
0.0
 11
161.5548576613728
 21
439.5637160455168
 31
0.0
  0
LINE
  5
339
  8
1
  6
CONTINUOUS
 62
     7
 10
161.5548576613728
 20
439.5637160455168
 30
0.0
 11
161.5315550733039
 21
439.5714141807914
 31
0.0
  0
LINE
  5
33A
  8
1
  6
CONTINUOUS
 62
     7
 10
161.5315550733039
 20
439.5714141807914
 30
0.0
 11
161.5086582838175
 21
439.5802464471272
 31
0.0
  0
LINE
  5
33B
  8
1
  6
CONTINUOUS
 62
     7
 10
161.5086582838175
 20
439.5802464471272
 30
0.0
 11
161.4862224532849
 21
439.5901915668211
 31
0.0
  0
LINE
  5
33C
  8
1
  6
CONTINUOUS
 62
     7
 10
161.4862224532849
 20
439.5901915668211
 30
0.0
 11
161.464301631587
 21
439.6012255812087
 31
0.0
  0
LINE
  5
33D
  8
1
  6
CONTINUOUS
 62
     7
 10
161.464301631587
 20
439.6012255812087
 30
0.0
 11
161.4429486279034
 21
439.6133219083828
 31
0.0
  0
LINE
  5
33E
  8
1
  6
CONTINUOUS
 62
     7
 10
161.4429486279034
 20
439.6133219083828
 30
0.0
 11
161.4222148834902
 21
439.6264514072316
 31
0.0
  0
LINE
  5
33F
  8
1
  6
CONTINUOUS
 62
     7
 10
161.4222148834902
 20
439.6264514072316
 30
0.0
 11
161.4021503477538
 21
439.6405824476426
 31
0.0
  0
LINE
  5
340
  8
1
  6
CONTINUOUS
 62
     7
 10
161.4021503477538
 20
439.6405824476426
 30
0.0
 11
161.3828033579182
 21
439.6556809867015
 31
0.0
  0
LINE
  5
341
  8
1
  6
CONTINUOUS
 62
     7
 10
161.3828033579182
 20
439.6556809867015
 30
0.0
 11
161.3642205225765
 21
439.6717106507054
 31
0.0
  0
LINE
  5
342
  8
1
  6
CONTINUOUS
 62
     7
 10
161.3642205225765
 20
439.6717106507054
 30
0.0
 11
161.3464466094068
 21
439.6886328227896
 31
0.0
  0
LINE
  5
343
  8
1
  6
CONTINUOUS
 62
     7
 10
161.3464466094068
 20
439.6886328227896
 30
0.0
 11
161.3295244373226
 21
439.7064067359594
 31
0.0
  0
LINE
  5
344
  8
1
  6
CONTINUOUS
 62
     7
 10
161.3295244373226
 20
439.7064067359594
 30
0.0
 11
161.3134947733187
 21
439.7249895713011
 31
0.0
  0
LINE
  5
345
  8
1
  6
CONTINUOUS
 62
     7
 10
161.3134947733187
 20
439.7249895713011
 30
0.0
 11
161.2983962342597
 21
439.7443365611367
 31
0.0
  0
LINE
  5
346
  8
1
  6
CONTINUOUS
 62
     7
 10
161.2983962342597
 20
439.7443365611367
 30
0.0
 11
161.2842651938488
 21
439.7644010968731
 31
0.0
  0
LINE
  5
347
  8
1
  6
CONTINUOUS
 62
     7
 10
161.2842651938488
 20
439.7644010968731
 30
0.0
 11
161.2711356949999
 21
439.7851348412863
 31
0.0
  0
LINE
  5
348
  8
1
  6
CONTINUOUS
 62
     7
 10
161.2711356949999
 20
439.7851348412863
 30
0.0
 11
161.2590393678259
 21
439.8064878449699
 31
0.0
  0
LINE
  5
349
  8
1
  6
CONTINUOUS
 62
     7
 10
161.2590393678259
 20
439.8064878449699
 30
0.0
 11
161.2480053534383
 21
439.8284086666677
 31
0.0
  0
LINE
  5
34A
  8
1
  6
CONTINUOUS
 62
     7
 10
161.2480053534383
 20
439.8284086666677
 30
0.0
 11
161.2380602337444
 21
439.8508444972003
 31
0.0
  0
LINE
  5
34B
  8
1
  6
CONTINUOUS
 62
     7
 10
161.2380602337444
 20
439.8508444972003
 30
0.0
 11
161.2292279674085
 21
439.8737412866868
 31
0.0
  0
LINE
  5
34C
  8
1
  6
CONTINUOUS
 62
     7
 10
161.2292279674085
 20
439.8737412866868
 30
0.0
 11
161.2215298321339
 21
439.8970438747556
 31
0.0
  0
LINE
  5
34D
  8
1
  6
CONTINUOUS
 62
     7
 10
161.2215298321339
 20
439.8970438747556
 30
0.0
 11
161.2149843734028
 21
439.9206961234312
 31
0.0
  0
LINE
  5
34E
  8
1
  6
CONTINUOUS
 62
     7
 10
161.2149843734028
 20
439.9206961234312
 30
0.0
 11
161.2096073597984
 21
439.9446410523748
 31
0.0
  0
LINE
  5
34F
  8
1
  6
CONTINUOUS
 62
     7
 10
161.2096073597984
 20
439.9446410523748
 30
0.0
 11
161.2054117450176
 21
439.9688209761552
 31
0.0
  0
LINE
  5
350
  8
1
  6
CONTINUOUS
 62
     7
 10
161.2054117450176
 20
439.9688209761552
 30
0.0
 11
161.2024076366639
 21
439.9931776432181
 31
0.0
  0
LINE
  5
351
  8
1
  6
CONTINUOUS
 62
     7
 10
161.2024076366639
 20
439.9931776432181
 30
0.0
 11
161.2006022718975
 21
440.0176523762191
 31
0.0
  0
LINE
  5
352
  8
1
  6
CONTINUOUS
 62
     7
 10
161.2006022718975
 20
440.0176523762191
 30
0.0
 11
161.2
 21
440.0421862133829
 31
0.0
  0
LINE
  5
353
  8
1
  6
CONTINUOUS
 62
     7
 10
162.2
 20
439.5421862133829
 30
0.0
 11
161.7
 21
439.5421862133829
 31
0.0
  0
LINE
  5
354
  8
1
  6
CONTINUOUS
 62
     7
 10
162.2
 20
434.7421862133829
 30
0.0
 11
162.2
 21
439.5421862133829
 31
0.0
  0
LINE
  5
355
  8
1
  6
CONTINUOUS
 62
     7
 10
157.6956367322508
 20
434.7814951961021
 30
0.0
 11
162.2
 21
434.7421862133829
 31
0.0
  0
LINE
  5
356
  8
1
  6
CONTINUOUS
 62
     7
 10
122.3999999999999
 20
470.0421862133829
 30
0.0
 11
122.3999999999999
 21
474.5421862133829
 31
0.0
  0
LINE
  5
357
  8
1
  6
CONTINUOUS
 62
     7
 10
162.2000000000001
 20
457.5421862133829
 30
0.0
 11
161.7
 21
457.5421862133829
 31
0.0
  0
LINE
  5
358
  8
1
  6
CONTINUOUS
 62
     7
 10
147.2
 20
474.5421862133829
 30
0.0
 11
148.2
 21
474.5421862133829
 31
0.0
  0
LINE
  5
359
  8
1
  6
CONTINUOUS
 62
     7
 10
162.2000000000001
 20
459.5421862133829
 30
0.0
 11
162.2
 21
460.5421862133829
 31
0.0
  0
LINE
  5
35A
  8
1
  6
CONTINUOUS
 62
     7
 10
160.8976568772655
 20
464.5308208371326
 30
0.0
 11
152.1999999999999
 21
473.2284777143982
 31
0.0
  0
LINE
  5
35B
  8
1
  6
CONTINUOUS
 62
     7
 10
157.1999999999999
 20
435.2814761576342
 30
0.0
 11
157.1999999999999
 21
461.1574099025327
 31
0.0
  0
LINE
  5
35C
  8
1
  6
CONTINUOUS
 62
     7
 10
157.1999999999999
 20
435.2814761576342
 30
0.0
 11
157.2005955999012
 21
435.2570785109847
 31
0.0
  0
LINE
  5
35D
  8
1
  6
CONTINUOUS
 62
     7
 10
157.2005955999012
 20
435.2570785109847
 30
0.0
 11
157.2023809806481
 21
435.232738989279
 31
0.0
  0
LINE
  5
35E
  8
1
  6
CONTINUOUS
 62
     7
 10
157.2023809806481
 20
435.232738989279
 30
0.0
 11
157.2053518887501
 21
435.2085155789838
 31
0.0
  0
LINE
  5
35F
  8
1
  6
CONTINUOUS
 62
     7
 10
157.2053518887501
 20
435.2085155789838
 30
0.0
 11
157.2095012463171
 21
435.1844659899426
 31
0.0
  0
LINE
  5
360
  8
1
  6
CONTINUOUS
 62
     7
 10
157.2095012463171
 20
435.1844659899426
 30
0.0
 11
157.2148191679211
 21
435.1606475178864
 31
0.0
  0
LINE
  5
361
  8
1
  6
CONTINUOUS
 62
     7
 10
157.2148191679211
 20
435.1606475178864
 30
0.0
 11
157.2212929841479
 21
435.1371169079339
 31
0.0
  0
LINE
  5
362
  8
1
  6
CONTINUOUS
 62
     7
 10
157.2212929841479
 20
435.1371169079339
 30
0.0
 11
157.2289072717802
 21
435.1139302194009
 31
0.0
  0
LINE
  5
363
  8
1
  6
CONTINUOUS
 62
     7
 10
157.2289072717802
 20
435.1139302194009
 30
0.0
 11
157.2376438905422
 21
435.0911426922449
 31
0.0
  0
LINE
  5
364
  8
1
  6
CONTINUOUS
 62
     7
 10
157.2376438905422
 20
435.0911426922449
 30
0.0
 11
157.2474820263167
 21
435.0688086154618
 31
0.0
  0
LINE
  5
365
  8
1
  6
CONTINUOUS
 62
     7
 10
157.2474820263167
 20
435.0688086154618
 30
0.0
 11
157.2583982407331
 21
435.0469811977471
 31
0.0
  0
LINE
  5
366
  8
1
  6
CONTINUOUS
 62
     7
 10
157.2583982407331
 20
435.0469811977471
 30
0.0
 11
157.2703665270064
 21
435.0257124407322
 31
0.0
  0
LINE
  5
367
  8
1
  6
CONTINUOUS
 62
     7
 10
157.2703665270064
 20
435.0257124407322
 30
0.0
 11
157.283358371896
 21
435.0050530150955
 31
0.0
  0
LINE
  5
368
  8
1
  6
CONTINUOUS
 62
     7
 10
157.283358371896
 20
435.0050530150955
 30
0.0
 11
157.297342823636
 21
434.9850521398445
 31
0.0
  0
LINE
  5
369
  8
1
  6
CONTINUOUS
 62
     7
 10
157.297342823636
 20
434.9850521398445
 30
0.0
 11
157.3122865656739
 21
434.9657574650563
 31
0.0
  0
LINE
  5
36A
  8
1
  6
CONTINUOUS
 62
     7
 10
157.3122865656739
 20
434.9657574650563
 30
0.0
 11
157.3281539960446
 21
434.9472149583567
 31
0.0
  0
LINE
  5
36B
  8
1
  6
CONTINUOUS
 62
     7
 10
157.3281539960446
 20
434.9472149583567
 30
0.0
 11
157.3449073121883
 21
434.9294687954062
 31
0.0
  0
LINE
  5
36C
  8
1
  6
CONTINUOUS
 62
     7
 10
157.3449073121883
 20
434.9294687954062
 30
0.0
 11
157.3625066010112
 21
434.9125612546566
 31
0.0
  0
LINE
  5
36D
  8
1
  6
CONTINUOUS
 62
     7
 10
157.3625066010112
 20
434.9125612546566
 30
0.0
 11
157.3809099339746
 21
434.896532616626
 31
0.0
  0
LINE
  5
36E
  8
1
  6
CONTINUOUS
 62
     7
 10
157.3809099339746
 20
434.896532616626
 30
0.0
 11
157.4000734669853
 21
434.8814210679355
 31
0.0
  0
LINE
  5
36F
  8
1
  6
CONTINUOUS
 62
     7
 10
157.4000734669853
 20
434.8814210679355
 30
0.0
 11
157.4199515448498
 21
434.8672626103328
 31
0.0
  0
LINE
  5
370
  8
1
  6
CONTINUOUS
 62
     7
 10
157.4199515448498
 20
434.8672626103328
 30
0.0
 11
157.4404968100432
 21
434.8540909749216
 31
0.0
  0
LINE
  5
371
  8
1
  6
CONTINUOUS
 62
     7
 10
157.4404968100432
 20
434.8540909749216
 30
0.0
 11
157.4616603155339
 21
434.8419375418009
 31
0.0
  0
LINE
  5
372
  8
1
  6
CONTINUOUS
 62
     7
 10
157.4616603155339
 20
434.8419375418009
 30
0.0
 11
157.4833916413949
 21
434.830831265305
 31
0.0
  0
LINE
  5
373
  8
1
  6
CONTINUOUS
 62
     7
 10
157.4833916413949
 20
434.830831265305
 30
0.0
 11
157.5056390149237
 21
434.8207986050226
 31
0.0
  0
LINE
  5
374
  8
1
  6
CONTINUOUS
 62
     7
 10
157.5056390149237
 20
434.8207986050226
 30
0.0
 11
157.5283494339867
 21
434.8118634627597
 31
0.0
  0
LINE
  5
375
  8
1
  6
CONTINUOUS
 62
     7
 10
157.5283494339867
 20
434.8118634627597
 30
0.0
 11
157.5514687932904
 21
434.8040471255955
 31
0.0
  0
LINE
  5
376
  8
1
  6
CONTINUOUS
 62
     7
 10
157.5514687932904
 20
434.8040471255955
 30
0.0
 11
157.5749420132823
 21
434.7973682151688
 31
0.0
  0
LINE
  5
377
  8
1
  6
CONTINUOUS
 62
     7
 10
157.5749420132823
 20
434.7973682151688
 30
0.0
 11
157.5987131713723
 21
434.791842643313
 31
0.0
  0
LINE
  5
378
  8
1
  6
CONTINUOUS
 62
     7
 10
157.5987131713723
 20
434.791842643313
 30
0.0
 11
157.6227256351629
 21
434.7874835741484
 31
0.0
  0
LINE
  5
379
  8
1
  6
CONTINUOUS
 62
     7
 10
157.6227256351629
 20
434.7874835741484
 30
0.0
 11
157.6469221973697
 21
434.7843013927196
 31
0.0
  0
LINE
  5
37A
  8
1
  6
CONTINUOUS
 62
     7
 10
157.6469221973697
 20
434.7843013927196
 30
0.0
 11
157.6712452121126
 21
434.7823036802544
 31
0.0
  0
LINE
  5
37B
  8
1
  6
CONTINUOUS
 62
     7
 10
157.6712452121126
 20
434.7823036802544
 30
0.0
 11
157.6956367322508
 21
434.7814951961021
 31
0.0
  0
LINE
  5
37C
  8
1
  6
CONTINUOUS
 62
     7
 10
157.1999999999999
 20
461.1574099025327
 30
0.0
 11
148.8152141700064
 21
469.5421957325262
 31
0.0
  0
LINE
  5
37D
  8
1
  6
CONTINUOUS
 62
     7
 10
148.8152236891497
 20
469.5421862133829
 30
0.0
 11
122.8999999999999
 21
469.5421862133829
 31
0.0
  0
LINE
  5
37E
  8
1
  6
CONTINUOUS
 62
     7
 10
122.8999999999999
 20
469.5421862133829
 30
0.0
 11
122.8754661628363
 21
469.5427884852804
 31
0.0
  0
LINE
  5
37F
  8
1
  6
CONTINUOUS
 62
     7
 10
122.8754661628363
 20
469.5427884852804
 30
0.0
 11
122.8509914298352
 21
469.5445938500468
 31
0.0
  0
LINE
  5
380
  8
1
  6
CONTINUOUS
 62
     7
 10
122.8509914298352
 20
469.5445938500468
 30
0.0
 11
122.8266347627723
 21
469.5475979584006
 31
0.0
  0
LINE
  5
381
  8
1
  6
CONTINUOUS
 62
     7
 10
122.8266347627723
 20
469.5475979584006
 30
0.0
 11
122.8024548389919
 21
469.5517935731813
 31
0.0
  0
LINE
  5
382
  8
1
  6
CONTINUOUS
 62
     7
 10
122.8024548389919
 20
469.5517935731813
 30
0.0
 11
122.7785099100483
 21
469.5571705867857
 31
0.0
  0
LINE
  5
383
  8
1
  6
CONTINUOUS
 62
     7
 10
122.7785099100483
 20
469.5571705867857
 30
0.0
 11
122.7548576613727
 21
469.5637160455168
 31
0.0
  0
LINE
  5
384
  8
1
  6
CONTINUOUS
 62
     7
 10
122.7548576613727
 20
469.5637160455168
 30
0.0
 11
122.7315550733039
 21
469.5714141807914
 31
0.0
  0
LINE
  5
385
  8
1
  6
CONTINUOUS
 62
     7
 10
122.7315550733039
 20
469.5714141807914
 30
0.0
 11
122.7086582838174
 21
469.5802464471273
 31
0.0
  0
LINE
  5
386
  8
1
  6
CONTINUOUS
 62
     7
 10
122.7086582838174
 20
469.5802464471273
 30
0.0
 11
122.6862224532848
 21
469.5901915668213
 31
0.0
  0
LINE
  5
387
  8
1
  6
CONTINUOUS
 62
     7
 10
122.6862224532848
 20
469.5901915668213
 30
0.0
 11
122.664301631587
 21
469.6012255812087
 31
0.0
  0
LINE
  5
388
  8
1
  6
CONTINUOUS
 62
     7
 10
122.664301631587
 20
469.6012255812087
 30
0.0
 11
122.6429486279033
 21
469.6133219083828
 31
0.0
  0
LINE
  5
389
  8
1
  6
CONTINUOUS
 62
     7
 10
122.6429486279033
 20
469.6133219083828
 30
0.0
 11
122.6222148834901
 21
469.6264514072317
 31
0.0
  0
LINE
  5
38A
  8
1
  6
CONTINUOUS
 62
     7
 10
122.6222148834901
 20
469.6264514072317
 30
0.0
 11
122.6021503477537
 21
469.6405824476426
 31
0.0
  0
LINE
  5
38B
  8
1
  6
CONTINUOUS
 62
     7
 10
122.6021503477537
 20
469.6405824476426
 30
0.0
 11
122.5828033579181
 21
469.6556809867016
 31
0.0
  0
LINE
  5
38C
  8
1
  6
CONTINUOUS
 62
     7
 10
122.5828033579181
 20
469.6556809867016
 30
0.0
 11
122.5642205225764
 21
469.6717106507054
 31
0.0
  0
LINE
  5
38D
  8
1
  6
CONTINUOUS
 62
     7
 10
122.5642205225764
 20
469.6717106507054
 30
0.0
 11
122.5464466094067
 21
469.6886328227897
 31
0.0
  0
LINE
  5
38E
  8
1
  6
CONTINUOUS
 62
     7
 10
122.5464466094067
 20
469.6886328227897
 30
0.0
 11
122.5295244373225
 21
469.7064067359594
 31
0.0
  0
LINE
  5
38F
  8
1
  6
CONTINUOUS
 62
     7
 10
122.5295244373225
 20
469.7064067359594
 30
0.0
 11
122.5134947733186
 21
469.7249895713011
 31
0.0
  0
LINE
  5
390
  8
1
  6
CONTINUOUS
 62
     7
 10
122.5134947733186
 20
469.7249895713011
 30
0.0
 11
122.4983962342596
 21
469.7443365611367
 31
0.0
  0
LINE
  5
391
  8
1
  6
CONTINUOUS
 62
     7
 10
122.4983962342596
 20
469.7443365611367
 30
0.0
 11
122.4842651938487
 21
469.7644010968731
 31
0.0
  0
LINE
  5
392
  8
1
  6
CONTINUOUS
 62
     7
 10
122.4842651938487
 20
469.7644010968731
 30
0.0
 11
122.4711356949998
 21
469.7851348412863
 31
0.0
  0
LINE
  5
393
  8
1
  6
CONTINUOUS
 62
     7
 10
122.4711356949998
 20
469.7851348412863
 30
0.0
 11
122.4590393678258
 21
469.8064878449699
 31
0.0
  0
LINE
  5
394
  8
1
  6
CONTINUOUS
 62
     7
 10
122.4590393678258
 20
469.8064878449699
 30
0.0
 11
122.4480053534382
 21
469.8284086666678
 31
0.0
  0
LINE
  5
395
  8
1
  6
CONTINUOUS
 62
     7
 10
122.4480053534382
 20
469.8284086666678
 30
0.0
 11
122.4380602337443
 21
469.8508444972004
 31
0.0
  0
LINE
  5
396
  8
1
  6
CONTINUOUS
 62
     7
 10
122.4380602337443
 20
469.8508444972004
 30
0.0
 11
122.4292279674085
 21
469.8737412866868
 31
0.0
  0
LINE
  5
397
  8
1
  6
CONTINUOUS
 62
     7
 10
122.4292279674085
 20
469.8737412866868
 30
0.0
 11
122.4215298321339
 21
469.8970438747557
 31
0.0
  0
LINE
  5
398
  8
1
  6
CONTINUOUS
 62
     7
 10
122.4215298321339
 20
469.8970438747557
 30
0.0
 11
122.4149843734027
 21
469.9206961234313
 31
0.0
  0
LINE
  5
399
  8
1
  6
CONTINUOUS
 62
     7
 10
122.4149843734027
 20
469.9206961234313
 30
0.0
 11
122.4096073597983
 21
469.9446410523749
 31
0.0
  0
LINE
  5
39A
  8
1
  6
CONTINUOUS
 62
     7
 10
122.4096073597983
 20
469.9446410523749
 30
0.0
 11
122.4054117450176
 21
469.9688209761552
 31
0.0
  0
LINE
  5
39B
  8
1
  6
CONTINUOUS
 62
     7
 10
122.4054117450176
 20
469.9688209761552
 30
0.0
 11
122.4024076366639
 21
469.9931776432181
 31
0.0
  0
LINE
  5
39C
  8
1
  6
CONTINUOUS
 62
     7
 10
122.4024076366639
 20
469.9931776432181
 30
0.0
 11
122.4006022718974
 21
470.0176523762192
 31
0.0
  0
LINE
  5
39D
  8
1
  6
CONTINUOUS
 62
     7
 10
122.4006022718974
 20
470.0176523762192
 30
0.0
 11
122.3999999999999
 21
470.0421862133829
 31
0.0
  0
LINE
  5
39E
  8
1
  6
CONTINUOUS
 62
     7
 10
126.8041451884327
 20
469.5421862133829
 30
0.0
 11
126.2825239662737
 21
468.6387117542973
 31
0.0
  0
LINE
  5
39F
  8
1
  6
CONTINUOUS
 62
     7
 10
126.2825239662737
 20
468.6387117542973
 30
0.0
 11
124.2953280875141
 21
468.7428562773035
 31
0.0
  0
ARC
  5
3A0
  8
1
  6
CONTINUOUS
 62
     7
 10
124.3999999999999
 20
470.7401153468127
 30
0.0
 40
2.0
 50
216.3525749305049
 51
266.9999999999999
  0
ARC
  5
3A1
  8
1
  6
CONTINUOUS
 62
     7
 10
158.4999999999999
 20
436.7421862133829
 30
0.0
 40
2.0
 50
180.0
 51
229.4583981265
  0
ARC
  5
3A2
  8
1
  6
CONTINUOUS
 62
     7
 10
158.4999999999999
 20
436.7421862133829
 30
0.0
 40
2.0
 50
259.1784867308173
 51
270.0
  0
LINE
  5
3A3
  8
1
  6
CONTINUOUS
 62
     7
 10
156.4999999999999
 20
437.5874856750037
 30
0.0
 11
156.4999999999999
 21
436.7421862133829
 31
0.0
  0
ARC
  5
3A4
  8
1
  6
CONTINUOUS
 62
     7
 10
158.4999999999999
 20
437.5874856750037
 30
0.0
 40
2.0
 50
130.5416018735051
 51
180.0
  0
LINE
  5
3A5
  8
1
  6
CONTINUOUS
 62
     7
 10
159.3660254037844
 20
434.7421862133829
 30
0.0
 11
159.5172339231829
 21
434.7655983582488
 31
0.0
  0
LINE
  5
3A6
  8
1
  6
CONTINUOUS
 62
     7
 10
158.4999999999999
 20
434.7421862133829
 30
0.0
 11
159.3660254037844
 21
434.7421862133829
 31
0.0
  0
LINE
  5
3A7
  8
1
  6
CONTINUOUS
 62
     7
 10
157.2
 20
435.2223177980257
 30
0.0
 11
157.2
 21
434.4921712163827
 31
0.0
  0
LINE
  5
3A8
  8
1
  6
CONTINUOUS
 62
     7
 10
162.3
 20
399.5421862133829
 30
0.0
 11
162.2
 21
399.5421862133829
 31
0.0
  0
ARC
  5
3A9
  8
1
  6
CONTINUOUS
 62
     7
 10
162.2
 20
399.5421862133829
 30
0.0
 40
0.1000000000000167
 50
270.0
 51
0.0
  0
ARC
  5
3AA
  8
1
  6
CONTINUOUS
 62
     7
 10
162.2
 20
434.5421862133829
 30
0.0
 40
0.099999999999989
 50
0.0
 51
90.0
  0
LINE
  5
3AB
  8
1
  6
CONTINUOUS
 62
     7
 10
162.3
 20
434.5421862133829
 30
0.0
 11
162.2
 21
434.5421862133829
 31
0.0
  0
ARC
  5
3AC
  8
1
  6
CONTINUOUS
 62
     7
 10
162.2
 20
399.5421862133829
 30
0.0
 40
0.099999999999989
 50
0.0
 51
90.0
  0
ARC
  5
3AD
  8
1
  6
CONTINUOUS
 62
     7
 10
162.2
 20
434.5421862133829
 30
0.0
 40
0.1000000000000167
 50
270.0
 51
0.0
  0
LINE
  5
3AE
  8
1
  6
CONTINUOUS
 62
     7
 10
150.3811370949914
 20
462.7037972360024
 30
0.0
 11
150.3811370949914
 21
467.9762728075412
 31
0.0
  0
LINE
  5
3AF
  8
1
  6
CONTINUOUS
 62
     7
 10
150.2539088663858
 20
462.5781392142734
 30
0.0
 11
126.4869357932006
 21
462.6640517594719
 31
0.0
  0
LINE
  5
3B0
  8
1
  6
CONTINUOUS
 62
     7
 10
150.3811370949914
 20
462.7037972360024
 30
0.0
 11
150.2539088663858
 21
462.5781392142734
 31
0.0
  0
LINE
  5
3B1
  8
1
  6
CONTINUOUS
 62
     7
 10
122.4
 20
464.5421862133828
 30
0.0
 11
122.4000000000001
 21
470.0421862133829
 31
0.0
  0
LINE
  5
3B2
  8
1
  6
CONTINUOUS
 62
     7
 10
150.2539088663858
 20
462.5781392142734
 30
0.0
 11
150.2539088663858
 21
438.8324165528596
 31
0.0
  0
ARC
  5
3B3
  8
1
  6
CONTINUOUS
 62
     7
 10
150.8892461453777
 20
463.2314323587605
 30
0.0
 40
32.09999999999999
 50
202.3417673041944
 51
247.6582326958056
  0
ARC
  5
3B4
  8
1
  6
CONTINUOUS
 62
     7
 10
162.2000000000001
 20
684.5421862133828
 30
0.0
 40
252.0999999999999
 50
264.6483407141976
 51
270.0
  0
LINE
  5
3B5
  8
1
  6
CONTINUOUS
 62
     7
 10
162.2000000000001
 20
432.4421862133829
 30
0.0
 11
162.2
 21
433.9421862133829
 31
0.0
  0
ARC
  5
3B6
  8
1
  6
CONTINUOUS
 62
     7
 10
372.2
 20
474.5421862133828
 30
0.0
 40
252.0999999999999
 50
180.0
 51
185.3516592858024
  0
LINE
  5
3B7
  8
1
  6
CONTINUOUS
 62
     7
 10
121.6000000000001
 20
474.5421862133828
 30
0.0
 11
120.1000000000001
 21
474.5421862133828
 31
0.0
  0
LINE
  5
3B8
  8
1
  6
CONTINUOUS
 62
     7
 10
121.6000000000001
 20
474.5421862133828
 30
0.0
 11
122.1000000000001
 21
474.5421862133828
 31
0.0
  0
LINE
  5
3B9
  8
1
  6
CONTINUOUS
 62
     7
 10
162.2000000000001
 20
433.9421862133829
 30
0.0
 11
162.2000000000001
 21
434.4421862133829
 31
0.0
  0
LINE
  5
3BA
  8
1
  6
CONTINUOUS
 62
     7
 10
162.2
 20
434.7421862133829
 30
0.0
 11
162.2000000000001
 21
434.4421862133828
 31
0.0
  0
LINE
  5
3BB
  8
1
  6
CONTINUOUS
 62
     7
 10
122.3999999999999
 20
474.5421862133828
 30
0.0
 11
122.1
 21
474.5421862133828
 31
0.0
  0
LINE
  5
3BC
  8
1
  6
CONTINUOUS
 62
     7
 10
148.7
 20
434.8068062609219
 30
0.0
 11
148.7
 21
434.9069523220109
 31
0.0
  0
LINE
  5
3BD
  8
1
  6
CONTINUOUS
 62
     7
 10
151.7
 20
434.7627835397437
 30
0.0
 11
151.7
 21
434.6626952582426
 31
0.0
  0
LINE
  5
3BE
  8
1
  6
CONTINUOUS
 62
     7
 10
148.2
 20
434.9344940242198
 30
0.0
 11
148.2
 21
434.8343369174506
 31
0.0
  0
LINE
  5
3BF
  8
1
  6
CONTINUOUS
 62
     7
 10
152.2
 20
434.6421862133829
 30
0.0
 11
152.2
 21
434.742266277447
 31
0.0
  0
LINE
  5
3C0
  8
1
  6
CONTINUOUS
 62
     7
 10
122.4205973263609
 20
464.0421862133828
 30
0.0
 11
122.3205090448598
 21
464.0421862133828
 31
0.0
  0
LINE
  5
3C1
  8
1
  6
CONTINUOUS
 62
     7
 10
122.3000000000001
 20
464.5421862133828
 30
0.0
 11
122.4000800640641
 21
464.5421862133828
 31
0.0
  0
LINE
  5
3C2
  8
1
  6
CONTINUOUS
 62
     7
 10
122.4646200475392
 20
461.0421862133828
 30
0.0
 11
122.5647661086281
 21
461.0421862133828
 31
0.0
  0
LINE
  5
3C3
  8
1
  6
CONTINUOUS
 62
     7
 10
122.592307810837
 20
460.5421862133828
 30
0.0
 11
122.4921507040678
 21
460.5421862133828
 31
0.0
  0
LINE
  5
3C4
  8
1
  6
CONTINUOUS
 62
     7
 10
138.7016916394367
 20
433.5350771082468
 30
0.0
 11
138.7833231870594
 21
433.4502072895484
 31
0.0
  0
LINE
  5
3C5
  8
1
  6
CONTINUOUS
 62
     7
 10
138.7833231870594
 20
433.4502072895484
 30
0.0
 11
138.8271724803524
 21
433.3256935434935
 31
0.0
  0
ARC
  5
3C6
  8
1
  6
CONTINUOUS
 62
     7
 10
134.2410702024595
 20
432.8511792042775
 30
0.0
 40
4.610585425020989
 50
345.3466364929415
 51
5.907253182868544
  0
LINE
  5
3C7
  8
1
  6
CONTINUOUS
 62
     7
 10
138.68705660647
 20
431.5498056044605
 30
0.0
 11
138.7016916394364
 21
431.6848369057226
 31
0.0
  0
LINE
  5
3C8
  8
1
  6
CONTINUOUS
 62
     7
 10
162.2
 20
430.4421862133829
 30
0.0
 11
162.2000000000001
 21
432.4421862133828
 31
0.0
  0
LINE
  5
3C9
  8
1
  6
CONTINUOUS
 62
     7
 10
138.68705660647
 20
431.5498056044605
 30
0.0
 11
138.68705660647
 21
376.0421862133829
 31
0.0
  0
LINE
  5
3CA
  8
1
  6
CONTINUOUS
 62
     7
 10
162.2000000000001
 20
430.4421862133829
 30
0.0
 11
162.2000000000001
 21
376.0421862133829
 31
0.0
  0
LINE
  5
3CB
  8
1
  6
CONTINUOUS
 62
     7
 10
162.2
 20
374.5421862133829
 30
0.0
 11
139.052440826231
 21
374.5421862133829
 31
0.0
  0
LINE
  5
3CC
  8
1
  6
CONTINUOUS
 62
     7
 10
139.0524408262311
 20
374.5421862133829
 30
0.0
 11
138.953235788892
 21
374.5979713232441
 31
0.0
  0
LINE
  5
3CD
  8
1
  6
CONTINUOUS
 62
     7
 10
138.953235788892
 20
374.5979713232441
 30
0.0
 11
138.895939741091
 21
374.6855803749436
 31
0.0
  0
LINE
  5
3CE
  8
1
  6
CONTINUOUS
 62
     7
 10
138.895939741091
 20
374.6855803749436
 30
0.0
 11
138.8550789566149
 21
374.7782345457788
 31
0.0
  0
ARC
  5
3CF
  8
1
  6
CONTINUOUS
 62
     7
 10
142.8801531444378
 20
375.9564481806895
 30
0.0
 40
4.193973007420004
 50
178.8286120006591
 51
196.3157292055795
  0
LINE
  5
3D0
  8
1
  6
CONTINUOUS
 62
     7
 10
162.2
 20
376.0421862133829
 30
0.0
 11
162.2
 21
374.5421862133829
 31
0.0
  0
LINE
  5
3D1
  8
1
  6
CONTINUOUS
 62
     7
 10
139.0524408262311
 20
374.5421862133829
 30
0.0
 11
122.6713433204579
 21
374.5421862133829
 31
0.0
  0
LINE
  5
3D2
  8
1
  6
CONTINUOUS
 62
     7
 10
120.1
 20
473.0421862133828
 30
0.0
 11
120.1
 21
376.0421862133829
 31
0.0
  0
ARC
  5
3D3
  8
1
  6
CONTINUOUS
 62
     7
 10
372.2
 20
473.0421862133829
 30
0.0
 40
252.1000000000001
 50
179.8295442363213
 51
180.0
  0
ARC
  5
3D4
  8
1
  6
CONTINUOUS
 62
     7
 10
121.6000000000001
 20
376.0421862133829
 30
0.0
 40
1.500000000000001
 50
179.9999999999989
 51
270.0
  0
LINE
  5
3D5
  8
1
  6
CONTINUOUS
 62
     7
 10
122.6713433204581
 20
374.5421862133829
 30
0.0
 11
121.6000000000004
 21
374.5421862133829
 31
0.0
  0
LINE
  5
3D6
  8
1
  6
CONTINUOUS
 62
     7
 10
281.7921862133829
 20
402.0421862133828
 30
0.0
 11
296.7921862133829
 21
402.0421862133829
 31
0.0
  0
LINE
  5
3D7
  8
1
  6
CONTINUOUS
 62
     7
 10
281.7921862133829
 20
432.0421862133829
 30
0.0
 11
281.7921862133829
 21
402.0421862133828
 31
0.0
  0
LINE
  5
3D8
  8
1
  6
CONTINUOUS
 62
     7
 10
296.7921862133829
 20
432.0421862133829
 30
0.0
 11
281.7921862133829
 21
432.0421862133829
 31
0.0
  0
LINE
  5
3D9
  8
1
  6
CONTINUOUS
 62
     7
 10
296.7921862133829
 20
402.0421862133829
 30
0.0
 11
296.7921862133829
 21
432.0421862133829
 31
0.0
  0
LINE
  5
3DA
  8
1
  6
CONTINUOUS
 62
     7
 10
236.3096399489645
 20
434.742266277447
 30
0.0
 11
241.2921862133829
 21
434.742266277447
 31
0.0
  0
LINE
  5
3DB
  8
1
  6
CONTINUOUS
 62
     7
 10
234.2921862133828
 20
441.5421862133829
 30
0.0
 11
234.2921862133828
 21
439.5272851874486
 31
0.0
  0
LINE
  5
3DC
  8
1
  6
CONTINUOUS
 62
     7
 10
234.2921862133828
 20
464.5421862133827
 30
0.0
 11
234.3036507737692
 21
464.5421862133827
 31
0.0
  0
LINE
  5
3DD
  8
1
  6
CONTINUOUS
 62
     7
 10
234.2921862133829
 20
459.5421862133829
 30
0.0
 11
234.2921862133829
 21
457.5421862133829
 31
0.0
  0
LINE
  5
3DE
  8
1
  6
CONTINUOUS
 62
     7
 10
279.2772851874484
 20
394.5421862133829
 30
0.0
 11
281.2921862133829
 21
394.5421862133829
 31
0.0
  0
LINE
  5
3DF
  8
1
  6
CONTINUOUS
 62
     7
 10
304.2921862133829
 20
394.553650773769
 30
0.0
 11
304.2921862133829
 21
394.5421862133829
 31
0.0
  0
LINE
  5
3E0
  8
1
  6
CONTINUOUS
 62
     7
 10
297.2921862133829
 20
394.5421862133828
 30
0.0
 11
299.2921862133829
 21
394.5421862133828
 31
0.0
  0
ARC
  5
3E1
  8
1
  6
CONTINUOUS
 62
     7
 10
283.3921862133829
 20
434.5421862133829
 30
0.0
 40
0.099999999999989
 50
90.0
 51
180.0
  0
LINE
  5
3E2
  8
1
  6
CONTINUOUS
 62
     7
 10
283.3921862133829
 20
434.6421862133828
 30
0.0
 11
283.3921862133829
 21
434.5421862133829
 31
0.0
  0
LINE
  5
3E3
  8
1
  6
CONTINUOUS
 62
     7
 10
283.3921862133829
 20
434.5421862133829
 30
0.0
 11
283.2921862133829
 21
434.5421862133829
 31
0.0
  0
ARC
  5
3E4
  8
1
  6
CONTINUOUS
 62
     7
 10
283.3921862133829
 20
434.5421862133829
 30
0.0
 40
0.099999999999989
 50
180.0
 51
270.0
  0
LINE
  5
3E5
  8
1
  6
CONTINUOUS
 62
     7
 10
283.3921862133829
 20
434.5421862133829
 30
0.0
 11
283.3921862133829
 21
434.4421862133829
 31
0.0
  0
LINE
  5
3E6
  8
1
  6
CONTINUOUS
 62
     7
 10
295.1921862133829
 20
434.6421862133828
 30
0.0
 11
283.3921862133829
 21
434.6421862133828
 31
0.0
  0
LINE
  5
3E7
  8
1
  6
CONTINUOUS
 62
     7
 10
295.1921862133829
 20
434.5421862133829
 30
0.0
 11
295.1921862133829
 21
434.6421862133828
 31
0.0
  0
LINE
  5
3E8
  8
1
  6
CONTINUOUS
 62
     7
 10
283.3921862133829
 20
434.5421862133829
 30
0.0
 11
295.1921862133829
 21
434.5421862133829
 31
0.0
  0
LINE
  5
3E9
  8
1
  6
CONTINUOUS
 62
     7
 10
295.1921862133829
 20
434.4421862133829
 30
0.0
 11
295.1921862133829
 21
434.5421862133829
 31
0.0
  0
LINE
  5
3EA
  8
1
  6
CONTINUOUS
 62
     7
 10
283.3921862133829
 20
434.4421862133829
 30
0.0
 11
295.1921862133829
 21
434.4421862133829
 31
0.0
  0
ARC
  5
3EB
  8
1
  6
CONTINUOUS
 62
     7
 10
295.1921862133829
 20
434.5421862133829
 30
0.0
 40
0.1000000000000445
 50
270.0
 51
0.0
  0
LINE
  5
3EC
  8
1
  6
CONTINUOUS
 62
     7
 10
295.2921862133829
 20
434.5421862133829
 30
0.0
 11
295.1921862133829
 21
434.5421862133829
 31
0.0
  0
ARC
  5
3ED
  8
1
  6
CONTINUOUS
 62
     7
 10
295.1921862133829
 20
434.5421862133829
 30
0.0
 40
0.099999999999989
 50
0.0
 51
90.0
  0
ARC
  5
3EE
  8
1
  6
CONTINUOUS
 62
     7
 10
283.3921862133829
 20
399.5421862133829
 30
0.0
 40
0.099999999999989
 50
90.0
 51
180.0
  0
LINE
  5
3EF
  8
1
  6
CONTINUOUS
 62
     7
 10
283.3921862133829
 20
399.6421862133828
 30
0.0
 11
283.3921862133829
 21
399.5421862133829
 31
0.0
  0
LINE
  5
3F0
  8
1
  6
CONTINUOUS
 62
     7
 10
283.3921862133829
 20
399.5421862133829
 30
0.0
 11
283.2921862133829
 21
399.5421862133829
 31
0.0
  0
ARC
  5
3F1
  8
1
  6
CONTINUOUS
 62
     7
 10
283.3921862133829
 20
399.5421862133829
 30
0.0
 40
0.1000000000000445
 50
180.0
 51
270.0
  0
LINE
  5
3F2
  8
1
  6
CONTINUOUS
 62
     7
 10
283.3921862133829
 20
399.5421862133829
 30
0.0
 11
283.3921862133829
 21
399.4421862133829
 31
0.0
  0
LINE
  5
3F3
  8
1
  6
CONTINUOUS
 62
     7
 10
283.3921862133829
 20
399.5421862133829
 30
0.0
 11
295.1921862133829
 21
399.5421862133829
 31
0.0
  0
LINE
  5
3F4
  8
1
  6
CONTINUOUS
 62
     7
 10
295.1921862133829
 20
399.4421862133829
 30
0.0
 11
295.1921862133829
 21
399.5421862133829
 31
0.0
  0
LINE
  5
3F5
  8
1
  6
CONTINUOUS
 62
     7
 10
283.3921862133829
 20
399.4421862133829
 30
0.0
 11
295.1921862133829
 21
399.4421862133829
 31
0.0
  0
LINE
  5
3F6
  8
1
  6
CONTINUOUS
 62
     7
 10
295.1921862133829
 20
399.6421862133828
 30
0.0
 11
283.3921862133829
 21
399.6421862133828
 31
0.0
  0
LINE
  5
3F7
  8
1
  6
CONTINUOUS
 62
     7
 10
295.1921862133829
 20
399.5421862133829
 30
0.0
 11
295.1921862133829
 21
399.6421862133828
 31
0.0
  0
LINE
  5
3F8
  8
1
  6
CONTINUOUS
 62
     7
 10
295.2921862133829
 20
399.5421862133829
 30
0.0
 11
295.1921862133829
 21
399.5421862133829
 31
0.0
  0
ARC
  5
3F9
  8
1
  6
CONTINUOUS
 62
     7
 10
295.1921862133829
 20
399.5421862133829
 30
0.0
 40
0.099999999999989
 50
0.0
 51
90.0
  0
ARC
  5
3FA
  8
1
  6
CONTINUOUS
 62
     7
 10
295.1921862133829
 20
399.5421862133829
 30
0.0
 40
0.1000000000000445
 50
270.0
 51
0.0
  0
LINE
  5
3FB
  8
1
  6
CONTINUOUS
 62
     7
 10
276.292186213383
 20
463.2284777143982
 30
0.0
 11
276.292186213383
 21
461.8142641520251
 31
0.0
  0
LINE
  5
3FC
  8
1
  6
CONTINUOUS
 62
     7
 10
276.292186213383
 20
461.8142641520251
 30
0.0
 11
276.3069711596885
 21
461.8321862133829
 31
0.0
  0
LINE
  5
3FD
  8
1
  6
CONTINUOUS
 62
     7
 10
279.2921862133829
 20
461.8321862133829
 30
0.0
 11
276.3069711596885
 21
461.8321862133829
 31
0.0
  0
LINE
  5
3FE
  8
1
  6
CONTINUOUS
 62
     7
 10
279.2921862133829
 20
459.5421862133828
 30
0.0
 11
279.2921862133829
 21
461.8321862133829
 31
0.0
  0
LINE
  5
3FF
  8
1
  6
CONTINUOUS
 62
     7
 10
234.292186213383
 20
459.5421862133829
 30
0.0
 11
279.2921862133829
 21
459.5421862133828
 31
0.0
  0
LINE
  5
400
  8
1
  6
CONTINUOUS
 62
     7
 10
234.292186213383
 20
459.5421862133829
 30
0.0
 11
234.292186213383
 21
460.5421862133829
 31
0.0
  0
LINE
  5
401
  8
1
  6
CONTINUOUS
 62
     7
 10
234.292186213383
 20
460.5421862133829
 30
0.0
 11
220.2921481364471
 21
460.5421862133829
 31
0.0
  0
POLYLINE
  5
402
  8
1
  6
CONTINUOUS
 62
     7
 66
     1
 10
0.0
 20
0.0
 30
0.0
  0
VERTEX
  5
501
  8
1
  6
CONTINUOUS
 62
     7
 10
219.292186213383
 20
461.5421481364471
 30
0.0
  0
VERTEX
  5
502
  8
1
  6
CONTINUOUS
 62
     7
 10
219.3113998075439
 20
461.3470611859451
 30
0.0
  0
VERTEX
  5
503
  8
1
  6
CONTINUOUS
 62
     7
 10
219.3683022937387
 20
461.1594735193033
 30
0.0
  0
VERTEX
  5
504
  8
1
  6
CONTINUOUS
 62
     7
 10
219.4607071526734
 20
460.9865933286384
 30
0.0
  0
VERTEX
  5
505
  8
1
  6
CONTINUOUS
 62
     7
 10
219.5850636606378
 20
460.8350636606378
 30
0.0
  0
VERTEX
  5
506
  8
1
  6
CONTINUOUS
 62
     7
 10
219.7365933286384
 20
460.7107071526735
 30
0.0
  0
VERTEX
  5
507
  8
1
  6
CONTINUOUS
 62
     7
 10
219.9094735193033
 20
460.6183022937387
 30
0.0
  0
VERTEX
  5
508
  8
1
  6
CONTINUOUS
 62
     7
 10
220.097061185945
 20
460.561399807544
 30
0.0
  0
VERTEX
  5
509
  8
1
  6
CONTINUOUS
 62
     7
 10
220.2921481364471
 20
460.542186213383
 30
0.0
  0
SEQEND
  5
541
  8
1
  6
CONTINUOUS
 62
     7
  0
LINE
  5
403
  8
1
  6
CONTINUOUS
 62
     7
 10
219.292186213383
 20
463.2284777143982
 30
0.0
 11
219.292186213383
 21
461.5421481364471
 31
0.0
  0
LINE
  5
404
  8
1
  6
CONTINUOUS
 62
     7
 10
234.292186213383
 20
441.5421862133829
 30
0.0
 11
279.2921862133829
 21
441.5421862133829
 31
0.0
  0
LINE
  5
405
  8
1
  6
CONTINUOUS
 62
     7
 10
234.292186213383
 20
441.5421862133829
 30
0.0
 11
234.292186213383
 21
457.5421862133829
 31
0.0
  0
LINE
  5
406
  8
1
  6
CONTINUOUS
 62
     7
 10
279.2921862133829
 20
441.5421862133829
 30
0.0
 11
279.2921862133829
 21
457.5421862133828
 31
0.0
  0
CIRCLE
  5
407
  8
1
  6
CONTINUOUS
 62
     7
 10
249.2921862133829
 20
449.5421862133828
 30
0.0
 40
2.000000000000002
  0
LINE
  5
408
  8
1
  6
CONTINUOUS
 62
     7
 10
234.292186213383
 20
457.5421862133829
 30
0.0
 11
279.2921862133829
 21
457.5421862133828
 31
0.0
  0
LINE
  5
409
  8
1
  6
CONTINUOUS
 62
     7
 10
281.2921862133829
 20
459.5421862133828
 30
0.0
 11
293.7954257978182
 21
459.5421862133828
 31
0.0
  0
LINE
  5
40A
  8
1
  6
CONTINUOUS
 62
     7
 10
281.2921862133829
 20
459.5421862133828
 30
0.0
 11
281.2921862133829
 21
461.8321862133829
 31
0.0
  0
LINE
  5
40B
  8
1
  6
CONTINUOUS
 62
     7
 10
291.5054257978182
 20
461.8321862133829
 30
0.0
 11
281.2921862133829
 21
461.8321862133829
 31
0.0
  0
LINE
  5
40C
  8
1
  6
CONTINUOUS
 62
     7
 10
293.7954257978182
 20
459.5421862133828
 30
0.0
 11
291.5054257978182
 21
461.8321862133829
 31
0.0
  0
LINE
  5
40D
  8
1
  6
CONTINUOUS
 62
     7
 10
297.2921862133829
 20
441.5421862133829
 30
0.0
 11
297.2921862133829
 21
456.0454257978182
 31
0.0
  0
LINE
  5
40E
  8
1
  6
CONTINUOUS
 62
     7
 10
281.2921862133829
 20
441.5421862133829
 30
0.0
 11
297.2921862133829
 21
441.5421862133829
 31
0.0
  0
LINE
  5
40F
  8
1
  6
CONTINUOUS
 62
     7
 10
281.2921862133829
 20
457.5421862133828
 30
0.0
 11
295.7954257978182
 21
457.5421862133829
 31
0.0
  0
LINE
  5
410
  8
1
  6
CONTINUOUS
 62
     7
 10
281.2921862133829
 20
441.5421862133829
 30
0.0
 11
281.2921862133829
 21
457.5421862133828
 31
0.0
  0
LINE
  5
411
  8
1
  6
CONTINUOUS
 62
     7
 10
297.2921862133829
 20
456.0454257978182
 30
0.0
 11
295.7954257978182
 21
457.5421862133829
 31
0.0
  0
POLYLINE
  5
412
  8
1
  6
CONTINUOUS
 62
     7
 66
     1
 10
0.0
 20
0.0
 30
0.0
  0
VERTEX
  5
50A
  8
1
  6
CONTINUOUS
 62
     7
 10
274.492186213383
 20
430.7423385211263
 30
0.0
  0
VERTEX
  5
50B
  8
1
  6
CONTINUOUS
 62
     7
 10
274.4153318367392
 20
431.5226863231347
 30
0.0
  0
VERTEX
  5
50C
  8
1
  6
CONTINUOUS
 62
     7
 10
274.1877218919602
 20
432.2730369897018
 30
0.0
  0
VERTEX
  5
50D
  8
1
  6
CONTINUOUS
 62
     7
 10
273.8181024562212
 20
432.9645577523611
 30
0.0
  0
VERTEX
  5
50E
  8
1
  6
CONTINUOUS
 62
     7
 10
273.3206764243636
 20
433.5706764243636
 30
0.0
  0
VERTEX
  5
50F
  8
1
  6
CONTINUOUS
 62
     7
 10
272.7145577523611
 20
434.0681024562212
 30
0.0
  0
VERTEX
  5
510
  8
1
  6
CONTINUOUS
 62
     7
 10
272.0230369897018
 20
434.4377218919602
 30
0.0
  0
VERTEX
  5
511
  8
1
  6
CONTINUOUS
 62
     7
 10
271.2726863231347
 20
434.6653318367392
 30
0.0
  0
VERTEX
  5
512
  8
1
  6
CONTINUOUS
 62
     7
 10
270.4923385211263
 20
434.742186213383
 30
0.0
  0
SEQEND
  5
542
  8
1
  6
CONTINUOUS
 62
     7
  0
LINE
  5
413
  8
1
  6
CONTINUOUS
 62
     7
 10
270.4923385211262
 20
434.7421862133829
 30
0.0
 11
261.7921671749151
 21
434.7421862133829
 31
0.0
  0
POLYLINE
  5
414
  8
1
  6
CONTINUOUS
 62
     7
 66
     1
 10
0.0
 20
0.0
 30
0.0
  0
VERTEX
  5
513
  8
1
  6
CONTINUOUS
 62
     7
 10
261.292186213383
 20
435.242167174915
 30
0.0
  0
VERTEX
  5
514
  8
1
  6
CONTINUOUS
 62
     7
 10
261.3017930104635
 20
435.144623699664
 30
0.0
  0
VERTEX
  5
515
  8
1
  6
CONTINUOUS
 62
     7
 10
261.3302442535609
 20
435.0508298663431
 30
0.0
  0
VERTEX
  5
516
  8
1
  6
CONTINUOUS
 62
     7
 10
261.3764466830282
 20
434.9643897710106
 30
0.0
  0
VERTEX
  5
517
  8
1
  6
CONTINUOUS
 62
     7
 10
261.4386249370104
 20
434.8886249370103
 30
0.0
  0
VERTEX
  5
518
  8
1
  6
CONTINUOUS
 62
     7
 10
261.5143897710108
 20
434.8264466830281
 30
0.0
  0
VERTEX
  5
519
  8
1
  6
CONTINUOUS
 62
     7
 10
261.6008298663432
 20
434.7802442535608
 30
0.0
  0
VERTEX
  5
51A
  8
1
  6
CONTINUOUS
 62
     7
 10
261.6946236996641
 20
434.7517930104634
 30
0.0
  0
VERTEX
  5
51B
  8
1
  6
CONTINUOUS
 62
     7
 10
261.7921671749151
 20
434.7421862133829
 30
0.0
  0
SEQEND
  5
543
  8
1
  6
CONTINUOUS
 62
     7
  0
LINE
  5
415
  8
1
  6
CONTINUOUS
 62
     7
 10
261.2921862133829
 20
437.7421862133829
 30
0.0
 11
261.2921862133829
 21
435.242167174915
 31
0.0
  0
LINE
  5
416
  8
1
  6
CONTINUOUS
 62
     7
 10
261.2921862133829
 20
437.7421862133829
 30
0.0
 11
236.3096399489645
 21
437.7421862133829
 31
0.0
  0
LINE
  5
417
  8
1
  6
CONTINUOUS
 62
     7
 10
236.3096399489645
 20
437.7421862133829
 30
0.0
 11
236.3096399489645
 21
434.7421862133829
 31
0.0
  0
LINE
  5
418
  8
1
  6
CONTINUOUS
 62
     7
 10
236.3096399489645
 20
434.7421862133829
 30
0.0
 11
234.292186213383
 21
434.7421862133829
 31
0.0
  0
LINE
  5
419
  8
1
  6
CONTINUOUS
 62
     7
 10
234.292186213383
 20
439.5421862133829
 30
0.0
 11
279.2921862133829
 21
439.5421862133829
 31
0.0
  0
LINE
  5
41A
  8
1
  6
CONTINUOUS
 62
     7
 10
279.2921862133829
 20
394.5421862133829
 30
0.0
 11
279.2921862133829
 21
439.5421862133829
 31
0.0
  0
LINE
  5
41B
  8
1
  6
CONTINUOUS
 62
     7
 10
274.4921862133829
 20
394.5421862133829
 30
0.0
 11
279.2921862133829
 21
394.5421862133829
 31
0.0
  0
LINE
  5
41C
  8
1
  6
CONTINUOUS
 62
     7
 10
274.4921862133829
 20
396.5596399489644
 30
0.0
 11
274.4921862133829
 21
394.5421862133829
 31
0.0
  0
LINE
  5
41D
  8
1
  6
CONTINUOUS
 62
     7
 10
277.4921862133829
 20
396.5596399489644
 30
0.0
 11
274.4921862133829
 21
396.5596399489644
 31
0.0
  0
LINE
  5
41E
  8
1
  6
CONTINUOUS
 62
     7
 10
277.4921862133829
 20
421.5421862133828
 30
0.0
 11
277.4921862133829
 21
396.5596399489644
 31
0.0
  0
LINE
  5
41F
  8
1
  6
CONTINUOUS
 62
     7
 10
277.4921862133829
 20
421.5421862133828
 30
0.0
 11
274.992167174915
 21
421.5421862133828
 31
0.0
  0
POLYLINE
  5
420
  8
1
  6
CONTINUOUS
 62
     7
 66
     1
 10
0.0
 20
0.0
 30
0.0
  0
VERTEX
  5
51C
  8
1
  6
CONTINUOUS
 62
     7
 10
274.4921862133829
 20
422.0421671749149
 30
0.0
  0
VERTEX
  5
51D
  8
1
  6
CONTINUOUS
 62
     7
 10
274.5017930104634
 20
421.9446236996639
 30
0.0
  0
VERTEX
  5
51E
  8
1
  6
CONTINUOUS
 62
     7
 10
274.5302442535608
 20
421.850829866343
 30
0.0
  0
VERTEX
  5
51F
  8
1
  6
CONTINUOUS
 62
     7
 10
274.5764466830282
 20
421.7643897710106
 30
0.0
  0
VERTEX
  5
520
  8
1
  6
CONTINUOUS
 62
     7
 10
274.6386249370104
 20
421.6886249370103
 30
0.0
  0
VERTEX
  5
521
  8
1
  6
CONTINUOUS
 62
     7
 10
274.7143897710107
 20
421.6264466830281
 30
0.0
  0
VERTEX
  5
522
  8
1
  6
CONTINUOUS
 62
     7
 10
274.8008298663431
 20
421.5802442535607
 30
0.0
  0
VERTEX
  5
523
  8
1
  6
CONTINUOUS
 62
     7
 10
274.894623699664
 20
421.5517930104633
 30
0.0
  0
VERTEX
  5
524
  8
1
  6
CONTINUOUS
 62
     7
 10
274.992167174915
 20
421.5421862133828
 30
0.0
  0
SEQEND
  5
544
  8
1
  6
CONTINUOUS
 62
     7
  0
LINE
  5
421
  8
1
  6
CONTINUOUS
 62
     7
 10
274.4921862133829
 20
430.7423385211263
 30
0.0
 11
274.4921862133829
 21
422.0421671749149
 31
0.0
  0
LINE
  5
422
  8
1
  6
CONTINUOUS
 62
     7
 10
234.292186213383
 20
434.7421862133829
 30
0.0
 11
234.292186213383
 21
439.5421862133829
 31
0.0
  0
LINE
  5
423
  8
1
  6
CONTINUOUS
 62
     7
 10
276.3069711596885
 20
461.8321862133829
 30
0.0
 11
276.2921862133829
 21
461.8321862133828
 31
0.0
  0
LINE
  5
424
  8
1
  6
CONTINUOUS
 62
     7
 10
281.2921862133829
 20
394.5421862133829
 30
0.0
 11
297.2921862133829
 21
394.5421862133829
 31
0.0
  0
LINE
  5
425
  8
1
  6
CONTINUOUS
 62
     7
 10
281.2921862133829
 20
439.5421862133829
 30
0.0
 11
297.2921862133829
 21
439.5421862133829
 31
0.0
  0
LINE
  5
426
  8
1
  6
CONTINUOUS
 62
     7
 10
297.2921862133829
 20
394.5421862133829
 30
0.0
 11
297.2921862133829
 21
439.5421862133829
 31
0.0
  0
LINE
  5
427
  8
1
  6
CONTINUOUS
 62
     7
 10
281.2921862133829
 20
394.5421862133829
 30
0.0
 11
281.2921862133829
 21
439.5421862133829
 31
0.0
  0
LINE
  5
428
  8
1
  6
CONTINUOUS
 62
     7
 10
299.2921862133829
 20
441.5421862133829
 30
0.0
 11
301.5821862133829
 21
441.5421862133829
 31
0.0
  0
LINE
  5
429
  8
1
  6
CONTINUOUS
 62
     7
 10
301.5821862133829
 20
451.7554257978182
 30
0.0
 11
301.5821862133829
 21
441.5421862133829
 31
0.0
  0
LINE
  5
42A
  8
1
  6
CONTINUOUS
 62
     7
 10
299.2921862133829
 20
441.5421862133829
 30
0.0
 11
299.2921862133829
 21
454.0454257978182
 31
0.0
  0
LINE
  5
42B
  8
1
  6
CONTINUOUS
 62
     7
 10
301.5821862133829
 20
451.7554257978182
 30
0.0
 11
299.2921862133829
 21
454.0454257978182
 31
0.0
  0
LINE
  5
42C
  8
1
  6
CONTINUOUS
 62
     7
 10
299.2921862133829
 20
394.5421862133829
 30
0.0
 11
299.2921862133829
 21
439.5421862133829
 31
0.0
  0
LINE
  5
42D
  8
1
  6
CONTINUOUS
 62
     7
 10
299.2921862133829
 20
439.5421862133829
 30
0.0
 11
301.5821862133829
 21
439.5421862133829
 31
0.0
  0
LINE
  5
42E
  8
1
  6
CONTINUOUS
 62
     7
 10
301.5821862133829
 20
439.5421862133829
 30
0.0
 11
301.5821862133829
 21
436.5569711596883
 31
0.0
  0
LINE
  5
42F
  8
1
  6
CONTINUOUS
 62
     7
 10
301.5642641520251
 20
436.5421862133829
 30
0.0
 11
301.5821862133829
 21
436.5569711596883
 31
0.0
  0
LINE
  5
430
  8
1
  6
CONTINUOUS
 62
     7
 10
302.9784777143982
 20
436.5421862133829
 30
0.0
 11
301.5642641520251
 21
436.5421862133829
 31
0.0
  0
LINE
  5
431
  8
1
  6
CONTINUOUS
 62
     7
 10
302.9784777143982
 20
379.5421862133829
 30
0.0
 11
301.2921481364471
 21
379.5421862133829
 31
0.0
  0
POLYLINE
  5
432
  8
1
  6
CONTINUOUS
 62
     7
 66
     1
 10
0.0
 20
0.0
 30
0.0
  0
VERTEX
  5
525
  8
1
  6
CONTINUOUS
 62
     7
 10
300.292186213383
 20
380.542148136447
 30
0.0
  0
VERTEX
  5
526
  8
1
  6
CONTINUOUS
 62
     7
 10
300.3113998075439
 20
380.347061185945
 30
0.0
  0
VERTEX
  5
527
  8
1
  6
CONTINUOUS
 62
     7
 10
300.3683022937387
 20
380.1594735193032
 30
0.0
  0
VERTEX
  5
528
  8
1
  6
CONTINUOUS
 62
     7
 10
300.4607071526735
 20
379.9865933286383
 30
0.0
  0
VERTEX
  5
529
  8
1
  6
CONTINUOUS
 62
     7
 10
300.5850636606378
 20
379.8350636606377
 30
0.0
  0
VERTEX
  5
52A
  8
1
  6
CONTINUOUS
 62
     7
 10
300.7365933286384
 20
379.7107071526734
 30
0.0
  0
VERTEX
  5
52B
  8
1
  6
CONTINUOUS
 62
     7
 10
300.9094735193033
 20
379.6183022937386
 30
0.0
  0
VERTEX
  5
52C
  8
1
  6
CONTINUOUS
 62
     7
 10
301.097061185945
 20
379.5613998075438
 30
0.0
  0
VERTEX
  5
52D
  8
1
  6
CONTINUOUS
 62
     7
 10
301.2921481364471
 20
379.5421862133829
 30
0.0
  0
SEQEND
  5
545
  8
1
  6
CONTINUOUS
 62
     7
  0
LINE
  5
433
  8
1
  6
CONTINUOUS
 62
     7
 10
300.2921862133829
 20
394.5421862133829
 30
0.0
 11
300.2921862133829
 21
380.5421481364471
 31
0.0
  0
LINE
  5
434
  8
1
  6
CONTINUOUS
 62
     7
 10
299.2921862133829
 20
394.5421862133829
 30
0.0
 11
300.2921862133829
 21
394.5421862133829
 31
0.0
  0
LINE
  5
435
  8
1
  6
CONTINUOUS
 62
     7
 10
314.2921862133829
 20
436.5421862133829
 30
0.0
 11
314.2921862133829
 21
379.6409194516767
 31
0.0
  0
LINE
  5
436
  8
1
  6
CONTINUOUS
 62
     7
 10
312.9784777143982
 20
379.6294548912904
 30
0.0
 11
314.2921862133829
 21
379.6409194516767
 31
0.0
  0
LINE
  5
437
  8
1
  6
CONTINUOUS
 62
     7
 10
304.2808208371326
 20
394.5535515896332
 30
0.0
 11
304.2808208371326
 21
379.5535515896332
 31
0.0
  0
LINE
  5
438
  8
1
  6
CONTINUOUS
 62
     7
 10
304.2808208371326
 20
379.5535515896332
 30
0.0
 11
302.9784777143982
 21
379.5421862133829
 31
0.0
  0
LINE
  5
439
  8
1
  6
CONTINUOUS
 62
     7
 10
314.2921862133829
 20
436.5421862133829
 30
0.0
 11
302.9784777143982
 21
436.5421862133829
 31
0.0
  0
LINE
  5
43A
  8
1
  6
CONTINUOUS
 62
     7
 10
306.7014703755773
 20
399.6514703755773
 30
0.0
 11
312.5028478611985
 21
399.9555076863813
 31
0.0
  0
LINE
  5
43B
  8
1
  6
CONTINUOUS
 62
     7
 10
312.5028478611985
 20
418.1288647403844
 30
0.0
 11
312.5028478611985
 21
399.9555076863813
 31
0.0
  0
LINE
  5
43C
  8
1
  6
CONTINUOUS
 62
     7
 10
306.7014703755773
 20
418.4329020511884
 30
0.0
 11
312.5028478611985
 21
418.1288647403844
 31
0.0
  0
LINE
  5
43D
  8
1
  6
CONTINUOUS
 62
     7
 10
306.7014703755773
 20
399.6514703755773
 30
0.0
 11
306.7014703755773
 21
418.4329020511884
 31
0.0
  0
LINE
  5
43E
  8
1
  6
CONTINUOUS
 62
     7
 10
304.2808208371326
 20
394.5535515896332
 30
0.0
 11
312.9784777143982
 21
394.6294548912904
 31
0.0
  0
LINE
  5
43F
  8
1
  6
CONTINUOUS
 62
     7
 10
301.5821862133829
 20
436.5421862133829
 30
0.0
 11
301.5821862133829
 21
436.5569711596883
 31
0.0
  0
LINE
  5
440
  8
1
  6
CONTINUOUS
 62
     7
 10
234.3035515896333
 20
464.5308208371326
 30
0.0
 11
219.3035515896333
 21
464.5308208371326
 31
0.0
  0
LINE
  5
441
  8
1
  6
CONTINUOUS
 62
     7
 10
219.3794548912906
 20
473.2284777143982
 30
0.0
 11
219.3909194516768
 21
474.5421862133829
 31
0.0
  0
LINE
  5
442
  8
1
  6
CONTINUOUS
 62
     7
 10
276.292186213383
 20
474.5421862133829
 30
0.0
 11
219.3909194516768
 21
474.5421862133829
 31
0.0
  0
LINE
  5
443
  8
1
  6
CONTINUOUS
 62
     7
 10
276.292186213383
 20
474.5421862133829
 30
0.0
 11
276.292186213383
 21
463.2284777143982
 31
0.0
  0
LINE
  5
444
  8
1
  6
CONTINUOUS
 62
     7
 10
258.1829020511885
 20
466.9514703755773
 30
0.0
 11
257.8788647403845
 21
472.7528478611985
 31
0.0
  0
LINE
  5
445
  8
1
  6
CONTINUOUS
 62
     7
 10
257.8788647403845
 20
472.7528478611985
 30
0.0
 11
239.7055076863814
 21
472.7528478611985
 31
0.0
  0
LINE
  5
446
  8
1
  6
CONTINUOUS
 62
     7
 10
239.4014703755774
 20
466.9514703755773
 30
0.0
 11
239.7055076863814
 21
472.7528478611985
 31
0.0
  0
LINE
  5
447
  8
1
  6
CONTINUOUS
 62
     7
 10
239.4014703755774
 20
466.9514703755773
 30
0.0
 11
258.1829020511885
 21
466.9514703755773
 31
0.0
  0
LINE
  5
448
  8
1
  6
CONTINUOUS
 62
     7
 10
219.3035515896333
 20
464.5308208371326
 30
0.0
 11
219.292186213383
 21
463.2284777143982
 31
0.0
  0
LINE
  5
449
  8
1
  6
CONTINUOUS
 62
     7
 10
234.3035515896333
 20
464.5308208371326
 30
0.0
 11
234.3794548912905
 21
473.2284777143982
 31
0.0
  0
LINE
  5
44A
  8
1
  6
CONTINUOUS
 62
     7
 10
234.3009130811737
 20
459.0421862133829
 30
0.0
 11
234.2965496472784
 21
459.5421862133829
 31
0.0
  0
LINE
  5
44B
  8
1
  6
CONTINUOUS
 62
     7
 10
234.2965496472784
 20
457.5421862133829
 30
0.0
 11
234.3009130811737
 21
458.0421862133829
 31
0.0
  0
LINE
  5
44C
  8
1
  6
CONTINUOUS
 62
     7
 10
234.3009130811737
 20
441.0421862133829
 30
0.0
 11
234.2965496472784
 21
441.5421862133829
 31
0.0
  0
LINE
  5
44D
  8
1
  6
CONTINUOUS
 62
     7
 10
234.2965496472784
 20
439.5421862133829
 30
0.0
 11
234.3009130811737
 21
440.0421862133829
 31
0.0
  0
LINE
  5
44E
  8
1
  6
CONTINUOUS
 62
     7
 10
279.7921862133829
 20
461.8321862133828
 30
0.0
 11
279.2921862133829
 21
461.8321862133828
 31
0.0
  0
LINE
  5
44F
  8
1
  6
CONTINUOUS
 62
     7
 10
281.2921862133829
 20
461.8321862133828
 30
0.0
 11
280.7921862133829
 21
461.8321862133828
 31
0.0
  0
LINE
  5
450
  8
1
  6
CONTINUOUS
 62
     7
 10
294.2954257978182
 20
459.0421862133828
 30
0.0
 11
293.7954257978182
 21
459.5421862133828
 31
0.0
  0
LINE
  5
451
  8
1
  6
CONTINUOUS
 62
     7
 10
295.7954257978182
 20
457.5421862133828
 30
0.0
 11
295.2954257978183
 21
458.0421862133828
 31
0.0
  0
LINE
  5
452
  8
1
  6
CONTINUOUS
 62
     7
 10
279.7921862133829
 20
394.5509130811736
 30
0.0
 11
279.2921862133829
 21
394.5465496472783
 31
0.0
  0
LINE
  5
453
  8
1
  6
CONTINUOUS
 62
     7
 10
281.2921862133829
 20
394.5465496472783
 30
0.0
 11
280.7921862133829
 21
394.5509130811736
 31
0.0
  0
LINE
  5
454
  8
1
  6
CONTINUOUS
 62
     7
 10
297.7921862133829
 20
455.5454257978182
 30
0.0
 11
297.2921862133829
 21
456.0454257978182
 31
0.0
  0
LINE
  5
455
  8
1
  6
CONTINUOUS
 62
     7
 10
297.7921862133829
 20
394.5509130811736
 30
0.0
 11
297.2921862133829
 21
394.5465496472783
 31
0.0
  0
LINE
  5
456
  8
1
  6
CONTINUOUS
 62
     7
 10
299.2921862133829
 20
394.5465496472783
 30
0.0
 11
298.7921862133829
 21
394.5509130811736
 31
0.0
  0
LINE
  5
457
  8
1
  6
CONTINUOUS
 62
     7
 10
301.5821862133829
 20
439.5421862133829
 30
0.0
 11
301.5821862133829
 21
440.0421862133829
 31
0.0
  0
LINE
  5
458
  8
1
  6
CONTINUOUS
 62
     7
 10
301.5821862133829
 20
441.0421862133829
 30
0.0
 11
301.5821862133829
 21
441.5421862133829
 31
0.0
  0
LINE
  5
459
  8
1
  6
CONTINUOUS
 62
     7
 10
301.5821862133829
 20
440.0421862133829
 30
0.0
 11
301.5821862133829
 21
441.0421862133829
 31
0.0
  0
LINE
  5
45A
  8
1
  6
CONTINUOUS
 62
     7
 10
280.7921862133829
 20
394.5509130811736
 30
0.0
 11
279.7921862133829
 21
394.5509130811736
 31
0.0
  0
LINE
  5
45B
  8
1
  6
CONTINUOUS
 62
     7
 10
298.7921862133829
 20
394.5509130811736
 30
0.0
 11
297.7921862133829
 21
394.5509130811736
 31
0.0
  0
LINE
  5
45C
  8
1
  6
CONTINUOUS
 62
     7
 10
280.7921862133829
 20
461.8321862133828
 30
0.0
 11
279.7921862133829
 21
461.8321862133828
 31
0.0
  0
LINE
  5
45D
  8
1
  6
CONTINUOUS
 62
     7
 10
234.3009130811737
 20
458.0421862133829
 30
0.0
 11
234.3009130811737
 21
459.0421862133829
 31
0.0
  0
LINE
  5
45E
  8
1
  6
CONTINUOUS
 62
     7
 10
234.3009130811737
 20
440.0421862133829
 30
0.0
 11
234.3009130811737
 21
441.0421862133829
 31
0.0
  0
LINE
  5
45F
  8
1
  6
CONTINUOUS
 62
     7
 10
294.2954257978182
 20
459.0421862133829
 30
0.0
 11
295.2954257978182
 21
458.0421862133828
 31
0.0
  0
LINE
  5
460
  8
1
  6
CONTINUOUS
 62
     7
 10
297.7921862133829
 20
455.5454257978182
 30
0.0
 11
299.2921862133829
 21
454.0454257978182
 31
0.0
  0
LINE
  5
461
  8
1
  6
CONTINUOUS
 62
     7
 10
277.4588528800496
 20
474.3088528800496
 30
0.0
 11
277.4588528800496
 21
464.6284777143981
 31
0.0
  0
LINE
  5
462
  8
1
  6
CONTINUOUS
 62
     7
 10
277.4588528800496
 20
474.3088528800496
 30
0.0
 11
277.692186213383
 21
474.5421862133829
 31
0.0
  0
LINE
  5
463
  8
1
  6
CONTINUOUS
 62
     7
 10
303.2694823708587
 20
474.5421862133829
 30
0.0
 11
277.692186213383
 21
474.5421862133829
 31
0.0
  0
LINE
  5
464
  8
1
  6
CONTINUOUS
 62
     7
 10
293.3557738718739
 20
464.6284777143981
 30
0.0
 11
303.2694823708587
 21
474.5421862133829
 31
0.0
  0
LINE
  5
465
  8
1
  6
CONTINUOUS
 62
     7
 10
277.4588528800496
 20
464.6284777143981
 30
0.0
 11
293.3557738718739
 21
464.6284777143981
 31
0.0
  0
LINE
  5
466
  8
1
  6
CONTINUOUS
 62
     7
 10
304.3784777143982
 20
453.6057738718737
 30
0.0
 11
293.3557738718739
 21
464.6284777143981
 31
0.0
  0
LINE
  5
467
  8
1
  6
CONTINUOUS
 62
     7
 10
304.3784777143982
 20
453.6057738718737
 30
0.0
 11
304.3784777143982
 21
437.7088528800495
 31
0.0
  0
LINE
  5
468
  8
1
  6
CONTINUOUS
 62
     7
 10
303.2694823708587
 20
474.5421862133829
 30
0.0
 11
303.2921862133829
 21
474.5421862133829
 31
0.0
  0
LINE
  5
469
  8
1
  6
CONTINUOUS
 62
     7
 10
303.2921862133829
 20
474.5421862133829
 30
0.0
 11
314.2921862133829
 21
463.5421862133829
 31
0.0
  0
LINE
  5
46A
  8
1
  6
CONTINUOUS
 62
     7
 10
314.2921862133829
 20
463.5421862133829
 30
0.0
 11
314.2921862133829
 21
463.5194823708585
 31
0.0
  0
LINE
  5
46B
  8
1
  6
CONTINUOUS
 62
     7
 10
314.2921862133829
 20
463.5194823708585
 30
0.0
 11
304.3784777143982
 21
453.6057738718737
 31
0.0
  0
LINE
  5
46C
  8
1
  6
CONTINUOUS
 62
     7
 10
314.2921862133829
 20
463.5194823708585
 30
0.0
 11
314.2921862133829
 21
437.9421862133829
 31
0.0
  0
LINE
  5
46D
  8
1
  6
CONTINUOUS
 62
     7
 10
314.0588528800496
 20
437.7088528800495
 30
0.0
 11
314.2921862133829
 21
437.9421862133829
 31
0.0
  0
LINE
  5
46E
  8
1
  6
CONTINUOUS
 62
     7
 10
314.0588528800496
 20
437.7088528800495
 30
0.0
 11
304.3784777143982
 21
437.7088528800495
 31
0.0
  0
LINE
  5
46F
  8
1
  6
CONTINUOUS
 62
     7
 10
277.4921862133829
 20
401.585892969949
 30
0.0
 11
277.1261608095984
 21
401.611138663111
 31
0.0
  0
LINE
  5
470
  8
1
  6
CONTINUOUS
 62
     7
 10
277.1261608095984
 20
416.4732337636547
 30
0.0
 11
277.4921862133829
 21
416.4984794568167
 31
0.0
  0
LINE
  5
471
  8
1
  6
CONTINUOUS
 62
     7
 10
256.2484794568168
 20
437.7421862133829
 30
0.0
 11
256.2232337636548
 21
437.3761608095984
 31
0.0
  0
LINE
  5
472
  8
1
  6
CONTINUOUS
 62
     7
 10
241.3611386631111
 20
437.3761608095984
 30
0.0
 11
241.3358929699491
 21
437.7421862133829
 31
0.0
  0
LINE
  5
473
  8
1
  6
CONTINUOUS
 62
     7
 10
258.1829020511885
 20
466.9514703755773
 30
0.0
 11
258.0421153044129
 21
467.092257122353
 31
0.0
  0
LINE
  5
474
  8
1
  6
CONTINUOUS
 62
     7
 10
312.2921862133829
 20
416.8637706187787
 30
0.0
 11
312.2921862133829
 21
401.2206018079869
 31
0.0
  0
LINE
  5
475
  8
1
  6
CONTINUOUS
 62
     7
 10
256.6137706187789
 20
472.5421862133829
 30
0.0
 11
240.970601807987
 21
472.5421862133829
 31
0.0
  0
LINE
  5
476
  8
1
  6
CONTINUOUS
 62
     7
 10
312.8794358528226
 20
379.6294548912904
 30
0.0
 11
312.9784777143982
 21
379.6294548912904
 31
0.0
  0
POLYLINE
  5
477
  8
1
  6
CONTINUOUS
 62
     7
 66
     1
 10
0.0
 20
0.0
 30
0.0
  0
VERTEX
  5
52E
  8
1
  6
CONTINUOUS
 62
     7
 10
312.3794548912905
 20
380.1294358528227
 30
0.0
  0
VERTEX
  5
52F
  8
1
  6
CONTINUOUS
 62
     7
 10
312.3890616883709
 20
380.0318923775716
 30
0.0
  0
VERTEX
  5
530
  8
1
  6
CONTINUOUS
 62
     7
 10
312.4175129314683
 20
379.9380985442507
 30
0.0
  0
VERTEX
  5
531
  8
1
  6
CONTINUOUS
 62
     7
 10
312.4637153609357
 20
379.8516584489183
 30
0.0
  0
VERTEX
  5
532
  8
1
  6
CONTINUOUS
 62
     7
 10
312.5258936149179
 20
379.7758936149179
 30
0.0
  0
VERTEX
  5
533
  8
1
  6
CONTINUOUS
 62
     7
 10
312.6016584489183
 20
379.7137153609357
 30
0.0
  0
VERTEX
  5
534
  8
1
  6
CONTINUOUS
 62
     7
 10
312.6880985442506
 20
379.6675129314684
 30
0.0
  0
VERTEX
  5
535
  8
1
  6
CONTINUOUS
 62
     7
 10
312.7818923775715
 20
379.639061688371
 30
0.0
  0
VERTEX
  5
536
  8
1
  6
CONTINUOUS
 62
     7
 10
312.8794358528226
 20
379.6294548912905
 30
0.0
  0
SEQEND
  5
546
  8
1
  6
CONTINUOUS
 62
     7
  0
LINE
  5
478
  8
1
  6
CONTINUOUS
 62
     7
 10
312.3794548912905
 20
394.6242272983095
 30
0.0
 11
312.3794548912905
 21
380.1294358528226
 31
0.0
  0
LINE
  5
479
  8
1
  6
CONTINUOUS
 62
     7
 10
234.3742272983096
 20
472.6294548912905
 30
0.0
 11
219.8794358528227
 21
472.6294548912905
 31
0.0
  0
POLYLINE
  5
47A
  8
1
  6
CONTINUOUS
 62
     7
 66
     1
 10
0.0
 20
0.0
 30
0.0
  0
VERTEX
  5
537
  8
1
  6
CONTINUOUS
 62
     7
 10
219.3794548912905
 20
473.1294358528226
 30
0.0
  0
VERTEX
  5
538
  8
1
  6
CONTINUOUS
 62
     7
 10
219.389061688371
 20
473.0318923775716
 30
0.0
  0
VERTEX
  5
539
  8
1
  6
CONTINUOUS
 62
     7
 10
219.4175129314684
 20
472.9380985442507
 30
0.0
  0
VERTEX
  5
53A
  8
1
  6
CONTINUOUS
 62
     7
 10
219.4637153609358
 20
472.8516584489183
 30
0.0
  0
VERTEX
  5
53B
  8
1
  6
CONTINUOUS
 62
     7
 10
219.525893614918
 20
472.775893614918
 30
0.0
  0
VERTEX
  5
53C
  8
1
  6
CONTINUOUS
 62
     7
 10
219.6016584489183
 20
472.7137153609357
 30
0.0
  0
VERTEX
  5
53D
  8
1
  6
CONTINUOUS
 62
     7
 10
219.6880985442507
 20
472.6675129314684
 30
0.0
  0
VERTEX
  5
53E
  8
1
  6
CONTINUOUS
 62
     7
 10
219.7818923775716
 20
472.639061688371
 30
0.0
  0
VERTEX
  5
53F
  8
1
  6
CONTINUOUS
 62
     7
 10
219.8794358528226
 20
472.6294548912905
 30
0.0
  0
SEQEND
  5
547
  8
1
  6
CONTINUOUS
 62
     7
  0
LINE
  5
47B
  8
1
  6
CONTINUOUS
 62
     7
 10
219.3794548912906
 20
473.1294358528226
 30
0.0
 11
219.3794548912906
 21
473.2284777143982
 31
0.0
  0
LINE
  5
47C
  8
1
  6
CONTINUOUS
 62
     7
 10
308.3887117542973
 20
416.7456606724684
 30
0.0
 11
308.3887117542973
 21
401.3387117542973
 31
0.0
  0
LINE
  5
47D
  8
1
  6
CONTINUOUS
 62
     7
 10
312.2921862133829
 20
401.2206018079869
 30
0.0
 11
308.3887117542973
 21
401.3387117542973
 31
0.0
  0
LINE
  5
47E
  8
1
  6
CONTINUOUS
 62
     7
 10
312.2921862133829
 20
416.8637706187787
 30
0.0
 11
308.3887117542973
 21
416.7456606724684
 31
0.0
  0
LINE
  5
47F
  8
1
  6
CONTINUOUS
 62
     7
 10
256.4956606724685
 20
468.6387117542973
 30
0.0
 11
241.0887117542973
 21
468.6387117542973
 31
0.0
  0
LINE
  5
480
  8
1
  6
CONTINUOUS
 62
     7
 10
256.6137706187789
 20
472.5421862133829
 30
0.0
 11
256.4956606724685
 21
468.6387117542973
 31
0.0
  0
LINE
  5
481
  8
1
  6
CONTINUOUS
 62
     7
 10
240.970601807987
 20
472.5421862133829
 30
0.0
 11
241.0887117542973
 21
468.6387117542973
 31
0.0
  0
LINE
  5
482
  8
1
  6
CONTINUOUS
 62
     7
 10
275.6261608095984
 20
416.5421862133828
 30
0.0
 11
274.1921862133829
 21
416.5421862133829
 31
0.0
  0
LINE
  5
483
  8
1
  6
CONTINUOUS
 62
     7
 10
275.6261608095984
 20
401.5421862133829
 30
0.0
 11
275.6261608095984
 21
416.5421862133828
 31
0.0
  0
LINE
  5
484
  8
1
  6
CONTINUOUS
 62
     7
 10
275.6261608095984
 20
401.5421862133829
 30
0.0
 11
274.1921862133829
 21
401.5421862133829
 31
0.0
  0
LINE
  5
485
  8
1
  6
CONTINUOUS
 62
     7
 10
274.1921862133829
 20
401.5421862133829
 30
0.0
 11
274.1921862133829
 21
374.5421862133829
 31
0.0
  0
LINE
  5
486
  8
1
  6
CONTINUOUS
 62
     7
 10
273.6921862133829
 20
374.5421862133829
 30
0.0
 11
274.1921862133829
 21
374.5421862133829
 31
0.0
  0
ARC
  5
487
  8
1
  6
CONTINUOUS
 62
     7
 10
273.6921862133829
 20
376.0421862133829
 30
0.0
 40
1.500000000000001
 50
179.9999999999989
 51
270.0
  0
LINE
  5
488
  8
1
  6
CONTINUOUS
 62
     7
 10
272.1921862133829
 20
430.4421862133829
 30
0.0
 11
272.1921862133829
 21
376.0421862133829
 31
0.0
  0
ARC
  5
489
  8
1
  6
CONTINUOUS
 62
     7
 10
270.1921862133829
 20
430.4421862133828
 30
0.0
 40
2.000000000000002
 50
0.0000000000026148
 51
89.99999999999898
  0
LINE
  5
48A
  8
1
  6
CONTINUOUS
 62
     7
 10
270.192186213383
 20
432.4421862133828
 30
0.0
 11
215.7921862133829
 21
432.4421862133828
 31
0.0
  0
ARC
  5
48B
  8
1
  6
CONTINUOUS
 62
     7
 10
215.7921862133829
 20
433.9421862133829
 30
0.0
 40
1.500000000000001
 50
180.0
 51
270.0000000000011
  0
LINE
  5
48C
  8
1
  6
CONTINUOUS
 62
     7
 10
214.2921862133829
 20
433.9421862133829
 30
0.0
 11
214.2921862133829
 21
434.4421862133829
 31
0.0
  0
LINE
  5
48D
  8
1
  6
CONTINUOUS
 62
     7
 10
241.2921862133829
 20
435.8761608095984
 30
0.0
 11
241.2921862133829
 21
434.4421862133828
 31
0.0
  0
LINE
  5
48E
  8
1
  6
CONTINUOUS
 62
     7
 10
241.2921862133829
 20
435.8761608095984
 30
0.0
 11
256.2921862133829
 21
435.8761608095984
 31
0.0
  0
LINE
  5
48F
  8
1
  6
CONTINUOUS
 62
     7
 10
256.2921862133829
 20
435.8761608095984
 30
0.0
 11
256.2921862133829
 21
434.4421862133829
 31
0.0
  0
LINE
  5
490
  8
1
  6
CONTINUOUS
 62
     7
 10
270.192186213383
 20
434.4421862133828
 30
0.0
 11
256.2921862133829
 21
434.4421862133829
 31
0.0
  0
ARC
  5
491
  8
1
  6
CONTINUOUS
 62
     7
 10
270.1921862133829
 20
430.4421862133828
 30
0.0
 40
4.000000000000004
 50
0.0000000000013915
 51
89.99999999999949
  0
LINE
  5
492
  8
1
  6
CONTINUOUS
 62
     7
 10
274.1921862133829
 20
430.4421862133829
 30
0.0
 11
274.1921862133829
 21
416.5421862133829
 31
0.0
  0
LINE
  5
493
  8
1
  6
CONTINUOUS
 62
     7
 10
214.2921862133829
 20
435.5042866024089
 30
0.0
 11
214.2921862133829
 21
434.4421862133831
 31
0.0
  0
LINE
  5
494
  8
1
  6
CONTINUOUS
 62
     7
 10
241.2921862133829
 20
437.3761608095984
 30
0.0
 11
241.2921862133829
 21
435.8761608095984
 31
0.0
  0
LINE
  5
495
  8
1
  6
CONTINUOUS
 62
     7
 10
256.2921862133829
 20
435.8761608095984
 30
0.0
 11
256.2921862133829
 21
437.3761608095984
 31
0.0
  0
LINE
  5
496
  8
1
  6
CONTINUOUS
 62
     7
 10
277.1261608095984
 20
401.5421862133829
 30
0.0
 11
275.6261608095984
 21
401.5421862133829
 31
0.0
  0
LINE
  5
497
  8
1
  6
CONTINUOUS
 62
     7
 10
275.6261608095984
 20
416.5421862133828
 30
0.0
 11
277.1261608095984
 21
416.5421862133828
 31
0.0
  0
LINE
  5
498
  8
1
  6
CONTINUOUS
 62
     7
 10
275.254286602409
 20
374.5421862133829
 30
0.0
 11
274.1921862133831
 21
374.5421862133829
 31
0.0
  0
LINE
  5
499
  8
1
  6
CONTINUOUS
 62
     7
 10
275.2542866024088
 20
394.5421862133829
 30
0.0
 11
275.2542866024088
 21
374.5421862133829
 31
0.0
  0
LINE
  5
49A
  8
1
  6
CONTINUOUS
 62
     7
 10
291.2675351334126
 20
394.5421862133829
 30
0.0
 11
291.2675351334126
 21
374.5421862133829
 31
0.0
  0
LINE
  5
49B
  8
1
  6
CONTINUOUS
 62
     7
 10
291.2675351334125
 20
374.5421862133829
 30
0.0
 11
275.2542866024087
 21
374.5421862133829
 31
0.0
  0
LINE
  5
49C
  8
1
  6
CONTINUOUS
 62
     7
 10
234.292186213383
 20
451.5175351334125
 30
0.0
 11
214.2921862133829
 21
451.5175351334125
 31
0.0
  0
LINE
  5
49D
  8
1
  6
CONTINUOUS
 62
     7
 10
214.2921862133829
 20
451.5175351334125
 30
0.0
 11
214.2921862133829
 21
435.5042866024087
 31
0.0
  0
LINE
  5
49E
  8
1
  6
CONTINUOUS
 62
     7
 10
277.6921862133829
 20
474.5421862133828
 30
0.0
 11
276.292186213383
 21
474.5421862133828
 31
0.0
  0
LINE
  5
49F
  8
1
  6
CONTINUOUS
 62
     7
 10
219.3909194516768
 20
474.5421862133828
 30
0.0
 11
214.2921862133829
 21
474.5421862133828
 31
0.0
  0
LINE
  5
4A0
  8
1
  6
CONTINUOUS
 62
     7
 10
214.2921862133829
 20
451.5175351334126
 30
0.0
 11
214.2921862133829
 21
474.5421862133828
 31
0.0
  0
LINE
  5
4A1
  8
1
  6
CONTINUOUS
 62
     7
 10
314.2921862133829
 20
379.6409194516767
 30
0.0
 11
314.2921862133829
 21
374.5421862133829
 31
0.0
  0
LINE
  5
4A2
  8
1
  6
CONTINUOUS
 62
     7
 10
314.2921862133829
 20
437.9421862133829
 30
0.0
 11
314.2921862133829
 21
436.5421862133829
 31
0.0
  0
LINE
  5
4A3
  8
1
  6
CONTINUOUS
 62
     7
 10
291.2675351334127
 20
374.5421862133829
 30
0.0
 11
314.2921862133829
 21
374.5421862133829
 31
0.0
  0
LINE
  5
4A4
  8
1
  6
CONTINUOUS
 62
     7
 10
312.7921862133828
 20
474.5421862133829
 30
0.0
 11
314.2921862133829
 21
473.0421862133828
 31
0.0
  0
LINE
  5
4A5
  8
1
  6
CONTINUOUS
 62
     7
 10
314.2921862133829
 20
463.5421862133829
 30
0.0
 11
314.2921862133829
 21
473.0421862133828
 31
0.0
  0
LINE
  5
4A6
  8
1
  6
CONTINUOUS
 62
     7
 10
312.7921862133828
 20
474.5421862133829
 30
0.0
 11
303.2921862133829
 21
474.5421862133829
 31
0.0
  0
LINE
  5
4A7
  8
1
  6
CONTINUOUS
 62
     7
 10
256.2921862133829
 20
437.3761608095984
 30
0.0
 11
241.2921862133829
 21
437.3761608095984
 31
0.0
  0
LINE
  5
4A8
  8
1
  6
CONTINUOUS
 62
     7
 10
12.22075718014716
 20
450.2689817893912
 30
0.0
 11
12.22143428763377
 21
450.3074649382615
 31
0.0
  0
LINE
  5
4A9
  8
1
  6
CONTINUOUS
 62
     7
 10
12.22143428763377
 20
450.3074649382615
 30
0.0
 11
12.22357350139912
 21
450.3459566552785
 31
0.0
  0
LINE
  5
4AA
  8
1
  6
CONTINUOUS
 62
     7
 10
12.22357350139912
 20
450.3459566552785
 30
0.0
 11
12.2273366584015
 21
450.3843224618797
 31
0.0
  0
LINE
  5
4AB
  8
1
  6
CONTINUOUS
 62
     7
 10
12.2273366584015
 20
450.3843224618797
 30
0.0
 11
12.23288559559917
 21
450.422427879502
 31
0.0
  0
LINE
  5
4AC
  8
1
  6
CONTINUOUS
 62
     7
 10
12.23288559559917
 20
450.422427879502
 30
0.0
 11
12.2403821499504
 21
450.4601384295828
 31
0.0
  0
LINE
  5
4AD
  8
1
  6
CONTINUOUS
 62
     7
 10
12.2403821499504
 20
450.4601384295828
 30
0.0
 11
12.24612817331705
 21
450.4834189924955
 31
0.0
  0
LINE
  5
4AE
  8
1
  6
CONTINUOUS
 62
     7
 10
12.24612817331705
 20
450.4834189924955
 30
0.0
 11
12.25276007194639
 21
450.5064806693099
 31
0.0
  0
LINE
  5
4AF
  8
1
  6
CONTINUOUS
 62
     7
 10
12.25276007194639
 20
450.5064806693099
 30
0.0
 11
12.2603158894425
 21
450.5292492261867
 31
0.0
  0
LINE
  5
4B0
  8
1
  6
CONTINUOUS
 62
     7
 10
12.2603158894425
 20
450.5292492261867
 30
0.0
 11
12.26883366940944
 21
450.5516504292864
 31
0.0
  0
LINE
  5
4B1
  8
1
  6
CONTINUOUS
 62
     7
 10
12.26883366940944
 20
450.5516504292864
 30
0.0
 11
12.27870042493057
 21
450.5743601323797
 31
0.0
  0
LINE
  5
4B2
  8
1
  6
CONTINUOUS
 62
     7
 10
12.27870042493057
 20
450.5743601323797
 30
0.0
 11
12.28969219179849
 21
450.596578987136
 31
0.0
  0
LINE
  5
4B3
  8
1
  6
CONTINUOUS
 62
     7
 10
12.28969219179849
 20
450.596578987136
 30
0.0
 11
12.30181228051352
 21
450.6181914295978
 31
0.0
  0
LINE
  5
4B4
  8
1
  6
CONTINUOUS
 62
     7
 10
12.30181228051352
 20
450.6181914295978
 30
0.0
 11
12.31506400157603
 21
450.6390818958075
 31
0.0
  0
LINE
  5
4B5
  8
1
  6
CONTINUOUS
 62
     7
 10
12.31506400157603
 20
450.6390818958075
 30
0.0
 11
12.32534227249282
 21
450.6536672116654
 31
0.0
  0
LINE
  5
4B6
  8
1
  6
CONTINUOUS
 62
     7
 10
12.32534227249282
 20
450.6536672116654
 30
0.0
 11
12.33622113236079
 21
450.6678258390714
 31
0.0
  0
LINE
  5
4B7
  8
1
  6
CONTINUOUS
 62
     7
 10
12.33622113236079
 20
450.6678258390714
 30
0.0
 11
12.3476780304041
 21
450.6815158537402
 31
0.0
  0
LINE
  5
4B8
  8
1
  6
CONTINUOUS
 62
     7
 10
12.3476780304041
 20
450.6815158537402
 30
0.0
 11
12.35969041584688
 21
450.6946953313861
 31
0.0
  0
LINE
  5
4B9
  8
1
  6
CONTINUOUS
 62
     7
 10
12.35969041584688
 20
450.6946953313861
 30
0.0
 11
12.3726354538566
 21
450.7077143154195
 31
0.0
  0
LINE
  5
4BA
  8
1
  6
CONTINUOUS
 62
     7
 10
12.3726354538566
 20
450.7077143154195
 30
0.0
 11
12.38614657342626
 21
450.7201650813835
 31
0.0
  0
LINE
  5
4BB
  8
1
  6
CONTINUOUS
 62
     7
 10
12.38614657342626
 20
450.7201650813835
 30
0.0
 11
12.40018007188319
 21
450.73201943035
 31
0.0
  0
LINE
  5
4BC
  8
1
  6
CONTINUOUS
 62
     7
 10
12.40018007188319
 20
450.73201943035
 30
0.0
 11
12.4146922465547
 21
450.7432491633907
 31
0.0
  0
LINE
  5
4BD
  8
1
  6
CONTINUOUS
 62
     7
 10
12.4146922465547
 20
450.7432491633907
 30
0.0
 11
12.43291919794019
 21
450.7560355700243
 31
0.0
  0
LINE
  5
4BE
  8
1
  6
CONTINUOUS
 62
     7
 10
12.43291919794019
 20
450.7560355700243
 30
0.0
 11
12.45176620317117
 21
450.7679072369094
 31
0.0
  0
LINE
  5
4BF
  8
1
  6
CONTINUOUS
 62
     7
 10
12.45176620317117
 20
450.7679072369094
 30
0.0
 11
12.47114622208301
 21
450.7788537779168
 31
0.0
  0
LINE
  5
4C0
  8
1
  6
CONTINUOUS
 62
     7
 10
12.22075718014716
 20
450.2689817893912
 30
0.0
 11
12.22075718014716
 21
376.0421862133829
 31
0.0
  0
LINE
  5
4C1
  8
1
  6
CONTINUOUS
 62
     7
 10
-10.54218621338292
 20
473.7921862133829
 30
0.0
 11
-11.29218621338278
 21
473.042186213383
 31
0.0
  0
LINE
  5
4C2
  8
1
  6
CONTINUOUS
 62
     7
 10
-10.54218621338283
 20
473.7921862133827
 30
0.0
 11
12.47114622208274
 21
450.7788537779172
 31
0.0
  0
LINE
  5
4C3
  8
1
  6
CONTINUOUS
 62
     7
 10
-11.29218621338292
 20
473.0421862133828
 30
0.0
 11
-11.29218621338292
 21
376.0421862133829
 31
0.0
  0
LINE
  5
4C4
  8
1
  6
CONTINUOUS
 62
     7
 10
12.98101821060869
 20
451.0292428198528
 30
0.0
 11
87.20781378661705
 21
451.0292428198528
 31
0.0
  0
LINE
  5
4C5
  8
1
  6
CONTINUOUS
 62
     7
 10
12.47114622208281
 20
450.7788537779172
 30
0.0
 11
12.47997202746811
 21
450.7946414290691
 31
0.0
  0
LINE
  5
4C6
  8
1
  6
CONTINUOUS
 62
     7
 10
12.47997202746811
 20
450.7946414290691
 30
0.0
 11
12.48941164052117
 21
450.810089702924
 31
0.0
  0
LINE
  5
4C7
  8
1
  6
CONTINUOUS
 62
     7
 10
12.48941164052117
 20
450.810089702924
 30
0.0
 11
12.49945866511978
 21
450.8251518486359
 31
0.0
  0
LINE
  5
4C8
  8
1
  6
CONTINUOUS
 62
     7
 10
12.49945866511978
 20
450.8251518486359
 30
0.0
 11
12.51010670514171
 21
450.8397811153594
 31
0.0
  0
LINE
  5
4C9
  8
1
  6
CONTINUOUS
 62
     7
 10
12.51010670514171
 20
450.8397811153594
 30
0.0
 11
12.52169003276757
 21
450.8543456138376
 31
0.0
  0
LINE
  5
4CA
  8
1
  6
CONTINUOUS
 62
     7
 10
12.52169003276757
 20
450.8543456138376
 30
0.0
 11
12.53391196036413
 21
450.8684070695174
 31
0.0
  0
LINE
  5
4CB
  8
1
  6
CONTINUOUS
 62
     7
 10
12.53391196036413
 20
450.8684070695174
 30
0.0
 11
12.5467411142323
 21
450.8819211042
 31
0.0
  0
LINE
  5
4CC
  8
1
  6
CONTINUOUS
 62
     7
 10
12.5467411142323
 20
450.8819211042
 30
0.0
 11
12.56014612067302
 21
450.8948433396864
 31
0.0
  0
LINE
  5
4CD
  8
1
  6
CONTINUOUS
 62
     7
 10
12.56014612067302
 20
450.8948433396864
 30
0.0
 11
12.57373625893518
 21
450.9068348969428
 31
0.0
  0
LINE
  5
4CE
  8
1
  6
CONTINUOUS
 62
     7
 10
12.57373625893518
 20
450.9068348969428
 30
0.0
 11
12.58784278540463
 21
450.9182460067882
 31
0.0
  0
LINE
  5
4CF
  8
1
  6
CONTINUOUS
 62
     7
 10
12.58784278540463
 20
450.9182460067882
 30
0.0
 11
12.60242075943254
 21
450.9290552491086
 31
0.0
  0
LINE
  5
4D0
  8
1
  6
CONTINUOUS
 62
     7
 10
12.60242075943254
 20
450.9290552491086
 30
0.0
 11
12.61742524037014
 21
450.93924120379
 31
0.0
  0
LINE
  5
4D1
  8
1
  6
CONTINUOUS
 62
     7
 10
12.61742524037014
 20
450.93924120379
 30
0.0
 11
12.63327688784324
 21
450.949065197068
 31
0.0
  0
LINE
  5
4D2
  8
1
  6
CONTINUOUS
 62
     7
 10
12.63327688784324
 20
450.949065197068
 30
0.0
 11
12.64953130054013
 21
450.9582438660213
 31
0.0
  0
LINE
  5
4D3
  8
1
  6
CONTINUOUS
 62
     7
 10
12.64953130054013
 20
450.9582438660213
 30
0.0
 11
12.66613841113434
 21
450.9667776160048
 31
0.0
  0
LINE
  5
4D4
  8
1
  6
CONTINUOUS
 62
     7
 10
12.66613841113434
 20
450.9667776160048
 30
0.0
 11
12.68304815229938
 21
450.9746668523731
 31
0.0
  0
LINE
  5
4D5
  8
1
  6
CONTINUOUS
 62
     7
 10
12.68304815229938
 20
450.9746668523731
 30
0.0
 11
12.70625672387609
 21
450.9843011068742
 31
0.0
  0
LINE
  5
4D6
  8
1
  6
CONTINUOUS
 62
     7
 10
12.70625672387609
 20
450.9843011068742
 30
0.0
 11
12.72991726113413
 21
450.9928511063097
 31
0.0
  0
LINE
  5
4D7
  8
1
  6
CONTINUOUS
 62
     7
 10
12.72991726113413
 20
450.9928511063097
 30
0.0
 11
12.75393816237257
 21
451.0003574806655
 31
0.0
  0
LINE
  5
4D8
  8
1
  6
CONTINUOUS
 62
     7
 10
12.75393816237257
 20
451.0003574806655
 30
0.0
 11
12.77822782589051
 21
451.0068608599273
 31
0.0
  0
LINE
  5
4D9
  8
1
  6
CONTINUOUS
 62
     7
 10
12.77822782589051
 20
451.0068608599273
 30
0.0
 11
12.81186587168906
 21
451.0142463621631
 31
0.0
  0
LINE
  5
4DA
  8
1
  6
CONTINUOUS
 62
     7
 10
12.81186587168906
 20
451.0142463621631
 30
0.0
 11
12.84584635394146
 21
451.0200034609205
 31
0.0
  0
LINE
  5
4DB
  8
1
  6
CONTINUOUS
 62
     7
 10
12.84584635394146
 20
451.0200034609205
 30
0.0
 11
12.88003452175134
 21
451.0242585132797
 31
0.0
  0
LINE
  5
4DC
  8
1
  6
CONTINUOUS
 62
     7
 10
12.88003452175134
 20
451.0242585132797
 30
0.0
 11
12.93045856753607
 21
451.0280523080094
 31
0.0
  0
LINE
  5
4DD
  8
1
  6
CONTINUOUS
 62
     7
 10
12.93045856753607
 20
451.0280523080094
 30
0.0
 11
12.9810182106087
 21
451.0292428198528
 31
0.0
  0
LINE
  5
4DE
  8
1
  6
CONTINUOUS
 62
     7
 10
-9.792186213382886
 20
474.5421862133828
 30
0.0
 11
87.20781378661705
 21
474.5421862133828
 31
0.0
  0
LINE
  5
4DF
  8
1
  6
CONTINUOUS
 62
     7
 10
-9.792186213382893
 20
474.5421862133829
 30
0.0
 11
-10.54218621338292
 21
473.7921862133829
 31
0.0
  0
LINE
  5
4E0
  8
1
  6
CONTINUOUS
 62
     7
 10
11.85537296038602
 20
374.5421862133829
 30
0.0
 11
-11.29218621338295
 21
374.5421862133829
 31
0.0
  0
LINE
  5
4E1
  8
1
  6
CONTINUOUS
 62
     7
 10
11.85537296038604
 20
374.5421862133829
 30
0.0
 11
11.95457799772521
 21
374.5979713232441
 31
0.0
  0
LINE
  5
4E2
  8
1
  6
CONTINUOUS
 62
     7
 10
11.95457799772521
 20
374.5979713232441
 30
0.0
 11
12.01187404552612
 21
374.6855803749436
 31
0.0
  0
LINE
  5
4E3
  8
1
  6
CONTINUOUS
 62
     7
 10
12.01187404552612
 20
374.6855803749436
 30
0.0
 11
12.05273483000236
 21
374.7782345457788
 31
0.0
  0
ARC
  5
4E4
  8
1
  6
CONTINUOUS
 62
     7
 10
8.027660642169533
 20
375.9564481806905
 30
0.0
 40
4.193973007429807
 50
343.6842707944463
 51
1.171387999325248
  0
LINE
  5
4E5
  8
1
  6
CONTINUOUS
 62
     7
 10
-11.2921862133829
 20
374.5421862133829
 30
0.0
 11
-11.29218621338283
 21
376.0421862133829
 31
0.0
  0
LINE
  5
4E6
  8
1
  6
CONTINUOUS
 62
     7
 10
88.70781378661708
 20
451.394627039614
 30
0.0
 11
88.70781378661708
 21
474.5421862133829
 31
0.0
  0
LINE
  5
4E7
  8
1
  6
CONTINUOUS
 62
     7
 10
88.70781378661708
 20
451.3946270396139
 30
0.0
 11
88.65202867675583
 21
451.2954220022748
 31
0.0
  0
LINE
  5
4E8
  8
1
  6
CONTINUOUS
 62
     7
 10
88.65202867675583
 20
451.2954220022748
 30
0.0
 11
88.56441962505633
 21
451.2381259544738
 31
0.0
  0
LINE
  5
4E9
  8
1
  6
CONTINUOUS
 62
     7
 10
88.56441962505633
 20
451.2381259544738
 30
0.0
 11
88.47176545422117
 21
451.1972651699976
 31
0.0
  0
ARC
  5
4EA
  8
1
  6
CONTINUOUS
 62
     7
 10
87.2935518193093
 20
455.2223393578321
 30
0.0
 40
4.193973007431516
 50
268.8286120006779
 51
286.3157292055499
  0
LINE
  5
4EB
  8
1
  6
CONTINUOUS
 62
     7
 10
88.70781378661708
 20
474.5421862133828
 30
0.0
 11
87.20781378661705
 21
474.5421862133828
 31
0.0
  0
LINE
  5
4EC
  8
1
  6
CONTINUOUS
 62
     7
 10
28.23647046615928
 20
374.5421862133829
 30
0.0
 11
11.85537296038604
 21
374.5421862133829
 31
0.0
  0
LINE
  5
4ED
  8
1
  6
CONTINUOUS
 62
     7
 10
88.7078137866171
 20
435.0135295338407
 30
0.0
 11
88.70781378661708
 21
451.3946270396139
 31
0.0
  0
ARC
  5
4EE
  8
1
  6
CONTINUOUS
 62
     7
 10
32.80781378661708
 20
430.4421862133828
 30
0.0
 40
2.000000000000002
 50
90.000000000001
 51
179.9999999999974
  0
ARC
  5
4EF
  8
1
  6
CONTINUOUS
 62
     7
 10
29.30781378661708
 20
376.0421862133829
 30
0.0
 40
1.500000000000001
 50
270.0
 51
0.0000000000011369
  0
LINE
  5
4F0
  8
1
  6
CONTINUOUS
 62
     7
 10
29.30781378661685
 20
374.5421862133829
 30
0.0
 11
28.23647046615917
 21
374.5421862133829
 31
0.0
  0
ARC
  5
4F1
  8
1
  6
CONTINUOUS
 62
     7
 10
87.2078137866171
 20
433.9421862133829
 30
0.0
 40
1.500000000000001
 50
269.9999999999989
 51
0.0
  0
LINE
  5
4F2
  8
1
  6
CONTINUOUS
 62
     7
 10
88.7078137866171
 20
433.9421862133831
 30
0.0
 11
88.7078137866171
 21
435.0135295338408
 31
0.0
  0
LINE
  5
4F3
  8
1
  6
CONTINUOUS
 62
     7
 10
30.80781378661712
 20
430.4421862133829
 30
0.0
 11
30.80781378661712
 21
376.0421862133829
 31
0.0
  0
LINE
  5
4F4
  8
1
  6
CONTINUOUS
 62
     7
 10
32.80781378661705
 20
432.4421862133828
 30
0.0
 11
87.20781378661707
 21
432.4421862133828
 31
0.0
  0
ENDSEC
  0
EOF
