  0
SECTION
  2
HEADER
  9
$ACADVER
  1
AC1006
  9
$DWGCODEPAGE
  3
ansi_932
  9
$INSBASE
 10
0.0
 20
0.0
 30
0.0
  9
$EXTMIN
 10
-253.0
 20
100.5
  9
$EXTMAX
 10
-80.54999999999994
 20
290.0000000000001
  9
$LIMMIN
 10
0.0
 20
0.0
  9
$LIMMAX
 10
12.0
 20
9.0
  9
$ORTHOMODE
 70
     0
  9
$REGENMODE
 70
     1
  9
$FILLMODE
 70
     1
  9
$QTEXTMODE
 70
     0
  9
$MIRRTEXT
 70
     1
  9
$DRAGMODE
 70
     2
  9
$LTSCALE
 40
1.0
  9
$OSMODE
 70
    37
  9
$ATTMODE
 70
     1
  9
$TEXTSIZE
 40
0.2
  9
$TRACEWID
 40
0.05
  9
$TEXTSTYLE
  7
STANDARD
  9
$CLAYER
  8
0
  9
$CELTYPE
  6
BYLAYER
  9
$CECOLOR
 62
   256
  9
$DIMSCALE
 40
1.0
  9
$DIMASZ
 40
3.0
  9
$DIMEXO
 40
0.0625
  9
$DIMDLI
 40
0.38
  9
$DIMRND
 40
0.0
  9
$DIMDLE
 40
0.0
  9
$DIMEXE
 40
1.5
  9
$DIMTP
 40
0.0
  9
$DIMTM
 40
0.0
  9
$DIMTXT
 40
3.0
  9
$DIMCEN
 40
0.09
  9
$DIMTSZ
 40
0.0
  9
$DIMTOL
 70
     0
  9
$DIMLIM
 70
     0
  9
$DIMTIH
 70
     1
  9
$DIMTOH
 70
     1
  9
$DIMSE1
 70
     0
  9
$DIMSE2
 70
     0
  9
$DIMTAD
 70
     1
  9
$DIMZIN
 70
     0
  9
$DIMBLK
  1

  9
$DIMASO
 70
     1
  9
$DIMSHO
 70
     1
  9
$DIMPOST
  1

  9
$DIMAPOST
  1

  9
$DIMALT
 70
     0
  9
$DIMALTD
 70
     2
  9
$DIMALTF
 40
25.4
  9
$DIMLFAC
 40
1.0
  9
$DIMTOFL
 70
     0
  9
$DIMTVP
 40
0.0
  9
$DIMTIX
 70
     0
  9
$DIMSOXD
 70
     0
  9
$DIMSAH
 70
     0
  9
$DIMBLK1
  1

  9
$DIMBLK2
  1

  9
$LUNITS
 70
     2
  9
$LUPREC
 70
     4
  9
$SKETCHINC
 40
0.1
  9
$FILLETRAD
 40
0.5
  9
$AUNITS
 70
     0
  9
$AUPREC
 70
     0
  9
$MENU
  1
.
  9
$ELEVATION
 40
0.0
  9
$THICKNESS
 40
0.0
  9
$LIMCHECK
 70
     0
  9
$CHAMFERA
 40
0.0
  9
$CHAMFERB
 40
0.0
  9
$SKPOLY
 70
     0
  9
$TDCREATE
 40
2460427.60748272
  9
$TDUPDATE
 40
2460427.607482963
  9
$TDINDWG
 40
0.0000000116
  9
$TDUSRTIMER
 40
0.0000000116
  9
$USRTIMER
 70
     1
  9
$ANGBASE
 50
0.0
  9
$ANGDIR
 70
     0
  9
$PDMODE
 70
     0
  9
$PDSIZE
 40
0.0
  9
$PLINEWID
 40
0.0
  9
$COORDS
 70
     1
  9
$SPLFRAME
 70
     0
  9
$SPLINETYPE
 70
     6
  9
$SPLINESEGS
 70
     8
  9
$ATTDIA
 70
     0
  9
$ATTREQ
 70
     1
  9
$HANDLING
 70
     1
  9
$HANDSEED
  5
3B5
  9
$SURFTAB1
 70
     6
  9
$SURFTAB2
 70
     6
  9
$SURFTYPE
 70
     6
  9
$SURFU
 70
     6
  9
$SURFV
 70
     6
  9
$UCSNAME
  2

  9
$UCSORG
 10
0.0
 20
0.0
 30
0.0
  9
$UCSXDIR
 10
1.0
 20
0.0
 30
0.0
  9
$UCSYDIR
 10
0.0
 20
1.0
 30
0.0
  9
$USERI1
 70
     0
  9
$USERI2
 70
     0
  9
$USERI3
 70
     0
  9
$USERI4
 70
     0
  9
$USERI5
 70
     0
  9
$USERR1
 40
0.0
  9
$USERR2
 40
0.0
  9
$USERR3
 40
0.0
  9
$USERR4
 40
0.0
  9
$USERR5
 40
0.0
  9
$WORLDVIEW
 70
     1
  0
ENDSEC
  0
SECTION
  2
TABLES
  0
TABLE
  2
VPORT
 70
     1
  0
VPORT
  2
*ACTIVE
 70
     0
 10
0.0
 20
0.0
 11
1.0
 21
1.0
 12
-166.775
 22
195.2500000000001
 13
0.0
 23
0.0
 14
0.5
 24
0.5
 15
0.5
 25
0.5
 16
0.0
 26
0.0
 36
1.0
 17
0.0
 27
0.0
 37
0.0
 40
189.5000000000001
 41
1.6
 42
50.0
 43
0.0
 44
0.0
 50
0.0
 51
0.0
 71
     0
 72
   100
 73
     1
 74
     3
 75
     0
 76
     0
 77
     0
 78
     0
  0
ENDTAB
  0
TABLE
  2
LTYPE
 70
     2
  0
LTYPE
  2
CONTINUOUS
 70
     0
  3
Solid line
 72
    65
 73
     0
 40
0.0
  0
LTYPE
  2
CENTER
 70
     0
  3

 72
    65
 73
     0
 40
0.0
  0
ENDTAB
  0
TABLE
  2
LAYER
 70
     1
  0
LAYER
  2
0
 70
     0
 62
     7
  6
CONTINUOUS
  0
ENDTAB
  0
TABLE
  2
STYLE
 70
     2
  0
STYLE
  2
STANDARD
 70
     0
 40
0.0
 41
1.0
 50
0.0
 71
     0
 42
0.2
  3
txt
  4

  0
STYLE
  2
ＭＳ_ゴシック
 70
     0
 40
0.0
 41
1.0
 50
0.0
 71
     0
 42
0.2
  3
ＭＳ ゴシック.shx
  4

  0
ENDTAB
  0
TABLE
  2
VIEW
 70
     0
  0
ENDTAB
  0
TABLE
  2
UCS
 70
     0
  0
ENDTAB
  0
ENDSEC
  0
SECTION
  2
BLOCKS
  0
ENDSEC
  0
SECTION
  2
ENTITIES
  0
TEXT
  5
6F
  8
0
  6
CONTINUOUS
 62
     7
 10
-117.4518444416656
 20
156.0136582468426
 30
0.0
 40
3.0
  1
RMGML-20
  0
LINE
  5
70
  8
0
  6
CENTER
 62
     1
 10
-226.3617195399111
 20
100.5
 30
0.0
 11
-226.3617195399111
 21
160.5
 31
0.0
  0
LINE
  5
72
  8
0
  6
CENTER
 62
     1
 10
-253.0
 20
139.55
 30
0.0
 11
-198.5
 21
139.55
 31
0.0
  0
LINE
  5
73
  8
0
  6
CONTINUOUS
 62
     7
 10
-83.35000000000002
 20
249.5
 30
0.0
 11
-83.55000000000003
 21
249.5
 31
0.0
  0
LINE
  5
74
  8
0
  6
CONTINUOUS
 62
     7
 10
-83.35000000000002
 20
249.5
 30
0.0
 11
-83.35000000000002
 21
219.5
 31
0.0
  0
LINE
  5
75
  8
0
  6
CONTINUOUS
 62
     7
 10
-83.35000000000002
 20
219.5
 30
0.0
 11
-83.55000000000003
 21
219.5
 31
0.0
  0
ARC
  5
76
  8
0
  6
CONTINUOUS
 62
   253
 10
-94.86075385462235
 20
275.6892461453777
 30
0.0
 40
29.99999999999996
 50
202.9321967018483
 51
247.0678032981518
  0
ARC
  5
77
  8
0
  6
CONTINUOUS
 62
   253
 10
126.4499999999998
 20
286.9999999999999
 30
0.0
 40
249.9999999999997
 50
181.8337780000466
 51
185.2786761033209
  0
LINE
  5
78
  8
0
  6
CONTINUOUS
 62
   253
 10
-119.4198842884179
 20
278.9999999999998
 30
0.0
 11
-123.4219672152121
 21
278.9999999999999
 31
0.0
  0
ARC
  5
79
  8
0
  6
CONTINUOUS
 62
   253
 10
126.4499999999998
 20
286.9999999999999
 30
0.0
 40
245.9999999999998
 50
181.8636059637961
 51
185.1292638888987
  0
ARC
  5
7A
  8
0
  6
CONTINUOUS
 62
   253
 10
-94.86075385462235
 20
275.6892461453777
 30
0.0
 40
25.99999999999998
 50
204.2589370559112
 51
245.7410629440854
  0
ARC
  5
7B
  8
0
  6
CONTINUOUS
 62
   253
 10
-83.55000000000003
 20
496.9999999999999
 30
0.0
 40
245.9999999999999
 50
264.8707361111008
 51
266.5041863676101
  0
LINE
  5
7C
  8
0
  6
CONTINUOUS
 62
   253
 10
-98.55000000000004
 20
247.4504057306444
 30
0.0
 11
-98.55000000000004
 21
251.4577429443152
 31
0.0
  0
LINE
  5
7D
  8
0
  6
CONTINUOUS
 62
     7
 10
-84.85234312273491
 20
276.9886346237498
 30
0.0
 11
-83.54999999999994
 21
275.6862915010148
 31
0.0
  0
LINE
  5
7E
  8
0
  6
CONTINUOUS
 62
     7
 10
-83.54999999999994
 20
275.6862915010148
 30
0.0
 11
-83.55000000000003
 21
273.9999619230642
 31
0.0
  0
LINE
  5
7F
  8
0
  6
CONTINUOUS
 62
     7
 10
-85.0543632677492
 20
276.9868716206532
 30
0.0
 11
-84.85234312273491
 21
276.9886346237498
 31
0.0
  0
LINE
  5
80
  8
0
  6
CONTINUOUS
 62
     7
 10
-83.55000000000003
 20
273.9999619230642
 30
0.0
 11
-83.55000000000003
 21
273.0
 31
0.0
  0
LINE
  5
81
  8
0
  6
CONTINUOUS
 62
     7
 10
-83.55000000000003
 20
273.0
 30
0.0
 11
-85.0543632677492
 21
273.0131283793469
 31
0.0
  0
ARC
  5
82
  8
0
  6
CONTINUOUS
 62
     7
 10
-85.05000000000003
 20
273.513109340879
 30
0.0
 40
0.5000000000000013
 50
180.0
 51
269.5000000000001
  0
LINE
  5
83
  8
0
  6
CONTINUOUS
 62
     7
 10
-85.55000000000003
 20
273.5131093408791
 30
0.0
 11
-85.55000000000003
 21
274.0130903024112
 31
0.0
  0
LINE
  5
84
  8
0
  6
CONTINUOUS
 62
     7
 10
-85.55000000000003
 20
274.0130903024112
 30
0.0
 11
-85.55000000000003
 21
276.9825462644185
 31
0.0
  0
LINE
  5
85
  8
0
  6
CONTINUOUS
 62
     7
 10
-85.55000000000003
 20
276.9825462644185
 30
0.0
 11
-85.0543632677492
 21
276.9868716206532
 31
0.0
  0
LINE
  5
86
  8
0
  6
CONTINUOUS
 62
     7
 10
-96.5587265354984
 20
286.9999999999999
 30
0.0
 11
-94.86370849898472
 21
286.9999999999995
 31
0.0
  0
LINE
  5
87
  8
0
  6
CONTINUOUS
 62
     7
 10
-93.55000000000001
 20
285.6862915010153
 30
0.0
 11
-93.55000000000001
 21
285.5872496394397
 31
0.0
  0
LINE
  5
88
  8
0
  6
CONTINUOUS
 62
     7
 10
-94.86370849898472
 20
286.9999999999995
 30
0.0
 11
-93.55000000000001
 21
285.6862915010153
 31
0.0
  0
LINE
  5
89
  8
0
  6
CONTINUOUS
 62
     7
 10
-93.55000000000001
 20
285.0872686779076
 30
0.0
 11
-96.5587265354984
 21
285.1135254366014
 31
0.0
  0
LINE
  5
8A
  8
0
  6
CONTINUOUS
 62
     7
 10
-93.55000000000001
 20
285.5872496394397
 30
0.0
 11
-93.55000000000001
 21
285.0872686779076
 31
0.0
  0
LINE
  5
8B
  8
0
  6
CONTINUOUS
 62
     7
 10
-97.55000000000001
 20
285.6178317543682
 30
0.0
 11
-97.55000000000001
 21
287.0
 31
0.0
  0
LINE
  5
8C
  8
0
  6
CONTINUOUS
 62
     7
 10
-97.55000000000001
 20
287.0
 30
0.0
 11
-96.5587265354984
 21
286.9999999999999
 31
0.0
  0
LINE
  5
8D
  8
0
  6
CONTINUOUS
 62
     7
 10
-96.5587265354984
 20
285.1135254366014
 30
0.0
 11
-97.0543632677492
 21
285.1178507928361
 31
0.0
  0
ARC
  5
8E
  8
0
  6
CONTINUOUS
 62
     7
 10
-97.05000000000001
 20
285.6178317543682
 30
0.0
 40
0.5000000000000016
 50
180.0
 51
269.4999999999999
  0
LINE
  5
8F
  8
0
  6
CONTINUOUS
 62
     7
 10
-123.35
 20
287.0
 30
0.0
 11
-118.55
 21
287.0
 31
0.0
  0
LINE
  5
90
  8
0
  6
CONTINUOUS
 62
     7
 10
-118.55
 20
286.5
 30
0.0
 11
-118.55
 21
287.0
 31
0.0
  0
LINE
  5
91
  8
0
  6
CONTINUOUS
 62
     7
 10
-118.05
 20
286.0
 30
0.0
 11
-118.0745338371637
 21
286.0006022718975
 31
0.0
  0
LINE
  5
92
  8
0
  6
CONTINUOUS
 62
     7
 10
-118.0745338371637
 20
286.0006022718975
 30
0.0
 11
-118.0990085701648
 21
286.002407636664
 31
0.0
  0
LINE
  5
93
  8
0
  6
CONTINUOUS
 62
     7
 10
-118.0990085701648
 20
286.002407636664
 30
0.0
 11
-118.1233652372277
 21
286.0054117450176
 31
0.0
  0
LINE
  5
94
  8
0
  6
CONTINUOUS
 62
     7
 10
-118.1233652372277
 20
286.0054117450176
 30
0.0
 11
-118.1475451610081
 21
286.0096073597984
 31
0.0
  0
LINE
  5
95
  8
0
  6
CONTINUOUS
 62
     7
 10
-118.1475451610081
 20
286.0096073597984
 30
0.0
 11
-118.1714900899517
 21
286.0149843734028
 31
0.0
  0
LINE
  5
96
  8
0
  6
CONTINUOUS
 62
     7
 10
-118.1714900899517
 20
286.0149843734028
 30
0.0
 11
-118.1951423386272
 21
286.021529832134
 31
0.0
  0
LINE
  5
97
  8
0
  6
CONTINUOUS
 62
     7
 10
-118.1951423386272
 20
286.021529832134
 30
0.0
 11
-118.2184449266961
 21
286.0292279674085
 31
0.0
  0
LINE
  5
98
  8
0
  6
CONTINUOUS
 62
     7
 10
-118.2184449266961
 20
286.0292279674085
 30
0.0
 11
-118.2413417161826
 21
286.0380602337444
 31
0.0
  0
LINE
  5
99
  8
0
  6
CONTINUOUS
 62
     7
 10
-118.2413417161826
 20
286.0380602337444
 30
0.0
 11
-118.2637775467152
 21
286.0480053534383
 31
0.0
  0
LINE
  5
9A
  8
0
  6
CONTINUOUS
 62
     7
 10
-118.2637775467152
 20
286.0480053534383
 30
0.0
 11
-118.285698368413
 21
286.0590393678259
 31
0.0
  0
LINE
  5
9B
  8
0
  6
CONTINUOUS
 62
     7
 10
-118.285698368413
 20
286.0590393678259
 30
0.0
 11
-118.3070513720966
 21
286.0711356949999
 31
0.0
  0
LINE
  5
9C
  8
0
  6
CONTINUOUS
 62
     7
 10
-118.3070513720966
 20
286.0711356949999
 30
0.0
 11
-118.3277851165098
 21
286.0842651938488
 31
0.0
  0
LINE
  5
9D
  8
0
  6
CONTINUOUS
 62
     7
 10
-118.3277851165098
 20
286.0842651938488
 30
0.0
 11
-118.3478496522462
 21
286.0983962342597
 31
0.0
  0
LINE
  5
9E
  8
0
  6
CONTINUOUS
 62
     7
 10
-118.3478496522462
 20
286.0983962342597
 30
0.0
 11
-118.3671966420819
 21
286.1134947733187
 31
0.0
  0
LINE
  5
9F
  8
0
  6
CONTINUOUS
 62
     7
 10
-118.3671966420819
 20
286.1134947733187
 30
0.0
 11
-118.3857794774235
 21
286.1295244373226
 31
0.0
  0
LINE
  5
A0
  8
0
  6
CONTINUOUS
 62
     7
 10
-118.3857794774235
 20
286.1295244373226
 30
0.0
 11
-118.4035533905933
 21
286.1464466094068
 31
0.0
  0
LINE
  5
A1
  8
0
  6
CONTINUOUS
 62
     7
 10
-118.4035533905933
 20
286.1464466094068
 30
0.0
 11
-118.4204755626775
 21
286.1642205225766
 31
0.0
  0
LINE
  5
A2
  8
0
  6
CONTINUOUS
 62
     7
 10
-118.4204755626775
 20
286.1642205225766
 30
0.0
 11
-118.4365052266814
 21
286.1828033579182
 31
0.0
  0
LINE
  5
A3
  8
0
  6
CONTINUOUS
 62
     7
 10
-118.4365052266814
 20
286.1828033579182
 30
0.0
 11
-118.4516037657403
 21
286.2021503477538
 31
0.0
  0
LINE
  5
A4
  8
0
  6
CONTINUOUS
 62
     7
 10
-118.4516037657403
 20
286.2021503477538
 30
0.0
 11
-118.4657348061513
 21
286.2222148834903
 31
0.0
  0
LINE
  5
A5
  8
0
  6
CONTINUOUS
 62
     7
 10
-118.4657348061513
 20
286.2222148834903
 30
0.0
 11
-118.4788643050002
 21
286.2429486279034
 31
0.0
  0
LINE
  5
A6
  8
0
  6
CONTINUOUS
 62
     7
 10
-118.4788643050002
 20
286.2429486279034
 30
0.0
 11
-118.4909606321742
 21
286.264301631587
 31
0.0
  0
LINE
  5
A7
  8
0
  6
CONTINUOUS
 62
     7
 10
-118.4909606321742
 20
286.264301631587
 30
0.0
 11
-118.5019946465618
 21
286.2862224532849
 31
0.0
  0
LINE
  5
A8
  8
0
  6
CONTINUOUS
 62
     7
 10
-118.5019946465618
 20
286.2862224532849
 30
0.0
 11
-118.5119397662557
 21
286.3086582838175
 31
0.0
  0
LINE
  5
A9
  8
0
  6
CONTINUOUS
 62
     7
 10
-118.5119397662557
 20
286.3086582838175
 30
0.0
 11
-118.5207720325915
 21
286.3315550733039
 31
0.0
  0
LINE
  5
AA
  8
0
  6
CONTINUOUS
 62
     7
 10
-118.5207720325915
 20
286.3315550733039
 30
0.0
 11
-118.5284701678661
 21
286.3548576613728
 31
0.0
  0
LINE
  5
AB
  8
0
  6
CONTINUOUS
 62
     7
 10
-118.5284701678661
 20
286.3548576613728
 30
0.0
 11
-118.5350156265973
 21
286.3785099100484
 31
0.0
  0
LINE
  5
AC
  8
0
  6
CONTINUOUS
 62
     7
 10
-118.5350156265973
 20
286.3785099100484
 30
0.0
 11
-118.5403926402016
 21
286.402454838992
 31
0.0
  0
LINE
  5
AD
  8
0
  6
CONTINUOUS
 62
     7
 10
-118.5403926402016
 20
286.402454838992
 30
0.0
 11
-118.5445882549824
 21
286.4266347627724
 31
0.0
  0
LINE
  5
AE
  8
0
  6
CONTINUOUS
 62
     7
 10
-118.5445882549824
 20
286.4266347627724
 30
0.0
 11
-118.5475923633361
 21
286.4509914298353
 31
0.0
  0
LINE
  5
AF
  8
0
  6
CONTINUOUS
 62
     7
 10
-118.5475923633361
 20
286.4509914298353
 30
0.0
 11
-118.5493977281026
 21
286.4754661628364
 31
0.0
  0
LINE
  5
B0
  8
0
  6
CONTINUOUS
 62
     7
 10
-118.5493977281026
 20
286.4754661628364
 30
0.0
 11
-118.55
 21
286.5
 31
0.0
  0
LINE
  5
B1
  8
0
  6
CONTINUOUS
 62
     7
 10
-117.05
 20
286.0
 30
0.0
 11
-118.05
 21
286.0
 31
0.0
  0
LINE
  5
B2
  8
0
  6
CONTINUOUS
 62
     7
 10
-116.55
 20
286.5
 30
0.0
 11
-116.5506022718974
 21
286.4754661628364
 31
0.0
  0
LINE
  5
B3
  8
0
  6
CONTINUOUS
 62
     7
 10
-116.5506022718974
 20
286.4754661628364
 30
0.0
 11
-116.5524076366639
 21
286.4509914298353
 31
0.0
  0
LINE
  5
B4
  8
0
  6
CONTINUOUS
 62
     7
 10
-116.5524076366639
 20
286.4509914298353
 30
0.0
 11
-116.5554117450176
 21
286.4266347627724
 31
0.0
  0
LINE
  5
B5
  8
0
  6
CONTINUOUS
 62
     7
 10
-116.5554117450176
 20
286.4266347627724
 30
0.0
 11
-116.5596073597984
 21
286.402454838992
 31
0.0
  0
LINE
  5
B6
  8
0
  6
CONTINUOUS
 62
     7
 10
-116.5596073597984
 20
286.402454838992
 30
0.0
 11
-116.5649843734028
 21
286.3785099100484
 31
0.0
  0
LINE
  5
B7
  8
0
  6
CONTINUOUS
 62
     7
 10
-116.5649843734028
 20
286.3785099100484
 30
0.0
 11
-116.5715298321339
 21
286.3548576613728
 31
0.0
  0
LINE
  5
B8
  8
0
  6
CONTINUOUS
 62
     7
 10
-116.5715298321339
 20
286.3548576613728
 30
0.0
 11
-116.5792279674085
 21
286.3315550733039
 31
0.0
  0
LINE
  5
B9
  8
0
  6
CONTINUOUS
 62
     7
 10
-116.5792279674085
 20
286.3315550733039
 30
0.0
 11
-116.5880602337444
 21
286.3086582838175
 31
0.0
  0
LINE
  5
BA
  8
0
  6
CONTINUOUS
 62
     7
 10
-116.5880602337444
 20
286.3086582838175
 30
0.0
 11
-116.5980053534383
 21
286.2862224532849
 31
0.0
  0
LINE
  5
BB
  8
0
  6
CONTINUOUS
 62
     7
 10
-116.5980053534383
 20
286.2862224532849
 30
0.0
 11
-116.6090393678258
 21
286.264301631587
 31
0.0
  0
LINE
  5
BC
  8
0
  6
CONTINUOUS
 62
     7
 10
-116.6090393678258
 20
286.264301631587
 30
0.0
 11
-116.6211356949999
 21
286.2429486279034
 31
0.0
  0
LINE
  5
BD
  8
0
  6
CONTINUOUS
 62
     7
 10
-116.6211356949999
 20
286.2429486279034
 30
0.0
 11
-116.6342651938487
 21
286.2222148834903
 31
0.0
  0
LINE
  5
BE
  8
0
  6
CONTINUOUS
 62
     7
 10
-116.6342651938487
 20
286.2222148834903
 30
0.0
 11
-116.6483962342597
 21
286.2021503477538
 31
0.0
  0
LINE
  5
BF
  8
0
  6
CONTINUOUS
 62
     7
 10
-116.6483962342597
 20
286.2021503477538
 30
0.0
 11
-116.6634947733186
 21
286.1828033579182
 31
0.0
  0
LINE
  5
C0
  8
0
  6
CONTINUOUS
 62
     7
 10
-116.6634947733186
 20
286.1828033579182
 30
0.0
 11
-116.6795244373225
 21
286.1642205225766
 31
0.0
  0
LINE
  5
C1
  8
0
  6
CONTINUOUS
 62
     7
 10
-116.6795244373225
 20
286.1642205225766
 30
0.0
 11
-116.6964466094067
 21
286.1464466094068
 31
0.0
  0
LINE
  5
C2
  8
0
  6
CONTINUOUS
 62
     7
 10
-116.6964466094067
 20
286.1464466094068
 30
0.0
 11
-116.7142205225765
 21
286.1295244373226
 31
0.0
  0
LINE
  5
C3
  8
0
  6
CONTINUOUS
 62
     7
 10
-116.7142205225765
 20
286.1295244373226
 30
0.0
 11
-116.7328033579182
 21
286.1134947733187
 31
0.0
  0
LINE
  5
C4
  8
0
  6
CONTINUOUS
 62
     7
 10
-116.7328033579182
 20
286.1134947733187
 30
0.0
 11
-116.7521503477538
 21
286.0983962342597
 31
0.0
  0
LINE
  5
C5
  8
0
  6
CONTINUOUS
 62
     7
 10
-116.7521503477538
 20
286.0983962342597
 30
0.0
 11
-116.7722148834902
 21
286.0842651938488
 31
0.0
  0
LINE
  5
C6
  8
0
  6
CONTINUOUS
 62
     7
 10
-116.7722148834902
 20
286.0842651938488
 30
0.0
 11
-116.7929486279034
 21
286.0711356949999
 31
0.0
  0
LINE
  5
C7
  8
0
  6
CONTINUOUS
 62
     7
 10
-116.7929486279034
 20
286.0711356949999
 30
0.0
 11
-116.814301631587
 21
286.0590393678259
 31
0.0
  0
LINE
  5
C8
  8
0
  6
CONTINUOUS
 62
     7
 10
-116.814301631587
 20
286.0590393678259
 30
0.0
 11
-116.8362224532849
 21
286.0480053534383
 31
0.0
  0
LINE
  5
C9
  8
0
  6
CONTINUOUS
 62
     7
 10
-116.8362224532849
 20
286.0480053534383
 30
0.0
 11
-116.8586582838175
 21
286.0380602337444
 31
0.0
  0
LINE
  5
CA
  8
0
  6
CONTINUOUS
 62
     7
 10
-116.8586582838175
 20
286.0380602337444
 30
0.0
 11
-116.8815550733039
 21
286.0292279674085
 31
0.0
  0
LINE
  5
CB
  8
0
  6
CONTINUOUS
 62
     7
 10
-116.8815550733039
 20
286.0292279674085
 30
0.0
 11
-116.9048576613728
 21
286.021529832134
 31
0.0
  0
LINE
  5
CC
  8
0
  6
CONTINUOUS
 62
     7
 10
-116.9048576613728
 20
286.021529832134
 30
0.0
 11
-116.9285099100484
 21
286.0149843734028
 31
0.0
  0
LINE
  5
CD
  8
0
  6
CONTINUOUS
 62
     7
 10
-116.9285099100484
 20
286.0149843734028
 30
0.0
 11
-116.952454838992
 21
286.0096073597984
 31
0.0
  0
LINE
  5
CE
  8
0
  6
CONTINUOUS
 62
     7
 10
-116.952454838992
 20
286.0096073597984
 30
0.0
 11
-116.9766347627723
 21
286.0054117450176
 31
0.0
  0
LINE
  5
CF
  8
0
  6
CONTINUOUS
 62
     7
 10
-116.9766347627723
 20
286.0054117450176
 30
0.0
 11
-117.0009914298352
 21
286.002407636664
 31
0.0
  0
LINE
  5
D0
  8
0
  6
CONTINUOUS
 62
     7
 10
-117.0009914298352
 20
286.002407636664
 30
0.0
 11
-117.0254661628363
 21
286.0006022718975
 31
0.0
  0
LINE
  5
D1
  8
0
  6
CONTINUOUS
 62
     7
 10
-117.0254661628363
 20
286.0006022718975
 30
0.0
 11
-117.05
 21
286.0
 31
0.0
  0
LINE
  5
D2
  8
0
  6
CONTINUOUS
 62
     7
 10
-116.5500000000001
 20
287.0
 30
0.0
 11
-116.55
 21
286.5
 31
0.0
  0
LINE
  5
D3
  8
0
  6
CONTINUOUS
 62
     7
 10
-100.55
 20
286.5
 30
0.0
 11
-100.55
 21
287.0
 31
0.0
  0
LINE
  5
D4
  8
0
  6
CONTINUOUS
 62
     7
 10
-100.05
 20
286.0
 30
0.0
 11
-100.0745338371637
 21
286.0006022718975
 31
0.0
  0
LINE
  5
D5
  8
0
  6
CONTINUOUS
 62
     7
 10
-100.0745338371637
 20
286.0006022718975
 30
0.0
 11
-100.0990085701648
 21
286.002407636664
 31
0.0
  0
LINE
  5
D6
  8
0
  6
CONTINUOUS
 62
     7
 10
-100.0990085701648
 20
286.002407636664
 30
0.0
 11
-100.1233652372277
 21
286.0054117450176
 31
0.0
  0
LINE
  5
D7
  8
0
  6
CONTINUOUS
 62
     7
 10
-100.1233652372277
 20
286.0054117450176
 30
0.0
 11
-100.1475451610081
 21
286.0096073597984
 31
0.0
  0
LINE
  5
D8
  8
0
  6
CONTINUOUS
 62
     7
 10
-100.1475451610081
 20
286.0096073597984
 30
0.0
 11
-100.1714900899516
 21
286.0149843734028
 31
0.0
  0
LINE
  5
D9
  8
0
  6
CONTINUOUS
 62
     7
 10
-100.1714900899516
 20
286.0149843734028
 30
0.0
 11
-100.1951423386273
 21
286.021529832134
 31
0.0
  0
LINE
  5
DA
  8
0
  6
CONTINUOUS
 62
     7
 10
-100.1951423386273
 20
286.021529832134
 30
0.0
 11
-100.2184449266961
 21
286.0292279674085
 31
0.0
  0
LINE
  5
DB
  8
0
  6
CONTINUOUS
 62
     7
 10
-100.2184449266961
 20
286.0292279674085
 30
0.0
 11
-100.2413417161826
 21
286.0380602337444
 31
0.0
  0
LINE
  5
DC
  8
0
  6
CONTINUOUS
 62
     7
 10
-100.2413417161826
 20
286.0380602337444
 30
0.0
 11
-100.2637775467152
 21
286.0480053534383
 31
0.0
  0
LINE
  5
DD
  8
0
  6
CONTINUOUS
 62
     7
 10
-100.2637775467152
 20
286.0480053534383
 30
0.0
 11
-100.285698368413
 21
286.0590393678259
 31
0.0
  0
LINE
  5
DE
  8
0
  6
CONTINUOUS
 62
     7
 10
-100.285698368413
 20
286.0590393678259
 30
0.0
 11
-100.3070513720966
 21
286.0711356949999
 31
0.0
  0
LINE
  5
DF
  8
0
  6
CONTINUOUS
 62
     7
 10
-100.3070513720966
 20
286.0711356949999
 30
0.0
 11
-100.3277851165098
 21
286.0842651938488
 31
0.0
  0
LINE
  5
E0
  8
0
  6
CONTINUOUS
 62
     7
 10
-100.3277851165098
 20
286.0842651938488
 30
0.0
 11
-100.3478496522463
 21
286.0983962342597
 31
0.0
  0
LINE
  5
E1
  8
0
  6
CONTINUOUS
 62
     7
 10
-100.3478496522463
 20
286.0983962342597
 30
0.0
 11
-100.3671966420818
 21
286.1134947733187
 31
0.0
  0
LINE
  5
E2
  8
0
  6
CONTINUOUS
 62
     7
 10
-100.3671966420818
 20
286.1134947733187
 30
0.0
 11
-100.3857794774235
 21
286.1295244373226
 31
0.0
  0
LINE
  5
E3
  8
0
  6
CONTINUOUS
 62
     7
 10
-100.3857794774235
 20
286.1295244373226
 30
0.0
 11
-100.4035533905933
 21
286.1464466094068
 31
0.0
  0
LINE
  5
E4
  8
0
  6
CONTINUOUS
 62
     7
 10
-100.4035533905933
 20
286.1464466094068
 30
0.0
 11
-100.4204755626775
 21
286.1642205225766
 31
0.0
  0
LINE
  5
E5
  8
0
  6
CONTINUOUS
 62
     7
 10
-100.4204755626775
 20
286.1642205225766
 30
0.0
 11
-100.4365052266814
 21
286.1828033579182
 31
0.0
  0
LINE
  5
E6
  8
0
  6
CONTINUOUS
 62
     7
 10
-100.4365052266814
 20
286.1828033579182
 30
0.0
 11
-100.4516037657403
 21
286.2021503477538
 31
0.0
  0
LINE
  5
E7
  8
0
  6
CONTINUOUS
 62
     7
 10
-100.4516037657403
 20
286.2021503477538
 30
0.0
 11
-100.4657348061513
 21
286.2222148834903
 31
0.0
  0
LINE
  5
E8
  8
0
  6
CONTINUOUS
 62
     7
 10
-100.4657348061513
 20
286.2222148834903
 30
0.0
 11
-100.4788643050001
 21
286.2429486279034
 31
0.0
  0
LINE
  5
E9
  8
0
  6
CONTINUOUS
 62
     7
 10
-100.4788643050001
 20
286.2429486279034
 30
0.0
 11
-100.4909606321742
 21
286.264301631587
 31
0.0
  0
LINE
  5
EA
  8
0
  6
CONTINUOUS
 62
     7
 10
-100.4909606321742
 20
286.264301631587
 30
0.0
 11
-100.5019946465617
 21
286.2862224532849
 31
0.0
  0
LINE
  5
EB
  8
0
  6
CONTINUOUS
 62
     7
 10
-100.5019946465617
 20
286.2862224532849
 30
0.0
 11
-100.5119397662557
 21
286.3086582838175
 31
0.0
  0
LINE
  5
EC
  8
0
  6
CONTINUOUS
 62
     7
 10
-100.5119397662557
 20
286.3086582838175
 30
0.0
 11
-100.5207720325915
 21
286.3315550733039
 31
0.0
  0
LINE
  5
ED
  8
0
  6
CONTINUOUS
 62
     7
 10
-100.5207720325915
 20
286.3315550733039
 30
0.0
 11
-100.5284701678661
 21
286.3548576613728
 31
0.0
  0
LINE
  5
EE
  8
0
  6
CONTINUOUS
 62
     7
 10
-100.5284701678661
 20
286.3548576613728
 30
0.0
 11
-100.5350156265973
 21
286.3785099100484
 31
0.0
  0
LINE
  5
EF
  8
0
  6
CONTINUOUS
 62
     7
 10
-100.5350156265973
 20
286.3785099100484
 30
0.0
 11
-100.5403926402016
 21
286.402454838992
 31
0.0
  0
LINE
  5
F0
  8
0
  6
CONTINUOUS
 62
     7
 10
-100.5403926402016
 20
286.402454838992
 30
0.0
 11
-100.5445882549824
 21
286.4266347627724
 31
0.0
  0
LINE
  5
F1
  8
0
  6
CONTINUOUS
 62
     7
 10
-100.5445882549824
 20
286.4266347627724
 30
0.0
 11
-100.5475923633361
 21
286.4509914298353
 31
0.0
  0
LINE
  5
F2
  8
0
  6
CONTINUOUS
 62
     7
 10
-100.5475923633361
 20
286.4509914298353
 30
0.0
 11
-100.5493977281026
 21
286.4754661628364
 31
0.0
  0
LINE
  5
F3
  8
0
  6
CONTINUOUS
 62
     7
 10
-100.5493977281026
 20
286.4754661628364
 30
0.0
 11
-100.55
 21
286.5
 31
0.0
  0
LINE
  5
F4
  8
0
  6
CONTINUOUS
 62
     7
 10
-99.05000000000004
 20
286.0
 30
0.0
 11
-100.05
 21
286.0
 31
0.0
  0
LINE
  5
F5
  8
0
  6
CONTINUOUS
 62
     7
 10
-98.55000000000004
 20
286.5
 30
0.0
 11
-98.55060227189745
 21
286.4754661628364
 31
0.0
  0
LINE
  5
F6
  8
0
  6
CONTINUOUS
 62
     7
 10
-98.55060227189745
 20
286.4754661628364
 30
0.0
 11
-98.55240763666394
 21
286.4509914298353
 31
0.0
  0
LINE
  5
F7
  8
0
  6
CONTINUOUS
 62
     7
 10
-98.55240763666394
 20
286.4509914298353
 30
0.0
 11
-98.55541174501765
 21
286.4266347627724
 31
0.0
  0
LINE
  5
F8
  8
0
  6
CONTINUOUS
 62
     7
 10
-98.55541174501765
 20
286.4266347627724
 30
0.0
 11
-98.55960735979842
 21
286.402454838992
 31
0.0
  0
LINE
  5
F9
  8
0
  6
CONTINUOUS
 62
     7
 10
-98.55960735979842
 20
286.402454838992
 30
0.0
 11
-98.56498437340277
 21
286.3785099100484
 31
0.0
  0
LINE
  5
FA
  8
0
  6
CONTINUOUS
 62
     7
 10
-98.56498437340277
 20
286.3785099100484
 30
0.0
 11
-98.57152983213392
 21
286.3548576613728
 31
0.0
  0
LINE
  5
FB
  8
0
  6
CONTINUOUS
 62
     7
 10
-98.57152983213392
 20
286.3548576613728
 30
0.0
 11
-98.57922796740851
 21
286.3315550733039
 31
0.0
  0
LINE
  5
FC
  8
0
  6
CONTINUOUS
 62
     7
 10
-98.57922796740851
 20
286.3315550733039
 30
0.0
 11
-98.58806023374437
 21
286.3086582838175
 31
0.0
  0
LINE
  5
FD
  8
0
  6
CONTINUOUS
 62
     7
 10
-98.58806023374437
 20
286.3086582838175
 30
0.0
 11
-98.59800535343831
 21
286.2862224532849
 31
0.0
  0
LINE
  5
FE
  8
0
  6
CONTINUOUS
 62
     7
 10
-98.59800535343831
 20
286.2862224532849
 30
0.0
 11
-98.60903936782584
 21
286.264301631587
 31
0.0
  0
LINE
  5
FF
  8
0
  6
CONTINUOUS
 62
     7
 10
-98.60903936782584
 20
286.264301631587
 30
0.0
 11
-98.62113569499991
 21
286.2429486279034
 31
0.0
  0
LINE
  5
100
  8
0
  6
CONTINUOUS
 62
     7
 10
-98.62113569499991
 20
286.2429486279034
 30
0.0
 11
-98.63426519384875
 21
286.2222148834903
 31
0.0
  0
LINE
  5
101
  8
0
  6
CONTINUOUS
 62
     7
 10
-98.63426519384875
 20
286.2222148834903
 30
0.0
 11
-98.6483962342597
 21
286.2021503477538
 31
0.0
  0
LINE
  5
102
  8
0
  6
CONTINUOUS
 62
     7
 10
-98.6483962342597
 20
286.2021503477538
 30
0.0
 11
-98.66349477331866
 21
286.1828033579182
 31
0.0
  0
LINE
  5
103
  8
0
  6
CONTINUOUS
 62
     7
 10
-98.66349477331866
 20
286.1828033579182
 30
0.0
 11
-98.67952443732254
 21
286.1642205225766
 31
0.0
  0
LINE
  5
104
  8
0
  6
CONTINUOUS
 62
     7
 10
-98.67952443732254
 20
286.1642205225766
 30
0.0
 11
-98.69644660940675
 21
286.1464466094068
 31
0.0
  0
LINE
  5
105
  8
0
  6
CONTINUOUS
 62
     7
 10
-98.69644660940675
 20
286.1464466094068
 30
0.0
 11
-98.71422052257651
 21
286.1295244373226
 31
0.0
  0
LINE
  5
106
  8
0
  6
CONTINUOUS
 62
     7
 10
-98.71422052257651
 20
286.1295244373226
 30
0.0
 11
-98.73280335791821
 21
286.1134947733187
 31
0.0
  0
LINE
  5
107
  8
0
  6
CONTINUOUS
 62
     7
 10
-98.73280335791821
 20
286.1134947733187
 30
0.0
 11
-98.75215034775383
 21
286.0983962342597
 31
0.0
  0
LINE
  5
108
  8
0
  6
CONTINUOUS
 62
     7
 10
-98.75215034775383
 20
286.0983962342597
 30
0.0
 11
-98.77221488349024
 21
286.0842651938488
 31
0.0
  0
LINE
  5
109
  8
0
  6
CONTINUOUS
 62
     7
 10
-98.77221488349024
 20
286.0842651938488
 30
0.0
 11
-98.79294862790343
 21
286.0711356949999
 31
0.0
  0
LINE
  5
10A
  8
0
  6
CONTINUOUS
 62
     7
 10
-98.79294862790343
 20
286.0711356949999
 30
0.0
 11
-98.81430163158704
 21
286.0590393678259
 31
0.0
  0
LINE
  5
10B
  8
0
  6
CONTINUOUS
 62
     7
 10
-98.81430163158704
 20
286.0590393678259
 30
0.0
 11
-98.83622245328489
 21
286.0480053534383
 31
0.0
  0
LINE
  5
10C
  8
0
  6
CONTINUOUS
 62
     7
 10
-98.83622245328489
 20
286.0480053534383
 30
0.0
 11
-98.85865828381748
 21
286.0380602337444
 31
0.0
  0
LINE
  5
10D
  8
0
  6
CONTINUOUS
 62
     7
 10
-98.85865828381748
 20
286.0380602337444
 30
0.0
 11
-98.88155507330391
 21
286.0292279674085
 31
0.0
  0
LINE
  5
10E
  8
0
  6
CONTINUOUS
 62
     7
 10
-98.88155507330391
 20
286.0292279674085
 30
0.0
 11
-98.90485766137279
 21
286.021529832134
 31
0.0
  0
LINE
  5
10F
  8
0
  6
CONTINUOUS
 62
     7
 10
-98.90485766137279
 20
286.021529832134
 30
0.0
 11
-98.9285099100484
 21
286.0149843734028
 31
0.0
  0
LINE
  5
110
  8
0
  6
CONTINUOUS
 62
     7
 10
-98.9285099100484
 20
286.0149843734028
 30
0.0
 11
-98.95245483899197
 21
286.0096073597984
 31
0.0
  0
LINE
  5
111
  8
0
  6
CONTINUOUS
 62
     7
 10
-98.95245483899197
 20
286.0096073597984
 30
0.0
 11
-98.97663476277233
 21
286.0054117450176
 31
0.0
  0
LINE
  5
112
  8
0
  6
CONTINUOUS
 62
     7
 10
-98.97663476277233
 20
286.0054117450176
 30
0.0
 11
-99.00099142983524
 21
286.002407636664
 31
0.0
  0
LINE
  5
113
  8
0
  6
CONTINUOUS
 62
     7
 10
-99.00099142983524
 20
286.002407636664
 30
0.0
 11
-99.02546616283632
 21
286.0006022718975
 31
0.0
  0
LINE
  5
114
  8
0
  6
CONTINUOUS
 62
     7
 10
-99.02546616283632
 20
286.0006022718975
 30
0.0
 11
-99.05000000000004
 21
286.0
 31
0.0
  0
LINE
  5
115
  8
0
  6
CONTINUOUS
 62
     7
 10
-98.55000000000004
 20
287.0
 30
0.0
 11
-98.55000000000004
 21
286.5
 31
0.0
  0
LINE
  5
116
  8
0
  6
CONTINUOUS
 62
     7
 10
-84.55000000000003
 20
271.5
 30
0.0
 11
-84.54939772810259
 21
271.5245338371637
 31
0.0
  0
LINE
  5
117
  8
0
  6
CONTINUOUS
 62
     7
 10
-84.54939772810259
 20
271.5245338371637
 30
0.0
 11
-84.5475923633361
 21
271.5490085701649
 31
0.0
  0
LINE
  5
118
  8
0
  6
CONTINUOUS
 62
     7
 10
-84.5475923633361
 20
271.5490085701649
 30
0.0
 11
-84.54458825498241
 21
271.5733652372277
 31
0.0
  0
LINE
  5
119
  8
0
  6
CONTINUOUS
 62
     7
 10
-84.54458825498241
 20
271.5733652372277
 30
0.0
 11
-84.54039264020162
 21
271.5975451610081
 31
0.0
  0
LINE
  5
11A
  8
0
  6
CONTINUOUS
 62
     7
 10
-84.54039264020162
 20
271.5975451610081
 30
0.0
 11
-84.53501562659727
 21
271.6214900899516
 31
0.0
  0
LINE
  5
11B
  8
0
  6
CONTINUOUS
 62
     7
 10
-84.53501562659727
 20
271.6214900899516
 30
0.0
 11
-84.52847016786612
 21
271.6451423386272
 31
0.0
  0
LINE
  5
11C
  8
0
  6
CONTINUOUS
 62
     7
 10
-84.52847016786612
 20
271.6451423386272
 30
0.0
 11
-84.52077203259152
 21
271.6684449266962
 31
0.0
  0
LINE
  5
11D
  8
0
  6
CONTINUOUS
 62
     7
 10
-84.52077203259152
 20
271.6684449266962
 30
0.0
 11
-84.51193976625567
 21
271.6913417161826
 31
0.0
  0
LINE
  5
11E
  8
0
  6
CONTINUOUS
 62
     7
 10
-84.51193976625567
 20
271.6913417161826
 30
0.0
 11
-84.50199464656173
 21
271.7137775467152
 31
0.0
  0
LINE
  5
11F
  8
0
  6
CONTINUOUS
 62
     7
 10
-84.50199464656173
 20
271.7137775467152
 30
0.0
 11
-84.4909606321742
 21
271.7356983684131
 31
0.0
  0
LINE
  5
120
  8
0
  6
CONTINUOUS
 62
     7
 10
-84.4909606321742
 20
271.7356983684131
 30
0.0
 11
-84.47886430500016
 21
271.7570513720966
 31
0.0
  0
LINE
  5
121
  8
0
  6
CONTINUOUS
 62
     7
 10
-84.47886430500016
 20
271.7570513720966
 30
0.0
 11
-84.46573480615129
 21
271.7777851165098
 31
0.0
  0
LINE
  5
122
  8
0
  6
CONTINUOUS
 62
     7
 10
-84.46573480615129
 20
271.7777851165098
 30
0.0
 11
-84.45160376574033
 21
271.7978496522462
 31
0.0
  0
LINE
  5
123
  8
0
  6
CONTINUOUS
 62
     7
 10
-84.45160376574033
 20
271.7978496522462
 30
0.0
 11
-84.43650522668138
 21
271.8171966420818
 31
0.0
  0
LINE
  5
124
  8
0
  6
CONTINUOUS
 62
     7
 10
-84.43650522668138
 20
271.8171966420818
 30
0.0
 11
-84.4204755626775
 21
271.8357794774236
 31
0.0
  0
LINE
  5
125
  8
0
  6
CONTINUOUS
 62
     7
 10
-84.4204755626775
 20
271.8357794774236
 30
0.0
 11
-84.40355339059329
 21
271.8535533905933
 31
0.0
  0
LINE
  5
126
  8
0
  6
CONTINUOUS
 62
     7
 10
-84.40355339059329
 20
271.8535533905933
 30
0.0
 11
-84.38577947742353
 21
271.8704755626775
 31
0.0
  0
LINE
  5
127
  8
0
  6
CONTINUOUS
 62
     7
 10
-84.38577947742353
 20
271.8704755626775
 30
0.0
 11
-84.36719664208185
 21
271.8865052266814
 31
0.0
  0
LINE
  5
128
  8
0
  6
CONTINUOUS
 62
     7
 10
-84.36719664208185
 20
271.8865052266814
 30
0.0
 11
-84.34784965224624
 21
271.9016037657403
 31
0.0
  0
LINE
  5
129
  8
0
  6
CONTINUOUS
 62
     7
 10
-84.34784965224624
 20
271.9016037657403
 30
0.0
 11
-84.32778511650983
 21
271.9157348061512
 31
0.0
  0
LINE
  5
12A
  8
0
  6
CONTINUOUS
 62
     7
 10
-84.32778511650983
 20
271.9157348061512
 30
0.0
 11
-84.30705137209664
 21
271.9288643050002
 31
0.0
  0
LINE
  5
12B
  8
0
  6
CONTINUOUS
 62
     7
 10
-84.30705137209664
 20
271.9288643050002
 30
0.0
 11
-84.28569836841302
 21
271.9409606321742
 31
0.0
  0
LINE
  5
12C
  8
0
  6
CONTINUOUS
 62
     7
 10
-84.28569836841302
 20
271.9409606321742
 30
0.0
 11
-84.26377754671518
 21
271.9519946465617
 31
0.0
  0
LINE
  5
12D
  8
0
  6
CONTINUOUS
 62
     7
 10
-84.26377754671518
 20
271.9519946465617
 30
0.0
 11
-84.24134171618256
 21
271.9619397662556
 31
0.0
  0
LINE
  5
12E
  8
0
  6
CONTINUOUS
 62
     7
 10
-84.24134171618256
 20
271.9619397662556
 30
0.0
 11
-84.21844492669612
 21
271.9707720325916
 31
0.0
  0
LINE
  5
12F
  8
0
  6
CONTINUOUS
 62
     7
 10
-84.21844492669612
 20
271.9707720325916
 30
0.0
 11
-84.19514233862725
 21
271.9784701678661
 31
0.0
  0
LINE
  5
130
  8
0
  6
CONTINUOUS
 62
     7
 10
-84.19514233862725
 20
271.9784701678661
 30
0.0
 11
-84.17149008995166
 21
271.9850156265973
 31
0.0
  0
LINE
  5
131
  8
0
  6
CONTINUOUS
 62
     7
 10
-84.17149008995166
 20
271.9850156265973
 30
0.0
 11
-84.14754516100807
 21
271.9903926402016
 31
0.0
  0
LINE
  5
132
  8
0
  6
CONTINUOUS
 62
     7
 10
-84.14754516100807
 20
271.9903926402016
 30
0.0
 11
-84.1233652372277
 21
271.9945882549824
 31
0.0
  0
LINE
  5
133
  8
0
  6
CONTINUOUS
 62
     7
 10
-84.1233652372277
 20
271.9945882549824
 30
0.0
 11
-84.0990085701648
 21
271.9975923633361
 31
0.0
  0
LINE
  5
134
  8
0
  6
CONTINUOUS
 62
     7
 10
-84.0990085701648
 20
271.9975923633361
 30
0.0
 11
-84.07453383716371
 21
271.9993977281026
 31
0.0
  0
LINE
  5
135
  8
0
  6
CONTINUOUS
 62
     7
 10
-84.07453383716371
 20
271.9993977281026
 30
0.0
 11
-84.05000000000003
 21
272.0
 31
0.0
  0
LINE
  5
136
  8
0
  6
CONTINUOUS
 62
     7
 10
-84.55000000000003
 20
270.5
 30
0.0
 11
-84.55000000000003
 21
271.5
 31
0.0
  0
LINE
  5
137
  8
0
  6
CONTINUOUS
 62
     7
 10
-84.05000000000003
 20
270.0
 30
0.0
 11
-84.07453383716371
 21
270.0006022718974
 31
0.0
  0
LINE
  5
138
  8
0
  6
CONTINUOUS
 62
     7
 10
-84.07453383716371
 20
270.0006022718974
 30
0.0
 11
-84.0990085701648
 21
270.0024076366639
 31
0.0
  0
LINE
  5
139
  8
0
  6
CONTINUOUS
 62
     7
 10
-84.0990085701648
 20
270.0024076366639
 30
0.0
 11
-84.1233652372277
 21
270.0054117450176
 31
0.0
  0
LINE
  5
13A
  8
0
  6
CONTINUOUS
 62
     7
 10
-84.1233652372277
 20
270.0054117450176
 30
0.0
 11
-84.14754516100807
 21
270.0096073597984
 31
0.0
  0
LINE
  5
13B
  8
0
  6
CONTINUOUS
 62
     7
 10
-84.14754516100807
 20
270.0096073597984
 30
0.0
 11
-84.17149008995166
 21
270.0149843734027
 31
0.0
  0
LINE
  5
13C
  8
0
  6
CONTINUOUS
 62
     7
 10
-84.17149008995166
 20
270.0149843734027
 30
0.0
 11
-84.19514233862725
 21
270.0215298321339
 31
0.0
  0
LINE
  5
13D
  8
0
  6
CONTINUOUS
 62
     7
 10
-84.19514233862725
 20
270.0215298321339
 30
0.0
 11
-84.21844492669612
 21
270.0292279674085
 31
0.0
  0
LINE
  5
13E
  8
0
  6
CONTINUOUS
 62
     7
 10
-84.21844492669612
 20
270.0292279674085
 30
0.0
 11
-84.24134171618256
 21
270.0380602337444
 31
0.0
  0
LINE
  5
13F
  8
0
  6
CONTINUOUS
 62
     7
 10
-84.24134171618256
 20
270.0380602337444
 30
0.0
 11
-84.26377754671518
 21
270.0480053534383
 31
0.0
  0
LINE
  5
140
  8
0
  6
CONTINUOUS
 62
     7
 10
-84.26377754671518
 20
270.0480053534383
 30
0.0
 11
-84.28569836841302
 21
270.0590393678258
 31
0.0
  0
LINE
  5
141
  8
0
  6
CONTINUOUS
 62
     7
 10
-84.28569836841302
 20
270.0590393678258
 30
0.0
 11
-84.30705137209664
 21
270.0711356949998
 31
0.0
  0
LINE
  5
142
  8
0
  6
CONTINUOUS
 62
     7
 10
-84.30705137209664
 20
270.0711356949998
 30
0.0
 11
-84.32778511650983
 21
270.0842651938488
 31
0.0
  0
LINE
  5
143
  8
0
  6
CONTINUOUS
 62
     7
 10
-84.32778511650983
 20
270.0842651938488
 30
0.0
 11
-84.34784965224624
 21
270.0983962342597
 31
0.0
  0
LINE
  5
144
  8
0
  6
CONTINUOUS
 62
     7
 10
-84.34784965224624
 20
270.0983962342597
 30
0.0
 11
-84.36719664208185
 21
270.1134947733187
 31
0.0
  0
LINE
  5
145
  8
0
  6
CONTINUOUS
 62
     7
 10
-84.36719664208185
 20
270.1134947733187
 30
0.0
 11
-84.38577947742353
 21
270.1295244373225
 31
0.0
  0
LINE
  5
146
  8
0
  6
CONTINUOUS
 62
     7
 10
-84.38577947742353
 20
270.1295244373225
 30
0.0
 11
-84.40355339059329
 21
270.1464466094068
 31
0.0
  0
LINE
  5
147
  8
0
  6
CONTINUOUS
 62
     7
 10
-84.40355339059329
 20
270.1464466094068
 30
0.0
 11
-84.4204755626775
 21
270.1642205225765
 31
0.0
  0
LINE
  5
148
  8
0
  6
CONTINUOUS
 62
     7
 10
-84.4204755626775
 20
270.1642205225765
 30
0.0
 11
-84.43650522668138
 21
270.1828033579182
 31
0.0
  0
LINE
  5
149
  8
0
  6
CONTINUOUS
 62
     7
 10
-84.43650522668138
 20
270.1828033579182
 30
0.0
 11
-84.45160376574033
 21
270.2021503477538
 31
0.0
  0
LINE
  5
14A
  8
0
  6
CONTINUOUS
 62
     7
 10
-84.45160376574033
 20
270.2021503477538
 30
0.0
 11
-84.46573480615129
 21
270.2222148834902
 31
0.0
  0
LINE
  5
14B
  8
0
  6
CONTINUOUS
 62
     7
 10
-84.46573480615129
 20
270.2222148834902
 30
0.0
 11
-84.47886430500016
 21
270.2429486279034
 31
0.0
  0
LINE
  5
14C
  8
0
  6
CONTINUOUS
 62
     7
 10
-84.47886430500016
 20
270.2429486279034
 30
0.0
 11
-84.4909606321742
 21
270.264301631587
 31
0.0
  0
LINE
  5
14D
  8
0
  6
CONTINUOUS
 62
     7
 10
-84.4909606321742
 20
270.264301631587
 30
0.0
 11
-84.50199464656173
 21
270.2862224532849
 31
0.0
  0
LINE
  5
14E
  8
0
  6
CONTINUOUS
 62
     7
 10
-84.50199464656173
 20
270.2862224532849
 30
0.0
 11
-84.51193976625567
 21
270.3086582838175
 31
0.0
  0
LINE
  5
14F
  8
0
  6
CONTINUOUS
 62
     7
 10
-84.51193976625567
 20
270.3086582838175
 30
0.0
 11
-84.52077203259152
 21
270.3315550733039
 31
0.0
  0
LINE
  5
150
  8
0
  6
CONTINUOUS
 62
     7
 10
-84.52077203259152
 20
270.3315550733039
 30
0.0
 11
-84.52847016786612
 21
270.3548576613728
 31
0.0
  0
LINE
  5
151
  8
0
  6
CONTINUOUS
 62
     7
 10
-84.52847016786612
 20
270.3548576613728
 30
0.0
 11
-84.53501562659727
 21
270.3785099100484
 31
0.0
  0
LINE
  5
152
  8
0
  6
CONTINUOUS
 62
     7
 10
-84.53501562659727
 20
270.3785099100484
 30
0.0
 11
-84.54039264020162
 21
270.402454838992
 31
0.0
  0
LINE
  5
153
  8
0
  6
CONTINUOUS
 62
     7
 10
-84.54039264020162
 20
270.402454838992
 30
0.0
 11
-84.54458825498241
 21
270.4266347627723
 31
0.0
  0
LINE
  5
154
  8
0
  6
CONTINUOUS
 62
     7
 10
-84.54458825498241
 20
270.4266347627723
 30
0.0
 11
-84.54759236333612
 21
270.4509914298353
 31
0.0
  0
LINE
  5
155
  8
0
  6
CONTINUOUS
 62
     7
 10
-84.54759236333612
 20
270.4509914298353
 30
0.0
 11
-84.54939772810259
 21
270.4754661628364
 31
0.0
  0
LINE
  5
156
  8
0
  6
CONTINUOUS
 62
     7
 10
-84.54939772810259
 20
270.4754661628364
 30
0.0
 11
-84.55000000000003
 21
270.5
 31
0.0
  0
LINE
  5
157
  8
0
  6
CONTINUOUS
 62
     7
 10
-83.55000000000003
 20
270.0
 30
0.0
 11
-84.05000000000003
 21
270.0
 31
0.0
  0
LINE
  5
158
  8
0
  6
CONTINUOUS
 62
     7
 10
-84.05000000000003
 20
254.0
 30
0.0
 11
-83.55000000000003
 21
254.0
 31
0.0
  0
LINE
  5
159
  8
0
  6
CONTINUOUS
 62
     7
 10
-84.55000000000003
 20
253.5000000000001
 30
0.0
 11
-84.54939772810262
 21
253.5245338371637
 31
0.0
  0
LINE
  5
15A
  8
0
  6
CONTINUOUS
 62
     7
 10
-84.54939772810262
 20
253.5245338371637
 30
0.0
 11
-84.54759236333612
 21
253.5490085701648
 31
0.0
  0
LINE
  5
15B
  8
0
  6
CONTINUOUS
 62
     7
 10
-84.54759236333612
 20
253.5490085701648
 30
0.0
 11
-84.54458825498241
 21
253.5733652372277
 31
0.0
  0
LINE
  5
15C
  8
0
  6
CONTINUOUS
 62
     7
 10
-84.54458825498241
 20
253.5733652372277
 30
0.0
 11
-84.54039264020165
 21
253.5975451610081
 31
0.0
  0
LINE
  5
15D
  8
0
  6
CONTINUOUS
 62
     7
 10
-84.54039264020165
 20
253.5975451610081
 30
0.0
 11
-84.53501562659727
 21
253.6214900899517
 31
0.0
  0
LINE
  5
15E
  8
0
  6
CONTINUOUS
 62
     7
 10
-84.53501562659727
 20
253.6214900899517
 30
0.0
 11
-84.52847016786612
 21
253.6451423386272
 31
0.0
  0
LINE
  5
15F
  8
0
  6
CONTINUOUS
 62
     7
 10
-84.52847016786612
 20
253.6451423386272
 30
0.0
 11
-84.52077203259152
 21
253.6684449266961
 31
0.0
  0
LINE
  5
160
  8
0
  6
CONTINUOUS
 62
     7
 10
-84.52077203259152
 20
253.6684449266961
 30
0.0
 11
-84.51193976625567
 21
253.6913417161826
 31
0.0
  0
LINE
  5
161
  8
0
  6
CONTINUOUS
 62
     7
 10
-84.51193976625567
 20
253.6913417161826
 30
0.0
 11
-84.50199464656173
 21
253.7137775467152
 31
0.0
  0
LINE
  5
162
  8
0
  6
CONTINUOUS
 62
     7
 10
-84.50199464656173
 20
253.7137775467152
 30
0.0
 11
-84.4909606321742
 21
253.735698368413
 31
0.0
  0
LINE
  5
163
  8
0
  6
CONTINUOUS
 62
     7
 10
-84.4909606321742
 20
253.735698368413
 30
0.0
 11
-84.47886430500016
 21
253.7570513720966
 31
0.0
  0
LINE
  5
164
  8
0
  6
CONTINUOUS
 62
     7
 10
-84.47886430500016
 20
253.7570513720966
 30
0.0
 11
-84.46573480615129
 21
253.7777851165098
 31
0.0
  0
LINE
  5
165
  8
0
  6
CONTINUOUS
 62
     7
 10
-84.46573480615129
 20
253.7777851165098
 30
0.0
 11
-84.45160376574033
 21
253.7978496522463
 31
0.0
  0
LINE
  5
166
  8
0
  6
CONTINUOUS
 62
     7
 10
-84.45160376574033
 20
253.7978496522463
 30
0.0
 11
-84.43650522668138
 21
253.8171966420819
 31
0.0
  0
LINE
  5
167
  8
0
  6
CONTINUOUS
 62
     7
 10
-84.43650522668138
 20
253.8171966420819
 30
0.0
 11
-84.4204755626775
 21
253.8357794774235
 31
0.0
  0
LINE
  5
168
  8
0
  6
CONTINUOUS
 62
     7
 10
-84.4204755626775
 20
253.8357794774235
 30
0.0
 11
-84.40355339059329
 21
253.8535533905933
 31
0.0
  0
LINE
  5
169
  8
0
  6
CONTINUOUS
 62
     7
 10
-84.40355339059329
 20
253.8535533905933
 30
0.0
 11
-84.38577947742353
 21
253.8704755626775
 31
0.0
  0
LINE
  5
16A
  8
0
  6
CONTINUOUS
 62
     7
 10
-84.38577947742353
 20
253.8704755626775
 30
0.0
 11
-84.36719664208185
 21
253.8865052266814
 31
0.0
  0
LINE
  5
16B
  8
0
  6
CONTINUOUS
 62
     7
 10
-84.36719664208185
 20
253.8865052266814
 30
0.0
 11
-84.34784965224624
 21
253.9016037657403
 31
0.0
  0
LINE
  5
16C
  8
0
  6
CONTINUOUS
 62
     7
 10
-84.34784965224624
 20
253.9016037657403
 30
0.0
 11
-84.32778511650983
 21
253.9157348061512
 31
0.0
  0
LINE
  5
16D
  8
0
  6
CONTINUOUS
 62
     7
 10
-84.32778511650983
 20
253.9157348061512
 30
0.0
 11
-84.30705137209664
 21
253.9288643050002
 31
0.0
  0
LINE
  5
16E
  8
0
  6
CONTINUOUS
 62
     7
 10
-84.30705137209664
 20
253.9288643050002
 30
0.0
 11
-84.28569836841302
 21
253.9409606321742
 31
0.0
  0
LINE
  5
16F
  8
0
  6
CONTINUOUS
 62
     7
 10
-84.28569836841302
 20
253.9409606321742
 30
0.0
 11
-84.26377754671518
 21
253.9519946465617
 31
0.0
  0
LINE
  5
170
  8
0
  6
CONTINUOUS
 62
     7
 10
-84.26377754671518
 20
253.9519946465617
 30
0.0
 11
-84.24134171618256
 21
253.9619397662557
 31
0.0
  0
LINE
  5
171
  8
0
  6
CONTINUOUS
 62
     7
 10
-84.24134171618256
 20
253.9619397662557
 30
0.0
 11
-84.21844492669612
 21
253.9707720325916
 31
0.0
  0
LINE
  5
172
  8
0
  6
CONTINUOUS
 62
     7
 10
-84.21844492669612
 20
253.9707720325916
 30
0.0
 11
-84.19514233862725
 21
253.9784701678661
 31
0.0
  0
LINE
  5
173
  8
0
  6
CONTINUOUS
 62
     7
 10
-84.19514233862725
 20
253.9784701678661
 30
0.0
 11
-84.17149008995166
 21
253.9850156265973
 31
0.0
  0
LINE
  5
174
  8
0
  6
CONTINUOUS
 62
     7
 10
-84.17149008995166
 20
253.9850156265973
 30
0.0
 11
-84.14754516100807
 21
253.9903926402016
 31
0.0
  0
LINE
  5
175
  8
0
  6
CONTINUOUS
 62
     7
 10
-84.14754516100807
 20
253.9903926402016
 30
0.0
 11
-84.1233652372277
 21
253.9945882549824
 31
0.0
  0
LINE
  5
176
  8
0
  6
CONTINUOUS
 62
     7
 10
-84.1233652372277
 20
253.9945882549824
 30
0.0
 11
-84.0990085701648
 21
253.9975923633361
 31
0.0
  0
LINE
  5
177
  8
0
  6
CONTINUOUS
 62
     7
 10
-84.0990085701648
 20
253.9975923633361
 30
0.0
 11
-84.07453383716371
 21
253.9993977281027
 31
0.0
  0
LINE
  5
178
  8
0
  6
CONTINUOUS
 62
     7
 10
-84.07453383716371
 20
253.9993977281027
 30
0.0
 11
-84.05000000000003
 21
254.0
 31
0.0
  0
LINE
  5
179
  8
0
  6
CONTINUOUS
 62
     7
 10
-84.55000000000003
 20
252.5000000000001
 30
0.0
 11
-84.55000000000003
 21
253.5000000000001
 31
0.0
  0
LINE
  5
17A
  8
0
  6
CONTINUOUS
 62
     7
 10
-84.05000000000003
 20
252.0
 30
0.0
 11
-84.07453383716371
 21
252.0006022718975
 31
0.0
  0
LINE
  5
17B
  8
0
  6
CONTINUOUS
 62
     7
 10
-84.07453383716371
 20
252.0006022718975
 30
0.0
 11
-84.0990085701648
 21
252.0024076366639
 31
0.0
  0
LINE
  5
17C
  8
0
  6
CONTINUOUS
 62
     7
 10
-84.0990085701648
 20
252.0024076366639
 30
0.0
 11
-84.1233652372277
 21
252.0054117450177
 31
0.0
  0
LINE
  5
17D
  8
0
  6
CONTINUOUS
 62
     7
 10
-84.1233652372277
 20
252.0054117450177
 30
0.0
 11
-84.14754516100807
 21
252.0096073597984
 31
0.0
  0
LINE
  5
17E
  8
0
  6
CONTINUOUS
 62
     7
 10
-84.14754516100807
 20
252.0096073597984
 30
0.0
 11
-84.17149008995166
 21
252.0149843734027
 31
0.0
  0
LINE
  5
17F
  8
0
  6
CONTINUOUS
 62
     7
 10
-84.17149008995166
 20
252.0149843734027
 30
0.0
 11
-84.19514233862725
 21
252.0215298321339
 31
0.0
  0
LINE
  5
180
  8
0
  6
CONTINUOUS
 62
     7
 10
-84.19514233862725
 20
252.0215298321339
 30
0.0
 11
-84.21844492669612
 21
252.0292279674085
 31
0.0
  0
LINE
  5
181
  8
0
  6
CONTINUOUS
 62
     7
 10
-84.21844492669612
 20
252.0292279674085
 30
0.0
 11
-84.24134171618256
 21
252.0380602337444
 31
0.0
  0
LINE
  5
182
  8
0
  6
CONTINUOUS
 62
     7
 10
-84.24134171618256
 20
252.0380602337444
 30
0.0
 11
-84.26377754671518
 21
252.0480053534383
 31
0.0
  0
LINE
  5
183
  8
0
  6
CONTINUOUS
 62
     7
 10
-84.26377754671518
 20
252.0480053534383
 30
0.0
 11
-84.28569836841302
 21
252.0590393678258
 31
0.0
  0
LINE
  5
184
  8
0
  6
CONTINUOUS
 62
     7
 10
-84.28569836841302
 20
252.0590393678258
 30
0.0
 11
-84.30705137209664
 21
252.0711356949999
 31
0.0
  0
LINE
  5
185
  8
0
  6
CONTINUOUS
 62
     7
 10
-84.30705137209664
 20
252.0711356949999
 30
0.0
 11
-84.32778511650983
 21
252.0842651938488
 31
0.0
  0
LINE
  5
186
  8
0
  6
CONTINUOUS
 62
     7
 10
-84.32778511650983
 20
252.0842651938488
 30
0.0
 11
-84.34784965224624
 21
252.0983962342597
 31
0.0
  0
LINE
  5
187
  8
0
  6
CONTINUOUS
 62
     7
 10
-84.34784965224624
 20
252.0983962342597
 30
0.0
 11
-84.36719664208185
 21
252.1134947733187
 31
0.0
  0
LINE
  5
188
  8
0
  6
CONTINUOUS
 62
     7
 10
-84.36719664208185
 20
252.1134947733187
 30
0.0
 11
-84.38577947742353
 21
252.1295244373225
 31
0.0
  0
LINE
  5
189
  8
0
  6
CONTINUOUS
 62
     7
 10
-84.38577947742353
 20
252.1295244373225
 30
0.0
 11
-84.40355339059329
 21
252.1464466094068
 31
0.0
  0
LINE
  5
18A
  8
0
  6
CONTINUOUS
 62
     7
 10
-84.40355339059329
 20
252.1464466094068
 30
0.0
 11
-84.4204755626775
 21
252.1642205225765
 31
0.0
  0
LINE
  5
18B
  8
0
  6
CONTINUOUS
 62
     7
 10
-84.4204755626775
 20
252.1642205225765
 30
0.0
 11
-84.43650522668138
 21
252.1828033579182
 31
0.0
  0
LINE
  5
18C
  8
0
  6
CONTINUOUS
 62
     7
 10
-84.43650522668138
 20
252.1828033579182
 30
0.0
 11
-84.45160376574033
 21
252.2021503477538
 31
0.0
  0
LINE
  5
18D
  8
0
  6
CONTINUOUS
 62
     7
 10
-84.45160376574033
 20
252.2021503477538
 30
0.0
 11
-84.46573480615129
 21
252.2222148834902
 31
0.0
  0
LINE
  5
18E
  8
0
  6
CONTINUOUS
 62
     7
 10
-84.46573480615129
 20
252.2222148834902
 30
0.0
 11
-84.47886430500016
 21
252.2429486279034
 31
0.0
  0
LINE
  5
18F
  8
0
  6
CONTINUOUS
 62
     7
 10
-84.47886430500016
 20
252.2429486279034
 30
0.0
 11
-84.4909606321742
 21
252.264301631587
 31
0.0
  0
LINE
  5
190
  8
0
  6
CONTINUOUS
 62
     7
 10
-84.4909606321742
 20
252.264301631587
 30
0.0
 11
-84.50199464656173
 21
252.2862224532849
 31
0.0
  0
LINE
  5
191
  8
0
  6
CONTINUOUS
 62
     7
 10
-84.50199464656173
 20
252.2862224532849
 30
0.0
 11
-84.51193976625567
 21
252.3086582838175
 31
0.0
  0
LINE
  5
192
  8
0
  6
CONTINUOUS
 62
     7
 10
-84.51193976625567
 20
252.3086582838175
 30
0.0
 11
-84.52077203259152
 21
252.3315550733039
 31
0.0
  0
LINE
  5
193
  8
0
  6
CONTINUOUS
 62
     7
 10
-84.52077203259152
 20
252.3315550733039
 30
0.0
 11
-84.52847016786612
 21
252.3548576613728
 31
0.0
  0
LINE
  5
194
  8
0
  6
CONTINUOUS
 62
     7
 10
-84.52847016786612
 20
252.3548576613728
 30
0.0
 11
-84.53501562659727
 21
252.3785099100484
 31
0.0
  0
LINE
  5
195
  8
0
  6
CONTINUOUS
 62
     7
 10
-84.53501562659727
 20
252.3785099100484
 30
0.0
 11
-84.54039264020165
 21
252.4024548389919
 31
0.0
  0
LINE
  5
196
  8
0
  6
CONTINUOUS
 62
     7
 10
-84.54039264020165
 20
252.4024548389919
 30
0.0
 11
-84.54458825498241
 21
252.4266347627724
 31
0.0
  0
LINE
  5
197
  8
0
  6
CONTINUOUS
 62
     7
 10
-84.54458825498241
 20
252.4266347627724
 30
0.0
 11
-84.54759236333612
 21
252.4509914298352
 31
0.0
  0
LINE
  5
198
  8
0
  6
CONTINUOUS
 62
     7
 10
-84.54759236333612
 20
252.4509914298352
 30
0.0
 11
-84.54939772810262
 21
252.4754661628363
 31
0.0
  0
LINE
  5
199
  8
0
  6
CONTINUOUS
 62
     7
 10
-84.54939772810262
 20
252.4754661628363
 30
0.0
 11
-84.55000000000003
 21
252.5000000000001
 31
0.0
  0
LINE
  5
19A
  8
0
  6
CONTINUOUS
 62
     7
 10
-83.55
 20
249.1
 30
0.0
 11
-87.39529946162077
 21
249.1
 31
0.0
  0
LINE
  5
19B
  8
0
  6
CONTINUOUS
 62
     7
 10
-87.39529946162077
 20
249.1
 30
0.0
 11
-88.55
 21
247.1
 31
0.0
  0
LINE
  5
19C
  8
0
  6
CONTINUOUS
 62
     7
 10
-88.55
 20
247.1
 30
0.0
 11
-89.55000000000003
 21
247.1
 31
0.0
  0
LINE
  5
19D
  8
0
  6
CONTINUOUS
 62
     7
 10
-89.55000000000003
 20
247.1
 30
0.0
 11
-94.72364817766695
 21
248.0122537624159
 31
0.0
  0
ARC
  5
19E
  8
0
  6
CONTINUOUS
 62
     7
 10
-94.55000000000001
 20
248.9970615154281
 30
0.0
 40
1.0
 50
180.0
 51
259.9999999999998
  0
LINE
  5
19F
  8
0
  6
CONTINUOUS
 62
     7
 10
-95.55000000000001
 20
248.9970615154281
 30
0.0
 11
-95.55000000000001
 21
249.7163365060105
 31
0.0
  0
LINE
  5
1A0
  8
0
  6
CONTINUOUS
 62
     7
 10
-95.17940952255128
 20
250.199299419155
 30
0.0
 11
-95.20183837255482
 21
250.1927240673719
 31
0.0
  0
LINE
  5
1A1
  8
0
  6
CONTINUOUS
 62
     7
 10
-95.20183837255482
 20
250.1927240673719
 30
0.0
 11
-95.22393543229263
 21
250.1851077352825
 31
0.0
  0
LINE
  5
1A2
  8
0
  6
CONTINUOUS
 62
     7
 10
-95.22393543229263
 20
250.1851077352825
 30
0.0
 11
-95.24565241628059
 21
250.1764670657471
 31
0.0
  0
LINE
  5
1A3
  8
0
  6
CONTINUOUS
 62
     7
 10
-95.24565241628059
 20
250.1764670657471
 30
0.0
 11
-95.26694186955879
 21
250.1668209399617
 31
0.0
  0
LINE
  5
1A4
  8
0
  6
CONTINUOUS
 62
     7
 10
-95.26694186955879
 20
250.1668209399617
 30
0.0
 11
-95.28775727138782
 21
250.156190436199
 31
0.0
  0
LINE
  5
1A5
  8
0
  6
CONTINUOUS
 62
     7
 10
-95.28775727138782
 20
250.156190436199
 30
0.0
 11
-95.30805313690378
 21
250.1445987837494
 31
0.0
  0
LINE
  5
1A6
  8
0
  6
CONTINUOUS
 62
     7
 10
-95.30805313690378
 20
250.1445987837494
 30
0.0
 11
-95.32778511650982
 21
250.1320713121617
 31
0.0
  0
LINE
  5
1A7
  8
0
  6
CONTINUOUS
 62
     7
 10
-95.32778511650982
 20
250.1320713121617
 30
0.0
 11
-95.34691009278677
 21
250.1186353958938
 31
0.0
  0
LINE
  5
1A8
  8
0
  6
CONTINUOUS
 62
     7
 10
-95.34691009278677
 20
250.1186353958938
 30
0.0
 11
-95.36538627471134
 21
250.1043203944951
 31
0.0
  0
LINE
  5
1A9
  8
0
  6
CONTINUOUS
 62
     7
 10
-95.36538627471134
 20
250.1043203944951
 30
0.0
 11
-95.38317328897601
 21
250.0891575884521
 31
0.0
  0
LINE
  5
1AA
  8
0
  6
CONTINUOUS
 62
     7
 10
-95.38317328897601
 20
250.0891575884521
 30
0.0
 11
-95.40023226821089
 21
250.0731801108346
 31
0.0
  0
LINE
  5
1AB
  8
0
  6
CONTINUOUS
 62
     7
 10
-95.40023226821089
 20
250.0731801108346
 30
0.0
 11
-95.41652593591495
 21
250.0564228748959
 31
0.0
  0
LINE
  5
1AC
  8
0
  6
CONTINUOUS
 62
     7
 10
-95.41652593591495
 20
250.0564228748959
 30
0.0
 11
-95.43201868791083
 21
250.0389224977815
 31
0.0
  0
LINE
  5
1AD
  8
0
  6
CONTINUOUS
 62
     7
 10
-95.43201868791083
 20
250.0389224977815
 30
0.0
 11
-95.44667667014562
 21
250.0207172205148
 31
0.0
  0
LINE
  5
1AE
  8
0
  6
CONTINUOUS
 62
     7
 10
-95.44667667014562
 20
250.0207172205148
 30
0.0
 11
-95.46046785266714
 21
250.0018468244349
 31
0.0
  0
LINE
  5
1AF
  8
0
  6
CONTINUOUS
 62
     7
 10
-95.46046785266714
 20
250.0018468244349
 30
0.0
 11
-95.47336209961416
 21
249.9823525442681
 31
0.0
  0
LINE
  5
1B0
  8
0
  6
CONTINUOUS
 62
     7
 10
-95.47336209961416
 20
249.9823525442681
 30
0.0
 11
-95.48533123506814
 21
249.9622769780237
 31
0.0
  0
LINE
  5
1B1
  8
0
  6
CONTINUOUS
 62
     7
 10
-95.48533123506814
 20
249.9622769780237
 30
0.0
 11
-95.49634910462183
 21
249.9416639939104
 31
0.0
  0
LINE
  5
1B2
  8
0
  6
CONTINUOUS
 62
     7
 10
-95.49634910462183
 20
249.9416639939104
 30
0.0
 11
-95.50639163253068
 21
249.9205586344785
 31
0.0
  0
LINE
  5
1B3
  8
0
  6
CONTINUOUS
 62
     7
 10
-95.50639163253068
 20
249.9205586344785
 30
0.0
 11
-95.5154368743221
 21
249.8990070181937
 31
0.0
  0
LINE
  5
1B4
  8
0
  6
CONTINUOUS
 62
     7
 10
-95.5154368743221
 20
249.8990070181937
 30
0.0
 11
-95.52346506474758
 21
249.877056238662
 31
0.0
  0
LINE
  5
1B5
  8
0
  6
CONTINUOUS
 62
     7
 10
-95.52346506474758
 20
249.877056238662
 30
0.0
 11
-95.53045866097256
 21
249.8547542617229
 31
0.0
  0
LINE
  5
1B6
  8
0
  6
CONTINUOUS
 62
     7
 10
-95.53045866097256
 20
249.8547542617229
 30
0.0
 11
-95.53640238091056
 21
249.832149820636
 31
0.0
  0
LINE
  5
1B7
  8
0
  6
CONTINUOUS
 62
     7
 10
-95.53640238091056
 20
249.832149820636
 30
0.0
 11
-95.54128323661666
 21
249.8092923095919
 31
0.0
  0
LINE
  5
1B8
  8
0
  6
CONTINUOUS
 62
     7
 10
-95.54128323661666
 20
249.8092923095919
 30
0.0
 11
-95.54509056266824
 21
249.7862316757782
 31
0.0
  0
LINE
  5
1B9
  8
0
  6
CONTINUOUS
 62
     7
 10
-95.54509056266824
 20
249.7862316757782
 30
0.0
 11
-95.54781603947059
 21
249.763018310237
 31
0.0
  0
LINE
  5
1BA
  8
0
  6
CONTINUOUS
 62
     7
 10
-95.54781603947059
 20
249.763018310237
 30
0.0
 11
-95.54945371143646
 21
249.7397029377526
 31
0.0
  0
LINE
  5
1BB
  8
0
  6
CONTINUOUS
 62
     7
 10
-95.54945371143646
 20
249.7397029377526
 30
0.0
 11
-95.55000000000001
 21
249.7163365060105
 31
0.0
  0
LINE
  5
1BC
  8
0
  6
CONTINUOUS
 62
     7
 10
-95.17940952255128
 20
250.199299419155
 30
0.0
 11
-88.05436326774922
 21
252.1084498091636
 31
0.0
  0
LINE
  5
1BD
  8
0
  6
CONTINUOUS
 62
     7
 10
-123.35
 20
282.5
 30
0.0
 11
-123.35
 21
287.0
 31
0.0
  0
LINE
  5
1BE
  8
0
  6
CONTINUOUS
 62
     7
 10
-83.55000000000003
 20
252.0
 30
0.0
 11
-84.05000000000003
 21
252.0
 31
0.0
  0
LINE
  5
1BF
  8
0
  6
CONTINUOUS
 62
     7
 10
-84.05000000000003
 20
272.0
 30
0.0
 11
-83.55000000000003
 21
272.0
 31
0.0
  0
LINE
  5
1C0
  8
0
  6
CONTINUOUS
 62
     7
 10
-98.55000000000004
 20
287.0
 30
0.0
 11
-97.55000000000001
 21
287.0
 31
0.0
  0
LINE
  5
1C1
  8
0
  6
CONTINUOUS
 62
     7
 10
-116.5500000000001
 20
287.0
 30
0.0
 11
-100.55
 21
287.0
 31
0.0
  0
LINE
  5
1C2
  8
0
  6
CONTINUOUS
 62
     7
 10
-93.55000000000001
 20
285.6862915010153
 30
0.0
 11
-84.85234312273491
 21
276.9886346237498
 31
0.0
  0
LINE
  5
1C3
  8
0
  6
CONTINUOUS
 62
     7
 10
-83.55000000000003
 20
252.0
 30
0.0
 11
-83.55
 21
249.1
 31
0.0
  0
LINE
  5
1C4
  8
0
  6
CONTINUOUS
 62
     7
 10
-83.55000000000003
 20
270.0
 30
0.0
 11
-83.55000000000003
 21
254.0
 31
0.0
  0
LINE
  5
1C5
  8
0
  6
CONTINUOUS
 62
     7
 10
-83.55000000000003
 20
273.0
 30
0.0
 11
-83.55000000000003
 21
272.0
 31
0.0
  0
LINE
  5
1C6
  8
0
  6
CONTINUOUS
 62
     7
 10
-88.55000000000005
 20
251.9756443470179
 30
0.0
 11
-88.55000000000003
 21
273.6152236891498
 31
0.0
  0
LINE
  5
1C7
  8
0
  6
CONTINUOUS
 62
     7
 10
-88.55000000000003
 20
273.6152259989617
 30
0.0
 11
-88.05436326774922
 21
273.8223304703364
 31
0.0
  0
LINE
  5
1C8
  8
0
  6
CONTINUOUS
 62
     7
 10
-88.55000000000003
 20
273.6152236891498
 30
0.0
 11
-96.7883297014435
 21
281.8535533905933
 31
0.0
  0
LINE
  5
1C9
  8
0
  6
CONTINUOUS
 62
     7
 10
-96.7883297014435
 20
281.8535533905933
 30
0.0
 11
-97.14188309203676
 21
282.0
 31
0.0
  0
LINE
  5
1CA
  8
0
  6
CONTINUOUS
 62
     7
 10
-97.14188309203676
 20
282.0
 30
0.0
 11
-122.85
 21
282.0
 31
0.0
  0
LINE
  5
1CB
  8
0
  6
CONTINUOUS
 62
     7
 10
-123.35
 20
282.5
 30
0.0
 11
-123.3493977281026
 21
282.4754661628363
 31
0.0
  0
LINE
  5
1CC
  8
0
  6
CONTINUOUS
 62
     7
 10
-123.3493977281026
 20
282.4754661628363
 30
0.0
 11
-123.3475923633361
 21
282.4509914298352
 31
0.0
  0
LINE
  5
1CD
  8
0
  6
CONTINUOUS
 62
     7
 10
-123.3475923633361
 20
282.4509914298352
 30
0.0
 11
-123.3445882549824
 21
282.4266347627723
 31
0.0
  0
LINE
  5
1CE
  8
0
  6
CONTINUOUS
 62
     7
 10
-123.3445882549824
 20
282.4266347627723
 30
0.0
 11
-123.3403926402016
 21
282.402454838992
 31
0.0
  0
LINE
  5
1CF
  8
0
  6
CONTINUOUS
 62
     7
 10
-123.3403926402016
 20
282.402454838992
 30
0.0
 11
-123.3350156265973
 21
282.3785099100484
 31
0.0
  0
LINE
  5
1D0
  8
0
  6
CONTINUOUS
 62
     7
 10
-123.3350156265973
 20
282.3785099100484
 30
0.0
 11
-123.3284701678661
 21
282.3548576613728
 31
0.0
  0
LINE
  5
1D1
  8
0
  6
CONTINUOUS
 62
     7
 10
-123.3284701678661
 20
282.3548576613728
 30
0.0
 11
-123.3207720325915
 21
282.3315550733039
 31
0.0
  0
LINE
  5
1D2
  8
0
  6
CONTINUOUS
 62
     7
 10
-123.3207720325915
 20
282.3315550733039
 30
0.0
 11
-123.3119397662556
 21
282.3086582838175
 31
0.0
  0
LINE
  5
1D3
  8
0
  6
CONTINUOUS
 62
     7
 10
-123.3119397662556
 20
282.3086582838175
 30
0.0
 11
-123.3019946465617
 21
282.2862224532849
 31
0.0
  0
LINE
  5
1D4
  8
0
  6
CONTINUOUS
 62
     7
 10
-123.3019946465617
 20
282.2862224532849
 30
0.0
 11
-123.2909606321742
 21
282.264301631587
 31
0.0
  0
LINE
  5
1D5
  8
0
  6
CONTINUOUS
 62
     7
 10
-123.2909606321742
 20
282.264301631587
 30
0.0
 11
-123.2788643050001
 21
282.2429486279034
 31
0.0
  0
LINE
  5
1D6
  8
0
  6
CONTINUOUS
 62
     7
 10
-123.2788643050001
 20
282.2429486279034
 30
0.0
 11
-123.2657348061513
 21
282.2222148834902
 31
0.0
  0
LINE
  5
1D7
  8
0
  6
CONTINUOUS
 62
     7
 10
-123.2657348061513
 20
282.2222148834902
 30
0.0
 11
-123.2516037657403
 21
282.2021503477538
 31
0.0
  0
LINE
  5
1D8
  8
0
  6
CONTINUOUS
 62
     7
 10
-123.2516037657403
 20
282.2021503477538
 30
0.0
 11
-123.2365052266814
 21
282.1828033579181
 31
0.0
  0
LINE
  5
1D9
  8
0
  6
CONTINUOUS
 62
     7
 10
-123.2365052266814
 20
282.1828033579181
 30
0.0
 11
-123.2204755626775
 21
282.1642205225765
 31
0.0
  0
LINE
  5
1DA
  8
0
  6
CONTINUOUS
 62
     7
 10
-123.2204755626775
 20
282.1642205225765
 30
0.0
 11
-123.2035533905933
 21
282.1464466094067
 31
0.0
  0
LINE
  5
1DB
  8
0
  6
CONTINUOUS
 62
     7
 10
-123.2035533905933
 20
282.1464466094067
 30
0.0
 11
-123.1857794774235
 21
282.1295244373225
 31
0.0
  0
LINE
  5
1DC
  8
0
  6
CONTINUOUS
 62
     7
 10
-123.1857794774235
 20
282.1295244373225
 30
0.0
 11
-123.1671966420818
 21
282.1134947733186
 31
0.0
  0
LINE
  5
1DD
  8
0
  6
CONTINUOUS
 62
     7
 10
-123.1671966420818
 20
282.1134947733186
 30
0.0
 11
-123.1478496522462
 21
282.0983962342597
 31
0.0
  0
LINE
  5
1DE
  8
0
  6
CONTINUOUS
 62
     7
 10
-123.1478496522462
 20
282.0983962342597
 30
0.0
 11
-123.1277851165098
 21
282.0842651938488
 31
0.0
  0
LINE
  5
1DF
  8
0
  6
CONTINUOUS
 62
     7
 10
-123.1277851165098
 20
282.0842651938488
 30
0.0
 11
-123.1070513720966
 21
282.0711356949998
 31
0.0
  0
LINE
  5
1E0
  8
0
  6
CONTINUOUS
 62
     7
 10
-123.1070513720966
 20
282.0711356949998
 30
0.0
 11
-123.085698368413
 21
282.0590393678258
 31
0.0
  0
LINE
  5
1E1
  8
0
  6
CONTINUOUS
 62
     7
 10
-123.085698368413
 20
282.0590393678258
 30
0.0
 11
-123.0637775467151
 21
282.0480053534383
 31
0.0
  0
LINE
  5
1E2
  8
0
  6
CONTINUOUS
 62
     7
 10
-123.0637775467151
 20
282.0480053534383
 30
0.0
 11
-123.0413417161825
 21
282.0380602337444
 31
0.0
  0
LINE
  5
1E3
  8
0
  6
CONTINUOUS
 62
     7
 10
-123.0413417161825
 20
282.0380602337444
 30
0.0
 11
-123.0184449266961
 21
282.0292279674085
 31
0.0
  0
LINE
  5
1E4
  8
0
  6
CONTINUOUS
 62
     7
 10
-123.0184449266961
 20
282.0292279674085
 30
0.0
 11
-122.9951423386272
 21
282.0215298321339
 31
0.0
  0
LINE
  5
1E5
  8
0
  6
CONTINUOUS
 62
     7
 10
-122.9951423386272
 20
282.0215298321339
 30
0.0
 11
-122.9714900899516
 21
282.0149843734028
 31
0.0
  0
LINE
  5
1E6
  8
0
  6
CONTINUOUS
 62
     7
 10
-122.9714900899516
 20
282.0149843734028
 30
0.0
 11
-122.9475451610081
 21
282.0096073597984
 31
0.0
  0
LINE
  5
1E7
  8
0
  6
CONTINUOUS
 62
     7
 10
-122.9475451610081
 20
282.0096073597984
 30
0.0
 11
-122.9233652372277
 21
282.0054117450176
 31
0.0
  0
LINE
  5
1E8
  8
0
  6
CONTINUOUS
 62
     7
 10
-122.9233652372277
 20
282.0054117450176
 30
0.0
 11
-122.8990085701648
 21
282.002407636664
 31
0.0
  0
LINE
  5
1E9
  8
0
  6
CONTINUOUS
 62
     7
 10
-122.8990085701648
 20
282.002407636664
 30
0.0
 11
-122.8745338371637
 21
282.0006022718974
 31
0.0
  0
LINE
  5
1EA
  8
0
  6
CONTINUOUS
 62
     7
 10
-122.8745338371637
 20
282.0006022718974
 30
0.0
 11
-122.85
 21
282.0
 31
0.0
  0
LINE
  5
1EB
  8
0
  6
CONTINUOUS
 62
     7
 10
-112.55
 20
281.9999999999999
 30
0.0
 11
-112.8834727488942
 21
281.6665272511058
 31
0.0
  0
ARC
  5
1EC
  8
0
  6
CONTINUOUS
 62
     7
 10
-114.2976863112673
 20
283.0807408134789
 30
0.0
 40
2.0
 50
266.9999999999998
 51
315.0000000000006
  0
LINE
  5
1ED
  8
0
  6
CONTINUOUS
 62
     7
 10
-114.4023582237532
 20
281.0834817439697
 30
0.0
 11
-122.35
 21
281.4999999999999
 31
0.0
  0
LINE
  5
1EE
  8
0
  6
CONTINUOUS
 62
     7
 10
-122.35
 20
281.4999999999999
 30
0.0
 11
-122.35
 21
282.0
 31
0.0
  0
LINE
  5
1EF
  8
0
  6
CONTINUOUS
 62
     7
 10
-89.51122976672039
 20
247.0710826261427
 30
0.0
 11
-89.54709859658946
 21
247.0994884042968
 31
0.0
  0
LINE
  5
1F0
  8
0
  6
CONTINUOUS
 62
     7
 10
-89.55000000000005
 20
247.1
 30
0.0
 11
-89.54709859658956
 21
247.0994884042968
 31
0.0
  0
LINE
  5
1F1
  8
0
  6
CONTINUOUS
 62
     7
 10
-88.57853413567575
 20
247.0505774272596
 30
0.0
 11
-88.55000000000003
 21
247.1
 31
0.0
  0
LINE
  5
1F2
  8
0
  6
CONTINUOUS
 62
     7
 10
-88.07733793880874
 20
247.8202446347578
 30
0.0
 11
-87.92566157830451
 21
248.181385867494
 31
0.0
  0
LINE
  5
1F3
  8
0
  6
CONTINUOUS
 62
     7
 10
-83.55000000000003
 20
247.0
 30
0.0
 11
-83.55
 21
249.1
 31
0.0
  0
LINE
  5
1F4
  8
0
  6
CONTINUOUS
 62
     7
 10
-95.55000000000001
 20
248.9970615154281
 30
0.0
 11
-95.55000000000001
 21
247.2881660793786
 31
0.0
  0
LINE
  5
1F5
  8
0
  6
CONTINUOUS
 62
     7
 10
-83.55000000000003
 20
272.0
 30
0.0
 11
-83.55000000000003
 21
270.0
 31
0.0
  0
LINE
  5
1F6
  8
0
  6
CONTINUOUS
 62
     7
 10
-83.55000000000003
 20
254.0
 30
0.0
 11
-83.55000000000003
 21
252.0
 31
0.0
  0
ARC
  5
1F7
  8
0
  6
CONTINUOUS
 62
     7
 10
-83.55000000000003
 20
251.9999999999999
 30
0.0
 40
0.099999999999989
 50
0.0
 51
90.00000000000006
  0
ARC
  5
1F8
  8
0
  6
CONTINUOUS
 62
     7
 10
-83.55000000000003
 20
251.9999999999999
 30
0.0
 40
0.099999999999989
 50
270.0
 51
0.0
  0
ARC
  5
1F9
  8
0
  6
CONTINUOUS
 62
     7
 10
-83.55000000000003
 20
217.0
 30
0.0
 40
0.1000000000000167
 50
0.0
 51
90.00000000000006
  0
ARC
  5
1FA
  8
0
  6
CONTINUOUS
 62
     7
 10
-83.55000000000003
 20
217.0
 30
0.0
 40
0.099999999999989
 50
269.9999999999999
 51
0.000000000003979
  0
LINE
  5
1FB
  8
0
  6
CONTINUOUS
 62
     7
 10
-118.25
 20
287.0
 30
0.0
 11
-116.5500000000001
 21
287.0
 31
0.0
  0
LINE
  5
1FC
  8
0
  6
CONTINUOUS
 62
     7
 10
-100.55
 20
287.0
 30
0.0
 11
-98.55000000000004
 21
286.9999999999999
 31
0.0
  0
LINE
  5
1FD
  8
0
  6
CONTINUOUS
 62
     7
 10
-95.55000000000001
 20
249.7163365060105
 30
0.0
 11
-95.55000000000001
 21
280.6152236891498
 31
0.0
  0
LINE
  5
1FE
  8
0
  6
CONTINUOUS
 62
     7
 10
-107.0629433935301
 20
245.9989014108252
 30
0.0
 11
-106.6975591737688
 21
247.4713433204577
 31
0.0
  0
ARC
  5
1FF
  8
0
  6
CONTINUOUS
 62
     7
 10
-94.86075385462232
 20
275.6892461453777
 30
0.0
 40
32.09999999999999
 50
202.3417673041951
 51
247.6582326958055
  0
LINE
  5
200
  8
0
  6
CONTINUOUS
 62
     7
 10
-123.0786566795423
 20
263.8524408262311
 30
0.0
 11
-124.5510985891748
 21
263.4870566064695
 31
0.0
  0
ARC
  5
201
  8
0
  6
CONTINUOUS
 62
     7
 10
126.45
 20
286.9999999999999
 30
0.0
 40
252.1
 50
180.0
 51
185.3516592858025
  0
LINE
  5
202
  8
0
  6
CONTINUOUS
 62
     7
 10
-125.65
 20
286.9999999999999
 30
0.0
 11
-124.15
 21
286.9999999999999
 31
0.0
  0
ARC
  5
203
  8
0
  6
CONTINUOUS
 62
     7
 10
-83.55
 20
497.0
 30
0.0
 40
252.1
 50
264.6483407141976
 51
270.0
  0
LINE
  5
204
  8
0
  6
CONTINUOUS
 62
     7
 10
-83.55
 20
246.4
 30
0.0
 11
-83.55
 21
244.9
 31
0.0
  0
ARC
  5
205
  8
0
  6
CONTINUOUS
 62
     7
 10
126.45
 20
286.9999999999999
 30
0.0
 40
250.1000000000001
 50
180.0
 51
185.2822309001376
  0
ARC
  5
206
  8
0
  6
CONTINUOUS
 62
   253
 10
-83.55
 20
497.0
 30
0.0
 40
250.0
 50
264.6468041968445
 51
270.0
  0
LINE
  5
207
  8
0
  6
CONTINUOUS
 62
     7
 10
-123.65
 20
287.0
 30
0.0
 11
-124.15
 21
286.9999999999999
 31
0.0
  0
LINE
  5
208
  8
0
  6
CONTINUOUS
 62
     7
 10
-83.55000000000003
 20
246.4
 30
0.0
 11
-83.55000000000003
 21
247.0
 31
0.0
  0
ARC
  5
209
  8
0
  6
CONTINUOUS
 62
     7
 10
-94.86075385462232
 20
275.6892461453777
 30
0.0
 40
30.09999999999997
 50
202.9026167295883
 51
246.4778835750103
  0
LINE
  5
20A
  8
0
  6
CONTINUOUS
 62
     7
 10
-85.75710678118652
 20
248.5868240888334
 30
0.0
 11
-85.55093512085914
 21
248.9999999999999
 31
0.0
  0
LINE
  5
20B
  8
0
  6
CONTINUOUS
 62
     7
 10
-85.55093512085914
 20
248.9999999999999
 30
0.0
 11
-85.54999999999997
 21
248.9999999999999
 31
0.0
  0
LINE
  5
20C
  8
0
  6
CONTINUOUS
 62
     7
 10
-85.54999999999997
 20
249.0
 30
0.0
 11
-83.55000000000003
 21
247.0
 31
0.0
  0
LINE
  5
20D
  8
0
  6
CONTINUOUS
 62
     7
 10
-88.52145829515027
 20
247.0494356829343
 30
0.0
 11
-87.53963702891816
 21
248.7499999999999
 31
0.0
  0
LINE
  5
20E
  8
0
  6
CONTINUOUS
 62
     7
 10
-87.10662432702594
 20
248.9999999999999
 30
0.0
 11
-85.55093512085914
 21
248.9999999999999
 31
0.0
  0
ARC
  5
20F
  8
0
  6
CONTINUOUS
 62
     7
 10
-87.10662432702594
 20
248.4999999999999
 30
0.0
 40
0.500000000000002
 50
90.0
 51
150.0
  0
LINE
  5
210
  8
0
  6
CONTINUOUS
 62
     7
 10
-85.55093512085914
 20
248.9999999999999
 30
0.0
 11
-85.54999999999997
 21
248.9999999999999
 31
0.0
  0
LINE
  5
211
  8
0
  6
CONTINUOUS
 62
     7
 10
-118.25
 20
286.9999999999999
 30
0.0
 11
-118.55
 21
286.9999999999999
 31
0.0
  0
LINE
  5
212
  8
0
  6
CONTINUOUS
 62
     7
 10
-123.35
 20
287.0
 30
0.0
 11
-123.65
 21
287.0
 31
0.0
  0
LINE
  5
213
  8
0
  6
CONTINUOUS
 62
     7
 10
-83.55000000000003
 20
244.9
 30
0.0
 11
-83.55000000000003
 21
242.9000005993894
 31
0.0
  0
LINE
  5
214
  8
0
  6
CONTINUOUS
 62
     7
 10
-83.55000000000003
 20
187.0
 30
0.0
 11
-109.2592216635526
 21
187.8977858035252
 31
0.0
  0
LINE
  5
215
  8
0
  6
CONTINUOUS
 62
     7
 10
-83.55000000000003
 20
188.5004572104463
 30
0.0
 11
-83.55000000000003
 21
187.0
 31
0.0
  0
LINE
  5
216
  8
0
  6
CONTINUOUS
 62
     7
 10
-83.55000000000005
 20
188.5004572104463
 30
0.0
 11
-83.55000000000005
 21
242.9000005993894
 31
0.0
  0
LINE
  5
217
  8
0
  6
CONTINUOUS
 62
     7
 10
-109.2592216635526
 20
187.8977858035252
 30
0.0
 11
-115.3362756482508
 21
188.1100012049137
 31
0.0
  0
LINE
  5
218
  8
0
  6
CONTINUOUS
 62
     7
 10
-124.1310451575916
 20
189.8658090305284
 30
0.0
 11
-124.1310368658176
 21
189.880128467858
 31
0.0
  0
LINE
  5
219
  8
0
  6
CONTINUOUS
 62
     7
 10
-115.3362756482508
 20
188.1100012049137
 30
0.0
 11
-122.727750758219
 21
188.3681172034329
 31
0.0
  0
LINE
  5
21A
  8
0
  6
CONTINUOUS
 62
     7
 10
-122.7277507582191
 20
188.3681172034329
 30
0.0
 11
-123.1023492450538
 21
188.3811984708436
 31
0.0
  0
LINE
  5
21B
  8
0
  6
CONTINUOUS
 62
     7
 10
-122.549823994815
 20
281.9988361679111
 30
0.0
 11
-122.5472359613835
 21
278.9983147311062
 31
0.0
  0
LINE
  5
21C
  8
0
  6
CONTINUOUS
 62
     7
 10
-122.1924004376894
 20
278.9999999999999
 30
0.0
 11
-122.1924004376894
 21
281.4917405569233
 31
0.0
  0
LINE
  5
21D
  8
0
  6
CONTINUOUS
 62
     7
 10
-83.55000000000003
 20
284.8786796564404
 30
0.0
 11
-85.67132034355942
 21
286.9999999999999
 31
0.0
  0
LINE
  5
21E
  8
0
  6
CONTINUOUS
 62
     7
 10
-83.55000000000003
 20
284.8786796564404
 30
0.0
 11
-83.55000000000003
 21
275.6862915010152
 31
0.0
  0
LINE
  5
21F
  8
0
  6
CONTINUOUS
 62
     7
 10
-94.8637084989848
 20
287.0
 30
0.0
 11
-85.67132034355942
 21
286.9999999999999
 31
0.0
  0
LINE
  5
220
  8
0
  6
CONTINUOUS
 62
     7
 10
-124.55
 20
263.4843838635175
 30
0.0
 11
-124.55
 21
189.8802847113722
 31
0.0
  0
ARC
  5
221
  8
0
  6
CONTINUOUS
 62
     7
 10
-123.05
 20
189.8802847113722
 30
0.0
 40
1.500000000000001
 50
180.0
 51
268.0000000000001
  0
LINE
  5
222
  8
0
  6
CONTINUOUS
 62
     7
 10
-221.3617195399111
 20
114.35
 30
0.0
 11
-221.3617195399111
 21
114.45
 31
0.0
  0
LINE
  5
223
  8
0
  6
CONTINUOUS
 62
     7
 10
-221.3617195399111
 20
114.35
 30
0.0
 11
-231.3617195399111
 21
114.35
 31
0.0
  0
LINE
  5
224
  8
0
  6
CONTINUOUS
 62
     7
 10
-231.3617195399111
 20
114.35
 30
0.0
 11
-231.3617195399111
 21
114.45
 31
0.0
  0
LINE
  5
225
  8
0
  6
CONTINUOUS
 62
     7
 10
-206.2093583331666
 20
137.55
 30
0.0
 11
-206.2617195399111
 21
137.55
 31
0.0
  0
LINE
  5
226
  8
0
  6
CONTINUOUS
 62
     7
 10
-206.1395433908405
 20
129.55
 30
0.0
 11
-206.2617195399111
 21
129.55
 31
0.0
  0
LINE
  5
227
  8
0
  6
CONTINUOUS
 62
     7
 10
-206.3617195399111
 20
141.534029785436
 30
0.0
 11
-206.3617195399111
 21
141.3881130178411
 31
0.0
  0
LINE
  5
228
  8
0
  6
CONTINUOUS
 62
     7
 10
-210.2617195399111
 20
129.55
 30
0.0
 11
-206.2617195399111
 21
129.55
 31
0.0
  0
LINE
  5
229
  8
0
  6
CONTINUOUS
 62
     7
 10
-210.2617195399111
 20
140.1271609965493
 30
0.0
 11
-210.2617195399111
 21
129.55
 31
0.0
  0
ARC
  5
22A
  8
0
  6
CONTINUOUS
 62
     7
 10
-214.2617195399111
 20
140.1271609965493
 30
0.0
 40
3.999999999999991
 50
0.0
 51
46.32779344528069
  0
ARC
  5
22B
  8
0
  6
CONTINUOUS
 62
     7
 10
-226.3617195399111
 20
13.54999999999999
 30
0.0
 40
136.0
 50
86.50643769796409
 51
93.49356230203591
  0
LINE
  5
22C
  8
0
  6
CONTINUOUS
 62
     7
 10
-246.4617195399111
 20
129.55
 30
0.0
 11
-242.4617195399111
 21
129.55
 31
0.0
  0
ARC
  5
22D
  8
0
  6
CONTINUOUS
 62
     7
 10
-238.4617195399111
 20
140.1271609965493
 30
0.0
 40
4.000000000000004
 50
133.6722065547194
 51
180.0
  0
LINE
  5
22E
  8
0
  6
CONTINUOUS
 62
     7
 10
-218.0743705412215
 20
149.2972646007053
 30
0.0
 11
-211.4995930289245
 21
143.0203697925585
 31
0.0
  0
LINE
  5
22F
  8
0
  6
CONTINUOUS
 62
     7
 10
-246.4617195399111
 20
140.1271609965493
 30
0.0
 11
-246.4617195399111
 21
129.55
 31
0.0
  0
LINE
  5
230
  8
0
  6
CONTINUOUS
 62
     7
 10
-242.4617195399111
 20
129.55
 30
0.0
 11
-242.4617195399111
 21
140.1271609965493
 31
0.0
  0
ARC
  5
231
  8
0
  6
CONTINUOUS
 62
     7
 10
-238.4617195399111
 20
140.1271609965493
 30
0.0
 40
7.999999999999989
 50
133.6722065547194
 51
180.0
  0
LINE
  5
232
  8
0
  6
CONTINUOUS
 62
     7
 10
-241.2238460508978
 20
143.0203697925585
 30
0.0
 11
-234.6490685386007
 21
149.2972646007053
 31
0.0
  0
LINE
  5
233
  8
0
  6
CONTINUOUS
 62
     7
 10
-206.2617195399111
 20
129.55
 30
0.0
 11
-206.2617195399111
 21
140.1271609965493
 31
0.0
  0
ARC
  5
234
  8
0
  6
CONTINUOUS
 62
     7
 10
-214.2617195399111
 20
140.1271609965493
 30
0.0
 40
8.000000000000007
 50
359.9999999999998
 51
46.32779344528063
  0
LINE
  5
235
  8
0
  6
CONTINUOUS
 62
     7
 10
-233.8443038812654
 20
116.55
 30
0.0
 11
-226.6617195399111
 21
116.55
 31
0.0
  0
LINE
  5
236
  8
0
  6
CONTINUOUS
 62
     7
 10
-226.6617195399111
 20
116.55
 30
0.0
 11
-226.3617195399111
 21
116.25
 31
0.0
  0
LINE
  5
237
  8
0
  6
CONTINUOUS
 62
     7
 10
-226.3617195399111
 20
116.25
 30
0.0
 11
-226.0617195399111
 21
116.55
 31
0.0
  0
LINE
  5
238
  8
0
  6
CONTINUOUS
 62
     7
 10
-226.0617195399111
 20
116.55
 30
0.0
 11
-218.8791351985568
 21
116.55
 31
0.0
  0
LINE
  5
239
  8
0
  6
CONTINUOUS
 62
     7
 10
-218.8616814629753
 20
114.55
 30
0.0
 11
-233.8617576168469
 21
114.55
 31
0.0
  0
LINE
  5
23A
  8
0
  6
CONTINUOUS
 62
     7
 10
-217.8791732754926
 20
116.55
 30
0.0
 11
-217.8617195399111
 21
114.55
 31
0.0
  0
LINE
  5
23B
  8
0
  6
CONTINUOUS
 62
     7
 10
-218.8791351985568
 20
116.55
 30
0.0
 11
-217.8791732754926
 21
116.55
 31
0.0
  0
LINE
  5
23C
  8
0
  6
CONTINUOUS
 62
     7
 10
-217.8617195399111
 20
114.55
 30
0.0
 11
-218.8616814629753
 21
114.55
 31
0.0
  0
LINE
  5
23D
  8
0
  6
CONTINUOUS
 62
     7
 10
-234.8617195399111
 20
114.55
 30
0.0
 11
-234.8442658043296
 21
116.55
 31
0.0
  0
LINE
  5
23E
  8
0
  6
CONTINUOUS
 62
     7
 10
-234.8442658043296
 20
116.55
 30
0.0
 11
-233.8443038812654
 21
116.55
 31
0.0
  0
LINE
  5
23F
  8
0
  6
CONTINUOUS
 62
     7
 10
-233.8617576168469
 20
114.55
 30
0.0
 11
-234.8617195399111
 21
114.55
 31
0.0
  0
ARC
  5
240
  8
0
  6
CONTINUOUS
 62
     7
 10
-208.2587810553392
 20
125.55
 30
0.0
 40
1.0
 50
9.999999999999428
 51
89.99999999999999
  0
LINE
  5
241
  8
0
  6
CONTINUOUS
 62
     7
 10
-207.273973302327
 20
125.7236481776669
 30
0.0
 11
-206.3617195399111
 21
120.5499999999999
 31
0.0
  0
LINE
  5
242
  8
0
  6
CONTINUOUS
 62
     7
 10
-213.8617195399111
 20
115.35
 30
0.0
 11
-213.8617195399111
 21
114.55
 31
0.0
  0
LINE
  5
243
  8
0
  6
CONTINUOUS
 62
     7
 10
-214.3617195399111
 20
115.85
 30
0.0
 11
-214.3371857027474
 21
115.8493977281026
 31
0.0
  0
LINE
  5
244
  8
0
  6
CONTINUOUS
 62
     7
 10
-214.3371857027474
 20
115.8493977281026
 30
0.0
 11
-214.3127109697463
 21
115.8475923633361
 31
0.0
  0
LINE
  5
245
  8
0
  6
CONTINUOUS
 62
     7
 10
-214.3127109697463
 20
115.8475923633361
 30
0.0
 11
-214.2883543026834
 21
115.8445882549824
 31
0.0
  0
LINE
  5
246
  8
0
  6
CONTINUOUS
 62
     7
 10
-214.2883543026834
 20
115.8445882549824
 30
0.0
 11
-214.264174378903
 21
115.8403926402016
 31
0.0
  0
LINE
  5
247
  8
0
  6
CONTINUOUS
 62
     7
 10
-214.264174378903
 20
115.8403926402016
 30
0.0
 11
-214.2402294499595
 21
115.8350156265973
 31
0.0
  0
LINE
  5
248
  8
0
  6
CONTINUOUS
 62
     7
 10
-214.2402294499595
 20
115.8350156265973
 30
0.0
 11
-214.2165772012839
 21
115.8284701678661
 31
0.0
  0
LINE
  5
249
  8
0
  6
CONTINUOUS
 62
     7
 10
-214.2165772012839
 20
115.8284701678661
 30
0.0
 11
-214.193274613215
 21
115.8207720325915
 31
0.0
  0
LINE
  5
24A
  8
0
  6
CONTINUOUS
 62
     7
 10
-214.193274613215
 20
115.8207720325915
 30
0.0
 11
-214.1703778237286
 21
115.8119397662556
 31
0.0
  0
LINE
  5
24B
  8
0
  6
CONTINUOUS
 62
     7
 10
-214.1703778237286
 20
115.8119397662556
 30
0.0
 11
-214.147941993196
 21
115.8019946465617
 31
0.0
  0
LINE
  5
24C
  8
0
  6
CONTINUOUS
 62
     7
 10
-214.147941993196
 20
115.8019946465617
 30
0.0
 11
-214.1260211714981
 21
115.7909606321742
 31
0.0
  0
LINE
  5
24D
  8
0
  6
CONTINUOUS
 62
     7
 10
-214.1260211714981
 20
115.7909606321742
 30
0.0
 11
-214.1046681678145
 21
115.7788643050001
 31
0.0
  0
LINE
  5
24E
  8
0
  6
CONTINUOUS
 62
     7
 10
-214.1046681678145
 20
115.7788643050001
 30
0.0
 11
-214.0839344234013
 21
115.7657348061513
 31
0.0
  0
LINE
  5
24F
  8
0
  6
CONTINUOUS
 62
     7
 10
-214.0839344234013
 20
115.7657348061513
 30
0.0
 11
-214.0638698876649
 21
115.7516037657403
 31
0.0
  0
LINE
  5
250
  8
0
  6
CONTINUOUS
 62
     7
 10
-214.0638698876649
 20
115.7516037657403
 30
0.0
 11
-214.0445228978293
 21
115.7365052266814
 31
0.0
  0
LINE
  5
251
  8
0
  6
CONTINUOUS
 62
     7
 10
-214.0445228978293
 20
115.7365052266814
 30
0.0
 11
-214.0259400624876
 21
115.7204755626775
 31
0.0
  0
LINE
  5
252
  8
0
  6
CONTINUOUS
 62
     7
 10
-214.0259400624876
 20
115.7204755626775
 30
0.0
 11
-214.0081661493178
 21
115.7035533905933
 31
0.0
  0
LINE
  5
253
  8
0
  6
CONTINUOUS
 62
     7
 10
-214.0081661493178
 20
115.7035533905933
 30
0.0
 11
-213.9912439772336
 21
115.6857794774235
 31
0.0
  0
LINE
  5
254
  8
0
  6
CONTINUOUS
 62
     7
 10
-213.9912439772336
 20
115.6857794774235
 30
0.0
 11
-213.9752143132297
 21
115.6671966420818
 31
0.0
  0
LINE
  5
255
  8
0
  6
CONTINUOUS
 62
     7
 10
-213.9752143132297
 20
115.6671966420818
 30
0.0
 11
-213.9601157741708
 21
115.6478496522462
 31
0.0
  0
LINE
  5
256
  8
0
  6
CONTINUOUS
 62
     7
 10
-213.9601157741708
 20
115.6478496522462
 30
0.0
 11
-213.9459847337599
 21
115.6277851165098
 31
0.0
  0
LINE
  5
257
  8
0
  6
CONTINUOUS
 62
     7
 10
-213.9459847337599
 20
115.6277851165098
 30
0.0
 11
-213.932855234911
 21
115.6070513720966
 31
0.0
  0
LINE
  5
258
  8
0
  6
CONTINUOUS
 62
     7
 10
-213.932855234911
 20
115.6070513720966
 30
0.0
 11
-213.9207589077369
 21
115.585698368413
 31
0.0
  0
LINE
  5
259
  8
0
  6
CONTINUOUS
 62
     7
 10
-213.9207589077369
 20
115.585698368413
 30
0.0
 11
-213.9097248933494
 21
115.5637775467151
 31
0.0
  0
LINE
  5
25A
  8
0
  6
CONTINUOUS
 62
     7
 10
-213.9097248933494
 20
115.5637775467151
 30
0.0
 11
-213.8997797736555
 21
115.5413417161825
 31
0.0
  0
LINE
  5
25B
  8
0
  6
CONTINUOUS
 62
     7
 10
-213.8997797736555
 20
115.5413417161825
 30
0.0
 11
-213.8909475073196
 21
115.5184449266961
 31
0.0
  0
LINE
  5
25C
  8
0
  6
CONTINUOUS
 62
     7
 10
-213.8909475073196
 20
115.5184449266961
 30
0.0
 11
-213.883249372045
 21
115.4951423386272
 31
0.0
  0
LINE
  5
25D
  8
0
  6
CONTINUOUS
 62
     7
 10
-213.883249372045
 20
115.4951423386272
 30
0.0
 11
-213.8767039133139
 21
115.4714900899516
 31
0.0
  0
LINE
  5
25E
  8
0
  6
CONTINUOUS
 62
     7
 10
-213.8767039133139
 20
115.4714900899516
 30
0.0
 11
-213.8713268997095
 21
115.4475451610081
 31
0.0
  0
LINE
  5
25F
  8
0
  6
CONTINUOUS
 62
     7
 10
-213.8713268997095
 20
115.4475451610081
 30
0.0
 11
-213.8671312849287
 21
115.4233652372277
 31
0.0
  0
LINE
  5
260
  8
0
  6
CONTINUOUS
 62
     7
 10
-213.8671312849287
 20
115.4233652372277
 30
0.0
 11
-213.864127176575
 21
115.3990085701648
 31
0.0
  0
LINE
  5
261
  8
0
  6
CONTINUOUS
 62
     7
 10
-213.864127176575
 20
115.3990085701648
 30
0.0
 11
-213.8623218118085
 21
115.3745338371637
 31
0.0
  0
LINE
  5
262
  8
0
  6
CONTINUOUS
 62
     7
 10
-213.8623218118085
 20
115.3745338371637
 30
0.0
 11
-213.8617195399111
 21
115.35
 31
0.0
  0
LINE
  5
263
  8
0
  6
CONTINUOUS
 62
     7
 10
-215.3617195399111
 20
115.85
 30
0.0
 11
-214.3617195399111
 21
115.85
 31
0.0
  0
LINE
  5
264
  8
0
  6
CONTINUOUS
 62
     7
 10
-215.8617195399111
 20
115.35
 30
0.0
 11
-215.8611172680137
 21
115.3745338371637
 31
0.0
  0
LINE
  5
265
  8
0
  6
CONTINUOUS
 62
     7
 10
-215.8611172680137
 20
115.3745338371637
 30
0.0
 11
-215.8593119032472
 21
115.3990085701648
 31
0.0
  0
LINE
  5
266
  8
0
  6
CONTINUOUS
 62
     7
 10
-215.8593119032472
 20
115.3990085701648
 30
0.0
 11
-215.8563077948935
 21
115.4233652372277
 31
0.0
  0
LINE
  5
267
  8
0
  6
CONTINUOUS
 62
     7
 10
-215.8563077948935
 20
115.4233652372277
 30
0.0
 11
-215.8521121801127
 21
115.4475451610081
 31
0.0
  0
LINE
  5
268
  8
0
  6
CONTINUOUS
 62
     7
 10
-215.8521121801127
 20
115.4475451610081
 30
0.0
 11
-215.8467351665084
 21
115.4714900899516
 31
0.0
  0
LINE
  5
269
  8
0
  6
CONTINUOUS
 62
     7
 10
-215.8467351665084
 20
115.4714900899516
 30
0.0
 11
-215.8401897077772
 21
115.4951423386272
 31
0.0
  0
LINE
  5
26A
  8
0
  6
CONTINUOUS
 62
     7
 10
-215.8401897077772
 20
115.4951423386272
 30
0.0
 11
-215.8324915725026
 21
115.5184449266961
 31
0.0
  0
LINE
  5
26B
  8
0
  6
CONTINUOUS
 62
     7
 10
-215.8324915725026
 20
115.5184449266961
 30
0.0
 11
-215.8236593061667
 21
115.5413417161825
 31
0.0
  0
LINE
  5
26C
  8
0
  6
CONTINUOUS
 62
     7
 10
-215.8236593061667
 20
115.5413417161825
 30
0.0
 11
-215.8137141864729
 21
115.5637775467151
 31
0.0
  0
LINE
  5
26D
  8
0
  6
CONTINUOUS
 62
     7
 10
-215.8137141864729
 20
115.5637775467151
 30
0.0
 11
-215.8026801720853
 21
115.585698368413
 31
0.0
  0
LINE
  5
26E
  8
0
  6
CONTINUOUS
 62
     7
 10
-215.8026801720853
 20
115.585698368413
 30
0.0
 11
-215.7905838449113
 21
115.6070513720966
 31
0.0
  0
LINE
  5
26F
  8
0
  6
CONTINUOUS
 62
     7
 10
-215.7905838449113
 20
115.6070513720966
 30
0.0
 11
-215.7774543460624
 21
115.6277851165098
 31
0.0
  0
LINE
  5
270
  8
0
  6
CONTINUOUS
 62
     7
 10
-215.7774543460624
 20
115.6277851165098
 30
0.0
 11
-215.7633233056515
 21
115.6478496522462
 31
0.0
  0
LINE
  5
271
  8
0
  6
CONTINUOUS
 62
     7
 10
-215.7633233056515
 20
115.6478496522462
 30
0.0
 11
-215.7482247665925
 21
115.6671966420818
 31
0.0
  0
LINE
  5
272
  8
0
  6
CONTINUOUS
 62
     7
 10
-215.7482247665925
 20
115.6671966420818
 30
0.0
 11
-215.7321951025886
 21
115.6857794774235
 31
0.0
  0
LINE
  5
273
  8
0
  6
CONTINUOUS
 62
     7
 10
-215.7321951025886
 20
115.6857794774235
 30
0.0
 11
-215.7152729305044
 21
115.7035533905933
 31
0.0
  0
LINE
  5
274
  8
0
  6
CONTINUOUS
 62
     7
 10
-215.7152729305044
 20
115.7035533905933
 30
0.0
 11
-215.6974990173346
 21
115.7204755626775
 31
0.0
  0
LINE
  5
275
  8
0
  6
CONTINUOUS
 62
     7
 10
-215.6974990173346
 20
115.7204755626775
 30
0.0
 11
-215.6789161819929
 21
115.7365052266814
 31
0.0
  0
LINE
  5
276
  8
0
  6
CONTINUOUS
 62
     7
 10
-215.6789161819929
 20
115.7365052266814
 30
0.0
 11
-215.6595691921573
 21
115.7516037657403
 31
0.0
  0
LINE
  5
277
  8
0
  6
CONTINUOUS
 62
     7
 10
-215.6595691921573
 20
115.7516037657403
 30
0.0
 11
-215.6395046564209
 21
115.7657348061513
 31
0.0
  0
LINE
  5
278
  8
0
  6
CONTINUOUS
 62
     7
 10
-215.6395046564209
 20
115.7657348061513
 30
0.0
 11
-215.6187709120077
 21
115.7788643050001
 31
0.0
  0
LINE
  5
279
  8
0
  6
CONTINUOUS
 62
     7
 10
-215.6187709120077
 20
115.7788643050001
 30
0.0
 11
-215.5974179083241
 21
115.7909606321742
 31
0.0
  0
LINE
  5
27A
  8
0
  6
CONTINUOUS
 62
     7
 10
-215.5974179083241
 20
115.7909606321742
 30
0.0
 11
-215.5754970866263
 21
115.8019946465617
 31
0.0
  0
LINE
  5
27B
  8
0
  6
CONTINUOUS
 62
     7
 10
-215.5754970866263
 20
115.8019946465617
 30
0.0
 11
-215.5530612560937
 21
115.8119397662556
 31
0.0
  0
LINE
  5
27C
  8
0
  6
CONTINUOUS
 62
     7
 10
-215.5530612560937
 20
115.8119397662556
 30
0.0
 11
-215.5301644666072
 21
115.8207720325915
 31
0.0
  0
LINE
  5
27D
  8
0
  6
CONTINUOUS
 62
     7
 10
-215.5301644666072
 20
115.8207720325915
 30
0.0
 11
-215.5068618785383
 21
115.8284701678661
 31
0.0
  0
LINE
  5
27E
  8
0
  6
CONTINUOUS
 62
     7
 10
-215.5068618785383
 20
115.8284701678661
 30
0.0
 11
-215.4832096298628
 21
115.8350156265973
 31
0.0
  0
LINE
  5
27F
  8
0
  6
CONTINUOUS
 62
     7
 10
-215.4832096298628
 20
115.8350156265973
 30
0.0
 11
-215.4592647009192
 21
115.8403926402016
 31
0.0
  0
LINE
  5
280
  8
0
  6
CONTINUOUS
 62
     7
 10
-215.4592647009192
 20
115.8403926402016
 30
0.0
 11
-215.4350847771388
 21
115.8445882549824
 31
0.0
  0
LINE
  5
281
  8
0
  6
CONTINUOUS
 62
     7
 10
-215.4350847771388
 20
115.8445882549824
 30
0.0
 11
-215.4107281100759
 21
115.8475923633361
 31
0.0
  0
LINE
  5
282
  8
0
  6
CONTINUOUS
 62
     7
 10
-215.4107281100759
 20
115.8475923633361
 30
0.0
 11
-215.3862533770748
 21
115.8493977281026
 31
0.0
  0
LINE
  5
283
  8
0
  6
CONTINUOUS
 62
     7
 10
-215.3862533770748
 20
115.8493977281026
 30
0.0
 11
-215.3617195399111
 21
115.85
 31
0.0
  0
LINE
  5
284
  8
0
  6
CONTINUOUS
 62
     7
 10
-212.0412114642223
 20
116.55
 30
0.0
 11
-209.4610189590662
 21
126.1794095225512
 31
0.0
  0
LINE
  5
285
  8
0
  6
CONTINUOUS
 62
     7
 10
-208.9780560459216
 20
126.55
 30
0.0
 11
-209.0014224776637
 21
126.5494537114364
 31
0.0
  0
LINE
  5
286
  8
0
  6
CONTINUOUS
 62
     7
 10
-209.0014224776637
 20
126.5494537114364
 30
0.0
 11
-209.0247378501481
 21
126.5478160394706
 31
0.0
  0
LINE
  5
287
  8
0
  6
CONTINUOUS
 62
     7
 10
-209.0247378501481
 20
126.5478160394706
 30
0.0
 11
-209.0479512156894
 21
126.5450905626682
 31
0.0
  0
LINE
  5
288
  8
0
  6
CONTINUOUS
 62
     7
 10
-209.0479512156894
 20
126.5450905626682
 30
0.0
 11
-209.0710118495031
 21
126.5412832366166
 31
0.0
  0
LINE
  5
289
  8
0
  6
CONTINUOUS
 62
     7
 10
-209.0710118495031
 20
126.5412832366166
 30
0.0
 11
-209.0938693605471
 21
126.5364023809105
 31
0.0
  0
LINE
  5
28A
  8
0
  6
CONTINUOUS
 62
     7
 10
-209.0938693605471
 20
126.5364023809105
 30
0.0
 11
-209.116473801634
 21
126.5304586609725
 31
0.0
  0
LINE
  5
28B
  8
0
  6
CONTINUOUS
 62
     7
 10
-209.116473801634
 20
126.5304586609725
 30
0.0
 11
-209.1387757785732
 21
126.5234650647475
 31
0.0
  0
LINE
  5
28C
  8
0
  6
CONTINUOUS
 62
     7
 10
-209.1387757785732
 20
126.5234650647475
 30
0.0
 11
-209.1607265581048
 21
126.5154368743221
 31
0.0
  0
LINE
  5
28D
  8
0
  6
CONTINUOUS
 62
     7
 10
-209.1607265581048
 20
126.5154368743221
 30
0.0
 11
-209.1822781743896
 21
126.5063916325306
 31
0.0
  0
LINE
  5
28E
  8
0
  6
CONTINUOUS
 62
     7
 10
-209.1822781743896
 20
126.5063916325306
 30
0.0
 11
-209.2033835338216
 21
126.4963491046218
 31
0.0
  0
LINE
  5
28F
  8
0
  6
CONTINUOUS
 62
     7
 10
-209.2033835338216
 20
126.4963491046218
 30
0.0
 11
-209.2239965179348
 21
126.4853312350681
 31
0.0
  0
LINE
  5
290
  8
0
  6
CONTINUOUS
 62
     7
 10
-209.2239965179348
 20
126.4853312350681
 30
0.0
 11
-209.2440720841793
 21
126.4733620996141
 31
0.0
  0
LINE
  5
291
  8
0
  6
CONTINUOUS
 62
     7
 10
-209.2440720841793
 20
126.4733620996141
 30
0.0
 11
-209.2635663643461
 21
126.4604678526671
 31
0.0
  0
LINE
  5
292
  8
0
  6
CONTINUOUS
 62
     7
 10
-209.2635663643461
 20
126.4604678526671
 30
0.0
 11
-209.282436760426
 21
126.4466766701456
 31
0.0
  0
LINE
  5
293
  8
0
  6
CONTINUOUS
 62
     7
 10
-209.282436760426
 20
126.4466766701456
 30
0.0
 11
-209.3006420376927
 21
126.4320186879108
 31
0.0
  0
LINE
  5
294
  8
0
  6
CONTINUOUS
 62
     7
 10
-209.3006420376927
 20
126.4320186879108
 30
0.0
 11
-209.3181424148071
 21
126.4165259359149
 31
0.0
  0
LINE
  5
295
  8
0
  6
CONTINUOUS
 62
     7
 10
-209.3181424148071
 20
126.4165259359149
 30
0.0
 11
-209.3348996507457
 21
126.4002322682109
 31
0.0
  0
LINE
  5
296
  8
0
  6
CONTINUOUS
 62
     7
 10
-209.3348996507457
 20
126.4002322682109
 30
0.0
 11
-209.3508771283632
 21
126.383173288976
 31
0.0
  0
LINE
  5
297
  8
0
  6
CONTINUOUS
 62
     7
 10
-209.3508771283632
 20
126.383173288976
 30
0.0
 11
-209.3660399344063
 21
126.3653862747113
 31
0.0
  0
LINE
  5
298
  8
0
  6
CONTINUOUS
 62
     7
 10
-209.3660399344063
 20
126.3653862747113
 30
0.0
 11
-209.3803549358049
 21
126.3469100927868
 31
0.0
  0
LINE
  5
299
  8
0
  6
CONTINUOUS
 62
     7
 10
-209.3803549358049
 20
126.3469100927868
 30
0.0
 11
-209.3937908520729
 21
126.3277851165098
 31
0.0
  0
LINE
  5
29A
  8
0
  6
CONTINUOUS
 62
     7
 10
-209.3937908520729
 20
126.3277851165098
 30
0.0
 11
-209.4063183236605
 21
126.3080531369037
 31
0.0
  0
LINE
  5
29B
  8
0
  6
CONTINUOUS
 62
     7
 10
-209.4063183236605
 20
126.3080531369037
 30
0.0
 11
-209.4179099761101
 21
126.2877572713878
 31
0.0
  0
LINE
  5
29C
  8
0
  6
CONTINUOUS
 62
     7
 10
-209.4179099761101
 20
126.2877572713878
 30
0.0
 11
-209.4285404798728
 21
126.2669418695588
 31
0.0
  0
LINE
  5
29D
  8
0
  6
CONTINUOUS
 62
     7
 10
-209.4285404798728
 20
126.2669418695588
 30
0.0
 11
-209.4381866056583
 21
126.2456524162806
 31
0.0
  0
LINE
  5
29E
  8
0
  6
CONTINUOUS
 62
     7
 10
-209.4381866056583
 20
126.2456524162806
 30
0.0
 11
-209.4468272751936
 21
126.2239354322926
 31
0.0
  0
LINE
  5
29F
  8
0
  6
CONTINUOUS
 62
     7
 10
-209.4468272751936
 20
126.2239354322926
 30
0.0
 11
-209.4544436072831
 21
126.2018383725548
 31
0.0
  0
LINE
  5
2A0
  8
0
  6
CONTINUOUS
 62
     7
 10
-209.4544436072831
 20
126.2018383725548
 30
0.0
 11
-209.4610189590662
 21
126.1794095225512
 31
0.0
  0
LINE
  5
2A1
  8
0
  6
CONTINUOUS
 62
     7
 10
-208.9780560459216
 20
126.55
 30
0.0
 11
-208.2587810553392
 21
126.55
 31
0.0
  0
LINE
  5
2A2
  8
0
  6
CONTINUOUS
 62
     7
 10
-215.8617195399111
 20
114.55
 30
0.0
 11
-215.8617195399111
 21
115.35
 31
0.0
  0
LINE
  5
2A3
  8
0
  6
CONTINUOUS
 62
     7
 10
-206.3617195399111
 20
120.5499999999999
 30
0.0
 11
-206.3617195399111
 21
114.55
 31
0.0
  0
LINE
  5
2A4
  8
0
  6
CONTINUOUS
 62
     7
 10
-206.3617195399111
 20
114.55
 30
0.0
 11
-213.8617195399111
 21
114.55
 31
0.0
  0
LINE
  5
2A5
  8
0
  6
CONTINUOUS
 62
     7
 10
-217.8791732754926
 20
116.55
 30
0.0
 11
-212.0412114642223
 21
116.55
 31
0.0
  0
LINE
  5
2A6
  8
0
  6
CONTINUOUS
 62
     7
 10
-215.8617195399111
 20
114.55
 30
0.0
 11
-217.8617195399111
 21
114.55
 31
0.0
  0
LINE
  5
2A7
  8
0
  6
CONTINUOUS
 62
     7
 10
-236.8617195399111
 20
114.5500000000001
 30
0.0
 11
-236.8617195399111
 21
115.35
 31
0.0
  0
LINE
  5
2A8
  8
0
  6
CONTINUOUS
 62
     7
 10
-237.3617195399111
 20
115.85
 30
0.0
 11
-237.3371857027474
 21
115.8493977281026
 31
0.0
  0
LINE
  5
2A9
  8
0
  6
CONTINUOUS
 62
     7
 10
-237.3371857027474
 20
115.8493977281026
 30
0.0
 11
-237.3127109697463
 21
115.8475923633361
 31
0.0
  0
LINE
  5
2AA
  8
0
  6
CONTINUOUS
 62
     7
 10
-237.3127109697463
 20
115.8475923633361
 30
0.0
 11
-237.2883543026834
 21
115.8445882549824
 31
0.0
  0
LINE
  5
2AB
  8
0
  6
CONTINUOUS
 62
     7
 10
-237.2883543026834
 20
115.8445882549824
 30
0.0
 11
-237.264174378903
 21
115.8403926402016
 31
0.0
  0
LINE
  5
2AC
  8
0
  6
CONTINUOUS
 62
     7
 10
-237.264174378903
 20
115.8403926402016
 30
0.0
 11
-237.2402294499595
 21
115.8350156265973
 31
0.0
  0
LINE
  5
2AD
  8
0
  6
CONTINUOUS
 62
     7
 10
-237.2402294499595
 20
115.8350156265973
 30
0.0
 11
-237.2165772012839
 21
115.8284701678661
 31
0.0
  0
LINE
  5
2AE
  8
0
  6
CONTINUOUS
 62
     7
 10
-237.2165772012839
 20
115.8284701678661
 30
0.0
 11
-237.193274613215
 21
115.8207720325915
 31
0.0
  0
LINE
  5
2AF
  8
0
  6
CONTINUOUS
 62
     7
 10
-237.193274613215
 20
115.8207720325915
 30
0.0
 11
-237.1703778237286
 21
115.8119397662556
 31
0.0
  0
LINE
  5
2B0
  8
0
  6
CONTINUOUS
 62
     7
 10
-237.1703778237286
 20
115.8119397662556
 30
0.0
 11
-237.147941993196
 21
115.8019946465617
 31
0.0
  0
LINE
  5
2B1
  8
0
  6
CONTINUOUS
 62
     7
 10
-237.147941993196
 20
115.8019946465617
 30
0.0
 11
-237.1260211714981
 21
115.7909606321742
 31
0.0
  0
LINE
  5
2B2
  8
0
  6
CONTINUOUS
 62
     7
 10
-237.1260211714981
 20
115.7909606321742
 30
0.0
 11
-237.1046681678145
 21
115.7788643050001
 31
0.0
  0
LINE
  5
2B3
  8
0
  6
CONTINUOUS
 62
     7
 10
-237.1046681678145
 20
115.7788643050001
 30
0.0
 11
-237.0839344234013
 21
115.7657348061513
 31
0.0
  0
LINE
  5
2B4
  8
0
  6
CONTINUOUS
 62
     7
 10
-237.0839344234013
 20
115.7657348061513
 30
0.0
 11
-237.0638698876649
 21
115.7516037657403
 31
0.0
  0
LINE
  5
2B5
  8
0
  6
CONTINUOUS
 62
     7
 10
-237.0638698876649
 20
115.7516037657403
 30
0.0
 11
-237.0445228978293
 21
115.7365052266814
 31
0.0
  0
LINE
  5
2B6
  8
0
  6
CONTINUOUS
 62
     7
 10
-237.0445228978293
 20
115.7365052266814
 30
0.0
 11
-237.0259400624876
 21
115.7204755626775
 31
0.0
  0
LINE
  5
2B7
  8
0
  6
CONTINUOUS
 62
     7
 10
-237.0259400624876
 20
115.7204755626775
 30
0.0
 11
-237.0081661493178
 21
115.7035533905933
 31
0.0
  0
LINE
  5
2B8
  8
0
  6
CONTINUOUS
 62
     7
 10
-237.0081661493178
 20
115.7035533905933
 30
0.0
 11
-236.9912439772336
 21
115.6857794774235
 31
0.0
  0
LINE
  5
2B9
  8
0
  6
CONTINUOUS
 62
     7
 10
-236.9912439772336
 20
115.6857794774235
 30
0.0
 11
-236.9752143132297
 21
115.6671966420818
 31
0.0
  0
LINE
  5
2BA
  8
0
  6
CONTINUOUS
 62
     7
 10
-236.9752143132297
 20
115.6671966420818
 30
0.0
 11
-236.9601157741708
 21
115.6478496522462
 31
0.0
  0
LINE
  5
2BB
  8
0
  6
CONTINUOUS
 62
     7
 10
-236.9601157741708
 20
115.6478496522462
 30
0.0
 11
-236.9459847337598
 21
115.6277851165098
 31
0.0
  0
LINE
  5
2BC
  8
0
  6
CONTINUOUS
 62
     7
 10
-236.9459847337598
 20
115.6277851165098
 30
0.0
 11
-236.932855234911
 21
115.6070513720966
 31
0.0
  0
LINE
  5
2BD
  8
0
  6
CONTINUOUS
 62
     7
 10
-236.932855234911
 20
115.6070513720966
 30
0.0
 11
-236.9207589077369
 21
115.585698368413
 31
0.0
  0
LINE
  5
2BE
  8
0
  6
CONTINUOUS
 62
     7
 10
-236.9207589077369
 20
115.585698368413
 30
0.0
 11
-236.9097248933494
 21
115.5637775467151
 31
0.0
  0
LINE
  5
2BF
  8
0
  6
CONTINUOUS
 62
     7
 10
-236.9097248933494
 20
115.5637775467151
 30
0.0
 11
-236.8997797736554
 21
115.5413417161825
 31
0.0
  0
LINE
  5
2C0
  8
0
  6
CONTINUOUS
 62
     7
 10
-236.8997797736554
 20
115.5413417161825
 30
0.0
 11
-236.8909475073196
 21
115.5184449266961
 31
0.0
  0
LINE
  5
2C1
  8
0
  6
CONTINUOUS
 62
     7
 10
-236.8909475073196
 20
115.5184449266961
 30
0.0
 11
-236.883249372045
 21
115.4951423386272
 31
0.0
  0
LINE
  5
2C2
  8
0
  6
CONTINUOUS
 62
     7
 10
-236.883249372045
 20
115.4951423386272
 30
0.0
 11
-236.8767039133138
 21
115.4714900899516
 31
0.0
  0
LINE
  5
2C3
  8
0
  6
CONTINUOUS
 62
     7
 10
-236.8767039133138
 20
115.4714900899516
 30
0.0
 11
-236.8713268997095
 21
115.4475451610081
 31
0.0
  0
LINE
  5
2C4
  8
0
  6
CONTINUOUS
 62
     7
 10
-236.8713268997095
 20
115.4475451610081
 30
0.0
 11
-236.8671312849287
 21
115.4233652372277
 31
0.0
  0
LINE
  5
2C5
  8
0
  6
CONTINUOUS
 62
     7
 10
-236.8671312849287
 20
115.4233652372277
 30
0.0
 11
-236.864127176575
 21
115.3990085701648
 31
0.0
  0
LINE
  5
2C6
  8
0
  6
CONTINUOUS
 62
     7
 10
-236.864127176575
 20
115.3990085701648
 30
0.0
 11
-236.8623218118085
 21
115.3745338371637
 31
0.0
  0
LINE
  5
2C7
  8
0
  6
CONTINUOUS
 62
     7
 10
-236.8623218118085
 20
115.3745338371637
 30
0.0
 11
-236.8617195399111
 21
115.35
 31
0.0
  0
LINE
  5
2C8
  8
0
  6
CONTINUOUS
 62
     7
 10
-237.3617195399111
 20
115.85
 30
0.0
 11
-238.361719539911
 21
115.85
 31
0.0
  0
LINE
  5
2C9
  8
0
  6
CONTINUOUS
 62
     7
 10
-238.861719539911
 20
115.35
 30
0.0
 11
-238.8611172680136
 21
115.3745338371637
 31
0.0
  0
LINE
  5
2CA
  8
0
  6
CONTINUOUS
 62
     7
 10
-238.8611172680136
 20
115.3745338371637
 30
0.0
 11
-238.8593119032471
 21
115.3990085701648
 31
0.0
  0
LINE
  5
2CB
  8
0
  6
CONTINUOUS
 62
     7
 10
-238.8593119032471
 20
115.3990085701648
 30
0.0
 11
-238.8563077948934
 21
115.4233652372277
 31
0.0
  0
LINE
  5
2CC
  8
0
  6
CONTINUOUS
 62
     7
 10
-238.8563077948934
 20
115.4233652372277
 30
0.0
 11
-238.8521121801126
 21
115.4475451610081
 31
0.0
  0
LINE
  5
2CD
  8
0
  6
CONTINUOUS
 62
     7
 10
-238.8521121801126
 20
115.4475451610081
 30
0.0
 11
-238.8467351665083
 21
115.4714900899516
 31
0.0
  0
LINE
  5
2CE
  8
0
  6
CONTINUOUS
 62
     7
 10
-238.8467351665083
 20
115.4714900899516
 30
0.0
 11
-238.8401897077771
 21
115.4951423386272
 31
0.0
  0
LINE
  5
2CF
  8
0
  6
CONTINUOUS
 62
     7
 10
-238.8401897077771
 20
115.4951423386272
 30
0.0
 11
-238.8324915725025
 21
115.5184449266961
 31
0.0
  0
LINE
  5
2D0
  8
0
  6
CONTINUOUS
 62
     7
 10
-238.8324915725025
 20
115.5184449266961
 30
0.0
 11
-238.8236593061667
 21
115.5413417161825
 31
0.0
  0
LINE
  5
2D1
  8
0
  6
CONTINUOUS
 62
     7
 10
-238.8236593061667
 20
115.5413417161825
 30
0.0
 11
-238.8137141864727
 21
115.5637775467151
 31
0.0
  0
LINE
  5
2D2
  8
0
  6
CONTINUOUS
 62
     7
 10
-238.8137141864727
 20
115.5637775467151
 30
0.0
 11
-238.8026801720852
 21
115.585698368413
 31
0.0
  0
LINE
  5
2D3
  8
0
  6
CONTINUOUS
 62
     7
 10
-238.8026801720852
 20
115.585698368413
 30
0.0
 11
-238.7905838449111
 21
115.6070513720966
 31
0.0
  0
LINE
  5
2D4
  8
0
  6
CONTINUOUS
 62
     7
 10
-238.7905838449111
 20
115.6070513720966
 30
0.0
 11
-238.7774543460623
 21
115.6277851165098
 31
0.0
  0
LINE
  5
2D5
  8
0
  6
CONTINUOUS
 62
     7
 10
-238.7774543460623
 20
115.6277851165098
 30
0.0
 11
-238.7633233056513
 21
115.6478496522462
 31
0.0
  0
LINE
  5
2D6
  8
0
  6
CONTINUOUS
 62
     7
 10
-238.7633233056513
 20
115.6478496522462
 30
0.0
 11
-238.7482247665924
 21
115.6671966420818
 31
0.0
  0
LINE
  5
2D7
  8
0
  6
CONTINUOUS
 62
     7
 10
-238.7482247665924
 20
115.6671966420818
 30
0.0
 11
-238.7321951025885
 21
115.6857794774235
 31
0.0
  0
LINE
  5
2D8
  8
0
  6
CONTINUOUS
 62
     7
 10
-238.7321951025885
 20
115.6857794774235
 30
0.0
 11
-238.7152729305043
 21
115.7035533905933
 31
0.0
  0
LINE
  5
2D9
  8
0
  6
CONTINUOUS
 62
     7
 10
-238.7152729305043
 20
115.7035533905933
 30
0.0
 11
-238.6974990173345
 21
115.7204755626775
 31
0.0
  0
LINE
  5
2DA
  8
0
  6
CONTINUOUS
 62
     7
 10
-238.6974990173345
 20
115.7204755626775
 30
0.0
 11
-238.6789161819928
 21
115.7365052266814
 31
0.0
  0
LINE
  5
2DB
  8
0
  6
CONTINUOUS
 62
     7
 10
-238.6789161819928
 20
115.7365052266814
 30
0.0
 11
-238.6595691921572
 21
115.7516037657403
 31
0.0
  0
LINE
  5
2DC
  8
0
  6
CONTINUOUS
 62
     7
 10
-238.6595691921572
 20
115.7516037657403
 30
0.0
 11
-238.6395046564208
 21
115.7657348061513
 31
0.0
  0
LINE
  5
2DD
  8
0
  6
CONTINUOUS
 62
     7
 10
-238.6395046564208
 20
115.7657348061513
 30
0.0
 11
-238.6187709120076
 21
115.7788643050001
 31
0.0
  0
LINE
  5
2DE
  8
0
  6
CONTINUOUS
 62
     7
 10
-238.6187709120076
 20
115.7788643050001
 30
0.0
 11
-238.597417908324
 21
115.7909606321742
 31
0.0
  0
LINE
  5
2DF
  8
0
  6
CONTINUOUS
 62
     7
 10
-238.597417908324
 20
115.7909606321742
 30
0.0
 11
-238.5754970866262
 21
115.8019946465617
 31
0.0
  0
LINE
  5
2E0
  8
0
  6
CONTINUOUS
 62
     7
 10
-238.5754970866262
 20
115.8019946465617
 30
0.0
 11
-238.5530612560936
 21
115.8119397662556
 31
0.0
  0
LINE
  5
2E1
  8
0
  6
CONTINUOUS
 62
     7
 10
-238.5530612560936
 20
115.8119397662556
 30
0.0
 11
-238.5301644666071
 21
115.8207720325915
 31
0.0
  0
LINE
  5
2E2
  8
0
  6
CONTINUOUS
 62
     7
 10
-238.5301644666071
 20
115.8207720325915
 30
0.0
 11
-238.5068618785382
 21
115.8284701678661
 31
0.0
  0
LINE
  5
2E3
  8
0
  6
CONTINUOUS
 62
     7
 10
-238.5068618785382
 20
115.8284701678661
 30
0.0
 11
-238.4832096298626
 21
115.8350156265973
 31
0.0
  0
LINE
  5
2E4
  8
0
  6
CONTINUOUS
 62
     7
 10
-238.4832096298626
 20
115.8350156265973
 30
0.0
 11
-238.4592647009191
 21
115.8403926402016
 31
0.0
  0
LINE
  5
2E5
  8
0
  6
CONTINUOUS
 62
     7
 10
-238.4592647009191
 20
115.8403926402016
 30
0.0
 11
-238.4350847771387
 21
115.8445882549824
 31
0.0
  0
LINE
  5
2E6
  8
0
  6
CONTINUOUS
 62
     7
 10
-238.4350847771387
 20
115.8445882549824
 30
0.0
 11
-238.4107281100758
 21
115.8475923633361
 31
0.0
  0
LINE
  5
2E7
  8
0
  6
CONTINUOUS
 62
     7
 10
-238.4107281100758
 20
115.8475923633361
 30
0.0
 11
-238.3862533770747
 21
115.8493977281026
 31
0.0
  0
LINE
  5
2E8
  8
0
  6
CONTINUOUS
 62
     7
 10
-238.3862533770747
 20
115.8493977281026
 30
0.0
 11
-238.361719539911
 21
115.85
 31
0.0
  0
LINE
  5
2E9
  8
0
  6
CONTINUOUS
 62
     7
 10
-238.861719539911
 20
115.35
 30
0.0
 11
-238.861719539911
 21
114.5500000000001
 31
0.0
  0
LINE
  5
2EA
  8
0
  6
CONTINUOUS
 62
     7
 10
-246.3617195399111
 20
114.55
 30
0.0
 11
-238.861719539911
 21
114.5500000000001
 31
0.0
  0
LINE
  5
2EB
  8
0
  6
CONTINUOUS
 62
     7
 10
-245.4494657774952
 20
125.7236481776669
 30
0.0
 11
-246.3617195399111
 21
120.5499999999999
 31
0.0
  0
ARC
  5
2EC
  8
0
  6
CONTINUOUS
 62
     7
 10
-244.464658024483
 20
125.55
 30
0.0
 40
1.0
 50
89.9999999999992
 51
169.9999999999997
  0
LINE
  5
2ED
  8
0
  6
CONTINUOUS
 62
     7
 10
-243.7453830339006
 20
126.55
 30
0.0
 11
-244.464658024483
 21
126.55
 31
0.0
  0
LINE
  5
2EE
  8
0
  6
CONTINUOUS
 62
     7
 10
-243.262420120756
 20
126.1794095225512
 30
0.0
 11
-243.2689954725392
 21
126.2018383725548
 31
0.0
  0
LINE
  5
2EF
  8
0
  6
CONTINUOUS
 62
     7
 10
-243.2689954725392
 20
126.2018383725548
 30
0.0
 11
-243.2766118046286
 21
126.2239354322926
 31
0.0
  0
LINE
  5
2F0
  8
0
  6
CONTINUOUS
 62
     7
 10
-243.2766118046286
 20
126.2239354322926
 30
0.0
 11
-243.2852524741639
 21
126.2456524162805
 31
0.0
  0
LINE
  5
2F1
  8
0
  6
CONTINUOUS
 62
     7
 10
-243.2852524741639
 20
126.2456524162805
 30
0.0
 11
-243.2948985999494
 21
126.2669418695587
 31
0.0
  0
LINE
  5
2F2
  8
0
  6
CONTINUOUS
 62
     7
 10
-243.2948985999494
 20
126.2669418695587
 30
0.0
 11
-243.3055291037121
 21
126.2877572713877
 31
0.0
  0
LINE
  5
2F3
  8
0
  6
CONTINUOUS
 62
     7
 10
-243.3055291037121
 20
126.2877572713877
 30
0.0
 11
-243.3171207561617
 21
126.3080531369037
 31
0.0
  0
LINE
  5
2F4
  8
0
  6
CONTINUOUS
 62
     7
 10
-243.3171207561617
 20
126.3080531369037
 30
0.0
 11
-243.3296482277493
 21
126.3277851165098
 31
0.0
  0
LINE
  5
2F5
  8
0
  6
CONTINUOUS
 62
     7
 10
-243.3296482277493
 20
126.3277851165098
 30
0.0
 11
-243.3430841440172
 21
126.3469100927867
 31
0.0
  0
LINE
  5
2F6
  8
0
  6
CONTINUOUS
 62
     7
 10
-243.3430841440172
 20
126.3469100927867
 30
0.0
 11
-243.3573991454159
 21
126.3653862747113
 31
0.0
  0
LINE
  5
2F7
  8
0
  6
CONTINUOUS
 62
     7
 10
-243.3573991454159
 20
126.3653862747113
 30
0.0
 11
-243.372561951459
 21
126.383173288976
 31
0.0
  0
LINE
  5
2F8
  8
0
  6
CONTINUOUS
 62
     7
 10
-243.372561951459
 20
126.383173288976
 30
0.0
 11
-243.3885394290765
 21
126.4002322682108
 31
0.0
  0
LINE
  5
2F9
  8
0
  6
CONTINUOUS
 62
     7
 10
-243.3885394290765
 20
126.4002322682108
 30
0.0
 11
-243.4052966650151
 21
126.4165259359149
 31
0.0
  0
LINE
  5
2FA
  8
0
  6
CONTINUOUS
 62
     7
 10
-243.4052966650151
 20
126.4165259359149
 30
0.0
 11
-243.4227970421295
 21
126.4320186879108
 31
0.0
  0
LINE
  5
2FB
  8
0
  6
CONTINUOUS
 62
     7
 10
-243.4227970421295
 20
126.4320186879108
 30
0.0
 11
-243.4410023193962
 21
126.4466766701456
 31
0.0
  0
LINE
  5
2FC
  8
0
  6
CONTINUOUS
 62
     7
 10
-243.4410023193962
 20
126.4466766701456
 30
0.0
 11
-243.4598727154761
 21
126.4604678526671
 31
0.0
  0
LINE
  5
2FD
  8
0
  6
CONTINUOUS
 62
     7
 10
-243.4598727154761
 20
126.4604678526671
 30
0.0
 11
-243.4793669956429
 21
126.4733620996141
 31
0.0
  0
LINE
  5
2FE
  8
0
  6
CONTINUOUS
 62
     7
 10
-243.4793669956429
 20
126.4733620996141
 30
0.0
 11
-243.4994425618874
 21
126.4853312350681
 31
0.0
  0
LINE
  5
2FF
  8
0
  6
CONTINUOUS
 62
     7
 10
-243.4994425618874
 20
126.4853312350681
 30
0.0
 11
-243.5200555460006
 21
126.4963491046218
 31
0.0
  0
LINE
  5
300
  8
0
  6
CONTINUOUS
 62
     7
 10
-243.5200555460006
 20
126.4963491046218
 30
0.0
 11
-243.5411609054326
 21
126.5063916325306
 31
0.0
  0
LINE
  5
301
  8
0
  6
CONTINUOUS
 62
     7
 10
-243.5411609054326
 20
126.5063916325306
 30
0.0
 11
-243.5627125217174
 21
126.5154368743221
 31
0.0
  0
LINE
  5
302
  8
0
  6
CONTINUOUS
 62
     7
 10
-243.5627125217174
 20
126.5154368743221
 30
0.0
 11
-243.584663301249
 21
126.5234650647475
 31
0.0
  0
LINE
  5
303
  8
0
  6
CONTINUOUS
 62
     7
 10
-243.584663301249
 20
126.5234650647475
 30
0.0
 11
-243.6069652781882
 21
126.5304586609725
 31
0.0
  0
LINE
  5
304
  8
0
  6
CONTINUOUS
 62
     7
 10
-243.6069652781882
 20
126.5304586609725
 30
0.0
 11
-243.6295697192751
 21
126.5364023809105
 31
0.0
  0
LINE
  5
305
  8
0
  6
CONTINUOUS
 62
     7
 10
-243.6295697192751
 20
126.5364023809105
 30
0.0
 11
-243.6524272303191
 21
126.5412832366166
 31
0.0
  0
LINE
  5
306
  8
0
  6
CONTINUOUS
 62
     7
 10
-243.6524272303191
 20
126.5412832366166
 30
0.0
 11
-243.6754878641328
 21
126.5450905626682
 31
0.0
  0
LINE
  5
307
  8
0
  6
CONTINUOUS
 62
     7
 10
-243.6754878641328
 20
126.5450905626682
 30
0.0
 11
-243.6987012296741
 21
126.5478160394705
 31
0.0
  0
LINE
  5
308
  8
0
  6
CONTINUOUS
 62
     7
 10
-243.6987012296741
 20
126.5478160394705
 30
0.0
 11
-243.7220166021585
 21
126.5494537114364
 31
0.0
  0
LINE
  5
309
  8
0
  6
CONTINUOUS
 62
     7
 10
-243.7220166021585
 20
126.5494537114364
 30
0.0
 11
-243.7453830339006
 21
126.55
 31
0.0
  0
LINE
  5
30A
  8
0
  6
CONTINUOUS
 62
     7
 10
-240.6822276155999
 20
116.55
 30
0.0
 11
-243.262420120756
 21
126.1794095225512
 31
0.0
  0
LINE
  5
30B
  8
0
  6
CONTINUOUS
 62
     7
 10
-246.3617195399111
 20
120.5499999999999
 30
0.0
 11
-246.3617195399111
 21
114.55
 31
0.0
  0
LINE
  5
30C
  8
0
  6
CONTINUOUS
 62
     7
 10
-234.8442658043296
 20
116.55
 30
0.0
 11
-240.6822276155999
 21
116.55
 31
0.0
  0
LINE
  5
30D
  8
0
  6
CONTINUOUS
 62
     7
 10
-236.8617195399111
 20
114.5500000000001
 30
0.0
 11
-234.8617195399111
 21
114.55
 31
0.0
  0
ARC
  5
30E
  8
0
  6
CONTINUOUS
 62
     7
 10
-218.9617195399111
 20
114.55
 30
0.0
 40
0.1000000000000029
 50
270.0
 51
0.0000000000000568
  0
ARC
  5
30F
  8
0
  6
CONTINUOUS
 62
     7
 10
-233.7617195399111
 20
114.55
 30
0.0
 40
0.1000000000000029
 50
180.0
 51
270.0
  0
LINE
  5
310
  8
0
  6
CONTINUOUS
 62
     7
 10
-218.9617195399111
 20
114.45
 30
0.0
 11
-233.7617195399111
 21
114.45
 31
0.0
  0
LINE
  5
311
  8
0
  6
CONTINUOUS
 62
     7
 10
-206.3612079442079
 20
120.5470985965894
 30
0.0
 11
-206.2793163515966
 21
120.4856651275642
 31
0.0
  0
LINE
  5
312
  8
0
  6
CONTINUOUS
 62
     7
 10
-206.2793163515966
 20
120.4856651275642
 30
0.0
 11
-206.0600283382724
 21
120.4384774612636
 31
0.0
  0
LINE
  5
313
  8
0
  6
CONTINUOUS
 62
     7
 10
-206.3617195399111
 20
119.55
 30
0.0
 11
-206.0538260219437
 21
119.7277624054802
 31
0.0
  0
LINE
  5
314
  8
0
  6
CONTINUOUS
 62
     7
 10
-206.3612079442079
 20
120.5470985965894
 30
0.0
 11
-206.3617195399111
 21
120.5499999999999
 31
0.0
  0
LINE
  5
315
  8
0
  6
CONTINUOUS
 62
     7
 10
-206.3617195399111
 20
114.55
 30
0.0
 11
-206.0086403739791
 21
114.55
 31
0.0
  0
LINE
  5
316
  8
0
  6
CONTINUOUS
 62
     7
 10
-206.1133627874682
 20
126.55
 30
0.0
 11
-208.2587810553392
 21
126.55
 31
0.0
  0
LINE
  5
317
  8
0
  6
CONTINUOUS
 62
     7
 10
-226.0617195399111
 20
116.55
 30
0.0
 11
-226.6617195399111
 21
116.55
 31
0.0
  0
LINE
  5
318
  8
0
  6
CONTINUOUS
 62
     7
 10
-209.2038938206866
 20
126.4960911336142
 30
0.0
 11
-243.3612490843614
 21
126.4960911336142
 31
0.0
  0
LINE
  5
319
  8
0
  6
CONTINUOUS
 62
     7
 10
-245.3057257850663
 20
126.090929775579
 30
0.0
 11
-245.2755389365388
 21
129.55
 31
0.0
  0
LINE
  5
31A
  8
0
  6
CONTINUOUS
 62
     7
 10
-243.3879001432834
 20
129.55
 30
0.0
 11
-243.3601375812731
 21
126.3687254951047
 31
0.0
  0
CIRCLE
  5
31B
  8
0
  6
CONTINUOUS
 62
     7
 10
-226.3617195399111
 20
139.55
 30
0.0
 40
2.0
  0
LINE
  5
31C
  8
0
  6
CONTINUOUS
 62
     7
 10
-248.7226528868548
 20
114.55
 30
0.0
 11
-248.4986345203518
 21
140.2199622217464
 31
0.0
  0
LINE
  5
31D
  8
0
  6
CONTINUOUS
 62
     7
 10
-247.2230526142167
 20
114.55
 30
0.0
 11
-248.7226528868548
 21
114.55
 31
0.0
  0
LINE
  5
31E
  8
0
  6
CONTINUOUS
 62
     7
 10
-204.2248045594704
 20
140.2199622217464
 30
0.0
 11
-204.0007861929674
 21
114.55
 31
0.0
  0
LINE
  5
31F
  8
0
  6
CONTINUOUS
 62
     7
 10
-204.0007861929674
 20
114.55
 30
0.0
 11
-205.5003864656055
 21
114.55
 31
0.0
  0
LINE
  5
320
  8
0
  6
CONTINUOUS
 62
     7
 10
-206.0086403739791
 20
114.55
 30
0.0
 11
-206.2322097206475
 21
140.1685096450229
 31
0.0
  0
ARC
  5
321
  8
0
  6
CONTINUOUS
 62
     7
 10
-214.2319051051608
 20
140.0986973610359
 30
0.0
 40
8.000000000000004
 50
0.4999999999997846
 51
46.32779344528055
  0
LINE
  5
322
  8
0
  6
CONTINUOUS
 62
     7
 10
-208.7076520831875
 20
145.8851149530542
 30
0.0
 11
-216.3617195399111
 21
153.1924004376894
 31
0.0
  0
ARC
  5
323
  8
0
  6
CONTINUOUS
 62
     7
 10
-226.3617195399111
 20
13.54999999999999
 30
0.0
 40
140.0
 50
85.90395624184764
 51
94.09604375815239
  0
LINE
  5
324
  8
0
  6
CONTINUOUS
 62
     7
 10
-244.0157869966347
 20
145.8851149530542
 30
0.0
 11
-236.3617195399111
 21
153.1924004376894
 31
0.0
  0
ARC
  5
325
  8
0
  6
CONTINUOUS
 62
     7
 10
-238.4915339746613
 20
140.0986973610359
 30
0.0
 40
8.000000000000004
 50
133.6722065547195
 51
179.5000000000002
  0
LINE
  5
326
  8
0
  6
CONTINUOUS
 62
     7
 10
-246.7147987058431
 20
114.55
 30
0.0
 11
-246.4912293591747
 21
140.1685096450229
 31
0.0
  0
LINE
  5
327
  8
0
  6
CONTINUOUS
 62
     7
 10
-205.5003864656055
 20
114.55
 30
0.0
 11
-206.0086403739791
 21
114.55
 31
0.0
  0
LINE
  5
328
  8
0
  6
CONTINUOUS
 62
     7
 10
-247.2230526142167
 20
114.55
 30
0.0
 11
-246.7147987058431
 21
114.55
 31
0.0
  0
ARC
  5
329
  8
0
  6
CONTINUOUS
 62
     7
 10
-214.2244237901121
 20
140.1326968667626
 30
0.0
 40
10.0
 50
0.5
 51
46.35865699540295
  0
ARC
  5
32A
  8
0
  6
CONTINUOUS
 62
     7
 10
-238.4990152897101
 20
140.1326968667626
 30
0.0
 40
10.0
 50
133.641343004597
 51
179.5
  0
LINE
  5
32B
  8
0
  6
CONTINUOUS
 62
     7
 10
-245.400434349454
 20
147.3694374978619
 30
0.0
 11
-237.2617195399111
 21
155.1310368658176
 31
0.0
  0
LINE
  5
32C
  8
0
  6
CONTINUOUS
 62
     7
 10
-237.2617195399111
 20
155.1310368658176
 30
0.0
 11
-237.2616118368105
 21
155.1310451575916
 31
0.0
  0
LINE
  5
32D
  8
0
  6
CONTINUOUS
 62
     7
 10
-237.2616118368105
 20
155.1310451575916
 30
0.0
 11
-236.6146142908695
 21
153.727750758219
 31
0.0
  0
LINE
  5
32E
  8
0
  6
CONTINUOUS
 62
     7
 10
-216.1088247889527
 20
153.727750758219
 30
0.0
 11
-215.4618272430117
 21
155.1310451575916
 31
0.0
  0
LINE
  5
32F
  8
0
  6
CONTINUOUS
 62
     7
 10
-215.4618272430117
 20
155.1310451575916
 30
0.0
 11
-215.4617195399111
 21
155.1310368658176
 31
0.0
  0
LINE
  5
330
  8
0
  6
CONTINUOUS
 62
     7
 10
-215.4617195399111
 20
155.1310368658176
 30
0.0
 11
-207.3230047303682
 21
147.3694374978619
 31
0.0
  0
ARC
  5
331
  8
0
  6
CONTINUOUS
 62
     7
 10
-226.3617195399111
 20
13.54999999999999
 30
0.0
 40
142.0
 50
85.59765675274404
 51
94.40234324725606
  0
LINE
  5
332
  8
0
  6
CONTINUOUS
 62
     7
 10
-206.3617195399111
 20
119.3713419458448
 30
0.0
 11
-206.0522747129329
 21
119.55
 31
0.0
  0
LINE
  5
333
  8
0
  6
CONTINUOUS
 62
     7
 10
-206.0086403739791
 20
114.55
 30
0.0
 11
-206.3617195399111
 21
114.903079165932
 31
0.0
  0
LINE
  5
334
  8
0
  6
CONTINUOUS
 62
     7
 10
-246.3617195399111
 20
114.903079165932
 30
0.0
 11
-246.7147987058431
 21
114.55
 31
0.0
  0
LINE
  5
335
  8
0
  6
CONTINUOUS
 62
     7
 10
-246.6711643668893
 20
119.55
 30
0.0
 11
-246.3617195399111
 21
119.3713419458448
 31
0.0
  0
ARC
  5
336
  8
0
  6
CONTINUOUS
 62
     7
 10
-202.4073003910964
 20
143.2768642342741
 30
0.0
 40
5.217576968119499
 50
252.8414942957527
 51
272.1392314289374
  0
LINE
  5
337
  8
0
  6
CONTINUOUS
 62
     7
 10
-203.9465698523491
 20
138.2915097891112
 30
0.0
 11
-204.0712323001709
 21
138.3529252674454
 31
0.0
  0
LINE
  5
338
  8
0
  6
CONTINUOUS
 62
     7
 10
-204.0712323001709
 20
138.3529252674454
 30
0.0
 11
-204.1572031200481
 21
138.4179696149726
 31
0.0
  0
LINE
  5
339
  8
0
  6
CONTINUOUS
 62
     7
 10
-204.1572031200481
 20
138.4179696149726
 30
0.0
 11
-204.209912579119
 21
138.5214553327007
 31
0.0
  0
LINE
  5
33A
  8
0
  6
CONTINUOUS
 62
     7
 10
-204.209912579119
 20
138.5214553327007
 30
0.0
 11
-204.2100164997786
 21
138.5254184236325
 31
0.0
  0
LINE
  5
33B
  8
0
  6
CONTINUOUS
 62
     7
 10
-202.2125388981719
 20
138.0629235576721
 30
0.0
 11
-202.2075322651528
 21
138.06294339353
 31
0.0
  0
LINE
  5
33C
  8
0
  6
CONTINUOUS
 62
     7
 10
-202.000710036196
 20
114.55
 30
0.0
 11
-204.0007861929674
 21
114.55
 31
0.0
  0
LINE
  5
33D
  8
0
  6
CONTINUOUS
 62
     7
 10
-147.8617195399111
 20
138.0629433935301
 30
0.0
 11
-202.2075322651528
 21
138.0629433935301
 31
0.0
  0
LINE
  5
33E
  8
0
  6
CONTINUOUS
 62
     7
 10
-147.8617195399111
 20
114.55
 30
0.0
 11
-202.000710036196
 21
114.55
 31
0.0
  0
ARC
  5
33F
  8
0
  6
CONTINUOUS
 62
     7
 10
-147.763763324843
 20
134.0307376817941
 30
0.0
 40
4.033395383771249
 50
72.7151551174061
 51
91.39163881589894
  0
LINE
  5
340
  8
0
  6
CONTINUOUS
 62
     7
 10
-146.5653515186287
 20
137.8819826057834
 30
0.0
 11
-146.457917020028
 21
137.8268592908834
 31
0.0
  0
LINE
  5
341
  8
0
  6
CONTINUOUS
 62
     7
 10
-146.457917020028
 20
137.8268592908834
 30
0.0
 11
-146.3804910211969
 21
137.7555095592697
 31
0.0
  0
LINE
  5
342
  8
0
  6
CONTINUOUS
 62
     7
 10
-146.3804910211969
 20
137.7555095592697
 30
0.0
 11
-146.3617195399111
 21
137.6975591737688
 31
0.0
  0
LINE
  5
343
  8
0
  6
CONTINUOUS
 62
     7
 10
-146.3617195399111
 20
137.6975591737688
 30
0.0
 11
-146.3617195399111
 21
114.5500000000001
 31
0.0
  0
LINE
  5
344
  8
0
  6
CONTINUOUS
 62
     7
 10
-146.3617195399111
 20
114.55
 30
0.0
 11
-147.8617195399111
 21
114.55
 31
0.0
  0
LINE
  5
345
  8
0
  6
CONTINUOUS
 62
     7
 10
-146.3617195399111
 20
154.0786566795422
 30
0.0
 11
-146.3617195399111
 21
137.6975591737688
 31
0.0
  0
LINE
  5
346
  8
0
  6
CONTINUOUS
 62
     7
 10
-215.4617195399111
 20
155.1310368658176
 30
0.0
 11
-215.3679795399211
 21
155.1237888198682
 31
0.0
  0
LINE
  5
347
  8
0
  6
CONTINUOUS
 62
     7
 10
-226.3617195399111
 20
155.55
 30
0.0
 11
-215.4617195399236
 21
156.6499999999994
 31
0.0
  0
ARC
  5
348
  8
0
  6
CONTINUOUS
 62
     7
 10
-147.8617195399111
 20
155.15
 30
0.0
 40
1.500000000000001
 50
0.0
 51
90.0
  0
LINE
  5
349
  8
0
  6
CONTINUOUS
 62
     7
 10
-146.3617195399111
 20
155.15
 30
0.0
 11
-146.3617195399111
 21
154.0786566795423
 31
0.0
  0
LINE
  5
34A
  8
0
  6
CONTINUOUS
 62
     7
 10
-147.8617195399111
 20
156.65
 30
0.0
 11
-215.4617195399236
 21
156.6499999999994
 31
0.0
  0
LINE
  5
34B
  8
0
  6
CONTINUOUS
 62
     7
 10
-215.4617195399111
 20
263.4870566064695
 30
0.0
 11
-215.9524725333559
 21
263.3316311637986
 31
0.0
  0
LINE
  5
34C
  8
0
  6
CONTINUOUS
 62
     7
 10
-226.3617195399111
 20
286.9999999999999
 30
0.0
 11
-215.4617195399236
 21
286.9999999999999
 31
0.0
  0
LINE
  5
34D
  8
0
  6
CONTINUOUS
 62
     7
 10
-215.4617195399111
 20
286.9999999999999
 30
0.0
 11
-215.4617195399111
 21
263.4870566064695
 31
0.0
  0
LINE
  5
34E
  8
0
  6
CONTINUOUS
 62
     7
 10
-147.8617195399111
 20
286.9999999999999
 30
0.0
 11
-215.4617195399236
 21
286.9999999999999
 31
0.0
  0
LINE
  5
34F
  8
0
  6
CONTINUOUS
 62
     7
 10
-147.8617195399111
 20
263.4870566064695
 30
0.0
 11
-215.4617195399111
 21
263.4870566064695
 31
0.0
  0
LINE
  5
350
  8
0
  6
CONTINUOUS
 62
     7
 10
-146.3617195399111
 20
286.9999999999999
 30
0.0
 11
-146.3617195399111
 21
263.8524408262316
 31
0.0
  0
LINE
  5
351
  8
0
  6
CONTINUOUS
 62
     7
 10
-146.3617195399111
 20
263.8524408262311
 30
0.0
 11
-146.4175330802897
 21
263.7532153951914
 31
0.0
  0
LINE
  5
352
  8
0
  6
CONTINUOUS
 62
     7
 10
-146.4175330802897
 20
263.7532153951914
 30
0.0
 11
-146.5049729868257
 21
263.6960156244065
 31
0.0
  0
ARC
  5
353
  8
0
  6
CONTINUOUS
 62
     7
 10
-147.7371979593517
 20
267.1876306360988
 30
0.0
 40
3.702668466497065
 50
268.072766538708
 51
289.4384335379935
  0
LINE
  5
354
  8
0
  6
CONTINUOUS
 62
     7
 10
-147.8617195399111
 20
286.9999999999999
 30
0.0
 11
-146.3617195399111
 21
286.9999999999999
 31
0.0
  0
LINE
  5
355
  8
0
  6
CONTINUOUS
 62
     7
 10
-146.3617195399111
 20
263.8524408262312
 30
0.0
 11
-146.3617195399111
 21
247.4713433204578
 31
0.0
  0
LINE
  5
356
  8
0
  6
CONTINUOUS
 62
     7
 10
-215.3679795399198
 20
261.6329639433431
 30
0.0
 11
-214.7849784629756
 21
263.1453555227628
 31
0.0
  0
LINE
  5
357
  8
0
  6
CONTINUOUS
 62
     7
 10
-215.4617195399111
 20
260.882587599112
 30
0.0
 11
-215.3679795399211
 21
261.6329639433431
 31
0.0
  0
LINE
  5
358
  8
0
  6
CONTINUOUS
 62
     7
 10
-237.2617195399111
 20
189.880128467858
 30
0.0
 11
-237.2616118368105
 21
189.8658090305284
 31
0.0
  0
LINE
  5
359
  8
0
  6
CONTINUOUS
 62
     7
 10
-237.2617195399111
 20
189.880128467858
 30
0.0
 11
-237.2617195399111
 21
286.9999999999999
 31
0.0
  0
LINE
  5
35A
  8
0
  6
CONTINUOUS
 62
     7
 10
-215.4617195399111
 20
189.880128467858
 30
0.0
 11
-215.4617195399111
 21
260.8825875991121
 31
0.0
  0
LINE
  5
35B
  8
0
  6
CONTINUOUS
 62
     7
 10
-215.4618272430117
 20
189.8658090305284
 30
0.0
 11
-215.4617195399111
 21
189.880128467858
 31
0.0
  0
LINE
  5
35C
  8
0
  6
CONTINUOUS
 62
     7
 10
-237.2617195399111
 20
286.9999999999999
 30
0.0
 11
-226.3617195399112
 21
286.9999999999999
 31
0.0
  0
LINE
  5
35D
  8
0
  6
CONTINUOUS
 62
     7
 10
-216.1088247889527
 20
188.3681172034329
 30
0.0
 11
-215.9847952203488
 21
188.4057314613514
 31
0.0
  0
LINE
  5
35E
  8
0
  6
CONTINUOUS
 62
     7
 10
-215.9847952203488
 20
188.4057314613514
 30
0.0
 11
-215.8965207410137
 21
188.4679969507517
 31
0.0
  0
LINE
  5
35F
  8
0
  6
CONTINUOUS
 62
     7
 10
-215.8965207410137
 20
188.4679969507517
 30
0.0
 11
-215.8114971381667
 21
188.5593693773653
 31
0.0
  0
LINE
  5
360
  8
0
  6
CONTINUOUS
 62
     7
 10
-215.8114971381667
 20
188.5593693773653
 30
0.0
 11
-215.7336163719305
 21
188.6755400497394
 31
0.0
  0
ARC
  5
361
  8
0
  6
CONTINUOUS
 62
     7
 10
-218.0835869123835
 20
189.8383034730712
 30
0.0
 40
2.621903949353562
 50
333.6738338585889
 51
0.6010827604930569
  0
ARC
  5
362
  8
0
  6
CONTINUOUS
 62
     7
 10
-234.7407740057805
 20
189.8216396336686
 30
0.0
 40
2.521224763080619
 50
178.9961825173982
 51
208.0665155796182
  0
LINE
  5
363
  8
0
  6
CONTINUOUS
 62
     7
 10
-236.9655077312917
 20
188.6354127765522
 30
0.0
 11
-236.8841324760409
 21
188.5258099197704
 31
0.0
  0
LINE
  5
364
  8
0
  6
CONTINUOUS
 62
     7
 10
-236.8841324760409
 20
188.5258099197704
 30
0.0
 11
-236.7976968414265
 21
188.4438960241971
 31
0.0
  0
LINE
  5
365
  8
0
  6
CONTINUOUS
 62
     7
 10
-236.7976968414265
 20
188.4438960241971
 30
0.0
 11
-236.7088208291597
 21
188.3915570588259
 31
0.0
  0
LINE
  5
366
  8
0
  6
CONTINUOUS
 62
     7
 10
-236.7088208291597
 20
188.3915570588259
 30
0.0
 11
-236.6146142908695
 21
188.3681172034329
 31
0.0
  0
LINE
  5
367
  8
0
  6
CONTINUOUS
 62
     7
 10
-237.2617195399111
 20
286.9999999999999
 30
0.0
 11
-245.400434349454
 21
286.9999999999999
 31
0.0
  0
LINE
  5
368
  8
0
  6
CONTINUOUS
 62
     7
 10
-206.0086403739791
 20
187.0
 30
0.0
 11
-206.2322097206475
 21
187.894618070036
 31
0.0
  0
LINE
  5
369
  8
0
  6
CONTINUOUS
 62
     7
 10
-206.2322097206475
 20
187.894618070036
 30
0.0
 11
-206.4054767215698
 21
187.9500583182077
 31
0.0
  0
LINE
  5
36A
  8
0
  6
CONTINUOUS
 62
     7
 10
-206.4054767215698
 20
187.9500583182077
 30
0.0
 11
-206.8906389209606
 21
188.0031920332823
 31
0.0
  0
LINE
  5
36B
  8
0
  6
CONTINUOUS
 62
     7
 10
-206.8906389209606
 20
188.0031920332823
 30
0.0
 11
-207.6683618595939
 21
188.0519017550602
 31
0.0
  0
LINE
  5
36C
  8
0
  6
CONTINUOUS
 62
     7
 10
-207.6683618595939
 20
188.0519017550602
 30
0.0
 11
-208.7076520831875
 21
188.094246326273
 31
0.0
  0
LINE
  5
36D
  8
0
  6
CONTINUOUS
 62
     7
 10
-208.7076520831875
 20
188.094246326273
 30
0.0
 11
-216.3617195399111
 21
188.3494223582923
 31
0.0
  0
LINE
  5
36E
  8
0
  6
CONTINUOUS
 62
     7
 10
-216.3617195399111
 20
188.3494223582923
 30
0.0
 11
-236.3617195399111
 21
188.3494223582923
 31
0.0
  0
LINE
  5
36F
  8
0
  6
CONTINUOUS
 62
     7
 10
-244.0157869966347
 20
188.094246326273
 30
0.0
 11
-236.3617195399111
 21
188.3494223582923
 31
0.0
  0
LINE
  5
370
  8
0
  6
CONTINUOUS
 62
     7
 10
-244.0157869966346
 20
188.094246326273
 30
0.0
 11
-245.0550772202283
 21
188.0519017550602
 31
0.0
  0
LINE
  5
371
  8
0
  6
CONTINUOUS
 62
     7
 10
-245.0550772202283
 20
188.0519017550602
 30
0.0
 11
-245.8328001588615
 21
188.0031920332823
 31
0.0
  0
LINE
  5
372
  8
0
  6
CONTINUOUS
 62
     7
 10
-245.8328001588615
 20
188.0031920332823
 30
0.0
 11
-246.3179623582524
 21
187.9500583182077
 31
0.0
  0
LINE
  5
373
  8
0
  6
CONTINUOUS
 62
     7
 10
-246.3179623582524
 20
187.9500583182077
 30
0.0
 11
-246.4912293591747
 21
187.894618070036
 31
0.0
  0
LINE
  5
374
  8
0
  6
CONTINUOUS
 62
     7
 10
-246.7147987058431
 20
187.0
 30
0.0
 11
-246.4912293591747
 21
187.894618070036
 31
0.0
  0
LINE
  5
375
  8
0
  6
CONTINUOUS
 62
     7
 10
-247.2230526142167
 20
187.0
 30
0.0
 11
-246.7147987058431
 21
187.0
 31
0.0
  0
LINE
  5
376
  8
0
  6
CONTINUOUS
 62
     7
 10
-205.5003864656055
 20
187.0
 30
0.0
 11
-206.0086403739791
 21
187.0
 31
0.0
  0
LINE
  5
377
  8
0
  6
CONTINUOUS
 62
     7
 10
-245.400434349454
 20
286.9999999999999
 30
0.0
 11
-248.4986345203518
 21
286.9999999999999
 31
0.0
  0
LINE
  5
378
  8
0
  6
CONTINUOUS
 62
     7
 10
-248.7226528868548
 20
188.5004572104463
 30
0.0
 11
-248.6938408496488
 21
188.2077081870456
 31
0.0
  0
LINE
  5
379
  8
0
  6
CONTINUOUS
 62
     7
 10
-248.6938408496488
 20
188.2077081870456
 30
0.0
 11
-248.6085115405361
 21
187.9262225559656
 31
0.0
  0
LINE
  5
37A
  8
0
  6
CONTINUOUS
 62
     7
 10
-248.6085115405361
 20
187.9262225559656
 30
0.0
 11
-248.4699428496719
 21
187.6668134714264
 31
0.0
  0
LINE
  5
37B
  8
0
  6
CONTINUOUS
 62
     7
 10
-248.4699428496719
 20
187.6668134714264
 30
0.0
 11
-248.283457836065
 21
187.4394460262338
 31
0.0
  0
LINE
  5
37C
  8
0
  6
CONTINUOUS
 62
     7
 10
-248.283457836065
 20
187.4394460262338
 30
0.0
 11
-248.0562202444655
 21
187.2528544468561
 31
0.0
  0
LINE
  5
37D
  8
0
  6
CONTINUOUS
 62
     7
 10
-248.0562202444655
 20
187.2528544468561
 30
0.0
 11
-247.7969593130697
 21
187.1142065717237
 31
0.0
  0
LINE
  5
37E
  8
0
  6
CONTINUOUS
 62
     7
 10
-247.7969593130697
 20
187.1142065717237
 30
0.0
 11
-247.5156344434417
 21
187.0288285016762
 31
0.0
  0
LINE
  5
37F
  8
0
  6
CONTINUOUS
 62
     7
 10
-247.5156344434417
 20
187.0288285016762
 30
0.0
 11
-247.2230526142167
 21
187.0
 31
0.0
  0
LINE
  5
380
  8
0
  6
CONTINUOUS
 62
     7
 10
-205.5003864656055
 20
187.0
 30
0.0
 11
-205.2078046363805
 21
187.0288285016762
 31
0.0
  0
LINE
  5
381
  8
0
  6
CONTINUOUS
 62
     7
 10
-205.2078046363805
 20
187.0288285016762
 30
0.0
 11
-204.9264797667525
 21
187.1142065717237
 31
0.0
  0
LINE
  5
382
  8
0
  6
CONTINUOUS
 62
     7
 10
-204.9264797667525
 20
187.1142065717237
 30
0.0
 11
-204.6672188353567
 21
187.2528544468561
 31
0.0
  0
LINE
  5
383
  8
0
  6
CONTINUOUS
 62
     7
 10
-204.6672188353567
 20
187.2528544468561
 30
0.0
 11
-204.4399812437572
 21
187.4394460262338
 31
0.0
  0
LINE
  5
384
  8
0
  6
CONTINUOUS
 62
     7
 10
-204.4399812437572
 20
187.4394460262338
 30
0.0
 11
-204.2534962301503
 21
187.6668134714264
 31
0.0
  0
LINE
  5
385
  8
0
  6
CONTINUOUS
 62
     7
 10
-204.2534962301503
 20
187.6668134714264
 30
0.0
 11
-204.1149275392861
 21
187.9262225559657
 31
0.0
  0
LINE
  5
386
  8
0
  6
CONTINUOUS
 62
     7
 10
-204.1149275392861
 20
187.9262225559657
 30
0.0
 11
-204.0295982301734
 21
188.2077081870456
 31
0.0
  0
LINE
  5
387
  8
0
  6
CONTINUOUS
 62
     7
 10
-204.0295982301734
 20
188.2077081870456
 30
0.0
 11
-204.0007861929674
 21
188.5004572104463
 31
0.0
  0
LINE
  5
388
  8
0
  6
CONTINUOUS
 62
     7
 10
-248.7226528868548
 20
188.5004572104463
 30
0.0
 11
-248.7226528868548
 21
284.8786796564404
 31
0.0
  0
LINE
  5
389
  8
0
  6
CONTINUOUS
 62
     7
 10
-248.7041404046747
 20
287.0
 30
0.0
 11
-248.7226528868548
 21
284.8786796564405
 31
0.0
  0
LINE
  5
38A
  8
0
  6
CONTINUOUS
 62
     7
 10
-248.4986345203518
 20
286.9999999999999
 30
0.0
 11
-248.7041404046747
 21
287.0
 31
0.0
  0
LINE
  5
38B
  8
0
  6
CONTINUOUS
 62
     7
 10
-204.0007861929674
 20
188.5004572104463
 30
0.0
 11
-204.0007861929674
 21
242.9000005993894
 31
0.0
  0
LINE
  5
38C
  8
0
  6
CONTINUOUS
 62
     7
 10
-202.0160416462085
 20
244.9060255604003
 30
0.0
 11
-202.000710036196
 21
244.8999999999999
 31
0.0
  0
ARC
  5
38D
  8
0
  6
CONTINUOUS
 62
     7
 10
-202.0007424334175
 20
242.8999517869096
 30
0.0
 40
2.000043760145613
 50
101.8984798446721
 51
179.998601656057
  0
ARC
  5
38E
  8
0
  6
CONTINUOUS
 62
     7
 10
-147.8617195399111
 20
246.4
 30
0.0
 40
1.500000000000001
 50
270.0
 51
0.0
  0
LINE
  5
38F
  8
0
  6
CONTINUOUS
 62
     7
 10
-146.3617195399111
 20
247.4713433204577
 30
0.0
 11
-146.3617195399111
 21
246.4
 31
0.0
  0
LINE
  5
390
  8
0
  6
CONTINUOUS
 62
     7
 10
-147.8617195399111
 20
244.9
 30
0.0
 11
-202.000710036196
 21
244.9
 31
0.0
  0
LINE
  5
391
  8
0
  6
CONTINUOUS
 62
     7
 10
-202.4130727400211
 20
244.8570309212099
 30
0.0
 11
-202.0181273457094
 21
244.9077765248502
 31
0.0
  0
POINT
  5
392
  8
0
 62
     7
 10
-84.30000000000003
 20
286.25
 30
0.0
  0
ARC
  5
393
  8
0
  6
CONTINUOUS
 62
     7
 10
-214.2617195399111
 20
140.1271609965493
 30
0.0
 40
3.999999999999991
 50
0.0
 51
46.32779344528069
  0
LINE
  5
394
  8
0
  6
CONTINUOUS
 62
     7
 10
-123.421967215212
 20
278.9999999999999
 30
0.0
 11
-119.4198842884179
 21
278.9999999999998
 31
0.0
  0
ARC
  5
395
  8
0
  6
CONTINUOUS
 62
     7
 10
-214.2319051051608
 20
140.0986973610359
 30
0.0
 40
8.000000000000004
 50
4.94812766902008
 51
46.32779344528077
  0
LINE
  5
396
  8
0
  6
CONTINUOUS
 62
     7
 10
-98.55000000000004
 20
251.4577429443153
 30
0.0
 11
-98.55000000000004
 21
247.4504057306444
 31
0.0
  0
ARC
  5
397
  8
0
  6
CONTINUOUS
 62
     7
 10
-238.4617195399111
 20
140.1271609965493
 30
0.0
 40
4.000000000000004
 50
133.6722065547195
 51
180.0
  0
LINE
  5
398
  8
0
  6
CONTINUOUS
 62
     7
 10
-218.0743705412215
 20
149.2972646007053
 30
0.0
 11
-211.4995930289245
 21
143.0203697925585
 31
0.0
  0
LINE
  5
399
  8
0
  6
CONTINUOUS
 62
     7
 10
-206.2617195399111
 20
129.55
 30
0.0
 11
-206.2617195399111
 21
140.7887278353517
 31
0.0
  0
ARC
  5
39A
  8
0
  6
CONTINUOUS
 62
     7
 10
-83.55000000000003
 20
496.9999999999999
 30
0.0
 40
245.9999999999999
 50
264.8707361111012
 51
266.5041863676101
  0
ARC
  5
39B
  8
0
  6
CONTINUOUS
 62
     7
 10
126.4499999999998
 20
286.9999999999999
 30
0.0
 40
245.9999999999998
 50
181.8636059637961
 51
185.129263888899
  0
LINE
  5
39C
  8
0
  6
CENTER
 62
     1
 10
-226.3617195399111
 20
135.55
 30
0.0
 11
-226.3617195399111
 21
143.55
 31
0.0
  0
LINE
  5
39D
  8
0
  6
CONTINUOUS
 62
     7
 10
-208.7076520831875
 20
145.8851149530542
 30
0.0
 11
-216.3617195399111
 21
153.1924004376894
 31
0.0
  0
ARC
  5
39E
  8
0
  6
CONTINUOUS
 62
     7
 10
-238.4915339746613
 20
140.0986973610359
 30
0.0
 40
8.000000000000004
 50
133.6722065547194
 51
184.9481276690179
  0
ARC
  5
39F
  8
0
  6
CONTINUOUS
 62
     7
 10
-94.86075385462235
 20
275.6892461453777
 30
0.0
 40
25.99999999999998
 50
204.2589370559128
 51
245.7410629440883
  0
LINE
  5
3A0
  8
0
  6
CONTINUOUS
 62
     7
 10
-236.3617195399111
 20
153.1924004376894
 30
0.0
 11
-244.0157869966347
 21
145.8851149530542
 31
0.0
  0
LINE
  5
3A1
  8
0
  6
CONTINUOUS
 62
     7
 10
-241.2238460508978
 20
143.0203697925585
 30
0.0
 11
-234.6490685386007
 21
149.2972646007054
 31
0.0
  0
LINE
  5
3A2
  8
0
  6
CONTINUOUS
 62
     7
 10
-246.4617195399111
 20
129.55
 30
0.0
 11
-242.4617195399111
 21
129.55
 31
0.0
  0
ARC
  5
3A3
  8
0
  6
CONTINUOUS
 62
     7
 10
-83.55
 20
497.0
 30
0.0
 40
250.0
 50
264.7213238966788
 51
266.5601872324848
  0
ARC
  5
3A4
  8
0
  6
CONTINUOUS
 62
     7
 10
126.4499999999998
 20
286.9999999999999
 30
0.0
 40
249.9999999999997
 50
181.8337780000466
 51
185.2786761033211
  0
ARC
  5
3A5
  8
0
  6
CONTINUOUS
 62
     7
 10
-226.3617195399111
 20
13.54999999999999
 30
0.0
 40
136.0
 50
86.50643769796409
 51
93.49356230203591
  0
LINE
  5
3A6
  8
0
  6
CONTINUOUS
 62
     7
 10
-246.4617195399111
 20
139.4086668867204
 30
0.0
 11
-246.4617195399111
 21
129.55
 31
0.0
  0
LINE
  5
3A7
  8
0
  6
CONTINUOUS
 62
     7
 10
-210.2617195399111
 20
140.1271609965493
 30
0.0
 11
-210.2617195399111
 21
129.55
 31
0.0
  0
LINE
  5
3A8
  8
0
  6
CENTER
 62
     1
 10
-226.3617195399111
 20
135.55
 30
0.0
 11
-226.3617195399111
 21
143.55
 31
0.0
  0
ARC
  5
3A9
  8
0
  6
CONTINUOUS
 62
     7
 10
-226.3617195399111
 20
13.54999999999999
 30
0.0
 40
140.0
 50
85.90395624184768
 51
94.09604375815232
  0
ARC
  5
3AA
  8
0
  6
CONTINUOUS
 62
     7
 10
-94.86075385462235
 20
275.6892461453777
 30
0.0
 40
29.99999999999996
 50
202.9321967018486
 51
247.0678032981507
  0
LINE
  5
3AB
  8
0
  6
CENTER
 62
     1
 10
-128.65
 20
241.9
 30
0.0
 11
-80.54999999999994
 21
290.0000000000001
 31
0.0
  0
LINE
  5
3AC
  8
0
  6
CONTINUOUS
 62
     7
 10
-242.4617195399111
 20
129.55
 30
0.0
 11
-242.4617195399111
 21
140.1271609965493
 31
0.0
  0
LINE
  5
3AD
  8
0
  6
CONTINUOUS
 62
     7
 10
-210.2617195399111
 20
129.55
 30
0.0
 11
-206.2617195399111
 21
129.55
 31
0.0
  0
ENDSEC
  0
EOF
