  0
SECTION
  2
HEADER
  9
$ACADVER
  1
AC1006
  9
$DWGCODEPAGE
  3
ansi_932
  9
$INSBASE
 10
0.0
 20
0.0
 30
0.0
  9
$EXTMIN
 10
-271.5000000000001
 20
141.355692759785
  9
$EXTMAX
 10
-113.5
 20
333.5000000000001
  9
$LIMMIN
 10
0.0
 20
0.0
  9
$LIMMAX
 10
12.0
 20
9.0
  9
$ORTHOMODE
 70
     0
  9
$REGENMODE
 70
     1
  9
$FILLMODE
 70
     1
  9
$QTEXTMODE
 70
     0
  9
$MIRRTEXT
 70
     1
  9
$DRAGMODE
 70
     2
  9
$LTSCALE
 40
1.0
  9
$OSMODE
 70
    37
  9
$ATTMODE
 70
     1
  9
$TEXTSIZE
 40
0.2
  9
$TRACEWID
 40
0.05
  9
$TEXTSTYLE
  7
STANDARD
  9
$CLAYER
  8
0
  9
$CELTYPE
  6
BYLAYER
  9
$CECOLOR
 62
   256
  9
$DIMSCALE
 40
1.0
  9
$DIMASZ
 40
3.0
  9
$DIMEXO
 40
0.0625
  9
$DIMDLI
 40
0.38
  9
$DIMRND
 40
0.0
  9
$DIMDLE
 40
0.0
  9
$DIMEXE
 40
1.5
  9
$DIMTP
 40
0.0
  9
$DIMTM
 40
0.0
  9
$DIMTXT
 40
3.0
  9
$DIMCEN
 40
0.09
  9
$DIMTSZ
 40
0.0
  9
$DIMTOL
 70
     0
  9
$DIMLIM
 70
     0
  9
$DIMTIH
 70
     1
  9
$DIMTOH
 70
     1
  9
$DIMSE1
 70
     0
  9
$DIMSE2
 70
     0
  9
$DIMTAD
 70
     1
  9
$DIMZIN
 70
     0
  9
$DIMBLK
  1

  9
$DIMASO
 70
     1
  9
$DIMSHO
 70
     1
  9
$DIMPOST
  1

  9
$DIMAPOST
  1

  9
$DIMALT
 70
     0
  9
$DIMALTD
 70
     2
  9
$DIMALTF
 40
25.4
  9
$DIMLFAC
 40
1.0
  9
$DIMTOFL
 70
     0
  9
$DIMTVP
 40
0.0
  9
$DIMTIX
 70
     0
  9
$DIMSOXD
 70
     0
  9
$DIMSAH
 70
     0
  9
$DIMBLK1
  1

  9
$DIMBLK2
  1

  9
$LUNITS
 70
     2
  9
$LUPREC
 70
     4
  9
$SKETCHINC
 40
0.1
  9
$FILLETRAD
 40
0.5
  9
$AUNITS
 70
     0
  9
$AUPREC
 70
     0
  9
$MENU
  1
.
  9
$ELEVATION
 40
0.0
  9
$THICKNESS
 40
0.0
  9
$LIMCHECK
 70
     0
  9
$CHAMFERA
 40
0.0
  9
$CHAMFERB
 40
0.0
  9
$SKPOLY
 70
     0
  9
$TDCREATE
 40
2460427.606805625
  9
$TDUPDATE
 40
2460427.606805868
  9
$TDINDWG
 40
0.0000000116
  9
$TDUSRTIMER
 40
0.0000000116
  9
$USRTIMER
 70
     1
  9
$ANGBASE
 50
0.0
  9
$ANGDIR
 70
     0
  9
$PDMODE
 70
     0
  9
$PDSIZE
 40
0.0
  9
$PLINEWID
 40
0.0
  9
$COORDS
 70
     1
  9
$SPLFRAME
 70
     0
  9
$SPLINETYPE
 70
     6
  9
$SPLINESEGS
 70
     8
  9
$ATTDIA
 70
     0
  9
$ATTREQ
 70
     1
  9
$HANDLING
 70
     1
  9
$HANDSEED
  5
3D1
  9
$SURFTAB1
 70
     6
  9
$SURFTAB2
 70
     6
  9
$SURFTYPE
 70
     6
  9
$SURFU
 70
     6
  9
$SURFV
 70
     6
  9
$UCSNAME
  2

  9
$UCSORG
 10
0.0
 20
0.0
 30
0.0
  9
$UCSXDIR
 10
1.0
 20
0.0
 30
0.0
  9
$UCSYDIR
 10
0.0
 20
1.0
 30
0.0
  9
$USERI1
 70
     0
  9
$USERI2
 70
     0
  9
$USERI3
 70
     0
  9
$USERI4
 70
     0
  9
$USERI5
 70
     0
  9
$USERR1
 40
0.0
  9
$USERR2
 40
0.0
  9
$USERR3
 40
0.0
  9
$USERR4
 40
0.0
  9
$USERR5
 40
0.0
  9
$WORLDVIEW
 70
     1
  0
ENDSEC
  0
SECTION
  2
TABLES
  0
TABLE
  2
VPORT
 70
     1
  0
VPORT
  2
*ACTIVE
 70
     0
 10
0.0
 20
0.0
 11
1.0
 21
1.0
 12
-192.5000000000001
 22
237.4278463798925
 13
0.0
 23
0.0
 14
0.5
 24
0.5
 15
0.5
 25
0.5
 16
0.0
 26
0.0
 36
1.0
 17
0.0
 27
0.0
 37
0.0
 40
192.1443072402151
 41
1.6
 42
50.0
 43
0.0
 44
0.0
 50
0.0
 51
0.0
 71
     0
 72
   100
 73
     1
 74
     3
 75
     0
 76
     0
 77
     0
 78
     0
  0
ENDTAB
  0
TABLE
  2
LTYPE
 70
     2
  0
LTYPE
  2
CONTINUOUS
 70
     0
  3
Solid line
 72
    65
 73
     0
 40
0.0
  0
LTYPE
  2
CENTER
 70
     0
  3

 72
    65
 73
     0
 40
0.0
  0
ENDTAB
  0
TABLE
  2
LAYER
 70
     1
  0
LAYER
  2
0
 70
     0
 62
     7
  6
CONTINUOUS
  0
ENDTAB
  0
TABLE
  2
STYLE
 70
     2
  0
STYLE
  2
STANDARD
 70
     0
 40
0.0
 41
1.0
 50
0.0
 71
     0
 42
0.2
  3
txt
  4

  0
STYLE
  2
ＭＳ_ゴシック
 70
     0
 40
0.0
 41
1.0
 50
0.0
 71
     0
 42
0.2
  3
ＭＳ ゴシック.shx
  4

  0
ENDTAB
  0
TABLE
  2
VIEW
 70
     0
  0
ENDTAB
  0
TABLE
  2
UCS
 70
     0
  0
ENDTAB
  0
ENDSEC
  0
SECTION
  2
BLOCKS
  0
ENDSEC
  0
SECTION
  2
ENTITIES
  0
TEXT
  5
6F
  8
0
  6
CONTINUOUS
 62
     7
 10
-171.4518444416656
 20
141.0136582468426
 30
0.0
 40
3.0
  1
RMGMR-20
  0
LINE
  5
70
  8
0
  6
CENTER
 62
     1
 10
-138.6382804600889
 20
151.0
 30
0.0
 11
-138.6382804600889
 21
211.0
 31
0.0
  0
LINE
  5
72
  8
0
  6
CENTER
 62
     1
 10
-165.0
 20
189.5
 30
0.0
 11
-113.5
 21
189.5
 31
0.0
  0
ARC
  5
73
  8
0
  6
CONTINUOUS
 62
     7
 10
-478.4999999999998
 20
330.5
 30
0.0
 40
249.9999999999997
 50
354.7213238966788
 51
358.1662219999533
  0
ARC
  5
74
  8
0
  6
CONTINUOUS
 62
     7
 10
-138.6382804600889
 20
63.5
 30
0.0
 40
140.0
 50
85.90395624184764
 51
94.09604375815233
  0
LINE
  5
75
  8
0
  6
CONTINUOUS
 62
     7
 10
-148.6382804600889
 20
203.1424004376894
 30
0.0
 11
-156.2625334820622
 21
195.8635785885675
 31
0.0
  0
LINE
  5
76
  8
0
  6
CONTINUOUS
 62
     7
 10
-158.7382804600889
 20
179.5
 30
0.0
 11
-154.7382804600889
 21
179.5
 31
0.0
  0
ARC
  5
77
  8
0
  6
CONTINUOUS
 62
     7
 10
-126.5382804600889
 20
190.0771609965493
 30
0.0
 40
4.00000000000002
 50
0.0
 51
46.32779344528058
  0
LINE
  5
78
  8
0
  6
CONTINUOUS
 62
     7
 10
-153.5004069710756
 20
192.9703697925584
 30
0.0
 11
-146.9256294587784
 21
199.2472646007054
 31
0.0
  0
LINE
  5
79
  8
0
  6
CONTINUOUS
 62
     7
 10
-232.6301157115821
 20
322.4999999999998
 30
0.0
 11
-228.628032784788
 21
322.5
 31
0.0
  0
ARC
  5
7A
  8
0
  6
CONTINUOUS
 62
     7
 10
-478.4999999999998
 20
330.5
 30
0.0
 40
245.9999999999998
 50
354.8707361111012
 51
358.1363940362039
  0
LINE
  5
7B
  8
0
  6
CONTINUOUS
 62
     7
 10
-253.4999999999999
 20
290.9504057306444
 30
0.0
 11
-253.4999999999999
 21
294.9577429443153
 31
0.0
  0
ARC
  5
7C
  8
0
  6
CONTINUOUS
 62
     7
 10
-257.1892461453777
 20
319.1892461453777
 30
0.0
 40
29.99999999999996
 50
292.9321967018483
 51
337.0678032981505
  0
ARC
  5
7D
  8
0
  6
CONTINUOUS
 62
     7
 10
-257.1892461453777
 20
319.1892461453777
 30
0.0
 40
25.99999999999995
 50
294.2589370559133
 51
335.7410629440885
  0
LINE
  5
7E
  8
0
  6
CENTER
 62
     1
 10
-271.5000000000001
 20
333.5000000000001
 30
0.0
 11
-223.4
 21
285.4
 31
0.0
  0
ARC
  5
7F
  8
0
  6
CONTINUOUS
 62
     7
 10
-268.5
 20
540.5
 30
0.0
 40
250.0
 50
273.4398127675153
 51
275.2786761033211
  0
ARC
  5
80
  8
0
  6
CONTINUOUS
 62
     7
 10
-150.7382804600889
 20
190.0771609965493
 30
0.0
 40
4.000000000000004
 50
133.6722065547195
 51
180.0
  0
LINE
  5
81
  8
0
  6
CONTINUOUS
 62
     7
 10
-130.3509314613994
 20
199.2472646007054
 30
0.0
 11
-123.7761539491023
 21
192.9703697925584
 31
0.0
  0
ARC
  5
82
  8
0
  6
CONTINUOUS
 62
     7
 10
-268.5
 20
540.5
 30
0.0
 40
245.9999999999999
 50
273.4958136323898
 51
275.1292638888989
  0
LINE
  5
83
  8
0
  6
CONTINUOUS
 62
     7
 10
-122.5382804600889
 20
190.0771609965493
 30
0.0
 11
-122.5382804600889
 21
179.5
 31
0.0
  0
LINE
  5
84
  8
0
  6
CONTINUOUS
 62
     7
 10
-122.5382804600889
 20
179.5
 30
0.0
 11
-118.5382804600889
 21
179.5
 31
0.0
  0
LINE
  5
85
  8
0
  6
CONTINUOUS
 62
     7
 10
-118.5382804600889
 20
179.5
 30
0.0
 11
-118.5382804600889
 21
190.7387278353517
 31
0.0
  0
ARC
  5
86
  8
0
  6
CONTINUOUS
 62
     7
 10
-150.7382804600889
 20
190.0771609965493
 30
0.0
 40
8.000000000000021
 50
133.6722065547194
 51
180.0
  0
ARC
  5
87
  8
0
  6
CONTINUOUS
 62
     7
 10
-126.5084660253387
 20
190.0486973610359
 30
0.0
 40
8.000000000000004
 50
4.94812766902008
 51
46.32779344528063
  0
ARC
  5
88
  8
0
  6
CONTINUOUS
 62
     7
 10
-138.6382804600889
 20
63.5
 30
0.0
 40
136.0
 50
86.50643769796409
 51
93.49356230203591
  0
LINE
  5
89
  8
0
  6
CONTINUOUS
 62
     7
 10
-120.9842130033653
 20
195.8351149530542
 30
0.0
 11
-128.6382804600889
 21
203.1424004376894
 31
0.0
  0
LINE
  5
8A
  8
0
  6
CONTINUOUS
 62
     7
 10
-158.7382804600889
 20
190.0771609965493
 30
0.0
 11
-158.7382804600889
 21
179.5
 31
0.0
  0
LINE
  5
8B
  8
0
  6
CENTER
 62
     1
 10
-138.6382804600889
 20
185.5
 30
0.0
 11
-138.6382804600889
 21
193.5
 31
0.0
  0
LINE
  5
8C
  8
0
  6
CONTINUOUS
 62
     7
 10
-154.7382804600889
 20
179.5
 30
0.0
 11
-154.7382804600889
 21
190.0771609965493
 31
0.0
  0
ARC
  5
8D
  8
0
  6
CONTINUOUS
 62
     7
 10
-126.5382804600889
 20
190.0771609965493
 30
0.0
 40
8.000000000000007
 50
359.9999999999998
 51
46.32779344528063
  0
LINE
  5
8E
  8
0
  6
CONTINUOUS
 62
   253
 10
-118.5382804600889
 20
179.5
 30
0.0
 11
-118.5382804600889
 21
190.0771609965493
 31
0.0
  0
LINE
  5
8F
  8
0
  6
CONTINUOUS
 62
   253
 10
-122.5382804600889
 20
179.5
 30
0.0
 11
-118.5382804600889
 21
179.5
 31
0.0
  0
LINE
  5
90
  8
0
  6
CONTINUOUS
 62
   253
 10
-153.5004069710756
 20
192.9703697925584
 30
0.0
 11
-146.9256294587785
 21
199.2472646007053
 31
0.0
  0
LINE
  5
91
  8
0
  6
CONTINUOUS
 62
   253
 10
-154.7382804600889
 20
179.5
 30
0.0
 11
-154.7382804600889
 21
190.0771609965493
 31
0.0
  0
LINE
  5
92
  8
0
  6
CONTINUOUS
 62
   253
 10
-158.7382804600889
 20
179.5
 30
0.0
 11
-154.7382804600889
 21
179.5
 31
0.0
  0
ARC
  5
93
  8
0
  6
CONTINUOUS
 62
   253
 10
-150.7382804600889
 20
190.0771609965493
 30
0.0
 40
8.000000000000021
 50
133.6722065547194
 51
180.0
  0
LINE
  5
94
  8
0
  6
CONTINUOUS
 62
   253
 10
-122.5382804600889
 20
190.0771609965493
 30
0.0
 11
-122.5382804600889
 21
179.5
 31
0.0
  0
LINE
  5
95
  8
0
  6
CONTINUOUS
 62
   253
 10
-158.7382804600889
 20
190.0771609965493
 30
0.0
 11
-158.7382804600889
 21
179.5
 31
0.0
  0
ARC
  5
96
  8
0
  6
CONTINUOUS
 62
   253
 10
-150.7382804600889
 20
190.0771609965493
 30
0.0
 40
4.000000000000004
 50
133.6722065547194
 51
180.0
  0
ARC
  5
97
  8
0
  6
CONTINUOUS
 62
   253
 10
-126.5382804600889
 20
190.0771609965493
 30
0.0
 40
4.00000000000002
 50
0.0
 51
46.32779344528069
  0
ARC
  5
98
  8
0
  6
CONTINUOUS
 62
   253
 10
-138.6382804600889
 20
63.5
 30
0.0
 40
136.0
 50
86.50643769796409
 51
93.49356230203591
  0
LINE
  5
99
  8
0
  6
CONTINUOUS
 62
   253
 10
-130.3509314613993
 20
199.2472646007053
 30
0.0
 11
-123.7761539491022
 21
192.9703697925584
 31
0.0
  0
LINE
  5
9A
  8
0
  6
CONTINUOUS
 62
     7
 10
-147.1382804600889
 20
164.5
 30
0.0
 11
-147.1208267245074
 21
166.5
 31
0.0
  0
LINE
  5
9B
  8
0
  6
CONTINUOUS
 62
     7
 10
-147.1208267245074
 20
166.5
 30
0.0
 11
-146.1208648014432
 21
166.5
 31
0.0
  0
LINE
  5
9C
  8
0
  6
CONTINUOUS
 62
     7
 10
-146.1383185370247
 20
164.5
 30
0.0
 11
-147.1382804600889
 21
164.5
 31
0.0
  0
LINE
  5
9D
  8
0
  6
CONTINUOUS
 62
     7
 10
-146.1208648014432
 20
166.5
 30
0.0
 11
-138.9382804600889
 21
166.5
 31
0.0
  0
LINE
  5
9E
  8
0
  6
CONTINUOUS
 62
     7
 10
-138.9382804600889
 20
166.5
 30
0.0
 11
-138.6382804600889
 21
166.2
 31
0.0
  0
LINE
  5
9F
  8
0
  6
CONTINUOUS
 62
     7
 10
-138.6382804600889
 20
166.2
 30
0.0
 11
-138.3382804600889
 21
166.5
 31
0.0
  0
LINE
  5
A0
  8
0
  6
CONTINUOUS
 62
     7
 10
-138.3382804600889
 20
166.5
 30
0.0
 11
-131.1556961187346
 21
166.5
 31
0.0
  0
LINE
  5
A1
  8
0
  6
CONTINUOUS
 62
     7
 10
-131.1382423831531
 20
164.5
 30
0.0
 11
-146.1383185370247
 21
164.5
 31
0.0
  0
LINE
  5
A2
  8
0
  6
CONTINUOUS
 62
     7
 10
-130.1557341956704
 20
166.5
 30
0.0
 11
-130.1382804600889
 21
164.5
 31
0.0
  0
LINE
  5
A3
  8
0
  6
CONTINUOUS
 62
     7
 10
-131.1556961187346
 20
166.5
 30
0.0
 11
-130.1557341956704
 21
166.5
 31
0.0
  0
LINE
  5
A4
  8
0
  6
CONTINUOUS
 62
     7
 10
-130.1382804600889
 20
164.5
 30
0.0
 11
-131.1382423831531
 21
164.5
 31
0.0
  0
ARC
  5
A5
  8
0
  6
CONTINUOUS
 62
     7
 10
-120.535341975517
 20
175.5
 30
0.0
 40
1.0
 50
9.999999999999428
 51
89.99999999999999
  0
LINE
  5
A6
  8
0
  6
CONTINUOUS
 62
     7
 10
-119.5505342225048
 20
175.6736481776669
 30
0.0
 11
-118.6382804600889
 21
170.4999999999999
 31
0.0
  0
LINE
  5
A7
  8
0
  6
CONTINUOUS
 62
     7
 10
-118.6382804600889
 20
170.4999999999999
 30
0.0
 11
-118.6382804600889
 21
164.5
 31
0.0
  0
LINE
  5
A8
  8
0
  6
CONTINUOUS
 62
     7
 10
-126.1382804600889
 20
165.3
 30
0.0
 11
-126.1382804600889
 21
164.5
 31
0.0
  0
LINE
  5
A9
  8
0
  6
CONTINUOUS
 62
     7
 10
-126.6382804600889
 20
165.8
 30
0.0
 11
-126.6137466229252
 21
165.7993977281026
 31
0.0
  0
LINE
  5
AA
  8
0
  6
CONTINUOUS
 62
     7
 10
-126.6137466229252
 20
165.7993977281026
 30
0.0
 11
-126.5892718899242
 21
165.7975923633361
 31
0.0
  0
LINE
  5
AB
  8
0
  6
CONTINUOUS
 62
     7
 10
-126.5892718899242
 20
165.7975923633361
 30
0.0
 11
-126.5649152228613
 21
165.7945882549824
 31
0.0
  0
LINE
  5
AC
  8
0
  6
CONTINUOUS
 62
     7
 10
-126.5649152228613
 20
165.7945882549824
 30
0.0
 11
-126.5407352990809
 21
165.7903926402016
 31
0.0
  0
LINE
  5
AD
  8
0
  6
CONTINUOUS
 62
     7
 10
-126.5407352990809
 20
165.7903926402016
 30
0.0
 11
-126.5167903701373
 21
165.7850156265972
 31
0.0
  0
LINE
  5
AE
  8
0
  6
CONTINUOUS
 62
     7
 10
-126.5167903701373
 20
165.7850156265972
 30
0.0
 11
-126.4931381214617
 21
165.7784701678661
 31
0.0
  0
LINE
  5
AF
  8
0
  6
CONTINUOUS
 62
     7
 10
-126.4931381214617
 20
165.7784701678661
 30
0.0
 11
-126.4698355333928
 21
165.7707720325915
 31
0.0
  0
LINE
  5
B0
  8
0
  6
CONTINUOUS
 62
     7
 10
-126.4698355333928
 20
165.7707720325915
 30
0.0
 11
-126.4469387439064
 21
165.7619397662556
 31
0.0
  0
LINE
  5
B1
  8
0
  6
CONTINUOUS
 62
     7
 10
-126.4469387439064
 20
165.7619397662556
 30
0.0
 11
-126.4245029133738
 21
165.7519946465617
 31
0.0
  0
LINE
  5
B2
  8
0
  6
CONTINUOUS
 62
     7
 10
-126.4245029133738
 20
165.7519946465617
 30
0.0
 11
-126.4025820916759
 21
165.7409606321742
 31
0.0
  0
LINE
  5
B3
  8
0
  6
CONTINUOUS
 62
     7
 10
-126.4025820916759
 20
165.7409606321742
 30
0.0
 11
-126.3812290879923
 21
165.7288643050001
 31
0.0
  0
LINE
  5
B4
  8
0
  6
CONTINUOUS
 62
     7
 10
-126.3812290879923
 20
165.7288643050001
 30
0.0
 11
-126.3604953435791
 21
165.7157348061513
 31
0.0
  0
LINE
  5
B5
  8
0
  6
CONTINUOUS
 62
     7
 10
-126.3604953435791
 20
165.7157348061513
 30
0.0
 11
-126.3404308078427
 21
165.7016037657403
 31
0.0
  0
LINE
  5
B6
  8
0
  6
CONTINUOUS
 62
     7
 10
-126.3404308078427
 20
165.7016037657403
 30
0.0
 11
-126.3210838180071
 21
165.6865052266814
 31
0.0
  0
LINE
  5
B7
  8
0
  6
CONTINUOUS
 62
     7
 10
-126.3210838180071
 20
165.6865052266814
 30
0.0
 11
-126.3025009826654
 21
165.6704755626775
 31
0.0
  0
LINE
  5
B8
  8
0
  6
CONTINUOUS
 62
     7
 10
-126.3025009826654
 20
165.6704755626775
 30
0.0
 11
-126.2847270694957
 21
165.6535533905933
 31
0.0
  0
LINE
  5
B9
  8
0
  6
CONTINUOUS
 62
     7
 10
-126.2847270694957
 20
165.6535533905933
 30
0.0
 11
-126.2678048974115
 21
165.6357794774235
 31
0.0
  0
LINE
  5
BA
  8
0
  6
CONTINUOUS
 62
     7
 10
-126.2678048974115
 20
165.6357794774235
 30
0.0
 11
-126.2517752334076
 21
165.6171966420818
 31
0.0
  0
LINE
  5
BB
  8
0
  6
CONTINUOUS
 62
     7
 10
-126.2517752334076
 20
165.6171966420818
 30
0.0
 11
-126.2366766943486
 21
165.5978496522462
 31
0.0
  0
LINE
  5
BC
  8
0
  6
CONTINUOUS
 62
     7
 10
-126.2366766943486
 20
165.5978496522462
 30
0.0
 11
-126.2225456539376
 21
165.5777851165098
 31
0.0
  0
LINE
  5
BD
  8
0
  6
CONTINUOUS
 62
     7
 10
-126.2225456539376
 20
165.5777851165098
 30
0.0
 11
-126.2094161550888
 21
165.5570513720966
 31
0.0
  0
LINE
  5
BE
  8
0
  6
CONTINUOUS
 62
     7
 10
-126.2094161550888
 20
165.5570513720966
 30
0.0
 11
-126.1973198279148
 21
165.535698368413
 31
0.0
  0
LINE
  5
BF
  8
0
  6
CONTINUOUS
 62
     7
 10
-126.1973198279148
 20
165.535698368413
 30
0.0
 11
-126.1862858135272
 21
165.5137775467151
 31
0.0
  0
LINE
  5
C0
  8
0
  6
CONTINUOUS
 62
     7
 10
-126.1862858135272
 20
165.5137775467151
 30
0.0
 11
-126.1763406938333
 21
165.4913417161825
 31
0.0
  0
LINE
  5
C1
  8
0
  6
CONTINUOUS
 62
     7
 10
-126.1763406938333
 20
165.4913417161825
 30
0.0
 11
-126.1675084274974
 21
165.4684449266961
 31
0.0
  0
LINE
  5
C2
  8
0
  6
CONTINUOUS
 62
     7
 10
-126.1675084274974
 20
165.4684449266961
 30
0.0
 11
-126.1598102922228
 21
165.4451423386272
 31
0.0
  0
LINE
  5
C3
  8
0
  6
CONTINUOUS
 62
     7
 10
-126.1598102922228
 20
165.4451423386272
 30
0.0
 11
-126.1532648334916
 21
165.4214900899516
 31
0.0
  0
LINE
  5
C4
  8
0
  6
CONTINUOUS
 62
     7
 10
-126.1532648334916
 20
165.4214900899516
 30
0.0
 11
-126.1478878198873
 21
165.3975451610081
 31
0.0
  0
LINE
  5
C5
  8
0
  6
CONTINUOUS
 62
     7
 10
-126.1478878198873
 20
165.3975451610081
 30
0.0
 11
-126.1436922051065
 21
165.3733652372277
 31
0.0
  0
LINE
  5
C6
  8
0
  6
CONTINUOUS
 62
     7
 10
-126.1436922051065
 20
165.3733652372277
 30
0.0
 11
-126.1406880967528
 21
165.3490085701648
 31
0.0
  0
LINE
  5
C7
  8
0
  6
CONTINUOUS
 62
     7
 10
-126.1406880967528
 20
165.3490085701648
 30
0.0
 11
-126.1388827319863
 21
165.3245338371637
 31
0.0
  0
LINE
  5
C8
  8
0
  6
CONTINUOUS
 62
     7
 10
-126.1388827319863
 20
165.3245338371637
 30
0.0
 11
-126.1382804600889
 21
165.3
 31
0.0
  0
LINE
  5
C9
  8
0
  6
CONTINUOUS
 62
     7
 10
-127.6382804600889
 20
165.8
 30
0.0
 11
-126.6382804600889
 21
165.8
 31
0.0
  0
LINE
  5
CA
  8
0
  6
CONTINUOUS
 62
     7
 10
-128.1382804600889
 20
165.3
 30
0.0
 11
-128.1376781881915
 21
165.3245338371637
 31
0.0
  0
LINE
  5
CB
  8
0
  6
CONTINUOUS
 62
     7
 10
-128.1376781881915
 20
165.3245338371637
 30
0.0
 11
-128.135872823425
 21
165.3490085701648
 31
0.0
  0
LINE
  5
CC
  8
0
  6
CONTINUOUS
 62
     7
 10
-128.135872823425
 20
165.3490085701648
 30
0.0
 11
-128.1328687150713
 21
165.3733652372277
 31
0.0
  0
LINE
  5
CD
  8
0
  6
CONTINUOUS
 62
     7
 10
-128.1328687150713
 20
165.3733652372277
 30
0.0
 11
-128.1286731002905
 21
165.3975451610081
 31
0.0
  0
LINE
  5
CE
  8
0
  6
CONTINUOUS
 62
     7
 10
-128.1286731002905
 20
165.3975451610081
 30
0.0
 11
-128.1232960866862
 21
165.4214900899516
 31
0.0
  0
LINE
  5
CF
  8
0
  6
CONTINUOUS
 62
     7
 10
-128.1232960866862
 20
165.4214900899516
 30
0.0
 11
-128.116750627955
 21
165.4451423386272
 31
0.0
  0
LINE
  5
D0
  8
0
  6
CONTINUOUS
 62
     7
 10
-128.116750627955
 20
165.4451423386272
 30
0.0
 11
-128.1090524926805
 21
165.4684449266961
 31
0.0
  0
LINE
  5
D1
  8
0
  6
CONTINUOUS
 62
     7
 10
-128.1090524926805
 20
165.4684449266961
 30
0.0
 11
-128.1002202263446
 21
165.4913417161825
 31
0.0
  0
LINE
  5
D2
  8
0
  6
CONTINUOUS
 62
     7
 10
-128.1002202263446
 20
165.4913417161825
 30
0.0
 11
-128.0902751066507
 21
165.5137775467151
 31
0.0
  0
LINE
  5
D3
  8
0
  6
CONTINUOUS
 62
     7
 10
-128.0902751066507
 20
165.5137775467151
 30
0.0
 11
-128.0792410922631
 21
165.535698368413
 31
0.0
  0
LINE
  5
D4
  8
0
  6
CONTINUOUS
 62
     7
 10
-128.0792410922631
 20
165.535698368413
 30
0.0
 11
-128.0671447650891
 21
165.5570513720966
 31
0.0
  0
LINE
  5
D5
  8
0
  6
CONTINUOUS
 62
     7
 10
-128.0671447650891
 20
165.5570513720966
 30
0.0
 11
-128.0540152662402
 21
165.5777851165098
 31
0.0
  0
LINE
  5
D6
  8
0
  6
CONTINUOUS
 62
     7
 10
-128.0540152662402
 20
165.5777851165098
 30
0.0
 11
-128.0398842258293
 21
165.5978496522462
 31
0.0
  0
LINE
  5
D7
  8
0
  6
CONTINUOUS
 62
     7
 10
-128.0398842258293
 20
165.5978496522462
 30
0.0
 11
-128.0247856867703
 21
165.6171966420818
 31
0.0
  0
LINE
  5
D8
  8
0
  6
CONTINUOUS
 62
     7
 10
-128.0247856867703
 20
165.6171966420818
 30
0.0
 11
-128.0087560227664
 21
165.6357794774235
 31
0.0
  0
LINE
  5
D9
  8
0
  6
CONTINUOUS
 62
     7
 10
-128.0087560227664
 20
165.6357794774235
 30
0.0
 11
-127.9918338506822
 21
165.6535533905933
 31
0.0
  0
LINE
  5
DA
  8
0
  6
CONTINUOUS
 62
     7
 10
-127.9918338506822
 20
165.6535533905933
 30
0.0
 11
-127.9740599375125
 21
165.6704755626775
 31
0.0
  0
LINE
  5
DB
  8
0
  6
CONTINUOUS
 62
     7
 10
-127.9740599375125
 20
165.6704755626775
 30
0.0
 11
-127.9554771021707
 21
165.6865052266814
 31
0.0
  0
LINE
  5
DC
  8
0
  6
CONTINUOUS
 62
     7
 10
-127.9554771021707
 20
165.6865052266814
 30
0.0
 11
-127.9361301123351
 21
165.7016037657403
 31
0.0
  0
LINE
  5
DD
  8
0
  6
CONTINUOUS
 62
     7
 10
-127.9361301123351
 20
165.7016037657403
 30
0.0
 11
-127.9160655765987
 21
165.7157348061513
 31
0.0
  0
LINE
  5
DE
  8
0
  6
CONTINUOUS
 62
     7
 10
-127.9160655765987
 20
165.7157348061513
 30
0.0
 11
-127.8953318321855
 21
165.7288643050001
 31
0.0
  0
LINE
  5
DF
  8
0
  6
CONTINUOUS
 62
     7
 10
-127.8953318321855
 20
165.7288643050001
 30
0.0
 11
-127.8739788285019
 21
165.7409606321742
 31
0.0
  0
LINE
  5
E0
  8
0
  6
CONTINUOUS
 62
     7
 10
-127.8739788285019
 20
165.7409606321742
 30
0.0
 11
-127.8520580068041
 21
165.7519946465617
 31
0.0
  0
LINE
  5
E1
  8
0
  6
CONTINUOUS
 62
     7
 10
-127.8520580068041
 20
165.7519946465617
 30
0.0
 11
-127.8296221762715
 21
165.7619397662556
 31
0.0
  0
LINE
  5
E2
  8
0
  6
CONTINUOUS
 62
     7
 10
-127.8296221762715
 20
165.7619397662556
 30
0.0
 11
-127.8067253867851
 21
165.7707720325915
 31
0.0
  0
LINE
  5
E3
  8
0
  6
CONTINUOUS
 62
     7
 10
-127.8067253867851
 20
165.7707720325915
 30
0.0
 11
-127.7834227987162
 21
165.7784701678661
 31
0.0
  0
LINE
  5
E4
  8
0
  6
CONTINUOUS
 62
     7
 10
-127.7834227987162
 20
165.7784701678661
 30
0.0
 11
-127.7597705500406
 21
165.7850156265972
 31
0.0
  0
LINE
  5
E5
  8
0
  6
CONTINUOUS
 62
     7
 10
-127.7597705500406
 20
165.7850156265972
 30
0.0
 11
-127.735825621097
 21
165.7903926402016
 31
0.0
  0
LINE
  5
E6
  8
0
  6
CONTINUOUS
 62
     7
 10
-127.735825621097
 20
165.7903926402016
 30
0.0
 11
-127.7116456973166
 21
165.7945882549824
 31
0.0
  0
LINE
  5
E7
  8
0
  6
CONTINUOUS
 62
     7
 10
-127.7116456973166
 20
165.7945882549824
 30
0.0
 11
-127.6872890302537
 21
165.7975923633361
 31
0.0
  0
LINE
  5
E8
  8
0
  6
CONTINUOUS
 62
     7
 10
-127.6872890302537
 20
165.7975923633361
 30
0.0
 11
-127.6628142972527
 21
165.7993977281026
 31
0.0
  0
LINE
  5
E9
  8
0
  6
CONTINUOUS
 62
     7
 10
-127.6628142972527
 20
165.7993977281026
 30
0.0
 11
-127.6382804600889
 21
165.8
 31
0.0
  0
LINE
  5
EA
  8
0
  6
CONTINUOUS
 62
     7
 10
-124.3177723844001
 20
166.5
 30
0.0
 11
-121.737579879244
 21
176.1294095225512
 31
0.0
  0
LINE
  5
EB
  8
0
  6
CONTINUOUS
 62
     7
 10
-121.2546169660994
 20
176.5
 30
0.0
 11
-121.2779833978415
 21
176.4994537114364
 31
0.0
  0
LINE
  5
EC
  8
0
  6
CONTINUOUS
 62
     7
 10
-121.2779833978415
 20
176.4994537114364
 30
0.0
 11
-121.3012987703259
 21
176.4978160394706
 31
0.0
  0
LINE
  5
ED
  8
0
  6
CONTINUOUS
 62
     7
 10
-121.3012987703259
 20
176.4978160394706
 30
0.0
 11
-121.3245121358672
 21
176.4950905626682
 31
0.0
  0
LINE
  5
EE
  8
0
  6
CONTINUOUS
 62
     7
 10
-121.3245121358672
 20
176.4950905626682
 30
0.0
 11
-121.3475727696809
 21
176.4912832366166
 31
0.0
  0
LINE
  5
EF
  8
0
  6
CONTINUOUS
 62
     7
 10
-121.3475727696809
 20
176.4912832366166
 30
0.0
 11
-121.3704302807249
 21
176.4864023809105
 31
0.0
  0
LINE
  5
F0
  8
0
  6
CONTINUOUS
 62
     7
 10
-121.3704302807249
 20
176.4864023809105
 30
0.0
 11
-121.3930347218118
 21
176.4804586609725
 31
0.0
  0
LINE
  5
F1
  8
0
  6
CONTINUOUS
 62
     7
 10
-121.3930347218118
 20
176.4804586609725
 30
0.0
 11
-121.415336698751
 21
176.4734650647475
 31
0.0
  0
LINE
  5
F2
  8
0
  6
CONTINUOUS
 62
     7
 10
-121.415336698751
 20
176.4734650647475
 30
0.0
 11
-121.4372874782826
 21
176.4654368743221
 31
0.0
  0
LINE
  5
F3
  8
0
  6
CONTINUOUS
 62
     7
 10
-121.4372874782826
 20
176.4654368743221
 30
0.0
 11
-121.4588390945674
 21
176.4563916325306
 31
0.0
  0
LINE
  5
F4
  8
0
  6
CONTINUOUS
 62
     7
 10
-121.4588390945674
 20
176.4563916325306
 30
0.0
 11
-121.4799444539994
 21
176.4463491046218
 31
0.0
  0
LINE
  5
F5
  8
0
  6
CONTINUOUS
 62
     7
 10
-121.4799444539994
 20
176.4463491046218
 30
0.0
 11
-121.5005574381126
 21
176.4353312350681
 31
0.0
  0
LINE
  5
F6
  8
0
  6
CONTINUOUS
 62
     7
 10
-121.5005574381126
 20
176.4353312350681
 30
0.0
 11
-121.5206330043571
 21
176.4233620996141
 31
0.0
  0
LINE
  5
F7
  8
0
  6
CONTINUOUS
 62
     7
 10
-121.5206330043571
 20
176.4233620996141
 30
0.0
 11
-121.5401272845239
 21
176.4104678526671
 31
0.0
  0
LINE
  5
F8
  8
0
  6
CONTINUOUS
 62
     7
 10
-121.5401272845239
 20
176.4104678526671
 30
0.0
 11
-121.5589976806038
 21
176.3966766701456
 31
0.0
  0
LINE
  5
F9
  8
0
  6
CONTINUOUS
 62
     7
 10
-121.5589976806038
 20
176.3966766701456
 30
0.0
 11
-121.5772029578705
 21
176.3820186879108
 31
0.0
  0
LINE
  5
FA
  8
0
  6
CONTINUOUS
 62
     7
 10
-121.5772029578705
 20
176.3820186879108
 30
0.0
 11
-121.5947033349849
 21
176.3665259359149
 31
0.0
  0
LINE
  5
FB
  8
0
  6
CONTINUOUS
 62
     7
 10
-121.5947033349849
 20
176.3665259359149
 30
0.0
 11
-121.6114605709235
 21
176.3502322682109
 31
0.0
  0
LINE
  5
FC
  8
0
  6
CONTINUOUS
 62
     7
 10
-121.6114605709235
 20
176.3502322682109
 30
0.0
 11
-121.627438048541
 21
176.333173288976
 31
0.0
  0
LINE
  5
FD
  8
0
  6
CONTINUOUS
 62
     7
 10
-121.627438048541
 20
176.333173288976
 30
0.0
 11
-121.6426008545841
 21
176.3153862747113
 31
0.0
  0
LINE
  5
FE
  8
0
  6
CONTINUOUS
 62
     7
 10
-121.6426008545841
 20
176.3153862747113
 30
0.0
 11
-121.6569158559828
 21
176.2969100927868
 31
0.0
  0
LINE
  5
FF
  8
0
  6
CONTINUOUS
 62
     7
 10
-121.6569158559828
 20
176.2969100927868
 30
0.0
 11
-121.6703517722507
 21
176.2777851165098
 31
0.0
  0
LINE
  5
100
  8
0
  6
CONTINUOUS
 62
     7
 10
-121.6703517722507
 20
176.2777851165098
 30
0.0
 11
-121.6828792438384
 21
176.2580531369037
 31
0.0
  0
LINE
  5
101
  8
0
  6
CONTINUOUS
 62
     7
 10
-121.6828792438384
 20
176.2580531369037
 30
0.0
 11
-121.6944708962879
 21
176.2377572713878
 31
0.0
  0
LINE
  5
102
  8
0
  6
CONTINUOUS
 62
     7
 10
-121.6944708962879
 20
176.2377572713878
 30
0.0
 11
-121.7051014000506
 21
176.2169418695588
 31
0.0
  0
LINE
  5
103
  8
0
  6
CONTINUOUS
 62
     7
 10
-121.7051014000506
 20
176.2169418695588
 30
0.0
 11
-121.7147475258361
 21
176.1956524162806
 31
0.0
  0
LINE
  5
104
  8
0
  6
CONTINUOUS
 62
     7
 10
-121.7147475258361
 20
176.1956524162806
 30
0.0
 11
-121.7233881953714
 21
176.1739354322926
 31
0.0
  0
LINE
  5
105
  8
0
  6
CONTINUOUS
 62
     7
 10
-121.7233881953714
 20
176.1739354322926
 30
0.0
 11
-121.7310045274609
 21
176.1518383725548
 31
0.0
  0
LINE
  5
106
  8
0
  6
CONTINUOUS
 62
     7
 10
-121.7310045274609
 20
176.1518383725548
 30
0.0
 11
-121.737579879244
 21
176.1294095225512
 31
0.0
  0
LINE
  5
107
  8
0
  6
CONTINUOUS
 62
     7
 10
-121.2546169660994
 20
176.5
 30
0.0
 11
-120.535341975517
 21
176.5
 31
0.0
  0
LINE
  5
108
  8
0
  6
CONTINUOUS
 62
     7
 10
-128.1382804600889
 20
164.5
 30
0.0
 11
-128.1382804600889
 21
165.3
 31
0.0
  0
LINE
  5
109
  8
0
  6
CONTINUOUS
 62
     7
 10
-118.6382804600889
 20
164.5
 30
0.0
 11
-126.1382804600889
 21
164.5
 31
0.0
  0
LINE
  5
10A
  8
0
  6
CONTINUOUS
 62
     7
 10
-130.1557341956704
 20
166.5
 30
0.0
 11
-124.3177723844001
 21
166.5
 31
0.0
  0
LINE
  5
10B
  8
0
  6
CONTINUOUS
 62
     7
 10
-128.1382804600889
 20
164.5
 30
0.0
 11
-130.1382804600889
 21
164.5
 31
0.0
  0
LINE
  5
10C
  8
0
  6
CONTINUOUS
 62
     7
 10
-149.1382804600889
 20
164.5000000000001
 30
0.0
 11
-149.1382804600889
 21
165.3
 31
0.0
  0
LINE
  5
10D
  8
0
  6
CONTINUOUS
 62
     7
 10
-149.6382804600889
 20
165.8
 30
0.0
 11
-149.6137466229252
 21
165.7993977281026
 31
0.0
  0
LINE
  5
10E
  8
0
  6
CONTINUOUS
 62
     7
 10
-149.6137466229252
 20
165.7993977281026
 30
0.0
 11
-149.5892718899241
 21
165.7975923633361
 31
0.0
  0
LINE
  5
10F
  8
0
  6
CONTINUOUS
 62
     7
 10
-149.5892718899241
 20
165.7975923633361
 30
0.0
 11
-149.5649152228613
 21
165.7945882549824
 31
0.0
  0
LINE
  5
110
  8
0
  6
CONTINUOUS
 62
     7
 10
-149.5649152228613
 20
165.7945882549824
 30
0.0
 11
-149.5407352990808
 21
165.7903926402016
 31
0.0
  0
LINE
  5
111
  8
0
  6
CONTINUOUS
 62
     7
 10
-149.5407352990808
 20
165.7903926402016
 30
0.0
 11
-149.5167903701373
 21
165.7850156265972
 31
0.0
  0
LINE
  5
112
  8
0
  6
CONTINUOUS
 62
     7
 10
-149.5167903701373
 20
165.7850156265972
 30
0.0
 11
-149.4931381214617
 21
165.7784701678661
 31
0.0
  0
LINE
  5
113
  8
0
  6
CONTINUOUS
 62
     7
 10
-149.4931381214617
 20
165.7784701678661
 30
0.0
 11
-149.4698355333928
 21
165.7707720325915
 31
0.0
  0
LINE
  5
114
  8
0
  6
CONTINUOUS
 62
     7
 10
-149.4698355333928
 20
165.7707720325915
 30
0.0
 11
-149.4469387439064
 21
165.7619397662556
 31
0.0
  0
LINE
  5
115
  8
0
  6
CONTINUOUS
 62
     7
 10
-149.4469387439064
 20
165.7619397662556
 30
0.0
 11
-149.4245029133738
 21
165.7519946465617
 31
0.0
  0
LINE
  5
116
  8
0
  6
CONTINUOUS
 62
     7
 10
-149.4245029133738
 20
165.7519946465617
 30
0.0
 11
-149.4025820916759
 21
165.7409606321742
 31
0.0
  0
LINE
  5
117
  8
0
  6
CONTINUOUS
 62
     7
 10
-149.4025820916759
 20
165.7409606321742
 30
0.0
 11
-149.3812290879923
 21
165.7288643050001
 31
0.0
  0
LINE
  5
118
  8
0
  6
CONTINUOUS
 62
     7
 10
-149.3812290879923
 20
165.7288643050001
 30
0.0
 11
-149.3604953435791
 21
165.7157348061513
 31
0.0
  0
LINE
  5
119
  8
0
  6
CONTINUOUS
 62
     7
 10
-149.3604953435791
 20
165.7157348061513
 30
0.0
 11
-149.3404308078427
 21
165.7016037657403
 31
0.0
  0
LINE
  5
11A
  8
0
  6
CONTINUOUS
 62
     7
 10
-149.3404308078427
 20
165.7016037657403
 30
0.0
 11
-149.3210838180071
 21
165.6865052266814
 31
0.0
  0
LINE
  5
11B
  8
0
  6
CONTINUOUS
 62
     7
 10
-149.3210838180071
 20
165.6865052266814
 30
0.0
 11
-149.3025009826654
 21
165.6704755626775
 31
0.0
  0
LINE
  5
11C
  8
0
  6
CONTINUOUS
 62
     7
 10
-149.3025009826654
 20
165.6704755626775
 30
0.0
 11
-149.2847270694956
 21
165.6535533905933
 31
0.0
  0
LINE
  5
11D
  8
0
  6
CONTINUOUS
 62
     7
 10
-149.2847270694956
 20
165.6535533905933
 30
0.0
 11
-149.2678048974114
 21
165.6357794774235
 31
0.0
  0
LINE
  5
11E
  8
0
  6
CONTINUOUS
 62
     7
 10
-149.2678048974114
 20
165.6357794774235
 30
0.0
 11
-149.2517752334076
 21
165.6171966420818
 31
0.0
  0
LINE
  5
11F
  8
0
  6
CONTINUOUS
 62
     7
 10
-149.2517752334076
 20
165.6171966420818
 30
0.0
 11
-149.2366766943486
 21
165.5978496522462
 31
0.0
  0
LINE
  5
120
  8
0
  6
CONTINUOUS
 62
     7
 10
-149.2366766943486
 20
165.5978496522462
 30
0.0
 11
-149.2225456539376
 21
165.5777851165098
 31
0.0
  0
LINE
  5
121
  8
0
  6
CONTINUOUS
 62
     7
 10
-149.2225456539376
 20
165.5777851165098
 30
0.0
 11
-149.2094161550888
 21
165.5570513720966
 31
0.0
  0
LINE
  5
122
  8
0
  6
CONTINUOUS
 62
     7
 10
-149.2094161550888
 20
165.5570513720966
 30
0.0
 11
-149.1973198279147
 21
165.535698368413
 31
0.0
  0
LINE
  5
123
  8
0
  6
CONTINUOUS
 62
     7
 10
-149.1973198279147
 20
165.535698368413
 30
0.0
 11
-149.1862858135272
 21
165.5137775467151
 31
0.0
  0
LINE
  5
124
  8
0
  6
CONTINUOUS
 62
     7
 10
-149.1862858135272
 20
165.5137775467151
 30
0.0
 11
-149.1763406938333
 21
165.4913417161825
 31
0.0
  0
LINE
  5
125
  8
0
  6
CONTINUOUS
 62
     7
 10
-149.1763406938333
 20
165.4913417161825
 30
0.0
 11
-149.1675084274974
 21
165.4684449266961
 31
0.0
  0
LINE
  5
126
  8
0
  6
CONTINUOUS
 62
     7
 10
-149.1675084274974
 20
165.4684449266961
 30
0.0
 11
-149.1598102922228
 21
165.4451423386272
 31
0.0
  0
LINE
  5
127
  8
0
  6
CONTINUOUS
 62
     7
 10
-149.1598102922228
 20
165.4451423386272
 30
0.0
 11
-149.1532648334916
 21
165.4214900899516
 31
0.0
  0
LINE
  5
128
  8
0
  6
CONTINUOUS
 62
     7
 10
-149.1532648334916
 20
165.4214900899516
 30
0.0
 11
-149.1478878198873
 21
165.3975451610081
 31
0.0
  0
LINE
  5
129
  8
0
  6
CONTINUOUS
 62
     7
 10
-149.1478878198873
 20
165.3975451610081
 30
0.0
 11
-149.1436922051065
 21
165.3733652372277
 31
0.0
  0
LINE
  5
12A
  8
0
  6
CONTINUOUS
 62
     7
 10
-149.1436922051065
 20
165.3733652372277
 30
0.0
 11
-149.1406880967528
 21
165.3490085701648
 31
0.0
  0
LINE
  5
12B
  8
0
  6
CONTINUOUS
 62
     7
 10
-149.1406880967528
 20
165.3490085701648
 30
0.0
 11
-149.1388827319863
 21
165.3245338371637
 31
0.0
  0
LINE
  5
12C
  8
0
  6
CONTINUOUS
 62
     7
 10
-149.1388827319863
 20
165.3245338371637
 30
0.0
 11
-149.1382804600889
 21
165.3
 31
0.0
  0
LINE
  5
12D
  8
0
  6
CONTINUOUS
 62
     7
 10
-149.6382804600889
 20
165.8
 30
0.0
 11
-150.6382804600889
 21
165.8
 31
0.0
  0
LINE
  5
12E
  8
0
  6
CONTINUOUS
 62
     7
 10
-151.1382804600889
 20
165.3
 30
0.0
 11
-151.1376781881914
 21
165.3245338371637
 31
0.0
  0
LINE
  5
12F
  8
0
  6
CONTINUOUS
 62
     7
 10
-151.1376781881914
 20
165.3245338371637
 30
0.0
 11
-151.1358728234249
 21
165.3490085701648
 31
0.0
  0
LINE
  5
130
  8
0
  6
CONTINUOUS
 62
     7
 10
-151.1358728234249
 20
165.3490085701648
 30
0.0
 11
-151.1328687150712
 21
165.3733652372277
 31
0.0
  0
LINE
  5
131
  8
0
  6
CONTINUOUS
 62
     7
 10
-151.1328687150712
 20
165.3733652372277
 30
0.0
 11
-151.1286731002904
 21
165.3975451610081
 31
0.0
  0
LINE
  5
132
  8
0
  6
CONTINUOUS
 62
     7
 10
-151.1286731002904
 20
165.3975451610081
 30
0.0
 11
-151.1232960866861
 21
165.4214900899516
 31
0.0
  0
LINE
  5
133
  8
0
  6
CONTINUOUS
 62
     7
 10
-151.1232960866861
 20
165.4214900899516
 30
0.0
 11
-151.1167506279549
 21
165.4451423386272
 31
0.0
  0
LINE
  5
134
  8
0
  6
CONTINUOUS
 62
     7
 10
-151.1167506279549
 20
165.4451423386272
 30
0.0
 11
-151.1090524926803
 21
165.4684449266961
 31
0.0
  0
LINE
  5
135
  8
0
  6
CONTINUOUS
 62
     7
 10
-151.1090524926803
 20
165.4684449266961
 30
0.0
 11
-151.1002202263445
 21
165.4913417161825
 31
0.0
  0
LINE
  5
136
  8
0
  6
CONTINUOUS
 62
     7
 10
-151.1002202263445
 20
165.4913417161825
 30
0.0
 11
-151.0902751066506
 21
165.5137775467151
 31
0.0
  0
LINE
  5
137
  8
0
  6
CONTINUOUS
 62
     7
 10
-151.0902751066506
 20
165.5137775467151
 30
0.0
 11
-151.079241092263
 21
165.535698368413
 31
0.0
  0
LINE
  5
138
  8
0
  6
CONTINUOUS
 62
     7
 10
-151.079241092263
 20
165.535698368413
 30
0.0
 11
-151.067144765089
 21
165.5570513720966
 31
0.0
  0
LINE
  5
139
  8
0
  6
CONTINUOUS
 62
     7
 10
-151.067144765089
 20
165.5570513720966
 30
0.0
 11
-151.0540152662401
 21
165.5777851165098
 31
0.0
  0
LINE
  5
13A
  8
0
  6
CONTINUOUS
 62
     7
 10
-151.0540152662401
 20
165.5777851165098
 30
0.0
 11
-151.0398842258292
 21
165.5978496522462
 31
0.0
  0
LINE
  5
13B
  8
0
  6
CONTINUOUS
 62
     7
 10
-151.0398842258292
 20
165.5978496522462
 30
0.0
 11
-151.0247856867702
 21
165.6171966420818
 31
0.0
  0
LINE
  5
13C
  8
0
  6
CONTINUOUS
 62
     7
 10
-151.0247856867702
 20
165.6171966420818
 30
0.0
 11
-151.0087560227663
 21
165.6357794774235
 31
0.0
  0
LINE
  5
13D
  8
0
  6
CONTINUOUS
 62
     7
 10
-151.0087560227663
 20
165.6357794774235
 30
0.0
 11
-150.9918338506821
 21
165.6535533905933
 31
0.0
  0
LINE
  5
13E
  8
0
  6
CONTINUOUS
 62
     7
 10
-150.9918338506821
 20
165.6535533905933
 30
0.0
 11
-150.9740599375123
 21
165.6704755626775
 31
0.0
  0
LINE
  5
13F
  8
0
  6
CONTINUOUS
 62
     7
 10
-150.9740599375123
 20
165.6704755626775
 30
0.0
 11
-150.9554771021707
 21
165.6865052266814
 31
0.0
  0
LINE
  5
140
  8
0
  6
CONTINUOUS
 62
     7
 10
-150.9554771021707
 20
165.6865052266814
 30
0.0
 11
-150.9361301123351
 21
165.7016037657403
 31
0.0
  0
LINE
  5
141
  8
0
  6
CONTINUOUS
 62
     7
 10
-150.9361301123351
 20
165.7016037657403
 30
0.0
 11
-150.9160655765986
 21
165.7157348061513
 31
0.0
  0
LINE
  5
142
  8
0
  6
CONTINUOUS
 62
     7
 10
-150.9160655765986
 20
165.7157348061513
 30
0.0
 11
-150.8953318321855
 21
165.7288643050001
 31
0.0
  0
LINE
  5
143
  8
0
  6
CONTINUOUS
 62
     7
 10
-150.8953318321855
 20
165.7288643050001
 30
0.0
 11
-150.8739788285018
 21
165.7409606321742
 31
0.0
  0
LINE
  5
144
  8
0
  6
CONTINUOUS
 62
     7
 10
-150.8739788285018
 20
165.7409606321742
 30
0.0
 11
-150.852058006804
 21
165.7519946465617
 31
0.0
  0
LINE
  5
145
  8
0
  6
CONTINUOUS
 62
     7
 10
-150.852058006804
 20
165.7519946465617
 30
0.0
 11
-150.8296221762714
 21
165.7619397662556
 31
0.0
  0
LINE
  5
146
  8
0
  6
CONTINUOUS
 62
     7
 10
-150.8296221762714
 20
165.7619397662556
 30
0.0
 11
-150.8067253867849
 21
165.7707720325915
 31
0.0
  0
LINE
  5
147
  8
0
  6
CONTINUOUS
 62
     7
 10
-150.8067253867849
 20
165.7707720325915
 30
0.0
 11
-150.7834227987161
 21
165.7784701678661
 31
0.0
  0
LINE
  5
148
  8
0
  6
CONTINUOUS
 62
     7
 10
-150.7834227987161
 20
165.7784701678661
 30
0.0
 11
-150.7597705500405
 21
165.7850156265972
 31
0.0
  0
LINE
  5
149
  8
0
  6
CONTINUOUS
 62
     7
 10
-150.7597705500405
 20
165.7850156265972
 30
0.0
 11
-150.7358256210969
 21
165.7903926402016
 31
0.0
  0
LINE
  5
14A
  8
0
  6
CONTINUOUS
 62
     7
 10
-150.7358256210969
 20
165.7903926402016
 30
0.0
 11
-150.7116456973165
 21
165.7945882549824
 31
0.0
  0
LINE
  5
14B
  8
0
  6
CONTINUOUS
 62
     7
 10
-150.7116456973165
 20
165.7945882549824
 30
0.0
 11
-150.6872890302536
 21
165.7975923633361
 31
0.0
  0
LINE
  5
14C
  8
0
  6
CONTINUOUS
 62
     7
 10
-150.6872890302536
 20
165.7975923633361
 30
0.0
 11
-150.6628142972525
 21
165.7993977281026
 31
0.0
  0
LINE
  5
14D
  8
0
  6
CONTINUOUS
 62
     7
 10
-150.6628142972525
 20
165.7993977281026
 30
0.0
 11
-150.6382804600889
 21
165.8
 31
0.0
  0
LINE
  5
14E
  8
0
  6
CONTINUOUS
 62
     7
 10
-157.726026697673
 20
175.6736481776669
 30
0.0
 11
-158.6382804600889
 21
170.4999999999999
 31
0.0
  0
ARC
  5
14F
  8
0
  6
CONTINUOUS
 62
     7
 10
-156.7412189446608
 20
175.5
 30
0.0
 40
1.0
 50
90.0
 51
170.0000000000006
  0
LINE
  5
150
  8
0
  6
CONTINUOUS
 62
     7
 10
-156.0219439540784
 20
176.5
 30
0.0
 11
-156.7412189446608
 21
176.5
 31
0.0
  0
LINE
  5
151
  8
0
  6
CONTINUOUS
 62
     7
 10
-155.5389810409339
 20
176.1294095225512
 30
0.0
 11
-155.545556392717
 21
176.1518383725548
 31
0.0
  0
LINE
  5
152
  8
0
  6
CONTINUOUS
 62
     7
 10
-155.545556392717
 20
176.1518383725548
 30
0.0
 11
-155.5531727248064
 21
176.1739354322926
 31
0.0
  0
LINE
  5
153
  8
0
  6
CONTINUOUS
 62
     7
 10
-155.5531727248064
 20
176.1739354322926
 30
0.0
 11
-155.5618133943418
 21
176.1956524162806
 31
0.0
  0
LINE
  5
154
  8
0
  6
CONTINUOUS
 62
     7
 10
-155.5618133943418
 20
176.1956524162806
 30
0.0
 11
-155.5714595201272
 21
176.2169418695587
 31
0.0
  0
LINE
  5
155
  8
0
  6
CONTINUOUS
 62
     7
 10
-155.5714595201272
 20
176.2169418695587
 30
0.0
 11
-155.5820900238899
 21
176.2377572713877
 31
0.0
  0
LINE
  5
156
  8
0
  6
CONTINUOUS
 62
     7
 10
-155.5820900238899
 20
176.2377572713877
 30
0.0
 11
-155.5936816763395
 21
176.2580531369037
 31
0.0
  0
LINE
  5
157
  8
0
  6
CONTINUOUS
 62
     7
 10
-155.5936816763395
 20
176.2580531369037
 30
0.0
 11
-155.6062091479271
 21
176.2777851165098
 31
0.0
  0
LINE
  5
158
  8
0
  6
CONTINUOUS
 62
     7
 10
-155.6062091479271
 20
176.2777851165098
 30
0.0
 11
-155.6196450641951
 21
176.2969100927867
 31
0.0
  0
LINE
  5
159
  8
0
  6
CONTINUOUS
 62
     7
 10
-155.6196450641951
 20
176.2969100927867
 30
0.0
 11
-155.6339600655937
 21
176.3153862747113
 31
0.0
  0
LINE
  5
15A
  8
0
  6
CONTINUOUS
 62
     7
 10
-155.6339600655937
 20
176.3153862747113
 30
0.0
 11
-155.6491228716368
 21
176.333173288976
 31
0.0
  0
LINE
  5
15B
  8
0
  6
CONTINUOUS
 62
     7
 10
-155.6491228716368
 20
176.333173288976
 30
0.0
 11
-155.6651003492543
 21
176.3502322682108
 31
0.0
  0
LINE
  5
15C
  8
0
  6
CONTINUOUS
 62
     7
 10
-155.6651003492543
 20
176.3502322682108
 30
0.0
 11
-155.6818575851929
 21
176.3665259359149
 31
0.0
  0
LINE
  5
15D
  8
0
  6
CONTINUOUS
 62
     7
 10
-155.6818575851929
 20
176.3665259359149
 30
0.0
 11
-155.6993579623073
 21
176.3820186879107
 31
0.0
  0
LINE
  5
15E
  8
0
  6
CONTINUOUS
 62
     7
 10
-155.6993579623073
 20
176.3820186879107
 30
0.0
 11
-155.717563239574
 21
176.3966766701456
 31
0.0
  0
LINE
  5
15F
  8
0
  6
CONTINUOUS
 62
     7
 10
-155.717563239574
 20
176.3966766701456
 30
0.0
 11
-155.7364336356539
 21
176.4104678526671
 31
0.0
  0
LINE
  5
160
  8
0
  6
CONTINUOUS
 62
     7
 10
-155.7364336356539
 20
176.4104678526671
 30
0.0
 11
-155.7559279158207
 21
176.4233620996141
 31
0.0
  0
LINE
  5
161
  8
0
  6
CONTINUOUS
 62
     7
 10
-155.7559279158207
 20
176.4233620996141
 30
0.0
 11
-155.7760034820652
 21
176.4353312350681
 31
0.0
  0
LINE
  5
162
  8
0
  6
CONTINUOUS
 62
     7
 10
-155.7760034820652
 20
176.4353312350681
 30
0.0
 11
-155.7966164661784
 21
176.4463491046218
 31
0.0
  0
LINE
  5
163
  8
0
  6
CONTINUOUS
 62
     7
 10
-155.7966164661784
 20
176.4463491046218
 30
0.0
 11
-155.8177218256104
 21
176.4563916325306
 31
0.0
  0
LINE
  5
164
  8
0
  6
CONTINUOUS
 62
     7
 10
-155.8177218256104
 20
176.4563916325306
 30
0.0
 11
-155.8392734418952
 21
176.4654368743221
 31
0.0
  0
LINE
  5
165
  8
0
  6
CONTINUOUS
 62
     7
 10
-155.8392734418952
 20
176.4654368743221
 30
0.0
 11
-155.8612242214268
 21
176.4734650647475
 31
0.0
  0
LINE
  5
166
  8
0
  6
CONTINUOUS
 62
     7
 10
-155.8612242214268
 20
176.4734650647475
 30
0.0
 11
-155.883526198366
 21
176.4804586609725
 31
0.0
  0
LINE
  5
167
  8
0
  6
CONTINUOUS
 62
     7
 10
-155.883526198366
 20
176.4804586609725
 30
0.0
 11
-155.9061306394529
 21
176.4864023809105
 31
0.0
  0
LINE
  5
168
  8
0
  6
CONTINUOUS
 62
     7
 10
-155.9061306394529
 20
176.4864023809105
 30
0.0
 11
-155.9289881504969
 21
176.4912832366166
 31
0.0
  0
LINE
  5
169
  8
0
  6
CONTINUOUS
 62
     7
 10
-155.9289881504969
 20
176.4912832366166
 30
0.0
 11
-155.9520487843106
 21
176.4950905626682
 31
0.0
  0
LINE
  5
16A
  8
0
  6
CONTINUOUS
 62
     7
 10
-155.9520487843106
 20
176.4950905626682
 30
0.0
 11
-155.9752621498519
 21
176.4978160394705
 31
0.0
  0
LINE
  5
16B
  8
0
  6
CONTINUOUS
 62
     7
 10
-155.9752621498519
 20
176.4978160394705
 30
0.0
 11
-155.9985775223363
 21
176.4994537114364
 31
0.0
  0
LINE
  5
16C
  8
0
  6
CONTINUOUS
 62
     7
 10
-155.9985775223363
 20
176.4994537114364
 30
0.0
 11
-156.0219439540784
 21
176.5
 31
0.0
  0
LINE
  5
16D
  8
0
  6
CONTINUOUS
 62
     7
 10
-152.9587885357777
 20
166.5
 30
0.0
 11
-155.5389810409339
 21
176.1294095225512
 31
0.0
  0
LINE
  5
16E
  8
0
  6
CONTINUOUS
 62
     7
 10
-158.6382804600889
 20
164.5
 30
0.0
 11
-151.1382804600889
 21
164.5
 31
0.0
  0
LINE
  5
16F
  8
0
  6
CONTINUOUS
 62
     7
 10
-158.6382804600889
 20
170.4999999999999
 30
0.0
 11
-158.6382804600889
 21
164.5
 31
0.0
  0
LINE
  5
170
  8
0
  6
CONTINUOUS
 62
     7
 10
-151.1382804600889
 20
165.3
 30
0.0
 11
-151.1382804600889
 21
164.5000000000001
 31
0.0
  0
LINE
  5
171
  8
0
  6
CONTINUOUS
 62
     7
 10
-147.1208267245074
 20
166.5
 30
0.0
 11
-152.9587885357777
 21
166.5
 31
0.0
  0
LINE
  5
172
  8
0
  6
CONTINUOUS
 62
     7
 10
-149.1382804600889
 20
164.5000000000001
 30
0.0
 11
-147.1382804600889
 21
164.5
 31
0.0
  0
ARC
  5
173
  8
0
  6
CONTINUOUS
 62
     7
 10
-146.0382804600889
 20
164.5
 30
0.0
 40
0.1000000000000029
 50
180.0
 51
270.0
  0
ARC
  5
174
  8
0
  6
CONTINUOUS
 62
     7
 10
-131.2382804600889
 20
164.5
 30
0.0
 40
0.1000000000000029
 50
270.0
 51
0.0000000000000568
  0
LINE
  5
175
  8
0
  6
CONTINUOUS
 62
     7
 10
-131.2382804600889
 20
164.4
 30
0.0
 11
-146.0382804600889
 21
164.4
 31
0.0
  0
LINE
  5
176
  8
0
  6
CONTINUOUS
 62
     7
 10
-158.9913596260209
 20
164.5
 30
0.0
 11
-158.6382804600889
 21
164.5
 31
0.0
  0
LINE
  5
177
  8
0
  6
CONTINUOUS
 62
     7
 10
-158.9399716617276
 20
170.3884774612636
 30
0.0
 11
-158.7206836484034
 21
170.4356651275642
 31
0.0
  0
LINE
  5
178
  8
0
  6
CONTINUOUS
 62
     7
 10
-158.7206836484034
 20
170.4356651275642
 30
0.0
 11
-158.6387920557921
 21
170.4970985965894
 31
0.0
  0
LINE
  5
179
  8
0
  6
CONTINUOUS
 62
     7
 10
-158.9461739780564
 20
169.6777624054802
 30
0.0
 11
-158.6382804600889
 21
169.5
 31
0.0
  0
LINE
  5
17A
  8
0
  6
CONTINUOUS
 62
     7
 10
-158.6382804600889
 20
170.4999999999998
 30
0.0
 11
-158.6387920557921
 21
170.4970985965894
 31
0.0
  0
LINE
  5
17B
  8
0
  6
CONTINUOUS
 62
     7
 10
-156.7412189446609
 20
176.5
 30
0.0
 11
-158.8866372125318
 21
176.5
 31
0.0
  0
LINE
  5
17C
  8
0
  6
CONTINUOUS
 62
     7
 10
-138.3382804600889
 20
166.5
 30
0.0
 11
-138.9382804600889
 21
166.5
 31
0.0
  0
LINE
  5
17D
  8
0
  6
CONTINUOUS
 62
     7
 10
-155.7961061793134
 20
176.4460911336141
 30
0.0
 11
-121.6387509156386
 21
176.4460911336141
 31
0.0
  0
LINE
  5
17E
  8
0
  6
CONTINUOUS
 62
     7
 10
-119.7244610634612
 20
179.5
 30
0.0
 11
-119.6942742149337
 21
176.0409297755789
 31
0.0
  0
LINE
  5
17F
  8
0
  6
CONTINUOUS
 62
     7
 10
-121.6398624187269
 20
176.3187254951048
 30
0.0
 11
-121.6120998567166
 21
179.5
 31
0.0
  0
CIRCLE
  5
180
  8
0
  6
CONTINUOUS
 62
     7
 10
-138.6382804600889
 20
189.5
 30
0.0
 40
2.0
  0
LINE
  5
181
  8
0
  6
CONTINUOUS
 62
     7
 10
-116.5013654796482
 20
190.1699622217464
 30
0.0
 11
-116.2773471131452
 21
164.5
 31
0.0
  0
LINE
  5
182
  8
0
  6
CONTINUOUS
 62
     7
 10
-116.2773471131452
 20
164.5
 30
0.0
 11
-117.7769473857833
 21
164.5
 31
0.0
  0
LINE
  5
183
  8
0
  6
CONTINUOUS
 62
     7
 10
-160.9992138070326
 20
164.5
 30
0.0
 11
-160.7751954405296
 21
190.1699622217464
 31
0.0
  0
LINE
  5
184
  8
0
  6
CONTINUOUS
 62
     7
 10
-159.4996135343945
 20
164.5
 30
0.0
 11
-160.9992138070326
 21
164.5
 31
0.0
  0
LINE
  5
185
  8
0
  6
CONTINUOUS
 62
     7
 10
-118.2852012941569
 20
164.5
 30
0.0
 11
-118.5087706408253
 21
190.1185096450229
 31
0.0
  0
ARC
  5
186
  8
0
  6
CONTINUOUS
 62
   253
 10
-126.5084660253387
 20
190.0486973610359
 30
0.0
 40
8.000000000000004
 50
0.4999999999996854
 51
46.32779344528063
  0
LINE
  5
187
  8
0
  6
CONTINUOUS
 62
   253
 10
-120.9842130033653
 20
195.8351149530542
 30
0.0
 11
-128.6382804600889
 21
203.1424004376894
 31
0.0
  0
ARC
  5
188
  8
0
  6
CONTINUOUS
 62
   253
 10
-138.6382804600889
 20
63.5
 30
0.0
 40
140.0
 50
85.90395624184764
 51
94.09604375815223
  0
LINE
  5
189
  8
0
  6
CONTINUOUS
 62
   253
 10
-156.2923479168125
 20
195.8351149530542
 30
0.0
 11
-148.6382804600889
 21
203.1424004376894
 31
0.0
  0
ARC
  5
18A
  8
0
  6
CONTINUOUS
 62
     7
 10
-150.7680948948392
 20
190.0486973610359
 30
0.0
 40
8.000000000000004
 50
133.6722065547195
 51
179.5000000000004
  0
LINE
  5
18B
  8
0
  6
CONTINUOUS
 62
     7
 10
-158.9913596260209
 20
164.5
 30
0.0
 11
-158.7677902793525
 21
190.1185096450229
 31
0.0
  0
LINE
  5
18C
  8
0
  6
CONTINUOUS
 62
     7
 10
-117.7769473857833
 20
164.5
 30
0.0
 11
-118.2852012941569
 21
164.5
 31
0.0
  0
LINE
  5
18D
  8
0
  6
CONTINUOUS
 62
     7
 10
-159.4996135343945
 20
164.5
 30
0.0
 11
-158.9913596260209
 21
164.5
 31
0.0
  0
ARC
  5
18E
  8
0
  6
CONTINUOUS
 62
     7
 10
-126.5009847102899
 20
190.0826968667626
 30
0.0
 40
10.0
 50
0.5000000000000568
 51
46.3586569954029
  0
ARC
  5
18F
  8
0
  6
CONTINUOUS
 62
     7
 10
-150.7755762098879
 20
190.0826968667626
 30
0.0
 40
10.0
 50
133.6413430045972
 51
179.5
  0
LINE
  5
190
  8
0
  6
CONTINUOUS
 62
     7
 10
-157.6769952696318
 20
197.3194374978619
 30
0.0
 11
-149.5382804600889
 21
205.0810368658176
 31
0.0
  0
LINE
  5
191
  8
0
  6
CONTINUOUS
 62
     7
 10
-149.5382804600889
 20
205.0810368658176
 30
0.0
 11
-149.5381727569883
 21
205.0810451575916
 31
0.0
  0
LINE
  5
192
  8
0
  6
CONTINUOUS
 62
     7
 10
-149.5381727569883
 20
205.0810451575916
 30
0.0
 11
-148.8911752110473
 21
203.677750758219
 31
0.0
  0
LINE
  5
193
  8
0
  6
CONTINUOUS
 62
     7
 10
-128.3853857091305
 20
203.677750758219
 30
0.0
 11
-127.7383881631895
 21
205.0810451575916
 31
0.0
  0
LINE
  5
194
  8
0
  6
CONTINUOUS
 62
     7
 10
-127.7383881631895
 20
205.0810451575916
 30
0.0
 11
-127.7382804600889
 21
205.0810368658176
 31
0.0
  0
LINE
  5
195
  8
0
  6
CONTINUOUS
 62
     7
 10
-127.7382804600889
 20
205.0810368658176
 30
0.0
 11
-119.599565650546
 21
197.3194374978619
 31
0.0
  0
ARC
  5
196
  8
0
  6
CONTINUOUS
 62
     7
 10
-138.6382804600889
 20
63.5
 30
0.0
 40
142.0
 50
85.59765675274404
 51
94.40234324725606
  0
LINE
  5
197
  8
0
  6
CONTINUOUS
 62
     7
 10
-158.9477252870671
 20
169.5
 30
0.0
 11
-158.6382804600889
 21
169.3213419458448
 31
0.0
  0
LINE
  5
198
  8
0
  6
CONTINUOUS
 62
     7
 10
-158.6382804600889
 20
164.8530791659319
 30
0.0
 11
-158.9913596260209
 21
164.5
 31
0.0
  0
LINE
  5
199
  8
0
  6
CONTINUOUS
 62
     7
 10
-118.6382804600889
 20
169.3213419458448
 30
0.0
 11
-118.3288356331107
 21
169.5
 31
0.0
  0
LINE
  5
19A
  8
0
  6
CONTINUOUS
 62
     7
 10
-118.2852012941569
 20
164.5
 30
0.0
 11
-118.6382804600889
 21
164.853079165932
 31
0.0
  0
LINE
  5
19B
  8
0
  6
CONTINUOUS
 62
     7
 10
-162.7924677348472
 20
188.0129433935301
 30
0.0
 11
-162.7874611018281
 21
188.0129235576721
 31
0.0
  0
LINE
  5
19C
  8
0
  6
CONTINUOUS
 62
     7
 10
-160.7899835002214
 20
188.4754184236324
 30
0.0
 11
-160.8427968799519
 21
188.3679696149726
 31
0.0
  0
LINE
  5
19D
  8
0
  6
CONTINUOUS
 62
     7
 10
-160.8427968799519
 20
188.3679696149726
 30
0.0
 11
-160.9287676998291
 21
188.3029252674454
 31
0.0
  0
ARC
  5
19E
  8
0
  6
CONTINUOUS
 62
     7
 10
-162.5219333321371
 20
192.4125057690265
 30
0.0
 40
4.40758762033641
 50
266.5462200002187
 51
291.1898729356791
  0
LINE
  5
19F
  8
0
  6
CONTINUOUS
 62
     7
 10
-160.9992138070326
 20
164.5
 30
0.0
 11
-162.999289963804
 21
164.5
 31
0.0
  0
LINE
  5
1A0
  8
0
  6
CONTINUOUS
 62
     7
 10
-217.1382804600889
 20
188.0129433935301
 30
0.0
 11
-162.7924677348472
 21
188.0129433935301
 31
0.0
  0
LINE
  5
1A1
  8
0
  6
CONTINUOUS
 62
     7
 10
-217.1382804600889
 20
164.5
 30
0.0
 11
-162.9992899638041
 21
164.5
 31
0.0
  0
LINE
  5
1A2
  8
0
  6
CONTINUOUS
 62
     7
 10
-218.6382804600889
 20
164.5
 30
0.0
 11
-218.6382804600889
 21
187.6475591737687
 31
0.0
  0
LINE
  5
1A3
  8
0
  6
CONTINUOUS
 62
     7
 10
-218.6382804600889
 20
187.6475591737688
 30
0.0
 11
-218.5824669197103
 21
187.7467846048087
 31
0.0
  0
LINE
  5
1A4
  8
0
  6
CONTINUOUS
 62
     7
 10
-218.5824669197103
 20
187.7467846048087
 30
0.0
 11
-218.4950270131743
 21
187.8039843755934
 31
0.0
  0
ARC
  5
1A5
  8
0
  6
CONTINUOUS
 62
     7
 10
-217.2628020406515
 20
184.3123693639165
 30
0.0
 40
3.702668466481439
 50
88.07276653865198
 51
109.4384335380286
  0
LINE
  5
1A6
  8
0
  6
CONTINUOUS
 62
     7
 10
-217.1382804600889
 20
164.5
 30
0.0
 11
-218.6382804600889
 21
164.5
 31
0.0
  0
LINE
  5
1A7
  8
0
  6
CONTINUOUS
 62
     7
 10
-149.0475274666443
 20
205.4367450104815
 30
0.0
 11
-149.5382804600889
 21
205.5010985891747
 31
0.0
  0
LINE
  5
1A8
  8
0
  6
CONTINUOUS
 62
     7
 10
-217.1382804600889
 20
205.5010985891747
 30
0.0
 11
-149.5382804600889
 21
205.5010985891747
 31
0.0
  0
LINE
  5
1A9
  8
0
  6
CONTINUOUS
 62
     7
 10
-218.6382804600889
 20
187.6475591737688
 30
0.0
 11
-218.6382804600889
 21
204.0286566795423
 31
0.0
  0
ARC
  5
1AA
  8
0
  6
CONTINUOUS
 62
     7
 10
-217.1528061868308
 20
204.0156382907415
 30
0.0
 40
1.48553131739411
 50
89.43974516735425
 51
179.4978845122874
  0
LINE
  5
1AB
  8
0
  6
CONTINUOUS
 62
     7
 10
-150.2150215370099
 20
205.3583562623955
 30
0.0
 11
-150.2097377866239
 21
205.353524918495
 31
0.0
  0
LINE
  5
1AC
  8
0
  6
CONTINUOUS
 62
     7
 10
-150.2097377866239
 20
205.353524918495
 30
0.0
 11
-150.1423317111463
 21
205.2951690303076
 31
0.0
  0
LINE
  5
1AD
  8
0
  6
CONTINUOUS
 62
     7
 10
-150.1423317111463
 20
205.2951690303076
 30
0.0
 11
-150.0756727748086
 21
205.2434297060277
 31
0.0
  0
LINE
  5
1AE
  8
0
  6
CONTINUOUS
 62
     7
 10
-150.0756727748086
 20
205.2434297060277
 30
0.0
 11
-150.0148967070432
 21
205.2015029665246
 31
0.0
  0
LINE
  5
1AF
  8
0
  6
CONTINUOUS
 62
     7
 10
-150.0148967070432
 20
205.2015029665246
 30
0.0
 11
-149.955244686633
 21
205.1653515086905
 31
0.0
  0
LINE
  5
1B0
  8
0
  6
CONTINUOUS
 62
     7
 10
-149.955244686633
 20
205.1653515086905
 30
0.0
 11
-149.8970244485454
 21
205.1350582328585
 31
0.0
  0
LINE
  5
1B1
  8
0
  6
CONTINUOUS
 62
     7
 10
-149.8970244485454
 20
205.1350582328585
 30
0.0
 11
-149.8405437277475
 21
205.1107060393619
 31
0.0
  0
LINE
  5
1B2
  8
0
  6
CONTINUOUS
 62
     7
 10
-149.8405437277475
 20
205.1107060393619
 30
0.0
 11
-149.7845723514632
 21
205.0919265573189
 31
0.0
  0
LINE
  5
1B3
  8
0
  6
CONTINUOUS
 62
     7
 10
-149.7845723514632
 20
205.0919265573189
 30
0.0
 11
-149.7309223704598
 21
205.0794836692115
 31
0.0
  0
LINE
  5
1B4
  8
0
  6
CONTINUOUS
 62
     7
 10
-149.7309223704598
 20
205.0794836692115
 30
0.0
 11
-149.6799522511835
 21
205.0734226613058
 31
0.0
  0
LINE
  5
1B5
  8
0
  6
CONTINUOUS
 62
     7
 10
-149.6799522511835
 20
205.0734226613058
 30
0.0
 11
-149.6320204600802
 21
205.073788819868
 31
0.0
  0
LINE
  5
1B6
  8
0
  6
CONTINUOUS
 62
     7
 10
-149.6320204600802
 20
205.073788819868
 30
0.0
 11
-149.5382804600889
 21
205.0810368658176
 31
0.0
  0
ARC
  5
1B7
  8
0
  6
CONTINUOUS
 62
     7
 10
-150.342404395686
 20
193.9068658666752
 30
0.0
 40
11.60236266163692
 50
77.88128914046973
 51
83.59217857194017
  0
LINE
  5
1B8
  8
0
  6
CONTINUOUS
 62
     7
 10
-147.9066291775825
 20
205.2506667472892
 30
0.0
 11
-147.9837497354324
 21
205.1921388222495
 31
0.0
  0
LINE
  5
1B9
  8
0
  6
CONTINUOUS
 62
     7
 10
-149.5382804600889
 20
205.5010985891747
 30
0.0
 11
-149.5382804600889
 21
206.6
 31
0.0
  0
LINE
  5
1BA
  8
0
  6
CONTINUOUS
 62
     7
 10
-149.5382804600764
 20
206.5999999999993
 30
0.0
 11
-138.6382804600889
 21
205.5
 31
0.0
  0
ARC
  5
1BB
  8
0
  6
CONTINUOUS
 62
     7
 10
-217.1382804600889
 20
205.1
 30
0.0
 40
1.500000000000001
 50
90.0
 51
180.0
  0
LINE
  5
1BC
  8
0
  6
CONTINUOUS
 62
     7
 10
-218.6382804600889
 20
204.0286566795425
 30
0.0
 11
-218.6382804600889
 21
205.1000000000003
 31
0.0
  0
LINE
  5
1BD
  8
0
  6
CONTINUOUS
 62
     7
 10
-217.1382804600889
 20
206.6
 30
0.0
 11
-149.5382804600764
 21
206.5999999999994
 31
0.0
  0
ARC
  5
1BE
  8
0
  6
CONTINUOUS
 62
     7
 10
-169.9413685150729
 20
331.0065189387213
 30
0.0
 40
31.30718580794778
 50
336.3445988630551
 51
359.0729711745314
  0
ARC
  5
1BF
  8
0
  6
CONTINUOUS
 62
     7
 10
-229.4007842133675
 20
355.6816144663475
 30
0.0
 40
95.67928167052196
 50
328.3137220474671
 51
337.0964042727217
  0
ARC
  5
1C0
  8
0
  6
CONTINUOUS
 62
     7
 10
-149.9605305074567
 20
303.7529082066923
 30
0.0
 40
3.211247358760518
 50
57.88661056877225
 51
73.48214401311263
  0
LINE
  5
1C1
  8
0
  6
CONTINUOUS
 62
     7
 10
-148.2534425589355
 20
306.4728273847489
 30
0.0
 11
-148.1074274025048
 21
306.3579021492798
 31
0.0
  0
LINE
  5
1C2
  8
0
  6
CONTINUOUS
 62
     7
 10
-148.1074274025048
 20
306.3579021492798
 30
0.0
 11
-148.0074850946953
 21
306.2540789083481
 31
0.0
  0
LINE
  5
1C3
  8
0
  6
CONTINUOUS
 62
     7
 10
-148.0074850946953
 20
306.2540789083481
 30
0.0
 11
-147.9350770798039
 21
306.1512352240629
 31
0.0
  0
LINE
  5
1C4
  8
0
  6
CONTINUOUS
 62
     7
 10
-147.9350770798039
 20
306.1512352240629
 30
0.0
 11
-147.8860704644709
 21
306.0478596350713
 31
0.0
  0
LINE
  5
1C5
  8
0
  6
CONTINUOUS
 62
     7
 10
-147.8860704644709
 20
306.0478596350713
 30
0.0
 11
-147.8557031107972
 21
305.9261133958846
 31
0.0
  0
LINE
  5
1C6
  8
0
  6
CONTINUOUS
 62
     7
 10
-147.8557031107972
 20
305.9261133958846
 30
0.0
 11
-147.8509848068577
 21
305.820278343092
 31
0.0
  0
LINE
  5
1C7
  8
0
  6
CONTINUOUS
 62
     7
 10
-147.8509848068577
 20
305.820278343092
 30
0.0
 11
-147.8663691775968
 21
305.7060699086014
 31
0.0
  0
LINE
  5
1C8
  8
0
  6
CONTINUOUS
 62
     7
 10
-147.8663691775968
 20
305.7060699086014
 30
0.0
 11
-147.8948301713561
 21
305.608781946128
 31
0.0
  0
LINE
  5
1C9
  8
0
  6
CONTINUOUS
 62
     7
 10
-147.8948301713561
 20
305.608781946128
 30
0.0
 11
-147.951375375957
 21
305.4818917038547
 31
0.0
  0
LINE
  5
1CA
  8
0
  6
CONTINUOUS
 62
     7
 10
-147.951375375957
 20
305.4818917038547
 30
0.0
 11
-147.9837497354324
 21
305.4243618772363
 31
0.0
  0
LINE
  5
1CB
  8
0
  6
CONTINUOUS
 62
     7
 10
-149.0475274666443
 20
306.8316311637986
 30
0.0
 11
-149.5382804600889
 21
306.9870566064698
 31
0.0
  0
LINE
  5
1CC
  8
0
  6
CONTINUOUS
 62
     7
 10
-149.5382804600889
 20
306.9870566064696
 30
0.0
 11
-149.5382804600889
 21
330.5000000000001
 31
0.0
  0
LINE
  5
1CD
  8
0
  6
CONTINUOUS
 62
     7
 10
-149.5382804600764
 20
330.5
 30
0.0
 11
-138.6382804600889
 21
330.5
 31
0.0
  0
LINE
  5
1CE
  8
0
  6
CONTINUOUS
 62
     7
 10
-217.1382804600889
 20
306.9870566064696
 30
0.0
 11
-149.5382804600889
 21
306.9870566064696
 31
0.0
  0
LINE
  5
1CF
  8
0
  6
CONTINUOUS
 62
     7
 10
-217.1382804600889
 20
330.5
 30
0.0
 11
-149.5382804600764
 21
330.5
 31
0.0
  0
ARC
  5
1D0
  8
0
  6
CONTINUOUS
 62
     7
 10
-217.2361605289354
 20
311.0200573343345
 30
0.0
 40
4.034188317225177
 50
252.7188588579295
 51
271.3902834411932
  0
LINE
  5
1D1
  8
0
  6
CONTINUOUS
 62
     7
 10
-218.4345589279609
 20
307.167977810746
 30
0.0
 11
-218.5420170510188
 21
307.2230946507572
 31
0.0
  0
LINE
  5
1D2
  8
0
  6
CONTINUOUS
 62
     7
 10
-218.5420170510188
 20
307.2230946507572
 30
0.0
 11
-218.6216208529998
 21
307.2978229804667
 31
0.0
  0
LINE
  5
1D3
  8
0
  6
CONTINUOUS
 62
     7
 10
-218.6216208529998
 20
307.2978229804667
 30
0.0
 11
-218.6382804600889
 21
307.3524408262311
 31
0.0
  0
LINE
  5
1D4
  8
0
  6
CONTINUOUS
 62
     7
 10
-218.6382804600889
 20
307.3524408262311
 30
0.0
 11
-218.6382804600889
 21
330.4999999999995
 31
0.0
  0
LINE
  5
1D5
  8
0
  6
CONTINUOUS
 62
     7
 10
-218.6382804600889
 20
330.5
 30
0.0
 11
-217.1382804600889
 21
330.5
 31
0.0
  0
ARC
  5
1D6
  8
0
  6
CONTINUOUS
 62
     7
 10
-217.1520813349237
 20
290.9851001274287
 30
0.0
 40
1.486262792839806
 50
180.5303357104281
 51
270.532034609931
  0
LINE
  5
1D7
  8
0
  6
CONTINUOUS
 62
     7
 10
-218.6382804600889
 20
290.9713433204577
 30
0.0
 11
-218.6382804600889
 21
307.3524408262311
 31
0.0
  0
LINE
  5
1D8
  8
0
  6
CONTINUOUS
 62
     7
 10
-149.6320204600802
 20
305.1329639433431
 30
0.0
 11
-149.5382804600889
 21
304.3825875991126
 31
0.0
  0
LINE
  5
1D9
  8
0
  6
CONTINUOUS
 62
     7
 10
-150.2150215370099
 20
306.6453555227617
 30
0.0
 11
-149.6320204600802
 21
305.1329639433431
 31
0.0
  0
LINE
  5
1DA
  8
0
  6
CONTINUOUS
 62
     7
 10
-162.7924677348472
 20
289.4989014108252
 30
0.0
 11
-162.7874611018281
 21
289.4988932586575
 31
0.0
  0
LINE
  5
1DB
  8
0
  6
CONTINUOUS
 62
     7
 10
-217.1382804600889
 20
289.4989014108252
 30
0.0
 11
-162.7924677348472
 21
289.4989014108252
 31
0.0
  0
LINE
  5
1DC
  8
0
  6
CONTINUOUS
 62
     7
 10
-128.3853857091305
 20
231.8681172034329
 30
0.0
 11
-128.2815400925754
 21
231.8957555088377
 31
0.0
  0
LINE
  5
1DD
  8
0
  6
CONTINUOUS
 62
     7
 10
-128.2815400925754
 20
231.8957555088377
 30
0.0
 11
-128.164204629998
 21
231.9759328014268
 31
0.0
  0
LINE
  5
1DE
  8
0
  6
CONTINUOUS
 62
     7
 10
-128.164204629998
 20
231.9759328014268
 30
0.0
 11
-128.0818864165846
 21
232.0672703152287
 31
0.0
  0
ARC
  5
1DF
  8
0
  6
CONTINUOUS
 62
     7
 10
-130.163252575458
 20
233.3125489840933
 30
0.0
 40
2.425449247135988
 50
329.107971724038
 51
1.258249858006877
  0
ARC
  5
1E0
  8
0
  6
CONTINUOUS
 62
     7
 10
-147.0150604896093
 20
233.3294411202745
 30
0.0
 40
2.523374355638624
 50
179.174201042674
 51
209.1309747679863
  0
LINE
  5
1E1
  8
0
  6
CONTINUOUS
 62
     7
 10
-149.2192511456942
 20
232.101043102398
 30
0.0
 11
-149.1478660016738
 21
232.011442657189
 31
0.0
  0
LINE
  5
1E2
  8
0
  6
CONTINUOUS
 62
     7
 10
-149.1478660016738
 20
232.011442657189
 30
0.0
 11
-149.0709797050259
 21
231.9413917885558
 31
0.0
  0
LINE
  5
1E3
  8
0
  6
CONTINUOUS
 62
     7
 10
-149.0709797050259
 20
231.9413917885558
 30
0.0
 11
-148.970851133512
 21
231.8858160117546
 31
0.0
  0
LINE
  5
1E4
  8
0
  6
CONTINUOUS
 62
     7
 10
-148.970851133512
 20
231.8858160117546
 30
0.0
 11
-148.8911752110473
 21
231.8681172034329
 31
0.0
  0
LINE
  5
1E5
  8
0
  6
CONTINUOUS
 62
     7
 10
-149.5382804600889
 20
233.380128467858
 30
0.0
 11
-149.5381727569883
 21
233.3658090305284
 31
0.0
  0
LINE
  5
1E6
  8
0
  6
CONTINUOUS
 62
     7
 10
-149.5382804600889
 20
233.380128467858
 30
0.0
 11
-149.5382804600889
 21
304.3825875991128
 31
0.0
  0
LINE
  5
1E7
  8
0
  6
CONTINUOUS
 62
     7
 10
-127.7382804600889
 20
233.380128467858
 30
0.0
 11
-127.7382804600889
 21
330.5
 31
0.0
  0
LINE
  5
1E8
  8
0
  6
CONTINUOUS
 62
     7
 10
-127.7383881631895
 20
233.3658090305284
 30
0.0
 11
-127.7382804600889
 21
233.380128467858
 31
0.0
  0
LINE
  5
1E9
  8
0
  6
CONTINUOUS
 62
     7
 10
-138.6382804600889
 20
330.5
 30
0.0
 11
-127.7382804600891
 21
330.5
 31
0.0
  0
LINE
  5
1EA
  8
0
  6
CONTINUOUS
 62
     7
 10
-127.7382804600889
 20
330.5
 30
0.0
 11
-119.599565650546
 21
330.5
 31
0.0
  0
LINE
  5
1EB
  8
0
  6
CONTINUOUS
 62
     7
 10
-118.2852012941569
 20
230.5
 30
0.0
 11
-118.5087706408253
 21
231.3946180700359
 31
0.0
  0
LINE
  5
1EC
  8
0
  6
CONTINUOUS
 62
     7
 10
-118.5087706408253
 20
231.3946180700359
 30
0.0
 11
-118.6820376417476
 21
231.4500583182077
 31
0.0
  0
LINE
  5
1ED
  8
0
  6
CONTINUOUS
 62
     7
 10
-118.6820376417476
 20
231.4500583182077
 30
0.0
 11
-119.1671998411385
 21
231.5031920332823
 31
0.0
  0
LINE
  5
1EE
  8
0
  6
CONTINUOUS
 62
     7
 10
-119.1671998411385
 20
231.5031920332823
 30
0.0
 11
-119.9449227797717
 21
231.5519017550602
 31
0.0
  0
LINE
  5
1EF
  8
0
  6
CONTINUOUS
 62
     7
 10
-119.9449227797717
 20
231.5519017550602
 30
0.0
 11
-120.9842130033653
 21
231.594246326273
 31
0.0
  0
LINE
  5
1F0
  8
0
  6
CONTINUOUS
 62
     7
 10
-120.9842130033653
 20
231.594246326273
 30
0.0
 11
-128.6382804600889
 21
231.8494223582924
 31
0.0
  0
LINE
  5
1F1
  8
0
  6
CONTINUOUS
 62
     7
 10
-128.6382804600889
 20
231.8494223582924
 30
0.0
 11
-148.6382804600889
 21
231.8494223582924
 31
0.0
  0
LINE
  5
1F2
  8
0
  6
CONTINUOUS
 62
     7
 10
-156.2923479168125
 20
231.594246326273
 30
0.0
 11
-148.6382804600889
 21
231.8494223582924
 31
0.0
  0
LINE
  5
1F3
  8
0
  6
CONTINUOUS
 62
     7
 10
-156.2923479168124
 20
231.594246326273
 30
0.0
 11
-157.3316381404061
 21
231.5519017550602
 31
0.0
  0
LINE
  5
1F4
  8
0
  6
CONTINUOUS
 62
     7
 10
-157.3316381404061
 20
231.5519017550602
 30
0.0
 11
-158.1093610790394
 21
231.5031920332823
 31
0.0
  0
LINE
  5
1F5
  8
0
  6
CONTINUOUS
 62
     7
 10
-158.1093610790394
 20
231.5031920332823
 30
0.0
 11
-158.5945232784302
 21
231.4500583182077
 31
0.0
  0
LINE
  5
1F6
  8
0
  6
CONTINUOUS
 62
     7
 10
-158.5945232784302
 20
231.4500583182077
 30
0.0
 11
-158.7677902793525
 21
231.3946180700359
 31
0.0
  0
LINE
  5
1F7
  8
0
  6
CONTINUOUS
 62
     7
 10
-158.9913596260209
 20
230.5
 30
0.0
 11
-158.7677902793525
 21
231.3946180700359
 31
0.0
  0
LINE
  5
1F8
  8
0
  6
CONTINUOUS
 62
     7
 10
-159.4996135343945
 20
230.5
 30
0.0
 11
-158.9913596260209
 21
230.5
 31
0.0
  0
LINE
  5
1F9
  8
0
  6
CONTINUOUS
 62
     7
 10
-117.7769473857833
 20
230.5
 30
0.0
 11
-118.2852012941569
 21
230.5
 31
0.0
  0
LINE
  5
1FA
  8
0
  6
CONTINUOUS
 62
     7
 10
-119.599565650546
 20
330.5
 30
0.0
 11
-116.5013654796482
 21
330.5
 31
0.0
  0
LINE
  5
1FB
  8
0
  6
CONTINUOUS
 62
     7
 10
-160.9992138070326
 20
232.0004572104463
 30
0.0
 11
-160.9704017698266
 21
231.7077081870456
 31
0.0
  0
LINE
  5
1FC
  8
0
  6
CONTINUOUS
 62
     7
 10
-160.9704017698266
 20
231.7077081870456
 30
0.0
 11
-160.8850724607139
 21
231.4262225559656
 31
0.0
  0
LINE
  5
1FD
  8
0
  6
CONTINUOUS
 62
     7
 10
-160.8850724607139
 20
231.4262225559656
 30
0.0
 11
-160.7465037698497
 21
231.1668134714264
 31
0.0
  0
LINE
  5
1FE
  8
0
  6
CONTINUOUS
 62
     7
 10
-160.7465037698497
 20
231.1668134714264
 30
0.0
 11
-160.5600187562428
 21
230.9394460262337
 31
0.0
  0
LINE
  5
1FF
  8
0
  6
CONTINUOUS
 62
     7
 10
-160.5600187562428
 20
230.9394460262337
 30
0.0
 11
-160.3327811646433
 21
230.7528544468561
 31
0.0
  0
LINE
  5
200
  8
0
  6
CONTINUOUS
 62
     7
 10
-160.3327811646433
 20
230.7528544468561
 30
0.0
 11
-160.0735202332475
 21
230.6142065717237
 31
0.0
  0
LINE
  5
201
  8
0
  6
CONTINUOUS
 62
     7
 10
-160.0735202332475
 20
230.6142065717237
 30
0.0
 11
-159.7921953636195
 21
230.5288285016762
 31
0.0
  0
LINE
  5
202
  8
0
  6
CONTINUOUS
 62
     7
 10
-159.7921953636195
 20
230.5288285016762
 30
0.0
 11
-159.4996135343945
 21
230.4999999999999
 31
0.0
  0
LINE
  5
203
  8
0
  6
CONTINUOUS
 62
     7
 10
-117.7769473857833
 20
230.4999999999999
 30
0.0
 11
-117.4843655565584
 21
230.5288285016762
 31
0.0
  0
LINE
  5
204
  8
0
  6
CONTINUOUS
 62
     7
 10
-117.4843655565584
 20
230.5288285016762
 30
0.0
 11
-117.2030406869303
 21
230.6142065717236
 31
0.0
  0
LINE
  5
205
  8
0
  6
CONTINUOUS
 62
     7
 10
-117.2030406869303
 20
230.6142065717236
 30
0.0
 11
-116.9437797555346
 21
230.7528544468561
 31
0.0
  0
LINE
  5
206
  8
0
  6
CONTINUOUS
 62
     7
 10
-116.9437797555346
 20
230.7528544468561
 30
0.0
 11
-116.716542163935
 21
230.9394460262337
 31
0.0
  0
LINE
  5
207
  8
0
  6
CONTINUOUS
 62
     7
 10
-116.716542163935
 20
230.9394460262337
 30
0.0
 11
-116.5300571503281
 21
231.1668134714264
 31
0.0
  0
LINE
  5
208
  8
0
  6
CONTINUOUS
 62
     7
 10
-116.5300571503281
 20
231.1668134714264
 30
0.0
 11
-116.3914884594639
 21
231.4262225559656
 31
0.0
  0
LINE
  5
209
  8
0
  6
CONTINUOUS
 62
     7
 10
-116.3914884594639
 20
231.4262225559656
 30
0.0
 11
-116.3061591503513
 21
231.7077081870456
 31
0.0
  0
LINE
  5
20A
  8
0
  6
CONTINUOUS
 62
     7
 10
-116.3061591503513
 20
231.7077081870456
 30
0.0
 11
-116.2773471131453
 21
232.0004572104463
 31
0.0
  0
LINE
  5
20B
  8
0
  6
CONTINUOUS
 62
     7
 10
-160.9992138070326
 20
232.0004572104463
 30
0.0
 11
-160.9992138070326
 21
286.4000005993893
 31
0.0
  0
LINE
  5
20C
  8
0
  6
CONTINUOUS
 62
     7
 10
-116.2773471131452
 20
328.3786796564403
 30
0.0
 11
-116.2958595953253
 21
330.5
 31
0.0
  0
LINE
  5
20D
  8
0
  6
CONTINUOUS
 62
     7
 10
-116.2773471131452
 20
232.0004572104463
 30
0.0
 11
-116.2773471131452
 21
328.3786796564403
 31
0.0
  0
LINE
  5
20E
  8
0
  6
CONTINUOUS
 62
     7
 10
-116.5013654796482
 20
330.5
 30
0.0
 11
-116.2958595953253
 21
330.5
 31
0.0
  0
ARC
  5
20F
  8
0
  6
CONTINUOUS
 62
     7
 10
-162.7753732199962
 20
287.5134200507522
 30
0.0
 40
1.985510004053598
 50
0.6306787776997473
 51
90.348821657529
  0
LINE
  5
210
  8
0
  6
CONTINUOUS
 62
     7
 10
-162.9992899638041
 20
288.3999999999999
 30
0.0
 11
-162.9560936580489
 21
288.4478355911327
 31
0.0
  0
ARC
  5
211
  8
0
  6
CONTINUOUS
 62
     7
 10
-162.9992300675779
 20
286.3999738035651
 30
0.0
 40
2.000016260724804
 50
0.0007676375764227
 51
77.59736302821722
  0
ARC
  5
212
  8
0
  6
CONTINUOUS
 62
     7
 10
-217.1382804600889
 20
289.9
 30
0.0
 40
1.500000000000001
 50
180.0
 51
270.0
  0
LINE
  5
213
  8
0
  6
CONTINUOUS
 62
     7
 10
-218.6382804600889
 20
289.9
 30
0.0
 11
-218.6382804600889
 21
290.9713433204577
 31
0.0
  0
LINE
  5
214
  8
0
  6
CONTINUOUS
 62
     7
 10
-217.1382804600889
 20
288.4
 30
0.0
 11
-162.9992899638041
 21
288.4
 31
0.0
  0
LINE
  5
215
  8
0
  6
CONTINUOUS
 62
     7
 10
-162.9560558491222
 20
288.4479193749588
 30
0.0
 11
-162.5694644323777
 21
288.3532701947418
 31
0.0
  0
ARC
  5
216
  8
0
  6
CONTINUOUS
 62
   253
 10
-257.1892461453777
 20
319.1892461453777
 30
0.0
 40
25.99999999999995
 50
294.2589370559146
 51
335.7410629440887
  0
ARC
  5
217
  8
0
  6
CONTINUOUS
 62
   253
 10
-257.1892461453777
 20
319.1892461453777
 30
0.0
 40
29.99999999999996
 50
292.9321967018482
 51
337.0678032981517
  0
ARC
  5
218
  8
0
  6
CONTINUOUS
 62
   253
 10
-478.4999999999998
 20
330.5
 30
0.0
 40
245.9999999999998
 50
354.8707361111012
 51
358.1363940362039
  0
ARC
  5
219
  8
0
  6
CONTINUOUS
 62
   253
 10
-478.4999999999998
 20
330.5
 30
0.0
 40
249.9999999999997
 50
354.7213238966791
 51
358.1662219999533
  0
LINE
  5
21A
  8
0
  6
CONTINUOUS
 62
   253
 10
-253.4999999999999
 20
290.9504057306444
 30
0.0
 11
-253.4999999999999
 21
294.9577429443152
 31
0.0
  0
LINE
  5
21B
  8
0
  6
CONTINUOUS
 62
   253
 10
-232.6301157115821
 20
322.4999999999998
 30
0.0
 11
-228.6280327847879
 21
322.5
 31
0.0
  0
ARC
  5
21C
  8
0
  6
CONTINUOUS
 62
   253
 10
-268.5
 20
540.5
 30
0.0
 40
245.9999999999999
 50
273.4958136323898
 51
275.1292638888992
  0
LINE
  5
21D
  8
0
  6
CONTINUOUS
 62
     7
 10
-268.5
 20
316.5000000000001
 30
0.0
 11
-268.5
 21
317.4999619230642
 31
0.0
  0
LINE
  5
21E
  8
0
  6
CONTINUOUS
 62
     7
 10
-267.4912734645016
 20
316.5088030231124
 30
0.0
 11
-268.5
 21
316.5
 31
0.0
  0
LINE
  5
21F
  8
0
  6
CONTINUOUS
 62
     7
 10
-268.5000000000001
 20
319.1862915010148
 30
0.0
 11
-268.5
 21
317.4999619230642
 31
0.0
  0
LINE
  5
220
  8
0
  6
CONTINUOUS
 62
     7
 10
-267.4912734645016
 20
320.1950180365131
 30
0.0
 11
-268.5000000000001
 21
319.1862915010148
 31
0.0
  0
LINE
  5
221
  8
0
  6
CONTINUOUS
 62
     7
 10
-267.1976568772651
 20
320.4886346237498
 30
0.0
 11
-266.5
 21
320.4825462644185
 31
0.0
  0
LINE
  5
222
  8
0
  6
CONTINUOUS
 62
     7
 10
-266.5
 20
320.4825462644185
 30
0.0
 11
-266.5
 21
317.5087649461765
 31
0.0
  0
LINE
  5
223
  8
0
  6
CONTINUOUS
 62
     7
 10
-267.4912734645016
 20
320.1950180365131
 30
0.0
 11
-267.1976568772651
 21
320.4886346237498
 31
0.0
  0
ARC
  5
224
  8
0
  6
CONTINUOUS
 62
     7
 10
-267.5
 20
317.5087649461765
 30
0.0
 40
1.000000000000001
 50
270.5000000000001
 51
0.0
  0
LINE
  5
225
  8
0
  6
CONTINUOUS
 62
     7
 10
-255.4912734645016
 20
328.6135254366015
 30
0.0
 11
-258.5
 21
328.5872686779077
 31
0.0
  0
LINE
  5
226
  8
0
  6
CONTINUOUS
 62
     7
 10
-258.5
 20
328.5872686779076
 30
0.0
 11
-258.5
 21
329.1862915010152
 31
0.0
  0
LINE
  5
227
  8
0
  6
CONTINUOUS
 62
     7
 10
-258.4999999999998
 20
329.186291501015
 30
0.0
 11
-258.0955311538976
 21
329.5907603471172
 31
0.0
  0
LINE
  5
228
  8
0
  6
CONTINUOUS
 62
     7
 10
-255.4912734645016
 20
330.4999999999999
 30
0.0
 11
-257.1862915010153
 21
330.4999999999995
 31
0.0
  0
LINE
  5
229
  8
0
  6
CONTINUOUS
 62
     7
 10
-257.1862915010153
 20
330.4999999999995
 30
0.0
 11
-258.0955311538976
 21
329.5907603471172
 31
0.0
  0
LINE
  5
22A
  8
0
  6
CONTINUOUS
 62
     7
 10
-254.5
 20
330.5000000000001
 30
0.0
 11
-254.5
 21
329.6134873596657
 31
0.0
  0
LINE
  5
22B
  8
0
  6
CONTINUOUS
 62
     7
 10
-255.4912734645016
 20
330.4999999999999
 30
0.0
 11
-254.5
 21
330.4999999999999
 31
0.0
  0
ARC
  5
22C
  8
0
  6
CONTINUOUS
 62
     7
 10
-255.5
 20
329.6134873596657
 30
0.0
 40
1.000000000000001
 50
270.5000000000001
 51
0.0
  0
LINE
  5
22D
  8
0
  6
CONTINUOUS
 62
     7
 10
-256.8705904774487
 20
293.6992994191553
 30
0.0
 11
-263.9956367322508
 21
295.6084498091639
 31
0.0
  0
LINE
  5
22E
  8
0
  6
CONTINUOUS
 62
     7
 10
-256.5
 20
293.2163365060108
 30
0.0
 11
-256.5005462885636
 21
293.2397029377528
 31
0.0
  0
LINE
  5
22F
  8
0
  6
CONTINUOUS
 62
     7
 10
-256.5005462885636
 20
293.2397029377528
 30
0.0
 11
-256.5021839605294
 21
293.2630183102373
 31
0.0
  0
LINE
  5
230
  8
0
  6
CONTINUOUS
 62
     7
 10
-256.5021839605294
 20
293.2630183102373
 30
0.0
 11
-256.5049094373318
 21
293.2862316757785
 31
0.0
  0
LINE
  5
231
  8
0
  6
CONTINUOUS
 62
     7
 10
-256.5049094373318
 20
293.2862316757785
 30
0.0
 11
-256.5087167633834
 21
293.3092923095923
 31
0.0
  0
LINE
  5
232
  8
0
  6
CONTINUOUS
 62
     7
 10
-256.5087167633834
 20
293.3092923095923
 30
0.0
 11
-256.5135976190895
 21
293.3321498206363
 31
0.0
  0
LINE
  5
233
  8
0
  6
CONTINUOUS
 62
     7
 10
-256.5135976190895
 20
293.3321498206363
 30
0.0
 11
-256.5195413390275
 21
293.3547542617232
 31
0.0
  0
LINE
  5
234
  8
0
  6
CONTINUOUS
 62
     7
 10
-256.5195413390275
 20
293.3547542617232
 30
0.0
 11
-256.5265349352525
 21
293.3770562386624
 31
0.0
  0
LINE
  5
235
  8
0
  6
CONTINUOUS
 62
     7
 10
-256.5265349352525
 20
293.3770562386624
 30
0.0
 11
-256.5345631256779
 21
293.399007018194
 31
0.0
  0
LINE
  5
236
  8
0
  6
CONTINUOUS
 62
     7
 10
-256.5345631256779
 20
293.399007018194
 30
0.0
 11
-256.5436083674693
 21
293.4205586344788
 31
0.0
  0
LINE
  5
237
  8
0
  6
CONTINUOUS
 62
     7
 10
-256.5436083674693
 20
293.4205586344788
 30
0.0
 11
-256.5536508953782
 21
293.4416639939108
 31
0.0
  0
LINE
  5
238
  8
0
  6
CONTINUOUS
 62
     7
 10
-256.5536508953782
 20
293.4416639939108
 30
0.0
 11
-256.5646687649319
 21
293.462276978024
 31
0.0
  0
LINE
  5
239
  8
0
  6
CONTINUOUS
 62
     7
 10
-256.5646687649319
 20
293.462276978024
 30
0.0
 11
-256.5766379003859
 21
293.4823525442685
 31
0.0
  0
LINE
  5
23A
  8
0
  6
CONTINUOUS
 62
     7
 10
-256.5766379003859
 20
293.4823525442685
 30
0.0
 11
-256.5895321473329
 21
293.5018468244352
 31
0.0
  0
LINE
  5
23B
  8
0
  6
CONTINUOUS
 62
     7
 10
-256.5895321473329
 20
293.5018468244352
 30
0.0
 11
-256.6033233298544
 21
293.5207172205152
 31
0.0
  0
LINE
  5
23C
  8
0
  6
CONTINUOUS
 62
     7
 10
-256.6033233298544
 20
293.5207172205152
 30
0.0
 11
-256.6179813120892
 21
293.5389224977819
 31
0.0
  0
LINE
  5
23D
  8
0
  6
CONTINUOUS
 62
     7
 10
-256.6179813120892
 20
293.5389224977819
 30
0.0
 11
-256.6334740640851
 21
293.5564228748963
 31
0.0
  0
LINE
  5
23E
  8
0
  6
CONTINUOUS
 62
     7
 10
-256.6334740640851
 20
293.5564228748963
 30
0.0
 11
-256.6497677317892
 21
293.5731801108349
 31
0.0
  0
LINE
  5
23F
  8
0
  6
CONTINUOUS
 62
     7
 10
-256.6497677317892
 20
293.5731801108349
 30
0.0
 11
-256.666826711024
 21
293.5891575884524
 31
0.0
  0
LINE
  5
240
  8
0
  6
CONTINUOUS
 62
     7
 10
-256.666826711024
 20
293.5891575884524
 30
0.0
 11
-256.6846137252887
 21
293.6043203944955
 31
0.0
  0
LINE
  5
241
  8
0
  6
CONTINUOUS
 62
     7
 10
-256.6846137252887
 20
293.6043203944955
 30
0.0
 11
-256.7030899072132
 21
293.6186353958941
 31
0.0
  0
LINE
  5
242
  8
0
  6
CONTINUOUS
 62
     7
 10
-256.7030899072132
 20
293.6186353958941
 30
0.0
 11
-256.7222148834902
 21
293.6320713121621
 31
0.0
  0
LINE
  5
243
  8
0
  6
CONTINUOUS
 62
     7
 10
-256.7222148834902
 20
293.6320713121621
 30
0.0
 11
-256.7419468630962
 21
293.6445987837497
 31
0.0
  0
LINE
  5
244
  8
0
  6
CONTINUOUS
 62
     7
 10
-256.7419468630962
 20
293.6445987837497
 30
0.0
 11
-256.7622427286123
 21
293.6561904361992
 31
0.0
  0
LINE
  5
245
  8
0
  6
CONTINUOUS
 62
     7
 10
-256.7622427286123
 20
293.6561904361992
 30
0.0
 11
-256.7830581304412
 21
293.666820939962
 31
0.0
  0
LINE
  5
246
  8
0
  6
CONTINUOUS
 62
     7
 10
-256.7830581304412
 20
293.666820939962
 30
0.0
 11
-256.8043475837194
 21
293.6764670657474
 31
0.0
  0
LINE
  5
247
  8
0
  6
CONTINUOUS
 62
     7
 10
-256.8043475837194
 20
293.6764670657474
 30
0.0
 11
-256.8260645677074
 21
293.6851077352828
 31
0.0
  0
LINE
  5
248
  8
0
  6
CONTINUOUS
 62
     7
 10
-256.8260645677074
 20
293.6851077352828
 30
0.0
 11
-256.8481616274452
 21
293.6927240673722
 31
0.0
  0
LINE
  5
249
  8
0
  6
CONTINUOUS
 62
     7
 10
-256.8481616274452
 20
293.6927240673722
 30
0.0
 11
-256.8705904774487
 21
293.6992994191553
 31
0.0
  0
LINE
  5
24A
  8
0
  6
CONTINUOUS
 62
     7
 10
-256.5
 20
292.4970615154281
 30
0.0
 11
-256.5
 21
293.2163365060108
 31
0.0
  0
ARC
  5
24B
  8
0
  6
CONTINUOUS
 62
     7
 10
-257.5
 20
292.4970615154281
 30
0.0
 40
1.0
 50
279.9999999999998
 51
0.0
  0
LINE
  5
24C
  8
0
  6
CONTINUOUS
 62
     7
 10
-262.5
 20
290.6
 30
0.0
 11
-257.3263518223331
 21
291.5122537624159
 31
0.0
  0
LINE
  5
24D
  8
0
  6
CONTINUOUS
 62
     7
 10
-263.5
 20
290.6
 30
0.0
 11
-262.5
 21
290.6
 31
0.0
  0
LINE
  5
24E
  8
0
  6
CONTINUOUS
 62
     7
 10
-264.6547005383792
 20
292.6
 30
0.0
 11
-263.5
 21
290.6
 31
0.0
  0
LINE
  5
24F
  8
0
  6
CONTINUOUS
 62
     7
 10
-268.5
 20
292.6
 30
0.0
 11
-264.6547005383792
 21
292.6
 31
0.0
  0
LINE
  5
250
  8
0
  6
CONTINUOUS
 62
     7
 10
-268.5
 20
295.5000000000001
 30
0.0
 11
-268.0
 21
295.5000000000001
 31
0.0
  0
LINE
  5
251
  8
0
  6
CONTINUOUS
 62
     7
 10
-267.5
 20
296.0000000000001
 30
0.0
 11
-267.5006022718974
 21
295.9754661628363
 31
0.0
  0
LINE
  5
252
  8
0
  6
CONTINUOUS
 62
     7
 10
-267.5006022718974
 20
295.9754661628363
 30
0.0
 11
-267.5024076366639
 21
295.9509914298352
 31
0.0
  0
LINE
  5
253
  8
0
  6
CONTINUOUS
 62
     7
 10
-267.5024076366639
 20
295.9509914298352
 30
0.0
 11
-267.5054117450176
 21
295.9266347627724
 31
0.0
  0
LINE
  5
254
  8
0
  6
CONTINUOUS
 62
     7
 10
-267.5054117450176
 20
295.9266347627724
 30
0.0
 11
-267.5096073597984
 21
295.902454838992
 31
0.0
  0
LINE
  5
255
  8
0
  6
CONTINUOUS
 62
     7
 10
-267.5096073597984
 20
295.902454838992
 30
0.0
 11
-267.5149843734027
 21
295.8785099100484
 31
0.0
  0
LINE
  5
256
  8
0
  6
CONTINUOUS
 62
     7
 10
-267.5149843734027
 20
295.8785099100484
 30
0.0
 11
-267.5215298321339
 21
295.8548576613728
 31
0.0
  0
LINE
  5
257
  8
0
  6
CONTINUOUS
 62
     7
 10
-267.5215298321339
 20
295.8548576613728
 30
0.0
 11
-267.5292279674085
 21
295.8315550733039
 31
0.0
  0
LINE
  5
258
  8
0
  6
CONTINUOUS
 62
     7
 10
-267.5292279674085
 20
295.8315550733039
 30
0.0
 11
-267.5380602337444
 21
295.8086582838175
 31
0.0
  0
LINE
  5
259
  8
0
  6
CONTINUOUS
 62
     7
 10
-267.5380602337444
 20
295.8086582838175
 30
0.0
 11
-267.5480053534383
 21
295.7862224532849
 31
0.0
  0
LINE
  5
25A
  8
0
  6
CONTINUOUS
 62
     7
 10
-267.5480053534383
 20
295.7862224532849
 30
0.0
 11
-267.5590393678258
 21
295.764301631587
 31
0.0
  0
LINE
  5
25B
  8
0
  6
CONTINUOUS
 62
     7
 10
-267.5590393678258
 20
295.764301631587
 30
0.0
 11
-267.5711356949998
 21
295.7429486279034
 31
0.0
  0
LINE
  5
25C
  8
0
  6
CONTINUOUS
 62
     7
 10
-267.5711356949998
 20
295.7429486279034
 30
0.0
 11
-267.5842651938487
 21
295.7222148834902
 31
0.0
  0
LINE
  5
25D
  8
0
  6
CONTINUOUS
 62
     7
 10
-267.5842651938487
 20
295.7222148834902
 30
0.0
 11
-267.5983962342597
 21
295.7021503477538
 31
0.0
  0
LINE
  5
25E
  8
0
  6
CONTINUOUS
 62
     7
 10
-267.5983962342597
 20
295.7021503477538
 30
0.0
 11
-267.6134947733186
 21
295.6828033579182
 31
0.0
  0
LINE
  5
25F
  8
0
  6
CONTINUOUS
 62
     7
 10
-267.6134947733186
 20
295.6828033579182
 30
0.0
 11
-267.6295244373225
 21
295.6642205225765
 31
0.0
  0
LINE
  5
260
  8
0
  6
CONTINUOUS
 62
     7
 10
-267.6295244373225
 20
295.6642205225765
 30
0.0
 11
-267.6464466094067
 21
295.6464466094067
 31
0.0
  0
LINE
  5
261
  8
0
  6
CONTINUOUS
 62
     7
 10
-267.6464466094067
 20
295.6464466094067
 30
0.0
 11
-267.6642205225765
 21
295.6295244373225
 31
0.0
  0
LINE
  5
262
  8
0
  6
CONTINUOUS
 62
     7
 10
-267.6642205225765
 20
295.6295244373225
 30
0.0
 11
-267.6828033579181
 21
295.6134947733187
 31
0.0
  0
LINE
  5
263
  8
0
  6
CONTINUOUS
 62
     7
 10
-267.6828033579181
 20
295.6134947733187
 30
0.0
 11
-267.7021503477538
 21
295.5983962342597
 31
0.0
  0
LINE
  5
264
  8
0
  6
CONTINUOUS
 62
     7
 10
-267.7021503477538
 20
295.5983962342597
 30
0.0
 11
-267.7222148834902
 21
295.5842651938487
 31
0.0
  0
LINE
  5
265
  8
0
  6
CONTINUOUS
 62
     7
 10
-267.7222148834902
 20
295.5842651938487
 30
0.0
 11
-267.7429486279034
 21
295.5711356949999
 31
0.0
  0
LINE
  5
266
  8
0
  6
CONTINUOUS
 62
     7
 10
-267.7429486279034
 20
295.5711356949999
 30
0.0
 11
-267.764301631587
 21
295.5590393678258
 31
0.0
  0
LINE
  5
267
  8
0
  6
CONTINUOUS
 62
     7
 10
-267.764301631587
 20
295.5590393678258
 30
0.0
 11
-267.7862224532849
 21
295.5480053534383
 31
0.0
  0
LINE
  5
268
  8
0
  6
CONTINUOUS
 62
     7
 10
-267.7862224532849
 20
295.5480053534383
 30
0.0
 11
-267.8086582838175
 21
295.5380602337444
 31
0.0
  0
LINE
  5
269
  8
0
  6
CONTINUOUS
 62
     7
 10
-267.8086582838175
 20
295.5380602337444
 30
0.0
 11
-267.8315550733039
 21
295.5292279674085
 31
0.0
  0
LINE
  5
26A
  8
0
  6
CONTINUOUS
 62
     7
 10
-267.8315550733039
 20
295.5292279674085
 30
0.0
 11
-267.8548576613728
 21
295.5215298321339
 31
0.0
  0
LINE
  5
26B
  8
0
  6
CONTINUOUS
 62
     7
 10
-267.8548576613728
 20
295.5215298321339
 30
0.0
 11
-267.8785099100484
 21
295.5149843734027
 31
0.0
  0
LINE
  5
26C
  8
0
  6
CONTINUOUS
 62
     7
 10
-267.8785099100484
 20
295.5149843734027
 30
0.0
 11
-267.902454838992
 21
295.5096073597984
 31
0.0
  0
LINE
  5
26D
  8
0
  6
CONTINUOUS
 62
     7
 10
-267.902454838992
 20
295.5096073597984
 30
0.0
 11
-267.9266347627723
 21
295.5054117450176
 31
0.0
  0
LINE
  5
26E
  8
0
  6
CONTINUOUS
 62
     7
 10
-267.9266347627723
 20
295.5054117450176
 30
0.0
 11
-267.9509914298352
 21
295.5024076366639
 31
0.0
  0
LINE
  5
26F
  8
0
  6
CONTINUOUS
 62
     7
 10
-267.9509914298352
 20
295.5024076366639
 30
0.0
 11
-267.9754661628363
 21
295.5006022718974
 31
0.0
  0
LINE
  5
270
  8
0
  6
CONTINUOUS
 62
     7
 10
-267.9754661628363
 20
295.5006022718974
 30
0.0
 11
-268.0
 21
295.5000000000001
 31
0.0
  0
LINE
  5
271
  8
0
  6
CONTINUOUS
 62
     7
 10
-267.5
 20
296.0000000000001
 30
0.0
 11
-267.5
 21
297.0000000000001
 31
0.0
  0
LINE
  5
272
  8
0
  6
CONTINUOUS
 62
     7
 10
-268.0
 20
297.5000000000001
 30
0.0
 11
-267.9754661628363
 21
297.4993977281026
 31
0.0
  0
LINE
  5
273
  8
0
  6
CONTINUOUS
 62
     7
 10
-267.9754661628363
 20
297.4993977281026
 30
0.0
 11
-267.9509914298352
 21
297.4975923633361
 31
0.0
  0
LINE
  5
274
  8
0
  6
CONTINUOUS
 62
     7
 10
-267.9509914298352
 20
297.4975923633361
 30
0.0
 11
-267.9266347627723
 21
297.4945882549824
 31
0.0
  0
LINE
  5
275
  8
0
  6
CONTINUOUS
 62
     7
 10
-267.9266347627723
 20
297.4945882549824
 30
0.0
 11
-267.902454838992
 21
297.4903926402017
 31
0.0
  0
LINE
  5
276
  8
0
  6
CONTINUOUS
 62
     7
 10
-267.902454838992
 20
297.4903926402017
 30
0.0
 11
-267.8785099100484
 21
297.4850156265973
 31
0.0
  0
LINE
  5
277
  8
0
  6
CONTINUOUS
 62
     7
 10
-267.8785099100484
 20
297.4850156265973
 30
0.0
 11
-267.8548576613728
 21
297.4784701678661
 31
0.0
  0
LINE
  5
278
  8
0
  6
CONTINUOUS
 62
     7
 10
-267.8548576613728
 20
297.4784701678661
 30
0.0
 11
-267.8315550733039
 21
297.4707720325915
 31
0.0
  0
LINE
  5
279
  8
0
  6
CONTINUOUS
 62
     7
 10
-267.8315550733039
 20
297.4707720325915
 30
0.0
 11
-267.8086582838175
 21
297.4619397662557
 31
0.0
  0
LINE
  5
27A
  8
0
  6
CONTINUOUS
 62
     7
 10
-267.8086582838175
 20
297.4619397662557
 30
0.0
 11
-267.7862224532849
 21
297.4519946465617
 31
0.0
  0
LINE
  5
27B
  8
0
  6
CONTINUOUS
 62
     7
 10
-267.7862224532849
 20
297.4519946465617
 30
0.0
 11
-267.764301631587
 21
297.4409606321742
 31
0.0
  0
LINE
  5
27C
  8
0
  6
CONTINUOUS
 62
     7
 10
-267.764301631587
 20
297.4409606321742
 30
0.0
 11
-267.7429486279034
 21
297.4288643050002
 31
0.0
  0
LINE
  5
27D
  8
0
  6
CONTINUOUS
 62
     7
 10
-267.7429486279034
 20
297.4288643050002
 30
0.0
 11
-267.7222148834902
 21
297.4157348061513
 31
0.0
  0
LINE
  5
27E
  8
0
  6
CONTINUOUS
 62
     7
 10
-267.7222148834902
 20
297.4157348061513
 30
0.0
 11
-267.7021503477538
 21
297.4016037657403
 31
0.0
  0
LINE
  5
27F
  8
0
  6
CONTINUOUS
 62
     7
 10
-267.7021503477538
 20
297.4016037657403
 30
0.0
 11
-267.6828033579181
 21
297.3865052266814
 31
0.0
  0
LINE
  5
280
  8
0
  6
CONTINUOUS
 62
     7
 10
-267.6828033579181
 20
297.3865052266814
 30
0.0
 11
-267.6642205225765
 21
297.3704755626775
 31
0.0
  0
LINE
  5
281
  8
0
  6
CONTINUOUS
 62
     7
 10
-267.6642205225765
 20
297.3704755626775
 30
0.0
 11
-267.6464466094067
 21
297.3535533905933
 31
0.0
  0
LINE
  5
282
  8
0
  6
CONTINUOUS
 62
     7
 10
-267.6464466094067
 20
297.3535533905933
 30
0.0
 11
-267.6295244373225
 21
297.3357794774235
 31
0.0
  0
LINE
  5
283
  8
0
  6
CONTINUOUS
 62
     7
 10
-267.6295244373225
 20
297.3357794774235
 30
0.0
 11
-267.6134947733186
 21
297.3171966420819
 31
0.0
  0
LINE
  5
284
  8
0
  6
CONTINUOUS
 62
     7
 10
-267.6134947733186
 20
297.3171966420819
 30
0.0
 11
-267.5983962342597
 21
297.2978496522463
 31
0.0
  0
LINE
  5
285
  8
0
  6
CONTINUOUS
 62
     7
 10
-267.5983962342597
 20
297.2978496522463
 30
0.0
 11
-267.5842651938487
 21
297.2777851165098
 31
0.0
  0
LINE
  5
286
  8
0
  6
CONTINUOUS
 62
     7
 10
-267.5842651938487
 20
297.2777851165098
 30
0.0
 11
-267.5711356949998
 21
297.2570513720966
 31
0.0
  0
LINE
  5
287
  8
0
  6
CONTINUOUS
 62
     7
 10
-267.5711356949998
 20
297.2570513720966
 30
0.0
 11
-267.5590393678258
 21
297.235698368413
 31
0.0
  0
LINE
  5
288
  8
0
  6
CONTINUOUS
 62
     7
 10
-267.5590393678258
 20
297.235698368413
 30
0.0
 11
-267.5480053534383
 21
297.2137775467152
 31
0.0
  0
LINE
  5
289
  8
0
  6
CONTINUOUS
 62
     7
 10
-267.5480053534383
 20
297.2137775467152
 30
0.0
 11
-267.5380602337444
 21
297.1913417161825
 31
0.0
  0
LINE
  5
28A
  8
0
  6
CONTINUOUS
 62
     7
 10
-267.5380602337444
 20
297.1913417161825
 30
0.0
 11
-267.5292279674085
 21
297.1684449266961
 31
0.0
  0
LINE
  5
28B
  8
0
  6
CONTINUOUS
 62
     7
 10
-267.5292279674085
 20
297.1684449266961
 30
0.0
 11
-267.5215298321339
 21
297.1451423386272
 31
0.0
  0
LINE
  5
28C
  8
0
  6
CONTINUOUS
 62
     7
 10
-267.5215298321339
 20
297.1451423386272
 30
0.0
 11
-267.5149843734027
 21
297.1214900899516
 31
0.0
  0
LINE
  5
28D
  8
0
  6
CONTINUOUS
 62
     7
 10
-267.5149843734027
 20
297.1214900899516
 30
0.0
 11
-267.5096073597984
 21
297.097545161008
 31
0.0
  0
LINE
  5
28E
  8
0
  6
CONTINUOUS
 62
     7
 10
-267.5096073597984
 20
297.097545161008
 30
0.0
 11
-267.5054117450176
 21
297.0733652372277
 31
0.0
  0
LINE
  5
28F
  8
0
  6
CONTINUOUS
 62
     7
 10
-267.5054117450176
 20
297.0733652372277
 30
0.0
 11
-267.5024076366639
 21
297.0490085701648
 31
0.0
  0
LINE
  5
290
  8
0
  6
CONTINUOUS
 62
     7
 10
-267.5024076366639
 20
297.0490085701648
 30
0.0
 11
-267.5006022718974
 21
297.0245338371637
 31
0.0
  0
LINE
  5
291
  8
0
  6
CONTINUOUS
 62
     7
 10
-267.5006022718974
 20
297.0245338371637
 30
0.0
 11
-267.5
 21
297.0000000000001
 31
0.0
  0
LINE
  5
292
  8
0
  6
CONTINUOUS
 62
     7
 10
-268.0
 20
297.5000000000001
 30
0.0
 11
-268.5
 21
297.5000000000001
 31
0.0
  0
LINE
  5
293
  8
0
  6
CONTINUOUS
 62
     7
 10
-268.5
 20
313.5
 30
0.0
 11
-268.0
 21
313.5
 31
0.0
  0
LINE
  5
294
  8
0
  6
CONTINUOUS
 62
     7
 10
-267.5
 20
314.0
 30
0.0
 11
-267.5006022718974
 21
313.9754661628363
 31
0.0
  0
LINE
  5
295
  8
0
  6
CONTINUOUS
 62
     7
 10
-267.5006022718974
 20
313.9754661628363
 30
0.0
 11
-267.5024076366639
 21
313.9509914298353
 31
0.0
  0
LINE
  5
296
  8
0
  6
CONTINUOUS
 62
     7
 10
-267.5024076366639
 20
313.9509914298353
 30
0.0
 11
-267.5054117450176
 21
313.9266347627723
 31
0.0
  0
LINE
  5
297
  8
0
  6
CONTINUOUS
 62
     7
 10
-267.5054117450176
 20
313.9266347627723
 30
0.0
 11
-267.5096073597984
 21
313.902454838992
 31
0.0
  0
LINE
  5
298
  8
0
  6
CONTINUOUS
 62
     7
 10
-267.5096073597984
 20
313.902454838992
 30
0.0
 11
-267.5149843734027
 21
313.8785099100484
 31
0.0
  0
LINE
  5
299
  8
0
  6
CONTINUOUS
 62
     7
 10
-267.5149843734027
 20
313.8785099100484
 30
0.0
 11
-267.5215298321339
 21
313.8548576613728
 31
0.0
  0
LINE
  5
29A
  8
0
  6
CONTINUOUS
 62
     7
 10
-267.5215298321339
 20
313.8548576613728
 30
0.0
 11
-267.5292279674085
 21
313.8315550733039
 31
0.0
  0
LINE
  5
29B
  8
0
  6
CONTINUOUS
 62
     7
 10
-267.5292279674085
 20
313.8315550733039
 30
0.0
 11
-267.5380602337444
 21
313.8086582838175
 31
0.0
  0
LINE
  5
29C
  8
0
  6
CONTINUOUS
 62
     7
 10
-267.5380602337444
 20
313.8086582838175
 30
0.0
 11
-267.5480053534383
 21
313.7862224532848
 31
0.0
  0
LINE
  5
29D
  8
0
  6
CONTINUOUS
 62
     7
 10
-267.5480053534383
 20
313.7862224532848
 30
0.0
 11
-267.5590393678258
 21
313.764301631587
 31
0.0
  0
LINE
  5
29E
  8
0
  6
CONTINUOUS
 62
     7
 10
-267.5590393678258
 20
313.764301631587
 30
0.0
 11
-267.5711356949998
 21
313.7429486279034
 31
0.0
  0
LINE
  5
29F
  8
0
  6
CONTINUOUS
 62
     7
 10
-267.5711356949998
 20
313.7429486279034
 30
0.0
 11
-267.5842651938487
 21
313.7222148834902
 31
0.0
  0
LINE
  5
2A0
  8
0
  6
CONTINUOUS
 62
     7
 10
-267.5842651938487
 20
313.7222148834902
 30
0.0
 11
-267.5983962342597
 21
313.7021503477538
 31
0.0
  0
LINE
  5
2A1
  8
0
  6
CONTINUOUS
 62
     7
 10
-267.5983962342597
 20
313.7021503477538
 30
0.0
 11
-267.6134947733186
 21
313.6828033579182
 31
0.0
  0
LINE
  5
2A2
  8
0
  6
CONTINUOUS
 62
     7
 10
-267.6134947733186
 20
313.6828033579182
 30
0.0
 11
-267.6295244373225
 21
313.6642205225765
 31
0.0
  0
LINE
  5
2A3
  8
0
  6
CONTINUOUS
 62
     7
 10
-267.6295244373225
 20
313.6642205225765
 30
0.0
 11
-267.6464466094067
 21
313.6464466094068
 31
0.0
  0
LINE
  5
2A4
  8
0
  6
CONTINUOUS
 62
     7
 10
-267.6464466094067
 20
313.6464466094068
 30
0.0
 11
-267.6642205225765
 21
313.6295244373226
 31
0.0
  0
LINE
  5
2A5
  8
0
  6
CONTINUOUS
 62
     7
 10
-267.6642205225765
 20
313.6295244373226
 30
0.0
 11
-267.6828033579181
 21
313.6134947733187
 31
0.0
  0
LINE
  5
2A6
  8
0
  6
CONTINUOUS
 62
     7
 10
-267.6828033579181
 20
313.6134947733187
 30
0.0
 11
-267.7021503477538
 21
313.5983962342597
 31
0.0
  0
LINE
  5
2A7
  8
0
  6
CONTINUOUS
 62
     7
 10
-267.7021503477538
 20
313.5983962342597
 30
0.0
 11
-267.7222148834902
 21
313.5842651938488
 31
0.0
  0
LINE
  5
2A8
  8
0
  6
CONTINUOUS
 62
     7
 10
-267.7222148834902
 20
313.5842651938488
 30
0.0
 11
-267.7429486279034
 21
313.5711356949999
 31
0.0
  0
LINE
  5
2A9
  8
0
  6
CONTINUOUS
 62
     7
 10
-267.7429486279034
 20
313.5711356949999
 30
0.0
 11
-267.764301631587
 21
313.5590393678258
 31
0.0
  0
LINE
  5
2AA
  8
0
  6
CONTINUOUS
 62
     7
 10
-267.764301631587
 20
313.5590393678258
 30
0.0
 11
-267.7862224532849
 21
313.5480053534383
 31
0.0
  0
LINE
  5
2AB
  8
0
  6
CONTINUOUS
 62
     7
 10
-267.7862224532849
 20
313.5480053534383
 30
0.0
 11
-267.8086582838175
 21
313.5380602337444
 31
0.0
  0
LINE
  5
2AC
  8
0
  6
CONTINUOUS
 62
     7
 10
-267.8086582838175
 20
313.5380602337444
 30
0.0
 11
-267.8315550733039
 21
313.5292279674085
 31
0.0
  0
LINE
  5
2AD
  8
0
  6
CONTINUOUS
 62
     7
 10
-267.8315550733039
 20
313.5292279674085
 30
0.0
 11
-267.8548576613728
 21
313.5215298321339
 31
0.0
  0
LINE
  5
2AE
  8
0
  6
CONTINUOUS
 62
     7
 10
-267.8548576613728
 20
313.5215298321339
 30
0.0
 11
-267.8785099100484
 21
313.5149843734027
 31
0.0
  0
LINE
  5
2AF
  8
0
  6
CONTINUOUS
 62
     7
 10
-267.8785099100484
 20
313.5149843734027
 30
0.0
 11
-267.902454838992
 21
313.5096073597984
 31
0.0
  0
LINE
  5
2B0
  8
0
  6
CONTINUOUS
 62
     7
 10
-267.902454838992
 20
313.5096073597984
 30
0.0
 11
-267.9266347627723
 21
313.5054117450176
 31
0.0
  0
LINE
  5
2B1
  8
0
  6
CONTINUOUS
 62
     7
 10
-267.9266347627723
 20
313.5054117450176
 30
0.0
 11
-267.9509914298353
 21
313.5024076366639
 31
0.0
  0
LINE
  5
2B2
  8
0
  6
CONTINUOUS
 62
     7
 10
-267.9509914298353
 20
313.5024076366639
 30
0.0
 11
-267.9754661628363
 21
313.5006022718974
 31
0.0
  0
LINE
  5
2B3
  8
0
  6
CONTINUOUS
 62
     7
 10
-267.9754661628363
 20
313.5006022718974
 30
0.0
 11
-268.0
 21
313.5
 31
0.0
  0
LINE
  5
2B4
  8
0
  6
CONTINUOUS
 62
     7
 10
-267.5
 20
314.0
 30
0.0
 11
-267.5
 21
315.0
 31
0.0
  0
LINE
  5
2B5
  8
0
  6
CONTINUOUS
 62
     7
 10
-268.0
 20
315.5
 30
0.0
 11
-267.9754661628363
 21
315.4993977281026
 31
0.0
  0
LINE
  5
2B6
  8
0
  6
CONTINUOUS
 62
     7
 10
-267.9754661628363
 20
315.4993977281026
 30
0.0
 11
-267.9509914298353
 21
315.4975923633361
 31
0.0
  0
LINE
  5
2B7
  8
0
  6
CONTINUOUS
 62
     7
 10
-267.9509914298353
 20
315.4975923633361
 30
0.0
 11
-267.9266347627723
 21
315.4945882549824
 31
0.0
  0
LINE
  5
2B8
  8
0
  6
CONTINUOUS
 62
     7
 10
-267.9266347627723
 20
315.4945882549824
 30
0.0
 11
-267.902454838992
 21
315.4903926402016
 31
0.0
  0
LINE
  5
2B9
  8
0
  6
CONTINUOUS
 62
     7
 10
-267.902454838992
 20
315.4903926402016
 30
0.0
 11
-267.8785099100484
 21
315.4850156265973
 31
0.0
  0
LINE
  5
2BA
  8
0
  6
CONTINUOUS
 62
     7
 10
-267.8785099100484
 20
315.4850156265973
 30
0.0
 11
-267.8548576613728
 21
315.4784701678661
 31
0.0
  0
LINE
  5
2BB
  8
0
  6
CONTINUOUS
 62
     7
 10
-267.8548576613728
 20
315.4784701678661
 30
0.0
 11
-267.8315550733039
 21
315.4707720325915
 31
0.0
  0
LINE
  5
2BC
  8
0
  6
CONTINUOUS
 62
     7
 10
-267.8315550733039
 20
315.4707720325915
 30
0.0
 11
-267.8086582838175
 21
315.4619397662557
 31
0.0
  0
LINE
  5
2BD
  8
0
  6
CONTINUOUS
 62
     7
 10
-267.8086582838175
 20
315.4619397662557
 30
0.0
 11
-267.7862224532849
 21
315.4519946465617
 31
0.0
  0
LINE
  5
2BE
  8
0
  6
CONTINUOUS
 62
     7
 10
-267.7862224532849
 20
315.4519946465617
 30
0.0
 11
-267.764301631587
 21
315.4409606321742
 31
0.0
  0
LINE
  5
2BF
  8
0
  6
CONTINUOUS
 62
     7
 10
-267.764301631587
 20
315.4409606321742
 30
0.0
 11
-267.7429486279034
 21
315.4288643050002
 31
0.0
  0
LINE
  5
2C0
  8
0
  6
CONTINUOUS
 62
     7
 10
-267.7429486279034
 20
315.4288643050002
 30
0.0
 11
-267.7222148834902
 21
315.4157348061513
 31
0.0
  0
LINE
  5
2C1
  8
0
  6
CONTINUOUS
 62
     7
 10
-267.7222148834902
 20
315.4157348061513
 30
0.0
 11
-267.7021503477538
 21
315.4016037657403
 31
0.0
  0
LINE
  5
2C2
  8
0
  6
CONTINUOUS
 62
     7
 10
-267.7021503477538
 20
315.4016037657403
 30
0.0
 11
-267.6828033579181
 21
315.3865052266814
 31
0.0
  0
LINE
  5
2C3
  8
0
  6
CONTINUOUS
 62
     7
 10
-267.6828033579181
 20
315.3865052266814
 30
0.0
 11
-267.6642205225765
 21
315.3704755626775
 31
0.0
  0
LINE
  5
2C4
  8
0
  6
CONTINUOUS
 62
     7
 10
-267.6642205225765
 20
315.3704755626775
 30
0.0
 11
-267.6464466094067
 21
315.3535533905933
 31
0.0
  0
LINE
  5
2C5
  8
0
  6
CONTINUOUS
 62
     7
 10
-267.6464466094067
 20
315.3535533905933
 30
0.0
 11
-267.6295244373225
 21
315.3357794774235
 31
0.0
  0
LINE
  5
2C6
  8
0
  6
CONTINUOUS
 62
     7
 10
-267.6295244373225
 20
315.3357794774235
 30
0.0
 11
-267.6134947733186
 21
315.3171966420819
 31
0.0
  0
LINE
  5
2C7
  8
0
  6
CONTINUOUS
 62
     7
 10
-267.6134947733186
 20
315.3171966420819
 30
0.0
 11
-267.5983962342597
 21
315.2978496522462
 31
0.0
  0
LINE
  5
2C8
  8
0
  6
CONTINUOUS
 62
     7
 10
-267.5983962342597
 20
315.2978496522462
 30
0.0
 11
-267.5842651938487
 21
315.2777851165098
 31
0.0
  0
LINE
  5
2C9
  8
0
  6
CONTINUOUS
 62
     7
 10
-267.5842651938487
 20
315.2777851165098
 30
0.0
 11
-267.5711356949998
 21
315.2570513720966
 31
0.0
  0
LINE
  5
2CA
  8
0
  6
CONTINUOUS
 62
     7
 10
-267.5711356949998
 20
315.2570513720966
 30
0.0
 11
-267.5590393678258
 21
315.235698368413
 31
0.0
  0
LINE
  5
2CB
  8
0
  6
CONTINUOUS
 62
     7
 10
-267.5590393678258
 20
315.235698368413
 30
0.0
 11
-267.5480053534383
 21
315.2137775467152
 31
0.0
  0
LINE
  5
2CC
  8
0
  6
CONTINUOUS
 62
     7
 10
-267.5480053534383
 20
315.2137775467152
 30
0.0
 11
-267.5380602337444
 21
315.1913417161826
 31
0.0
  0
LINE
  5
2CD
  8
0
  6
CONTINUOUS
 62
     7
 10
-267.5380602337444
 20
315.1913417161826
 30
0.0
 11
-267.5292279674085
 21
315.1684449266962
 31
0.0
  0
LINE
  5
2CE
  8
0
  6
CONTINUOUS
 62
     7
 10
-267.5292279674085
 20
315.1684449266962
 30
0.0
 11
-267.5215298321339
 21
315.1451423386273
 31
0.0
  0
LINE
  5
2CF
  8
0
  6
CONTINUOUS
 62
     7
 10
-267.5215298321339
 20
315.1451423386273
 30
0.0
 11
-267.5149843734027
 21
315.1214900899516
 31
0.0
  0
LINE
  5
2D0
  8
0
  6
CONTINUOUS
 62
     7
 10
-267.5149843734027
 20
315.1214900899516
 30
0.0
 11
-267.5096073597984
 21
315.097545161008
 31
0.0
  0
LINE
  5
2D1
  8
0
  6
CONTINUOUS
 62
     7
 10
-267.5096073597984
 20
315.097545161008
 30
0.0
 11
-267.5054117450176
 21
315.0733652372277
 31
0.0
  0
LINE
  5
2D2
  8
0
  6
CONTINUOUS
 62
     7
 10
-267.5054117450176
 20
315.0733652372277
 30
0.0
 11
-267.5024076366639
 21
315.0490085701648
 31
0.0
  0
LINE
  5
2D3
  8
0
  6
CONTINUOUS
 62
     7
 10
-267.5024076366639
 20
315.0490085701648
 30
0.0
 11
-267.5006022718974
 21
315.0245338371637
 31
0.0
  0
LINE
  5
2D4
  8
0
  6
CONTINUOUS
 62
     7
 10
-267.5006022718974
 20
315.0245338371637
 30
0.0
 11
-267.5
 21
315.0
 31
0.0
  0
LINE
  5
2D5
  8
0
  6
CONTINUOUS
 62
     7
 10
-268.0
 20
315.5
 30
0.0
 11
-268.5
 21
315.5
 31
0.0
  0
LINE
  5
2D6
  8
0
  6
CONTINUOUS
 62
     7
 10
-253.5
 20
330.5000000000001
 30
0.0
 11
-253.5
 21
330.0000000000001
 31
0.0
  0
LINE
  5
2D7
  8
0
  6
CONTINUOUS
 62
     7
 10
-253.0
 20
329.5000000000001
 30
0.0
 11
-253.0245338371637
 21
329.5006022718975
 31
0.0
  0
LINE
  5
2D8
  8
0
  6
CONTINUOUS
 62
     7
 10
-253.0245338371637
 20
329.5006022718975
 30
0.0
 11
-253.0490085701648
 21
329.5024076366639
 31
0.0
  0
LINE
  5
2D9
  8
0
  6
CONTINUOUS
 62
     7
 10
-253.0490085701648
 20
329.5024076366639
 30
0.0
 11
-253.0733652372277
 21
329.5054117450177
 31
0.0
  0
LINE
  5
2DA
  8
0
  6
CONTINUOUS
 62
     7
 10
-253.0733652372277
 20
329.5054117450177
 30
0.0
 11
-253.097545161008
 21
329.5096073597985
 31
0.0
  0
LINE
  5
2DB
  8
0
  6
CONTINUOUS
 62
     7
 10
-253.097545161008
 20
329.5096073597985
 30
0.0
 11
-253.1214900899516
 21
329.5149843734027
 31
0.0
  0
LINE
  5
2DC
  8
0
  6
CONTINUOUS
 62
     7
 10
-253.1214900899516
 20
329.5149843734027
 30
0.0
 11
-253.1451423386272
 21
329.5215298321339
 31
0.0
  0
LINE
  5
2DD
  8
0
  6
CONTINUOUS
 62
     7
 10
-253.1451423386272
 20
329.5215298321339
 30
0.0
 11
-253.1684449266961
 21
329.5292279674086
 31
0.0
  0
LINE
  5
2DE
  8
0
  6
CONTINUOUS
 62
     7
 10
-253.1684449266961
 20
329.5292279674086
 30
0.0
 11
-253.1913417161825
 21
329.5380602337444
 31
0.0
  0
LINE
  5
2DF
  8
0
  6
CONTINUOUS
 62
     7
 10
-253.1913417161825
 20
329.5380602337444
 30
0.0
 11
-253.2137775467151
 21
329.5480053534383
 31
0.0
  0
LINE
  5
2E0
  8
0
  6
CONTINUOUS
 62
     7
 10
-253.2137775467151
 20
329.5480053534383
 30
0.0
 11
-253.235698368413
 21
329.5590393678258
 31
0.0
  0
LINE
  5
2E1
  8
0
  6
CONTINUOUS
 62
     7
 10
-253.235698368413
 20
329.5590393678258
 30
0.0
 11
-253.2570513720966
 21
329.5711356949999
 31
0.0
  0
LINE
  5
2E2
  8
0
  6
CONTINUOUS
 62
     7
 10
-253.2570513720966
 20
329.5711356949999
 30
0.0
 11
-253.2777851165098
 21
329.5842651938488
 31
0.0
  0
LINE
  5
2E3
  8
0
  6
CONTINUOUS
 62
     7
 10
-253.2777851165098
 20
329.5842651938488
 30
0.0
 11
-253.2978496522462
 21
329.5983962342597
 31
0.0
  0
LINE
  5
2E4
  8
0
  6
CONTINUOUS
 62
     7
 10
-253.2978496522462
 20
329.5983962342597
 30
0.0
 11
-253.3171966420818
 21
329.6134947733187
 31
0.0
  0
LINE
  5
2E5
  8
0
  6
CONTINUOUS
 62
     7
 10
-253.3171966420818
 20
329.6134947733187
 30
0.0
 11
-253.3357794774235
 21
329.6295244373226
 31
0.0
  0
LINE
  5
2E6
  8
0
  6
CONTINUOUS
 62
     7
 10
-253.3357794774235
 20
329.6295244373226
 30
0.0
 11
-253.3535533905933
 21
329.6464466094068
 31
0.0
  0
LINE
  5
2E7
  8
0
  6
CONTINUOUS
 62
     7
 10
-253.3535533905933
 20
329.6464466094068
 30
0.0
 11
-253.3704755626774
 21
329.6642205225766
 31
0.0
  0
LINE
  5
2E8
  8
0
  6
CONTINUOUS
 62
     7
 10
-253.3704755626774
 20
329.6642205225766
 30
0.0
 11
-253.3865052266814
 21
329.6828033579182
 31
0.0
  0
LINE
  5
2E9
  8
0
  6
CONTINUOUS
 62
     7
 10
-253.3865052266814
 20
329.6828033579182
 30
0.0
 11
-253.4016037657403
 21
329.7021503477538
 31
0.0
  0
LINE
  5
2EA
  8
0
  6
CONTINUOUS
 62
     7
 10
-253.4016037657403
 20
329.7021503477538
 30
0.0
 11
-253.4157348061512
 21
329.7222148834902
 31
0.0
  0
LINE
  5
2EB
  8
0
  6
CONTINUOUS
 62
     7
 10
-253.4157348061512
 20
329.7222148834902
 30
0.0
 11
-253.4288643050001
 21
329.7429486279034
 31
0.0
  0
LINE
  5
2EC
  8
0
  6
CONTINUOUS
 62
     7
 10
-253.4288643050001
 20
329.7429486279034
 30
0.0
 11
-253.4409606321741
 21
329.764301631587
 31
0.0
  0
LINE
  5
2ED
  8
0
  6
CONTINUOUS
 62
     7
 10
-253.4409606321741
 20
329.764301631587
 30
0.0
 11
-253.4519946465617
 21
329.7862224532849
 31
0.0
  0
LINE
  5
2EE
  8
0
  6
CONTINUOUS
 62
     7
 10
-253.4519946465617
 20
329.7862224532849
 30
0.0
 11
-253.4619397662556
 21
329.8086582838175
 31
0.0
  0
LINE
  5
2EF
  8
0
  6
CONTINUOUS
 62
     7
 10
-253.4619397662556
 20
329.8086582838175
 30
0.0
 11
-253.4707720325915
 21
329.8315550733039
 31
0.0
  0
LINE
  5
2F0
  8
0
  6
CONTINUOUS
 62
     7
 10
-253.4707720325915
 20
329.8315550733039
 30
0.0
 11
-253.478470167866
 21
329.8548576613728
 31
0.0
  0
LINE
  5
2F1
  8
0
  6
CONTINUOUS
 62
     7
 10
-253.478470167866
 20
329.8548576613728
 30
0.0
 11
-253.4850156265973
 21
329.8785099100484
 31
0.0
  0
LINE
  5
2F2
  8
0
  6
CONTINUOUS
 62
     7
 10
-253.4850156265973
 20
329.8785099100484
 30
0.0
 11
-253.4903926402016
 21
329.902454838992
 31
0.0
  0
LINE
  5
2F3
  8
0
  6
CONTINUOUS
 62
     7
 10
-253.4903926402016
 20
329.902454838992
 30
0.0
 11
-253.4945882549824
 21
329.9266347627724
 31
0.0
  0
LINE
  5
2F4
  8
0
  6
CONTINUOUS
 62
     7
 10
-253.4945882549824
 20
329.9266347627724
 30
0.0
 11
-253.4975923633361
 21
329.9509914298353
 31
0.0
  0
LINE
  5
2F5
  8
0
  6
CONTINUOUS
 62
     7
 10
-253.4975923633361
 20
329.9509914298353
 30
0.0
 11
-253.4993977281026
 21
329.9754661628364
 31
0.0
  0
LINE
  5
2F6
  8
0
  6
CONTINUOUS
 62
     7
 10
-253.4993977281026
 20
329.9754661628364
 30
0.0
 11
-253.5
 21
330.0000000000001
 31
0.0
  0
LINE
  5
2F7
  8
0
  6
CONTINUOUS
 62
     7
 10
-253.0
 20
329.5000000000001
 30
0.0
 11
-252.0
 21
329.5000000000001
 31
0.0
  0
LINE
  5
2F8
  8
0
  6
CONTINUOUS
 62
     7
 10
-251.5
 20
330.0000000000001
 30
0.0
 11
-251.5006022718974
 21
329.9754661628364
 31
0.0
  0
LINE
  5
2F9
  8
0
  6
CONTINUOUS
 62
     7
 10
-251.5006022718974
 20
329.9754661628364
 30
0.0
 11
-251.5024076366639
 21
329.9509914298353
 31
0.0
  0
LINE
  5
2FA
  8
0
  6
CONTINUOUS
 62
     7
 10
-251.5024076366639
 20
329.9509914298353
 30
0.0
 11
-251.5054117450176
 21
329.9266347627724
 31
0.0
  0
LINE
  5
2FB
  8
0
  6
CONTINUOUS
 62
     7
 10
-251.5054117450176
 20
329.9266347627724
 30
0.0
 11
-251.5096073597984
 21
329.902454838992
 31
0.0
  0
LINE
  5
2FC
  8
0
  6
CONTINUOUS
 62
     7
 10
-251.5096073597984
 20
329.902454838992
 30
0.0
 11
-251.5149843734027
 21
329.8785099100484
 31
0.0
  0
LINE
  5
2FD
  8
0
  6
CONTINUOUS
 62
     7
 10
-251.5149843734027
 20
329.8785099100484
 30
0.0
 11
-251.5215298321339
 21
329.8548576613728
 31
0.0
  0
LINE
  5
2FE
  8
0
  6
CONTINUOUS
 62
     7
 10
-251.5215298321339
 20
329.8548576613728
 30
0.0
 11
-251.5292279674085
 21
329.8315550733039
 31
0.0
  0
LINE
  5
2FF
  8
0
  6
CONTINUOUS
 62
     7
 10
-251.5292279674085
 20
329.8315550733039
 30
0.0
 11
-251.5380602337443
 21
329.8086582838175
 31
0.0
  0
LINE
  5
300
  8
0
  6
CONTINUOUS
 62
     7
 10
-251.5380602337443
 20
329.8086582838175
 30
0.0
 11
-251.5480053534382
 21
329.7862224532849
 31
0.0
  0
LINE
  5
301
  8
0
  6
CONTINUOUS
 62
     7
 10
-251.5480053534382
 20
329.7862224532849
 30
0.0
 11
-251.5590393678258
 21
329.764301631587
 31
0.0
  0
LINE
  5
302
  8
0
  6
CONTINUOUS
 62
     7
 10
-251.5590393678258
 20
329.764301631587
 30
0.0
 11
-251.5711356949998
 21
329.7429486279034
 31
0.0
  0
LINE
  5
303
  8
0
  6
CONTINUOUS
 62
     7
 10
-251.5711356949998
 20
329.7429486279034
 30
0.0
 11
-251.5842651938487
 21
329.7222148834902
 31
0.0
  0
LINE
  5
304
  8
0
  6
CONTINUOUS
 62
     7
 10
-251.5842651938487
 20
329.7222148834902
 30
0.0
 11
-251.5983962342597
 21
329.7021503477538
 31
0.0
  0
LINE
  5
305
  8
0
  6
CONTINUOUS
 62
     7
 10
-251.5983962342597
 20
329.7021503477538
 30
0.0
 11
-251.6134947733186
 21
329.6828033579182
 31
0.0
  0
LINE
  5
306
  8
0
  6
CONTINUOUS
 62
     7
 10
-251.6134947733186
 20
329.6828033579182
 30
0.0
 11
-251.6295244373225
 21
329.6642205225766
 31
0.0
  0
LINE
  5
307
  8
0
  6
CONTINUOUS
 62
     7
 10
-251.6295244373225
 20
329.6642205225766
 30
0.0
 11
-251.6464466094067
 21
329.6464466094068
 31
0.0
  0
LINE
  5
308
  8
0
  6
CONTINUOUS
 62
     7
 10
-251.6464466094067
 20
329.6464466094068
 30
0.0
 11
-251.6642205225765
 21
329.6295244373226
 31
0.0
  0
LINE
  5
309
  8
0
  6
CONTINUOUS
 62
     7
 10
-251.6642205225765
 20
329.6295244373226
 30
0.0
 11
-251.6828033579181
 21
329.6134947733187
 31
0.0
  0
LINE
  5
30A
  8
0
  6
CONTINUOUS
 62
     7
 10
-251.6828033579181
 20
329.6134947733187
 30
0.0
 11
-251.7021503477538
 21
329.5983962342597
 31
0.0
  0
LINE
  5
30B
  8
0
  6
CONTINUOUS
 62
     7
 10
-251.7021503477538
 20
329.5983962342597
 30
0.0
 11
-251.7222148834902
 21
329.5842651938488
 31
0.0
  0
LINE
  5
30C
  8
0
  6
CONTINUOUS
 62
     7
 10
-251.7222148834902
 20
329.5842651938488
 30
0.0
 11
-251.7429486279034
 21
329.5711356949999
 31
0.0
  0
LINE
  5
30D
  8
0
  6
CONTINUOUS
 62
     7
 10
-251.7429486279034
 20
329.5711356949999
 30
0.0
 11
-251.764301631587
 21
329.5590393678258
 31
0.0
  0
LINE
  5
30E
  8
0
  6
CONTINUOUS
 62
     7
 10
-251.764301631587
 20
329.5590393678258
 30
0.0
 11
-251.7862224532849
 21
329.5480053534383
 31
0.0
  0
LINE
  5
30F
  8
0
  6
CONTINUOUS
 62
     7
 10
-251.7862224532849
 20
329.5480053534383
 30
0.0
 11
-251.8086582838174
 21
329.5380602337444
 31
0.0
  0
LINE
  5
310
  8
0
  6
CONTINUOUS
 62
     7
 10
-251.8086582838174
 20
329.5380602337444
 30
0.0
 11
-251.8315550733039
 21
329.5292279674086
 31
0.0
  0
LINE
  5
311
  8
0
  6
CONTINUOUS
 62
     7
 10
-251.8315550733039
 20
329.5292279674086
 30
0.0
 11
-251.8548576613728
 21
329.5215298321339
 31
0.0
  0
LINE
  5
312
  8
0
  6
CONTINUOUS
 62
     7
 10
-251.8548576613728
 20
329.5215298321339
 30
0.0
 11
-251.8785099100483
 21
329.5149843734027
 31
0.0
  0
LINE
  5
313
  8
0
  6
CONTINUOUS
 62
     7
 10
-251.8785099100483
 20
329.5149843734027
 30
0.0
 11
-251.9024548389919
 21
329.5096073597985
 31
0.0
  0
LINE
  5
314
  8
0
  6
CONTINUOUS
 62
     7
 10
-251.9024548389919
 20
329.5096073597985
 30
0.0
 11
-251.9266347627723
 21
329.5054117450177
 31
0.0
  0
LINE
  5
315
  8
0
  6
CONTINUOUS
 62
     7
 10
-251.9266347627723
 20
329.5054117450177
 30
0.0
 11
-251.9509914298352
 21
329.5024076366639
 31
0.0
  0
LINE
  5
316
  8
0
  6
CONTINUOUS
 62
     7
 10
-251.9509914298352
 20
329.5024076366639
 30
0.0
 11
-251.9754661628363
 21
329.5006022718975
 31
0.0
  0
LINE
  5
317
  8
0
  6
CONTINUOUS
 62
     7
 10
-251.9754661628363
 20
329.5006022718975
 30
0.0
 11
-252.0
 21
329.5000000000001
 31
0.0
  0
LINE
  5
318
  8
0
  6
CONTINUOUS
 62
     7
 10
-251.5
 20
330.0000000000001
 30
0.0
 11
-251.5
 21
330.5000000000001
 31
0.0
  0
LINE
  5
319
  8
0
  6
CONTINUOUS
 62
     7
 10
-235.5
 20
330.5000000000001
 30
0.0
 11
-235.5
 21
330.0000000000001
 31
0.0
  0
LINE
  5
31A
  8
0
  6
CONTINUOUS
 62
     7
 10
-235.0
 20
329.5000000000001
 30
0.0
 11
-235.0245338371637
 21
329.5006022718975
 31
0.0
  0
LINE
  5
31B
  8
0
  6
CONTINUOUS
 62
     7
 10
-235.0245338371637
 20
329.5006022718975
 30
0.0
 11
-235.0490085701647
 21
329.5024076366639
 31
0.0
  0
LINE
  5
31C
  8
0
  6
CONTINUOUS
 62
     7
 10
-235.0490085701647
 20
329.5024076366639
 30
0.0
 11
-235.0733652372276
 21
329.5054117450177
 31
0.0
  0
LINE
  5
31D
  8
0
  6
CONTINUOUS
 62
     7
 10
-235.0733652372276
 20
329.5054117450177
 30
0.0
 11
-235.097545161008
 21
329.5096073597985
 31
0.0
  0
LINE
  5
31E
  8
0
  6
CONTINUOUS
 62
     7
 10
-235.097545161008
 20
329.5096073597985
 30
0.0
 11
-235.1214900899516
 21
329.5149843734027
 31
0.0
  0
LINE
  5
31F
  8
0
  6
CONTINUOUS
 62
     7
 10
-235.1214900899516
 20
329.5149843734027
 30
0.0
 11
-235.1451423386272
 21
329.5215298321339
 31
0.0
  0
LINE
  5
320
  8
0
  6
CONTINUOUS
 62
     7
 10
-235.1451423386272
 20
329.5215298321339
 30
0.0
 11
-235.1684449266961
 21
329.5292279674086
 31
0.0
  0
LINE
  5
321
  8
0
  6
CONTINUOUS
 62
     7
 10
-235.1684449266961
 20
329.5292279674086
 30
0.0
 11
-235.1913417161826
 21
329.5380602337444
 31
0.0
  0
LINE
  5
322
  8
0
  6
CONTINUOUS
 62
     7
 10
-235.1913417161826
 20
329.5380602337444
 30
0.0
 11
-235.2137775467151
 21
329.5480053534383
 31
0.0
  0
LINE
  5
323
  8
0
  6
CONTINUOUS
 62
     7
 10
-235.2137775467151
 20
329.5480053534383
 30
0.0
 11
-235.235698368413
 21
329.5590393678258
 31
0.0
  0
LINE
  5
324
  8
0
  6
CONTINUOUS
 62
     7
 10
-235.235698368413
 20
329.5590393678258
 30
0.0
 11
-235.2570513720966
 21
329.5711356949999
 31
0.0
  0
LINE
  5
325
  8
0
  6
CONTINUOUS
 62
     7
 10
-235.2570513720966
 20
329.5711356949999
 30
0.0
 11
-235.2777851165098
 21
329.5842651938488
 31
0.0
  0
LINE
  5
326
  8
0
  6
CONTINUOUS
 62
     7
 10
-235.2777851165098
 20
329.5842651938488
 30
0.0
 11
-235.2978496522462
 21
329.5983962342597
 31
0.0
  0
LINE
  5
327
  8
0
  6
CONTINUOUS
 62
     7
 10
-235.2978496522462
 20
329.5983962342597
 30
0.0
 11
-235.3171966420818
 21
329.6134947733187
 31
0.0
  0
LINE
  5
328
  8
0
  6
CONTINUOUS
 62
     7
 10
-235.3171966420818
 20
329.6134947733187
 30
0.0
 11
-235.3357794774235
 21
329.6295244373226
 31
0.0
  0
LINE
  5
329
  8
0
  6
CONTINUOUS
 62
     7
 10
-235.3357794774235
 20
329.6295244373226
 30
0.0
 11
-235.3535533905933
 21
329.6464466094068
 31
0.0
  0
LINE
  5
32A
  8
0
  6
CONTINUOUS
 62
     7
 10
-235.3535533905933
 20
329.6464466094068
 30
0.0
 11
-235.3704755626775
 21
329.6642205225766
 31
0.0
  0
LINE
  5
32B
  8
0
  6
CONTINUOUS
 62
     7
 10
-235.3704755626775
 20
329.6642205225766
 30
0.0
 11
-235.3865052266814
 21
329.6828033579182
 31
0.0
  0
LINE
  5
32C
  8
0
  6
CONTINUOUS
 62
     7
 10
-235.3865052266814
 20
329.6828033579182
 30
0.0
 11
-235.4016037657403
 21
329.7021503477538
 31
0.0
  0
LINE
  5
32D
  8
0
  6
CONTINUOUS
 62
     7
 10
-235.4016037657403
 20
329.7021503477538
 30
0.0
 11
-235.4157348061513
 21
329.7222148834902
 31
0.0
  0
LINE
  5
32E
  8
0
  6
CONTINUOUS
 62
     7
 10
-235.4157348061513
 20
329.7222148834902
 30
0.0
 11
-235.4288643050001
 21
329.7429486279034
 31
0.0
  0
LINE
  5
32F
  8
0
  6
CONTINUOUS
 62
     7
 10
-235.4288643050001
 20
329.7429486279034
 30
0.0
 11
-235.4409606321742
 21
329.764301631587
 31
0.0
  0
LINE
  5
330
  8
0
  6
CONTINUOUS
 62
     7
 10
-235.4409606321742
 20
329.764301631587
 30
0.0
 11
-235.4519946465617
 21
329.7862224532849
 31
0.0
  0
LINE
  5
331
  8
0
  6
CONTINUOUS
 62
     7
 10
-235.4519946465617
 20
329.7862224532849
 30
0.0
 11
-235.4619397662556
 21
329.8086582838175
 31
0.0
  0
LINE
  5
332
  8
0
  6
CONTINUOUS
 62
     7
 10
-235.4619397662556
 20
329.8086582838175
 30
0.0
 11
-235.4707720325915
 21
329.8315550733039
 31
0.0
  0
LINE
  5
333
  8
0
  6
CONTINUOUS
 62
     7
 10
-235.4707720325915
 20
329.8315550733039
 30
0.0
 11
-235.4784701678661
 21
329.8548576613728
 31
0.0
  0
LINE
  5
334
  8
0
  6
CONTINUOUS
 62
     7
 10
-235.4784701678661
 20
329.8548576613728
 30
0.0
 11
-235.4850156265973
 21
329.8785099100484
 31
0.0
  0
LINE
  5
335
  8
0
  6
CONTINUOUS
 62
     7
 10
-235.4850156265973
 20
329.8785099100484
 30
0.0
 11
-235.4903926402016
 21
329.902454838992
 31
0.0
  0
LINE
  5
336
  8
0
  6
CONTINUOUS
 62
     7
 10
-235.4903926402016
 20
329.902454838992
 30
0.0
 11
-235.4945882549824
 21
329.9266347627724
 31
0.0
  0
LINE
  5
337
  8
0
  6
CONTINUOUS
 62
     7
 10
-235.4945882549824
 20
329.9266347627724
 30
0.0
 11
-235.4975923633361
 21
329.9509914298353
 31
0.0
  0
LINE
  5
338
  8
0
  6
CONTINUOUS
 62
     7
 10
-235.4975923633361
 20
329.9509914298353
 30
0.0
 11
-235.4993977281026
 21
329.9754661628364
 31
0.0
  0
LINE
  5
339
  8
0
  6
CONTINUOUS
 62
     7
 10
-235.4993977281026
 20
329.9754661628364
 30
0.0
 11
-235.5
 21
330.0000000000001
 31
0.0
  0
LINE
  5
33A
  8
0
  6
CONTINUOUS
 62
     7
 10
-235.0
 20
329.5000000000001
 30
0.0
 11
-234.0
 21
329.5000000000001
 31
0.0
  0
LINE
  5
33B
  8
0
  6
CONTINUOUS
 62
     7
 10
-233.5
 20
330.0000000000001
 30
0.0
 11
-233.5006022718974
 21
329.9754661628364
 31
0.0
  0
LINE
  5
33C
  8
0
  6
CONTINUOUS
 62
     7
 10
-233.5006022718974
 20
329.9754661628364
 30
0.0
 11
-233.5024076366639
 21
329.9509914298353
 31
0.0
  0
LINE
  5
33D
  8
0
  6
CONTINUOUS
 62
     7
 10
-233.5024076366639
 20
329.9509914298353
 30
0.0
 11
-233.5054117450176
 21
329.9266347627724
 31
0.0
  0
LINE
  5
33E
  8
0
  6
CONTINUOUS
 62
     7
 10
-233.5054117450176
 20
329.9266347627724
 30
0.0
 11
-233.5096073597984
 21
329.902454838992
 31
0.0
  0
LINE
  5
33F
  8
0
  6
CONTINUOUS
 62
     7
 10
-233.5096073597984
 20
329.902454838992
 30
0.0
 11
-233.5149843734027
 21
329.8785099100484
 31
0.0
  0
LINE
  5
340
  8
0
  6
CONTINUOUS
 62
     7
 10
-233.5149843734027
 20
329.8785099100484
 30
0.0
 11
-233.5215298321339
 21
329.8548576613728
 31
0.0
  0
LINE
  5
341
  8
0
  6
CONTINUOUS
 62
     7
 10
-233.5215298321339
 20
329.8548576613728
 30
0.0
 11
-233.5292279674085
 21
329.8315550733039
 31
0.0
  0
LINE
  5
342
  8
0
  6
CONTINUOUS
 62
     7
 10
-233.5292279674085
 20
329.8315550733039
 30
0.0
 11
-233.5380602337443
 21
329.8086582838175
 31
0.0
  0
LINE
  5
343
  8
0
  6
CONTINUOUS
 62
     7
 10
-233.5380602337443
 20
329.8086582838175
 30
0.0
 11
-233.5480053534383
 21
329.7862224532849
 31
0.0
  0
LINE
  5
344
  8
0
  6
CONTINUOUS
 62
     7
 10
-233.5480053534383
 20
329.7862224532849
 30
0.0
 11
-233.5590393678258
 21
329.764301631587
 31
0.0
  0
LINE
  5
345
  8
0
  6
CONTINUOUS
 62
     7
 10
-233.5590393678258
 20
329.764301631587
 30
0.0
 11
-233.5711356949999
 21
329.7429486279034
 31
0.0
  0
LINE
  5
346
  8
0
  6
CONTINUOUS
 62
     7
 10
-233.5711356949999
 20
329.7429486279034
 30
0.0
 11
-233.5842651938487
 21
329.7222148834902
 31
0.0
  0
LINE
  5
347
  8
0
  6
CONTINUOUS
 62
     7
 10
-233.5842651938487
 20
329.7222148834902
 30
0.0
 11
-233.5983962342596
 21
329.7021503477538
 31
0.0
  0
LINE
  5
348
  8
0
  6
CONTINUOUS
 62
     7
 10
-233.5983962342596
 20
329.7021503477538
 30
0.0
 11
-233.6134947733186
 21
329.6828033579182
 31
0.0
  0
LINE
  5
349
  8
0
  6
CONTINUOUS
 62
     7
 10
-233.6134947733186
 20
329.6828033579182
 30
0.0
 11
-233.6295244373225
 21
329.6642205225766
 31
0.0
  0
LINE
  5
34A
  8
0
  6
CONTINUOUS
 62
     7
 10
-233.6295244373225
 20
329.6642205225766
 30
0.0
 11
-233.6464466094067
 21
329.6464466094068
 31
0.0
  0
LINE
  5
34B
  8
0
  6
CONTINUOUS
 62
     7
 10
-233.6464466094067
 20
329.6464466094068
 30
0.0
 11
-233.6642205225765
 21
329.6295244373226
 31
0.0
  0
LINE
  5
34C
  8
0
  6
CONTINUOUS
 62
     7
 10
-233.6642205225765
 20
329.6295244373226
 30
0.0
 11
-233.6828033579182
 21
329.6134947733187
 31
0.0
  0
LINE
  5
34D
  8
0
  6
CONTINUOUS
 62
     7
 10
-233.6828033579182
 20
329.6134947733187
 30
0.0
 11
-233.7021503477538
 21
329.5983962342597
 31
0.0
  0
LINE
  5
34E
  8
0
  6
CONTINUOUS
 62
     7
 10
-233.7021503477538
 20
329.5983962342597
 30
0.0
 11
-233.7222148834902
 21
329.5842651938488
 31
0.0
  0
LINE
  5
34F
  8
0
  6
CONTINUOUS
 62
     7
 10
-233.7222148834902
 20
329.5842651938488
 30
0.0
 11
-233.7429486279034
 21
329.5711356949999
 31
0.0
  0
LINE
  5
350
  8
0
  6
CONTINUOUS
 62
     7
 10
-233.7429486279034
 20
329.5711356949999
 30
0.0
 11
-233.764301631587
 21
329.5590393678258
 31
0.0
  0
LINE
  5
351
  8
0
  6
CONTINUOUS
 62
     7
 10
-233.764301631587
 20
329.5590393678258
 30
0.0
 11
-233.7862224532848
 21
329.5480053534383
 31
0.0
  0
LINE
  5
352
  8
0
  6
CONTINUOUS
 62
     7
 10
-233.7862224532848
 20
329.5480053534383
 30
0.0
 11
-233.8086582838175
 21
329.5380602337444
 31
0.0
  0
LINE
  5
353
  8
0
  6
CONTINUOUS
 62
     7
 10
-233.8086582838175
 20
329.5380602337444
 30
0.0
 11
-233.8315550733039
 21
329.5292279674086
 31
0.0
  0
LINE
  5
354
  8
0
  6
CONTINUOUS
 62
     7
 10
-233.8315550733039
 20
329.5292279674086
 30
0.0
 11
-233.8548576613728
 21
329.5215298321339
 31
0.0
  0
LINE
  5
355
  8
0
  6
CONTINUOUS
 62
     7
 10
-233.8548576613728
 20
329.5215298321339
 30
0.0
 11
-233.8785099100484
 21
329.5149843734027
 31
0.0
  0
LINE
  5
356
  8
0
  6
CONTINUOUS
 62
     7
 10
-233.8785099100484
 20
329.5149843734027
 30
0.0
 11
-233.9024548389919
 21
329.5096073597985
 31
0.0
  0
LINE
  5
357
  8
0
  6
CONTINUOUS
 62
     7
 10
-233.9024548389919
 20
329.5096073597985
 30
0.0
 11
-233.9266347627723
 21
329.5054117450177
 31
0.0
  0
LINE
  5
358
  8
0
  6
CONTINUOUS
 62
     7
 10
-233.9266347627723
 20
329.5054117450177
 30
0.0
 11
-233.9509914298352
 21
329.5024076366639
 31
0.0
  0
LINE
  5
359
  8
0
  6
CONTINUOUS
 62
     7
 10
-233.9509914298352
 20
329.5024076366639
 30
0.0
 11
-233.9754661628363
 21
329.5006022718975
 31
0.0
  0
LINE
  5
35A
  8
0
  6
CONTINUOUS
 62
     7
 10
-233.9754661628363
 20
329.5006022718975
 30
0.0
 11
-234.0
 21
329.5000000000001
 31
0.0
  0
LINE
  5
35B
  8
0
  6
CONTINUOUS
 62
     7
 10
-233.5
 20
330.0000000000001
 30
0.0
 11
-233.5
 21
330.5000000000001
 31
0.0
  0
LINE
  5
35C
  8
0
  6
CONTINUOUS
 62
     7
 10
-228.7
 20
330.5
 30
0.0
 11
-233.5
 21
330.5000000000001
 31
0.0
  0
LINE
  5
35D
  8
0
  6
CONTINUOUS
 62
     7
 10
-228.7
 20
326.0
 30
0.0
 11
-228.7
 21
330.5
 31
0.0
  0
LINE
  5
35E
  8
0
  6
CONTINUOUS
 62
     7
 10
-235.5
 20
330.5000000000001
 30
0.0
 11
-251.5
 21
330.5000000000001
 31
0.0
  0
LINE
  5
35F
  8
0
  6
CONTINUOUS
 62
     7
 10
-253.5
 20
330.5000000000001
 30
0.0
 11
-254.5
 21
330.5000000000001
 31
0.0
  0
LINE
  5
360
  8
0
  6
CONTINUOUS
 62
     7
 10
-268.5
 20
316.5000000000001
 30
0.0
 11
-268.5
 21
315.5
 31
0.0
  0
LINE
  5
361
  8
0
  6
CONTINUOUS
 62
     7
 10
-268.5
 20
313.5
 30
0.0
 11
-268.5
 21
297.5
 31
0.0
  0
LINE
  5
362
  8
0
  6
CONTINUOUS
 62
     7
 10
-268.5
 20
295.5000000000001
 30
0.0
 11
-268.5
 21
292.6
 31
0.0
  0
LINE
  5
363
  8
0
  6
CONTINUOUS
 62
     7
 10
-258.5
 20
329.1862915010153
 30
0.0
 11
-267.1976568772651
 21
320.4886346237498
 31
0.0
  0
LINE
  5
364
  8
0
  6
CONTINUOUS
 62
     7
 10
-263.9956367322508
 20
317.3223304703363
 30
0.0
 11
-263.4999999999999
 21
317.1152259989617
 31
0.0
  0
LINE
  5
365
  8
0
  6
CONTINUOUS
 62
     7
 10
-263.5
 20
317.1152236891498
 30
0.0
 11
-263.4999999999999
 21
295.4756443470179
 31
0.0
  0
LINE
  5
366
  8
0
  6
CONTINUOUS
 62
     7
 10
-255.2616702985565
 20
325.3535533905933
 30
0.0
 11
-263.4999999999999
 21
317.1152236891498
 31
0.0
  0
LINE
  5
367
  8
0
  6
CONTINUOUS
 62
     7
 10
-255.2616702985565
 20
325.3535533905933
 30
0.0
 11
-254.9081169079632
 21
325.5
 31
0.0
  0
LINE
  5
368
  8
0
  6
CONTINUOUS
 62
     7
 10
-228.7
 20
326.0
 30
0.0
 11
-228.7006022718974
 21
325.9754661628363
 31
0.0
  0
LINE
  5
369
  8
0
  6
CONTINUOUS
 62
     7
 10
-228.7006022718974
 20
325.9754661628363
 30
0.0
 11
-228.7024076366639
 21
325.9509914298353
 31
0.0
  0
LINE
  5
36A
  8
0
  6
CONTINUOUS
 62
     7
 10
-228.7024076366639
 20
325.9509914298353
 30
0.0
 11
-228.7054117450176
 21
325.9266347627723
 31
0.0
  0
LINE
  5
36B
  8
0
  6
CONTINUOUS
 62
     7
 10
-228.7054117450176
 20
325.9266347627723
 30
0.0
 11
-228.7096073597984
 21
325.902454838992
 31
0.0
  0
LINE
  5
36C
  8
0
  6
CONTINUOUS
 62
     7
 10
-228.7096073597984
 20
325.902454838992
 30
0.0
 11
-228.7149843734027
 21
325.8785099100484
 31
0.0
  0
LINE
  5
36D
  8
0
  6
CONTINUOUS
 62
     7
 10
-228.7149843734027
 20
325.8785099100484
 30
0.0
 11
-228.7215298321339
 21
325.8548576613728
 31
0.0
  0
LINE
  5
36E
  8
0
  6
CONTINUOUS
 62
     7
 10
-228.7215298321339
 20
325.8548576613728
 30
0.0
 11
-228.7292279674085
 21
325.8315550733039
 31
0.0
  0
LINE
  5
36F
  8
0
  6
CONTINUOUS
 62
     7
 10
-228.7292279674085
 20
325.8315550733039
 30
0.0
 11
-228.7380602337444
 21
325.8086582838175
 31
0.0
  0
LINE
  5
370
  8
0
  6
CONTINUOUS
 62
     7
 10
-228.7380602337444
 20
325.8086582838175
 30
0.0
 11
-228.7480053534383
 21
325.7862224532848
 31
0.0
  0
LINE
  5
371
  8
0
  6
CONTINUOUS
 62
     7
 10
-228.7480053534383
 20
325.7862224532848
 30
0.0
 11
-228.7590393678258
 21
325.764301631587
 31
0.0
  0
LINE
  5
372
  8
0
  6
CONTINUOUS
 62
     7
 10
-228.7590393678258
 20
325.764301631587
 30
0.0
 11
-228.7711356949999
 21
325.7429486279034
 31
0.0
  0
LINE
  5
373
  8
0
  6
CONTINUOUS
 62
     7
 10
-228.7711356949999
 20
325.7429486279034
 30
0.0
 11
-228.7842651938487
 21
325.7222148834902
 31
0.0
  0
LINE
  5
374
  8
0
  6
CONTINUOUS
 62
     7
 10
-228.7842651938487
 20
325.7222148834902
 30
0.0
 11
-228.7983962342597
 21
325.7021503477538
 31
0.0
  0
LINE
  5
375
  8
0
  6
CONTINUOUS
 62
     7
 10
-228.7983962342597
 20
325.7021503477538
 30
0.0
 11
-228.8134947733186
 21
325.6828033579182
 31
0.0
  0
LINE
  5
376
  8
0
  6
CONTINUOUS
 62
     7
 10
-228.8134947733186
 20
325.6828033579182
 30
0.0
 11
-228.8295244373225
 21
325.6642205225766
 31
0.0
  0
LINE
  5
377
  8
0
  6
CONTINUOUS
 62
     7
 10
-228.8295244373225
 20
325.6642205225766
 30
0.0
 11
-228.8464466094067
 21
325.6464466094068
 31
0.0
  0
LINE
  5
378
  8
0
  6
CONTINUOUS
 62
     7
 10
-228.8464466094067
 20
325.6464466094068
 30
0.0
 11
-228.8642205225765
 21
325.6295244373226
 31
0.0
  0
LINE
  5
379
  8
0
  6
CONTINUOUS
 62
     7
 10
-228.8642205225765
 20
325.6295244373226
 30
0.0
 11
-228.8828033579182
 21
325.6134947733187
 31
0.0
  0
LINE
  5
37A
  8
0
  6
CONTINUOUS
 62
     7
 10
-228.8828033579182
 20
325.6134947733187
 30
0.0
 11
-228.9021503477538
 21
325.5983962342597
 31
0.0
  0
LINE
  5
37B
  8
0
  6
CONTINUOUS
 62
     7
 10
-228.9021503477538
 20
325.5983962342597
 30
0.0
 11
-228.9222148834902
 21
325.5842651938488
 31
0.0
  0
LINE
  5
37C
  8
0
  6
CONTINUOUS
 62
     7
 10
-228.9222148834902
 20
325.5842651938488
 30
0.0
 11
-228.9429486279034
 21
325.5711356949999
 31
0.0
  0
LINE
  5
37D
  8
0
  6
CONTINUOUS
 62
     7
 10
-228.9429486279034
 20
325.5711356949999
 30
0.0
 11
-228.964301631587
 21
325.5590393678258
 31
0.0
  0
LINE
  5
37E
  8
0
  6
CONTINUOUS
 62
     7
 10
-228.964301631587
 20
325.5590393678258
 30
0.0
 11
-228.9862224532849
 21
325.5480053534383
 31
0.0
  0
LINE
  5
37F
  8
0
  6
CONTINUOUS
 62
     7
 10
-228.9862224532849
 20
325.5480053534383
 30
0.0
 11
-229.0086582838175
 21
325.5380602337444
 31
0.0
  0
LINE
  5
380
  8
0
  6
CONTINUOUS
 62
     7
 10
-229.0086582838175
 20
325.5380602337444
 30
0.0
 11
-229.0315550733039
 21
325.5292279674085
 31
0.0
  0
LINE
  5
381
  8
0
  6
CONTINUOUS
 62
     7
 10
-229.0315550733039
 20
325.5292279674085
 30
0.0
 11
-229.0548576613728
 21
325.5215298321339
 31
0.0
  0
LINE
  5
382
  8
0
  6
CONTINUOUS
 62
     7
 10
-229.0548576613728
 20
325.5215298321339
 30
0.0
 11
-229.0785099100484
 21
325.5149843734027
 31
0.0
  0
LINE
  5
383
  8
0
  6
CONTINUOUS
 62
     7
 10
-229.0785099100484
 20
325.5149843734027
 30
0.0
 11
-229.1024548389919
 21
325.5096073597984
 31
0.0
  0
LINE
  5
384
  8
0
  6
CONTINUOUS
 62
     7
 10
-229.1024548389919
 20
325.5096073597984
 30
0.0
 11
-229.1266347627723
 21
325.5054117450176
 31
0.0
  0
LINE
  5
385
  8
0
  6
CONTINUOUS
 62
     7
 10
-229.1266347627723
 20
325.5054117450176
 30
0.0
 11
-229.1509914298352
 21
325.5024076366639
 31
0.0
  0
LINE
  5
386
  8
0
  6
CONTINUOUS
 62
     7
 10
-229.1509914298352
 20
325.5024076366639
 30
0.0
 11
-229.1754661628363
 21
325.5006022718975
 31
0.0
  0
LINE
  5
387
  8
0
  6
CONTINUOUS
 62
     7
 10
-229.1754661628363
 20
325.5006022718975
 30
0.0
 11
-229.2
 21
325.5
 31
0.0
  0
LINE
  5
388
  8
0
  6
CONTINUOUS
 62
     7
 10
-229.2
 20
325.5
 30
0.0
 11
-254.9081169079632
 21
325.5
 31
0.0
  0
LINE
  5
389
  8
0
  6
CONTINUOUS
 62
     7
 10
-229.7
 20
325.0
 30
0.0
 11
-229.7
 21
325.5
 31
0.0
  0
LINE
  5
38A
  8
0
  6
CONTINUOUS
 62
     7
 10
-237.6476417762468
 20
324.5834817439698
 30
0.0
 11
-229.7
 21
325.0
 31
0.0
  0
ARC
  5
38B
  8
0
  6
CONTINUOUS
 62
     7
 10
-237.7523136887327
 20
326.5807408134789
 30
0.0
 40
2.0
 50
225.0
 51
273.0000000000002
  0
LINE
  5
38C
  8
0
  6
CONTINUOUS
 62
     7
 10
-239.5
 20
325.5
 30
0.0
 11
-239.1665272511058
 21
325.1665272511058
 31
0.0
  0
LINE
  5
38D
  8
0
  6
CONTINUOUS
 62
     7
 10
-262.5029014034106
 20
290.5994884042968
 30
0.0
 11
-262.5387702332796
 21
290.5710826261428
 31
0.0
  0
LINE
  5
38E
  8
0
  6
CONTINUOUS
 62
     7
 10
-262.5029014034104
 20
290.5994884042968
 30
0.0
 11
-262.4999999999999
 21
290.6
 31
0.0
  0
LINE
  5
38F
  8
0
  6
CONTINUOUS
 62
     7
 10
-263.5
 20
290.6
 30
0.0
 11
-263.4714658643243
 21
290.5505774272597
 31
0.0
  0
LINE
  5
390
  8
0
  6
CONTINUOUS
 62
     7
 10
-264.1243384216955
 20
291.681385867494
 30
0.0
 11
-263.9725413232425
 21
291.3198252783706
 31
0.0
  0
LINE
  5
391
  8
0
  6
CONTINUOUS
 62
     7
 10
-268.4999999999999
 20
292.6
 30
0.0
 11
-268.4999999999999
 21
290.5000000000001
 31
0.0
  0
LINE
  5
392
  8
0
  6
CONTINUOUS
 62
     7
 10
-256.5
 20
290.7881660793786
 30
0.0
 11
-256.5
 21
292.497061515428
 31
0.0
  0
LINE
  5
393
  8
0
  6
CONTINUOUS
 62
     7
 10
-268.5
 20
297.5000000000001
 30
0.0
 11
-268.5
 21
295.5000000000001
 31
0.0
  0
LINE
  5
394
  8
0
  6
CONTINUOUS
 62
     7
 10
-268.5
 20
315.5
 30
0.0
 11
-268.5
 21
313.5
 31
0.0
  0
ARC
  5
395
  8
0
  6
CONTINUOUS
 62
     7
 10
-268.5
 20
260.4999999999999
 30
0.0
 40
0.0999999999999994
 50
89.99999999999994
 51
180.0
  0
ARC
  5
396
  8
0
  6
CONTINUOUS
 62
     7
 10
-268.5
 20
260.4999999999999
 30
0.0
 40
0.099999999999989
 50
179.999999999996
 51
270.0
  0
ARC
  5
397
  8
0
  6
CONTINUOUS
 62
     7
 10
-268.5
 20
295.4999999999999
 30
0.0
 40
0.0999999999999994
 50
89.99999999999994
 51
180.0
  0
ARC
  5
398
  8
0
  6
CONTINUOUS
 62
     7
 10
-268.5
 20
295.4999999999999
 30
0.0
 40
0.099999999999989
 50
180.0
 51
270.0
  0
LINE
  5
399
  8
0
  6
CONTINUOUS
 62
     7
 10
-251.5
 20
330.4999999999999
 30
0.0
 11
-253.5
 21
330.5000000000001
 31
0.0
  0
LINE
  5
39A
  8
0
  6
CONTINUOUS
 62
     7
 10
-233.8
 20
330.5000000000001
 30
0.0
 11
-235.5
 21
330.5000000000001
 31
0.0
  0
LINE
  5
39B
  8
0
  6
CONTINUOUS
 62
     7
 10
-256.5
 20
324.1152236891498
 30
0.0
 11
-256.5
 21
293.2163365060108
 31
0.0
  0
LINE
  5
39C
  8
0
  6
CONTINUOUS
 62
     7
 10
-245.3524408262312
 20
290.9713433204578
 30
0.0
 11
-244.9870566064699
 21
289.4989014108252
 31
0.0
  0
ARC
  5
39D
  8
0
  6
CONTINUOUS
 62
     7
 10
-268.5
 20
540.5
 30
0.0
 40
252.0999999999999
 50
270.0
 51
275.3516592858025
  0
LINE
  5
39E
  8
0
  6
CONTINUOUS
 62
     7
 10
-268.5
 20
288.4
 30
0.0
 11
-268.5
 21
289.9
 31
0.0
  0
ARC
  5
39F
  8
0
  6
CONTINUOUS
 62
     7
 10
-257.1892461453777
 20
319.1892461453777
 30
0.0
 40
32.09999999999999
 50
292.3417673041945
 51
337.6582326958049
  0
LINE
  5
3A0
  8
0
  6
CONTINUOUS
 62
     7
 10
-227.4989014108252
 20
306.9870566064696
 30
0.0
 11
-228.9713433204577
 21
307.3524408262311
 31
0.0
  0
ARC
  5
3A1
  8
0
  6
CONTINUOUS
 62
     7
 10
-478.4999999999999
 20
330.5
 30
0.0
 40
252.1
 50
354.6483407141975
 51
0.0
  0
LINE
  5
3A2
  8
0
  6
CONTINUOUS
 62
     7
 10
-227.9
 20
330.5
 30
0.0
 11
-226.4
 21
330.5
 31
0.0
  0
ARC
  5
3A3
  8
0
  6
CONTINUOUS
 62
   253
 10
-268.5
 20
540.5
 30
0.0
 40
250.0
 50
270.0
 51
275.3531958031555
  0
LINE
  5
3A4
  8
0
  6
CONTINUOUS
 62
     7
 10
-228.4
 20
330.5
 30
0.0
 11
-227.9
 21
330.5
 31
0.0
  0
LINE
  5
3A5
  8
0
  6
CONTINUOUS
 62
     7
 10
-268.5
 20
289.9
 30
0.0
 11
-268.5
 21
290.5
 31
0.0
  0
ARC
  5
3A6
  8
0
  6
CONTINUOUS
 62
     7
 10
-478.4999999999999
 20
330.5
 30
0.0
 40
250.1
 50
354.7177690998623
 51
0.0
  0
ARC
  5
3A7
  8
0
  6
CONTINUOUS
 62
     7
 10
-257.1892461453777
 20
319.1892461453777
 30
0.0
 40
30.09999999999997
 50
293.5221164249897
 51
337.0973832704116
  0
LINE
  5
3A8
  8
0
  6
CONTINUOUS
 62
     7
 10
-268.5
 20
290.5
 30
0.0
 11
-266.5000000000001
 21
292.5
 31
0.0
  0
LINE
  5
3A9
  8
0
  6
CONTINUOUS
 62
     7
 10
-266.5000000000001
 20
292.4999999999999
 30
0.0
 11
-266.4990648791409
 21
292.4999999999999
 31
0.0
  0
LINE
  5
3AA
  8
0
  6
CONTINUOUS
 62
     7
 10
-266.4990648791409
 20
292.4999999999999
 30
0.0
 11
-266.2928932188135
 21
292.0868240888333
 31
0.0
  0
LINE
  5
3AB
  8
0
  6
CONTINUOUS
 62
     7
 10
-264.5103629710819
 20
292.2499999999999
 30
0.0
 11
-263.5285417048498
 21
290.5494356829343
 31
0.0
  0
LINE
  5
3AC
  8
0
  6
CONTINUOUS
 62
     7
 10
-266.4990648791409
 20
292.4999999999999
 30
0.0
 11
-264.943375672974
 21
292.4999999999999
 31
0.0
  0
ARC
  5
3AD
  8
0
  6
CONTINUOUS
 62
     7
 10
-264.9433756729741
 20
291.9999999999999
 30
0.0
 40
0.5000000000000004
 50
30.0
 51
89.99999999999994
  0
LINE
  5
3AE
  8
0
  6
CONTINUOUS
 62
     7
 10
-266.5000000000001
 20
292.4999999999999
 30
0.0
 11
-266.4990648791409
 21
292.4999999999999
 31
0.0
  0
LINE
  5
3AF
  8
0
  6
CONTINUOUS
 62
     7
 10
-233.8
 20
329.5417424305045
 30
0.0
 11
-233.8
 21
330.5
 31
0.0
  0
ARC
  5
3B0
  8
0
  6
CONTINUOUS
 62
     7
 10
-228.9125203460718
 20
328.0
 30
0.0
 40
0.4999999999999781
 50
359.4261144075605
 51
64.84676088061968
  0
LINE
  5
3B1
  8
0
  6
CONTINUOUS
 62
     7
 10
-233.8
 20
330.5
 30
0.0
 11
-233.5
 21
330.5
 31
0.0
  0
LINE
  5
3B2
  8
0
  6
CONTINUOUS
 62
     7
 10
-228.7
 20
330.5
 30
0.0
 11
-228.4
 21
330.5
 31
0.0
  0
LINE
  5
3B3
  8
0
  6
CONTINUOUS
 62
     7
 10
-244.5245815763676
 20
287.5352749543087
 30
0.0
 11
-244.9870764423279
 21
289.4988932586575
 31
0.0
  0
LINE
  5
3B4
  8
0
  6
CONTINUOUS
 62
     7
 10
-268.4999999999999
 20
286.4000005993893
 30
0.0
 11
-268.4999999999999
 21
288.4
 31
0.0
  0
LINE
  5
3B5
  8
0
  6
CONTINUOUS
 62
     7
 10
-268.4999999999999
 20
232.0004572104463
 30
0.0
 11
-268.4999999999999
 21
286.4000005993893
 31
0.0
  0
LINE
  5
3B6
  8
0
  6
CONTINUOUS
 62
     7
 10
-242.7907783364474
 20
231.3977858035252
 30
0.0
 11
-268.4999999999999
 21
230.5
 31
0.0
  0
LINE
  5
3B7
  8
0
  6
CONTINUOUS
 62
     7
 10
-268.4999999999999
 20
230.5
 30
0.0
 11
-268.4999999999999
 21
232.0004572104463
 31
0.0
  0
LINE
  5
3B8
  8
0
  6
CONTINUOUS
 62
     7
 10
-236.7137243517492
 20
231.6100012049137
 30
0.0
 11
-242.7907783364474
 21
231.3977858035252
 31
0.0
  0
LINE
  5
3B9
  8
0
  6
CONTINUOUS
 62
     7
 10
-227.926211180132
 20
305.1329639433431
 30
0.0
 11
-227.9189631341824
 21
304.3825875991126
 31
0.0
  0
ARC
  5
3BA
  8
0
  6
CONTINUOUS
 62
     7
 10
-224.2819369385056
 20
305.2302348225354
 30
0.0
 40
3.645572159774102
 50
157.1589974614336
 51
181.5289430848313
  0
LINE
  5
3BB
  8
0
  6
CONTINUOUS
 62
     7
 10
-227.9189631341824
 20
233.380128467858
 30
0.0
 11
-227.9189631341824
 21
304.3825875991128
 31
0.0
  0
LINE
  5
3BC
  8
0
  6
CONTINUOUS
 62
     7
 10
-227.9189631341824
 20
233.380128467858
 30
0.0
 11
-227.9189548424084
 21
233.3658090305284
 31
0.0
  0
ARC
  5
3BD
  8
0
  6
CONTINUOUS
 62
     7
 10
-229.3962985573729
 20
233.3437685624065
 30
0.0
 40
1.477508116519206
 50
272.8727364354067
 51
0.8547314412917331
  0
LINE
  5
3BE
  8
0
  6
CONTINUOUS
 62
     7
 10
-229.322249241781
 20
231.8681172034329
 30
0.0
 11
-236.7137243517492
 21
231.6100012049137
 31
0.0
  0
ARC
  5
3BF
  8
0
  6
CONTINUOUS
 62
     7
 10
-223.4395186660717
 20
305.3899661187097
 30
0.0
 40
4.368477923435658
 50
160.7302890136469
 51
179.5488698365693
  0
LINE
  5
3C0
  8
0
  6
CONTINUOUS
 62
     7
 10
-228.9476507549462
 20
231.8811984708436
 30
0.0
 11
-229.322249241781
 21
231.8681172034329
 31
0.0
  0
LINE
  5
3C1
  8
0
  6
CONTINUOUS
 62
     7
 10
-229.8575995623106
 20
306.5800790413095
 30
0.0
 11
-229.8575995623106
 21
306.8206934791068
 31
0.0
  0
LINE
  5
3C2
  8
0
  6
CONTINUOUS
 62
     7
 10
-229.8575995623106
 20
322.4999999999999
 30
0.0
 11
-229.8575995623106
 21
324.9917405569233
 31
0.0
  0
LINE
  5
3C3
  8
0
  6
CONTINUOUS
 62
     7
 10
-229.7071500468855
 20
306.907390133772
 30
0.0
 11
-229.6989605367262
 21
307.1842073980191
 31
0.0
  0
LINE
  5
3C4
  8
0
  6
CONTINUOUS
 62
     7
 10
-229.5027637053643
 20
322.4985153884325
 30
0.0
 11
-229.5001760361874
 21
325.4987226322087
 31
0.0
  0
LINE
  5
3C5
  8
0
  6
CONTINUOUS
 62
     7
 10
-268.5
 20
328.3786796564404
 30
0.0
 11
-266.3786796564403
 21
330.5
 31
0.0
  0
LINE
  5
3C6
  8
0
  6
CONTINUOUS
 62
     7
 10
-268.5
 20
328.3786796564404
 30
0.0
 11
-268.5
 21
319.1862915010153
 31
0.0
  0
LINE
  5
3C7
  8
0
  6
CONTINUOUS
 62
     7
 10
-257.1862915010153
 20
330.5
 30
0.0
 11
-266.3786796564403
 21
330.5
 31
0.0
  0
LINE
  5
3C8
  8
0
  6
CONTINUOUS
 62
     7
 10
-227.5
 20
233.3802847113723
 30
0.0
 11
-227.5
 21
306.9843838635175
 31
0.0
  0
ARC
  5
3C9
  8
0
  6
CONTINUOUS
 62
     7
 10
-229.0
 20
233.3802847113722
 30
0.0
 40
1.499999999999992
 50
271.9999999999999
 51
0.0
  0
ENDSEC
  0
EOF
