  0
SECTION
  2
HEADER
  9
$ACADVER
  1
AC1006
  9
$DWGCODEPAGE
  3
ansi_932
  9
$INSBASE
 10
0.0
 20
0.0
 30
0.0
  9
$EXTMIN
 10
-248.0
 20
150.0000000000001
  9
$EXTMAX
 10
-127.5
 20
265.0
  9
$LIMMIN
 10
0.0
 20
0.0
  9
$LIMMAX
 10
12.0
 20
9.0
  9
$ORTHOMODE
 70
     0
  9
$REGENMODE
 70
     1
  9
$FILLMODE
 70
     1
  9
$QTEXTMODE
 70
     0
  9
$MIRRTEXT
 70
     1
  9
$DRAGMODE
 70
     2
  9
$LTSCALE
 40
1.0
  9
$OSMODE
 70
    37
  9
$ATTMODE
 70
     1
  9
$TEXTSIZE
 40
0.2
  9
$TRACEWID
 40
0.05
  9
$TEXTSTYLE
  7
STANDARD
  9
$CLAYER
  8
0
  9
$CELTYPE
  6
BYLAYER
  9
$CECOLOR
 62
   256
  9
$DIMSCALE
 40
1.0
  9
$DIMASZ
 40
3.0
  9
$DIMEXO
 40
0.0625
  9
$DIMDLI
 40
0.38
  9
$DIMRND
 40
0.0
  9
$DIMDLE
 40
0.0
  9
$DIMEXE
 40
1.5
  9
$DIMTP
 40
0.0
  9
$DIMTM
 40
0.0
  9
$DIMTXT
 40
3.0
  9
$DIMCEN
 40
0.09
  9
$DIMTSZ
 40
0.0
  9
$DIMTOL
 70
     0
  9
$DIMLIM
 70
     0
  9
$DIMTIH
 70
     1
  9
$DIMTOH
 70
     1
  9
$DIMSE1
 70
     0
  9
$DIMSE2
 70
     0
  9
$DIMTAD
 70
     1
  9
$DIMZIN
 70
     0
  9
$DIMBLK
  1

  9
$DIMASO
 70
     1
  9
$DIMSHO
 70
     1
  9
$DIMPOST
  1

  9
$DIMAPOST
  1

  9
$DIMALT
 70
     0
  9
$DIMALTD
 70
     2
  9
$DIMALTF
 40
25.4
  9
$DIMLFAC
 40
1.0
  9
$DIMTOFL
 70
     0
  9
$DIMTVP
 40
0.0
  9
$DIMTIX
 70
     0
  9
$DIMSOXD
 70
     0
  9
$DIMSAH
 70
     0
  9
$DIMBLK1
  1

  9
$DIMBLK2
  1

  9
$LUNITS
 70
     2
  9
$LUPREC
 70
     4
  9
$SKETCHINC
 40
0.1
  9
$FILLETRAD
 40
0.5
  9
$AUNITS
 70
     0
  9
$AUPREC
 70
     0
  9
$MENU
  1
.
  9
$ELEVATION
 40
0.0
  9
$THICKNESS
 40
0.0
  9
$LIMCHECK
 70
     0
  9
$CHAMFERA
 40
0.0
  9
$CHAMFERB
 40
0.0
  9
$SKPOLY
 70
     0
  9
$TDCREATE
 40
2460427.60562353
  9
$TDUPDATE
 40
2460427.60562375
  9
$TDINDWG
 40
0.0000000116
  9
$TDUSRTIMER
 40
0.0000000116
  9
$USRTIMER
 70
     1
  9
$ANGBASE
 50
0.0
  9
$ANGDIR
 70
     0
  9
$PDMODE
 70
     0
  9
$PDSIZE
 40
0.0
  9
$PLINEWID
 40
0.0
  9
$COORDS
 70
     1
  9
$SPLFRAME
 70
     0
  9
$SPLINETYPE
 70
     6
  9
$SPLINESEGS
 70
     8
  9
$ATTDIA
 70
     0
  9
$ATTREQ
 70
     1
  9
$HANDLING
 70
     1
  9
$HANDSEED
  5
271
  9
$SURFTAB1
 70
     6
  9
$SURFTAB2
 70
     6
  9
$SURFTYPE
 70
     6
  9
$SURFU
 70
     6
  9
$SURFV
 70
     6
  9
$UCSNAME
  2

  9
$UCSORG
 10
0.0
 20
0.0
 30
0.0
  9
$UCSXDIR
 10
1.0
 20
0.0
 30
0.0
  9
$UCSYDIR
 10
0.0
 20
1.0
 30
0.0
  9
$USERI1
 70
     0
  9
$USERI2
 70
     0
  9
$USERI3
 70
     0
  9
$USERI4
 70
     0
  9
$USERI5
 70
     0
  9
$USERR1
 40
0.0
  9
$USERR2
 40
0.0
  9
$USERR3
 40
0.0
  9
$USERR4
 40
0.0
  9
$USERR5
 40
0.0
  9
$WORLDVIEW
 70
     1
  0
ENDSEC
  0
SECTION
  2
TABLES
  0
TABLE
  2
VPORT
 70
     1
  0
VPORT
  2
*ACTIVE
 70
     0
 10
0.0
 20
0.0
 11
1.0
 21
1.0
 12
-187.75
 22
207.5000000000001
 13
0.0
 23
0.0
 14
0.5
 24
0.5
 15
0.5
 25
0.5
 16
0.0
 26
0.0
 36
1.0
 17
0.0
 27
0.0
 37
0.0
 40
114.9999999999999
 41
1.6
 42
50.0
 43
0.0
 44
0.0
 50
0.0
 51
0.0
 71
     0
 72
   100
 73
     1
 74
     3
 75
     0
 76
     0
 77
     0
 78
     0
  0
ENDTAB
  0
TABLE
  2
LTYPE
 70
     2
  0
LTYPE
  2
CONTINUOUS
 70
     0
  3
Solid line
 72
    65
 73
     0
 40
0.0
  0
LTYPE
  2
CENTER
 70
     0
  3

 72
    65
 73
     0
 40
0.0
  0
ENDTAB
  0
TABLE
  2
LAYER
 70
     1
  0
LAYER
  2
0
 70
     0
 62
     7
  6
CONTINUOUS
  0
ENDTAB
  0
TABLE
  2
STYLE
 70
     2
  0
STYLE
  2
STANDARD
 70
     0
 40
0.0
 41
1.0
 50
0.0
 71
     0
 42
0.2
  3
txt
  4

  0
STYLE
  2
ＭＳ_ゴシック
 70
     0
 40
0.0
 41
1.0
 50
0.0
 71
     0
 42
0.2
  3
ＭＳ ゴシック.shx
  4

  0
ENDTAB
  0
TABLE
  2
VIEW
 70
     0
  0
ENDTAB
  0
TABLE
  2
UCS
 70
     0
  0
ENDTAB
  0
ENDSEC
  0
SECTION
  2
BLOCKS
  0
ENDSEC
  0
SECTION
  2
ENTITIES
  0
TEXT
  5
6F
  8
0
  6
CONTINUOUS
 62
     7
 10
-156.0791171689384
 20
198.0136582468426
 30
0.0
 40
3.0
  1
RMGS-20
  0
ARC
  5
70
  8
0
  6
CONTINUOUS
 62
     7
 10
81.04227089226251
 20
218.9577291077374
 30
0.0
 40
248.0999999999999
 50
174.7904765417984
 51
177.6899917511581
  0
ARC
  5
71
  8
0
  6
CONTINUOUS
 62
     7
 10
-140.2684829623597
 20
230.2684829623597
 30
0.0
 40
28.09999999999999
 50
113.5253682464058
 51
156.4746317535931
  0
LINE
  5
72
  8
0
  6
CONTINUOUS
 62
     7
 10
-166.8561155486338
 20
228.9577291077375
 30
0.0
 11
-162.8528090089114
 21
228.9577291077375
 31
0.0
  0
ARC
  5
73
  8
0
  6
CONTINUOUS
 62
     7
 10
81.04227089226251
 20
218.9577291077374
 30
0.0
 40
244.1
 50
174.9472117204796
 51
177.6521172460866
  0
ARC
  5
74
  8
0
  6
CONTINUOUS
 62
     7
 10
-140.2684829623597
 20
230.2684829623597
 30
0.0
 40
24.09999999999996
 50
115.0075929559278
 51
154.9924070440726
  0
ARC
  5
75
  8
0
  6
CONTINUOUS
 62
     7
 10
-128.9577291077374
 20
8.957729107737483
 30
0.0
 40
244.1
 50
92.34788275391331
 51
95.05278827952048
  0
LINE
  5
76
  8
0
  6
CONTINUOUS
 62
     7
 10
-138.9577291077374
 20
252.8528090089114
 30
0.0
 11
-138.9577291077374
 21
256.8561155486338
 31
0.0
  0
ARC
  5
77
  8
0
  6
CONTINUOUS
 62
     7
 10
-128.9577291077374
 20
8.957729107737483
 30
0.0
 40
248.0999999999999
 50
92.31000824884184
 51
95.20952345820147
  0
LINE
  5
78
  8
0
  6
CENTER
 62
     1
 10
-220.0
 20
215.0
 30
0.0
 11
-220.0
 21
265.0
 31
0.0
  0
LINE
  5
7A
  8
0
  6
CENTER
 62
     1
 10
-220.0
 20
150.0000000000001
 30
0.0
 11
-220.0
 21
195.0
 31
0.0
  0
LINE
  5
7B
  8
0
  6
CENTER
 62
     1
 10
-127.5
 20
217.5
 30
0.0
 11
-170.0
 21
260.0
 31
0.0
  0
LINE
  5
7C
  8
0
  6
CONTINUOUS
 62
     7
 10
-227.5
 20
218.8577291077374
 30
0.0
 11
-227.5
 21
218.9577291077374
 31
0.0
  0
LINE
  5
7D
  8
0
  6
CONTINUOUS
 62
     7
 10
-212.5
 20
218.8577291077374
 30
0.0
 11
-227.5
 21
218.8577291077374
 31
0.0
  0
LINE
  5
7E
  8
0
  6
CONTINUOUS
 62
     7
 10
-212.5
 20
218.8577291077374
 30
0.0
 11
-212.5
 21
218.9577291077374
 31
0.0
  0
LINE
  5
7F
  8
0
  6
CONTINUOUS
 62
     7
 10
-210.0
 20
218.8577291077374
 30
0.0
 11
-210.0
 21
218.9577291077374
 31
0.0
  0
ARC
  5
80
  8
0
  6
CONTINUOUS
 62
     7
 10
-210.0
 20
218.9577291077374
 30
0.0
 40
0.1000000000000029
 50
270.0
 51
0.0
  0
LINE
  5
81
  8
0
  6
CONTINUOUS
 62
     7
 10
-229.9999999999999
 20
218.8577291077374
 30
0.0
 11
-229.9999999999999
 21
218.9577291077374
 31
0.0
  0
ARC
  5
82
  8
0
  6
CONTINUOUS
 62
     7
 10
-229.9999999999999
 20
218.9577291077374
 30
0.0
 40
0.099999999999989
 50
180.0
 51
270.0
  0
ARC
  5
83
  8
0
  6
CONTINUOUS
 62
     7
 10
-210.0
 20
218.9577291077374
 30
0.0
 40
0.099999999999989
 50
180.0
 51
270.0
  0
ARC
  5
84
  8
0
  6
CONTINUOUS
 62
     7
 10
-229.9999999999999
 20
218.9577291077374
 30
0.0
 40
0.099999999999989
 50
270.0
 51
0.0
  0
LINE
  5
85
  8
0
  6
CONTINUOUS
 62
     7
 10
-246.782773611015
 20
242.1837922158707
 30
0.0
 11
-248.0
 21
218.9577291077374
 31
0.0
  0
LINE
  5
86
  8
0
  6
CONTINUOUS
 62
     7
 10
-245.2730123116089
 20
242.4706725012675
 30
0.0
 11
-245.2955362885461
 21
242.471207722215
 31
0.0
  0
LINE
  5
87
  8
0
  6
CONTINUOUS
 62
     7
 10
-246.4979414810031
 20
218.9577291077374
 30
0.0
 11
-245.2760614995655
 21
242.4121422730624
 31
0.0
  0
LINE
  5
88
  8
0
  6
CONTINUOUS
 62
     7
 10
-245.2760614995655
 20
242.4121422730624
 30
0.0
 11
-245.2730123116089
 21
242.4706725012674
 31
0.0
  0
LINE
  5
89
  8
0
  6
CONTINUOUS
 62
     7
 10
-248.0
 20
218.9577291077374
 30
0.0
 11
-246.4979414810031
 21
218.9577291077374
 31
0.0
  0
LINE
  5
8A
  8
0
  6
CONTINUOUS
 62
     7
 10
-193.5020585189969
 20
218.9577291077374
 30
0.0
 11
-194.7269876883911
 21
242.4706725012674
 31
0.0
  0
LINE
  5
8B
  8
0
  6
CONTINUOUS
 62
     7
 10
-194.7269876883911
 20
242.4706725012675
 30
0.0
 11
-194.7044637114539
 21
242.471207722215
 31
0.0
  0
LINE
  5
8C
  8
0
  6
CONTINUOUS
 62
     7
 10
-193.217226388985
 20
242.1837922158707
 30
0.0
 11
-192.0
 21
218.9577291077374
 31
0.0
  0
LINE
  5
8D
  8
0
  6
CONTINUOUS
 62
     7
 10
-192.0
 20
218.9577291077374
 30
0.0
 11
-193.5020585189968
 21
218.9577291077374
 31
0.0
  0
LINE
  5
8E
  8
0
  6
CONTINUOUS
 62
     7
 10
-209.0
 20
242.4706725012675
 30
0.0
 11
-209.0
 21
218.9577291077375
 31
0.0
  0
LINE
  5
8F
  8
0
  6
CONTINUOUS
 62
     7
 10
-193.5020585189968
 20
218.9577291077374
 30
0.0
 11
-209.0
 21
218.9577291077374
 31
0.0
  0
LINE
  5
90
  8
0
  6
CONTINUOUS
 62
     7
 10
-231.0
 20
242.4706725012675
 30
0.0
 11
-231.0
 21
218.9577291077375
 31
0.0
  0
LINE
  5
91
  8
0
  6
CONTINUOUS
 62
     7
 10
-246.4979414810031
 20
218.9577291077374
 30
0.0
 11
-231.0
 21
218.9577291077374
 31
0.0
  0
LINE
  5
92
  8
0
  6
CONTINUOUS
 62
     7
 10
-211.5
 20
218.9577291077374
 30
0.0
 11
-211.5
 21
241.982380187708
 31
0.0
  0
LINE
  5
93
  8
0
  6
CONTINUOUS
 62
     7
 10
-211.5
 20
218.9577291077374
 30
0.0
 11
-209.0
 21
218.9577291077374
 31
0.0
  0
LINE
  5
94
  8
0
  6
CONTINUOUS
 62
     7
 10
-228.5
 20
218.9577291077374
 30
0.0
 11
-228.5
 21
241.982380187708
 31
0.0
  0
LINE
  5
95
  8
0
  6
CONTINUOUS
 62
     7
 10
-228.5
 20
218.9577291077374
 30
0.0
 11
-231.0
 21
218.9577291077374
 31
0.0
  0
LINE
  5
96
  8
0
  6
CONTINUOUS
 62
     7
 10
-193.7287983553051
 20
251.9451668308346
 30
0.0
 11
-193.217226388985
 21
242.1837922158708
 31
0.0
  0
LINE
  5
97
  8
0
  6
CONTINUOUS
 62
     7
 10
-194.7044637114539
 20
242.471207722215
 30
0.0
 11
-195.2288016317445
 21
252.9666106384479
 31
0.0
  0
LINE
  5
98
  8
0
  6
CONTINUOUS
 62
     7
 10
-245.2955362885461
 20
242.471207722215
 30
0.0
 11
-244.7711983682555
 21
252.9666106384479
 31
0.0
  0
LINE
  5
99
  8
0
  6
CONTINUOUS
 62
     7
 10
-246.2712016446949
 20
251.9451668308346
 30
0.0
 11
-246.7827736110149
 21
242.1837922158708
 31
0.0
  0
LINE
  5
9A
  8
0
  6
CONTINUOUS
 62
     7
 10
-209.0
 20
252.9666106384479
 30
0.0
 11
-209.0
 21
242.4706725012675
 31
0.0
  0
LINE
  5
9B
  8
0
  6
CONTINUOUS
 62
     7
 10
-209.0
 20
252.9666106384479
 30
0.0
 11
-209.0
 21
259.9588276969122
 31
0.0
  0
LINE
  5
9C
  8
0
  6
CONTINUOUS
 62
     7
 10
-194.7269876883911
 20
259.9588276969122
 30
0.0
 11
-209.0
 21
259.9588276969121
 31
0.0
  0
LINE
  5
9D
  8
0
  6
CONTINUOUS
 62
     7
 10
-194.7269876883911
 20
259.9588276969122
 30
0.0
 11
-194.7044637114539
 21
259.9586077252369
 31
0.0
  0
LINE
  5
9E
  8
0
  6
CONTINUOUS
 62
     7
 10
-194.7044637114539
 20
259.958607725237
 30
0.0
 11
-194.9839557507957
 21
256.9830972960107
 31
0.0
  0
LINE
  5
9F
  8
0
  6
CONTINUOUS
 62
     7
 10
-194.9839557507957
 20
256.9830972960107
 30
0.0
 11
-195.2288016317445
 21
252.966610638448
 31
0.0
  0
LINE
  5
A0
  8
0
  6
CONTINUOUS
 62
     7
 10
-244.7711983682555
 20
252.9666106384479
 30
0.0
 11
-245.0160442492042
 21
256.9830972960107
 31
0.0
  0
LINE
  5
A1
  8
0
  6
CONTINUOUS
 62
     7
 10
-245.0160442492042
 20
256.9830972960107
 30
0.0
 11
-245.2955362885461
 21
259.9586077252369
 31
0.0
  0
LINE
  5
A2
  8
0
  6
CONTINUOUS
 62
     7
 10
-245.2730123116089
 20
259.9588276969122
 30
0.0
 11
-245.2955362885461
 21
259.9586077252369
 31
0.0
  0
LINE
  5
A3
  8
0
  6
CONTINUOUS
 62
     7
 10
-245.2730123116089
 20
259.9588276969122
 30
0.0
 11
-231.0
 21
259.9588276969121
 31
0.0
  0
LINE
  5
A4
  8
0
  6
CONTINUOUS
 62
     7
 10
-231.0
 20
252.9666106384479
 30
0.0
 11
-231.0
 21
259.9588276969122
 31
0.0
  0
LINE
  5
A5
  8
0
  6
CONTINUOUS
 62
     7
 10
-231.0
 20
252.9666106384479
 30
0.0
 11
-231.0
 21
242.4706725012675
 31
0.0
  0
LINE
  5
A6
  8
0
  6
CONTINUOUS
 62
     7
 10
-211.5
 20
241.982380187708
 30
0.0
 11
-211.5
 21
251.5523970760748
 31
0.0
  0
LINE
  5
A7
  8
0
  6
CONTINUOUS
 62
     7
 10
-228.5
 20
241.982380187708
 30
0.0
 11
-228.5
 21
251.5523970760748
 31
0.0
  0
LINE
  5
A8
  8
0
  6
CONTINUOUS
 62
     7
 10
-211.5
 20
218.9577291077374
 30
0.0
 11
-228.5
 21
218.9577291077374
 31
0.0
  0
LINE
  5
A9
  8
0
  6
CONTINUOUS
 62
     7
 10
-228.5
 20
257.9956287187115
 30
0.0
 11
-228.5
 21
251.5523970760748
 31
0.0
  0
LINE
  5
AA
  8
0
  6
CONTINUOUS
 62
     7
 10
-211.5
 20
257.9956287187114
 30
0.0
 11
-228.5
 21
257.9956287187114
 31
0.0
  0
LINE
  5
AB
  8
0
  6
CONTINUOUS
 62
     7
 10
-211.5
 20
257.9956287187115
 30
0.0
 11
-211.5
 21
251.5523970760748
 31
0.0
  0
LINE
  5
AC
  8
0
  6
CONTINUOUS
 62
     7
 10
-246.2712016446949
 20
251.9451668308346
 30
0.0
 11
-246.5103781967208
 21
255.6887220233833
 31
0.0
  0
LINE
  5
AD
  8
0
  6
CONTINUOUS
 62
     7
 10
-246.5103781967208
 20
255.6887220233833
 30
0.0
 11
-246.782773611015
 21
258.4863857872797
 31
0.0
  0
LINE
  5
AE
  8
0
  6
CONTINUOUS
 62
     7
 10
-211.5
 20
257.9956287187115
 30
0.0
 11
-209.0
 21
259.9588276969123
 31
0.0
  0
LINE
  5
AF
  8
0
  6
CONTINUOUS
 62
     7
 10
-228.5
 20
257.9956287187115
 30
0.0
 11
-231.0
 21
259.9588276969123
 31
0.0
  0
LINE
  5
B0
  8
0
  6
CONTINUOUS
 62
     7
 10
-192.0
 20
259.5577168115126
 30
0.0
 11
-192.0
 21
259.0577291077374
 31
0.0
  0
LINE
  5
B1
  8
0
  6
CONTINUOUS
 62
     7
 10
-191.9999999999999
 20
259.0577291077375
 30
0.0
 11
-193.2066708318681
 21
257.9956287187116
 31
0.0
  0
LINE
  5
B2
  8
0
  6
CONTINUOUS
 62
     7
 10
-193.2066708318681
 20
257.9956287187117
 30
0.0
 11
-193.4614696896221
 21
255.3932624273672
 31
0.0
  0
LINE
  5
B3
  8
0
  6
CONTINUOUS
 62
     7
 10
-193.4614696896221
 20
255.3932624273672
 30
0.0
 11
-193.6871109915973
 21
251.9475915679979
 31
0.0
  0
LINE
  5
B4
  8
0
  6
CONTINUOUS
 62
     7
 10
-193.6871109915973
 20
251.9475915679979
 30
0.0
 11
-193.7082141646886
 21
251.5523970760748
 31
0.0
  0
LINE
  5
B5
  8
0
  6
CONTINUOUS
 62
     7
 10
-246.7933291681318
 20
257.9956287187115
 30
0.0
 11
-247.9999999999999
 21
259.0577291077375
 31
0.0
  0
LINE
  5
B6
  8
0
  6
CONTINUOUS
 62
     7
 10
-248.0
 20
259.5577168115126
 30
0.0
 11
-248.0
 21
259.0577291077374
 31
0.0
  0
LINE
  5
B7
  8
0
  6
CONTINUOUS
 62
     7
 10
-246.3128890084027
 20
251.9475915679978
 30
0.0
 11
-246.5385303103779
 21
255.3932624273672
 31
0.0
  0
LINE
  5
B8
  8
0
  6
CONTINUOUS
 62
     7
 10
-246.5385303103779
 20
255.3932624273672
 30
0.0
 11
-246.7933291681319
 21
257.9956287187117
 31
0.0
  0
LINE
  5
B9
  8
0
  6
CONTINUOUS
 62
     7
 10
-246.2917858353113
 20
251.5523970760748
 30
0.0
 11
-246.3128890084027
 21
251.9475915679978
 31
0.0
  0
LINE
  5
BA
  8
0
  6
CONTINUOUS
 62
     7
 10
-193.5920719916347
 20
261.0518079131207
 30
0.0
 11
-194.726987688391
 21
259.9588276969124
 31
0.0
  0
LINE
  5
BB
  8
0
  6
CONTINUOUS
 62
     7
 10
-193.5020585189968
 20
261.0577291077374
 30
0.0
 11
-193.5920719916347
 21
261.0518079131207
 31
0.0
  0
ARC
  5
BC
  8
0
  6
CONTINUOUS
 62
     7
 10
-193.5005402222121
 20
259.5569687455698
 30
0.0
 40
1.500540408679155
 50
0.0285637246737891
 51
79.61004843590483
  0
LINE
  5
BD
  8
0
  6
CONTINUOUS
 62
     7
 10
-245.2730123116089
 20
259.9588276969122
 30
0.0
 11
-246.4079280083653
 21
261.0518079131207
 31
0.0
  0
LINE
  5
BE
  8
0
  6
CONTINUOUS
 62
     7
 10
-246.4079280083653
 20
261.0518079131207
 30
0.0
 11
-246.4979414810031
 21
261.0577291077374
 31
0.0
  0
ARC
  5
BF
  8
0
  6
CONTINUOUS
 62
     7
 10
-246.4994597777877
 20
259.5569687455697
 30
0.0
 40
1.500540408679301
 50
100.3899515640986
 51
179.9714362753231
  0
LINE
  5
C0
  8
0
  6
CONTINUOUS
 62
     7
 10
-231.0
 20
259.9588276969122
 30
0.0
 11
-231.0
 21
261.0577291077374
 31
0.0
  0
LINE
  5
C1
  8
0
  6
CONTINUOUS
 62
     7
 10
-246.4979414810031
 20
261.0577291077375
 30
0.0
 11
-231.0
 21
261.0577291077374
 31
0.0
  0
LINE
  5
C2
  8
0
  6
CONTINUOUS
 62
     7
 10
-209.0
 20
259.9588276969122
 30
0.0
 11
-209.0
 21
261.0577291077374
 31
0.0
  0
LINE
  5
C3
  8
0
  6
CONTINUOUS
 62
     7
 10
-193.5020585189968
 20
261.0577291077375
 30
0.0
 11
-209.0
 21
261.0577291077374
 31
0.0
  0
LINE
  5
C4
  8
0
  6
CONTINUOUS
 62
     7
 10
-228.5
 20
259.0577291077373
 30
0.0
 11
-231.0
 21
261.0577291077374
 31
0.0
  0
LINE
  5
C5
  8
0
  6
CONTINUOUS
 62
     7
 10
-228.5
 20
259.0577291077373
 30
0.0
 11
-228.5
 21
257.9956287187114
 31
0.0
  0
LINE
  5
C6
  8
0
  6
CONTINUOUS
 62
     7
 10
-211.5
 20
259.0577291077371
 30
0.0
 11
-211.5
 21
257.9956287187113
 31
0.0
  0
LINE
  5
C7
  8
0
  6
CONTINUOUS
 62
     7
 10
-211.5
 20
259.0577291077373
 30
0.0
 11
-209.0
 21
261.0577291077374
 31
0.0
  0
LINE
  5
C8
  8
0
  6
CONTINUOUS
 62
     7
 10
-211.5
 20
259.0577291077374
 30
0.0
 11
-228.5
 21
259.0577291077374
 31
0.0
  0
LINE
  5
C9
  8
0
  6
CONTINUOUS
 62
     7
 10
-193.2301587988366
 20
261.0329491181092
 30
0.0
 11
-193.5940920431256
 21
261.0515391649032
 31
0.0
  0
LINE
  5
CA
  8
0
  6
CONTINUOUS
 62
     7
 10
-246.4059079568744
 20
261.0515391649032
 30
0.0
 11
-246.7698412011633
 21
261.0329491181092
 31
0.0
  0
LINE
  5
CB
  8
0
  6
CONTINUOUS
 62
     7
 10
-128.8577291077374
 20
247.9577291077374
 30
0.0
 11
-128.9577291077374
 21
247.9577291077374
 31
0.0
  0
LINE
  5
CC
  8
0
  6
CONTINUOUS
 62
     7
 10
-128.8577291077374
 20
237.9577291077374
 30
0.0
 11
-128.8577291077374
 21
238.0577291077374
 31
0.0
  0
LINE
  5
CD
  8
0
  6
CONTINUOUS
 62
     7
 10
-128.8577291077374
 20
247.8577291077374
 30
0.0
 11
-128.8577291077374
 21
247.9577291077374
 31
0.0
  0
LINE
  5
CE
  8
0
  6
CONTINUOUS
 62
     7
 10
-128.8577291077374
 20
237.9577291077374
 30
0.0
 11
-128.9577291077374
 21
237.9577291077374
 31
0.0
  0
LINE
  5
CF
  8
0
  6
CONTINUOUS
 62
     7
 10
-147.9577291077374
 20
218.8577291077374
 30
0.0
 11
-147.9577291077374
 21
218.9577291077374
 31
0.0
  0
LINE
  5
D0
  8
0
  6
CONTINUOUS
 62
     7
 10
-157.9577291077374
 20
218.8577291077374
 30
0.0
 11
-157.9577291077374
 21
218.9577291077374
 31
0.0
  0
LINE
  5
D1
  8
0
  6
CONTINUOUS
 62
     7
 10
-147.9577291077374
 20
218.8577291077374
 30
0.0
 11
-148.0577291077374
 21
218.8577291077374
 31
0.0
  0
LINE
  5
D2
  8
0
  6
CONTINUOUS
 62
     7
 10
-157.8577291077374
 20
218.8577291077374
 30
0.0
 11
-157.9577291077374
 21
218.8577291077374
 31
0.0
  0
LINE
  5
D3
  8
0
  6
CONTINUOUS
 62
   253
 10
-138.9577291077374
 20
252.8528090089114
 30
0.0
 11
-138.9577291077374
 21
256.8561155486339
 31
0.0
  0
ARC
  5
D4
  8
0
  6
CONTINUOUS
 62
   253
 10
-128.9577291077374
 20
8.957729107737483
 30
0.0
 40
244.1
 50
92.3478827539134
 51
95.05278827952048
  0
ARC
  5
D5
  8
0
  6
CONTINUOUS
 62
   253
 10
-140.2684829623597
 20
230.2684829623597
 30
0.0
 40
24.09999999999996
 50
115.0075929559277
 51
154.9924070440726
  0
ARC
  5
D6
  8
0
  6
CONTINUOUS
 62
   253
 10
81.04227089226251
 20
218.9577291077374
 30
0.0
 40
244.1
 50
174.9472117204796
 51
177.6521172460866
  0
LINE
  5
D7
  8
0
  6
CONTINUOUS
 62
   253
 10
-166.8561155486338
 20
228.9577291077375
 30
0.0
 11
-162.8528090089113
 21
228.9577291077375
 31
0.0
  0
LINE
  5
D8
  8
0
  6
CONTINUOUS
 62
     7
 10
-142.2551910429522
 20
220.9577291077374
 30
0.0
 11
-142.4446197668584
 21
220.9577291077374
 31
0.0
  0
LINE
  5
D9
  8
0
  6
CONTINUOUS
 62
     7
 10
-141.9446007276655
 20
220.9577291077374
 30
0.0
 11
-142.2551910429522
 21
220.9577291077374
 31
0.0
  0
ARC
  5
DA
  8
0
  6
CONTINUOUS
 62
     7
 10
-142.4446197668584
 20
220.4577291077374
 30
0.0
 40
0.5000000000000016
 50
90.0
 51
171.7668391655328
  0
LINE
  5
DB
  8
0
  6
CONTINUOUS
 62
     7
 10
-128.9577291077374
 20
232.9577291077374
 30
0.0
 11
-128.9577291077374
 21
231.9576910293517
 31
0.0
  0
LINE
  5
DC
  8
0
  6
CONTINUOUS
 62
     7
 10
-130.4620923754866
 20
232.9446007283905
 30
0.0
 11
-128.9577291077374
 21
232.9577291077374
 31
0.0
  0
LINE
  5
DD
  8
0
  6
CONTINUOUS
 62
     7
 10
-138.9577291077374
 20
220.2714376067222
 30
0.0
 11
-139.1473007164184
 21
220.4577291077374
 31
0.0
  0
LINE
  5
DE
  8
0
  6
CONTINUOUS
 62
     7
 10
-140.2714376067221
 20
218.9577291077374
 30
0.0
 11
-138.9577291077374
 21
220.2714376067222
 31
0.0
  0
LINE
  5
DF
  8
0
  6
CONTINUOUS
 62
     7
 10
-141.9576910293517
 20
218.9577291077374
 30
0.0
 11
-140.2714376067221
 21
218.9577291077374
 31
0.0
  0
LINE
  5
E0
  8
0
  6
CONTINUOUS
 62
     7
 10
-142.9446007283905
 20
220.4620923754866
 30
0.0
 11
-142.9577291077374
 21
218.9577291077374
 31
0.0
  0
LINE
  5
E1
  8
0
  6
CONTINUOUS
 62
     7
 10
-142.9577291077374
 20
218.9577291077374
 30
0.0
 11
-141.9576910293517
 21
218.9577291077374
 31
0.0
  0
LINE
  5
E2
  8
0
  6
CONTINUOUS
 62
     7
 10
-130.2714376067222
 20
228.9577291077375
 30
0.0
 11
-130.4577291077374
 21
229.1473007164184
 31
0.0
  0
LINE
  5
E3
  8
0
  6
CONTINUOUS
 62
     7
 10
-128.9577291077374
 20
231.9576910293517
 30
0.0
 11
-128.9577291077374
 21
230.2714376067222
 31
0.0
  0
LINE
  5
E4
  8
0
  6
CONTINUOUS
 62
     7
 10
-128.9577291077374
 20
230.2714376067222
 30
0.0
 11
-130.2714376067222
 21
228.9577291077375
 31
0.0
  0
LINE
  5
E5
  8
0
  6
CONTINUOUS
 62
     7
 10
-139.8606598136183
 20
220.9577291077374
 30
0.0
 11
-141.9446007276655
 21
220.9577291077374
 31
0.0
  0
LINE
  5
E6
  8
0
  6
CONTINUOUS
 62
     7
 10
-139.5102051814684
 20
220.8143543323145
 30
0.0
 11
-139.8606598136183
 21
220.9577291077374
 31
0.0
  0
LINE
  5
E7
  8
0
  6
CONTINUOUS
 62
     7
 10
-139.1473007164184
 20
220.4577291077374
 30
0.0
 11
-139.5102051814684
 21
220.8143543323145
 31
0.0
  0
LINE
  5
E8
  8
0
  6
CONTINUOUS
 62
     7
 10
-130.8143543323145
 20
229.5102051814685
 30
0.0
 11
-130.9577291077374
 21
229.8606598136184
 31
0.0
  0
LINE
  5
E9
  8
0
  6
CONTINUOUS
 62
     7
 10
-130.9577291077374
 20
229.8606598136184
 30
0.0
 11
-130.9577291077374
 21
231.9446007276656
 31
0.0
  0
LINE
  5
EA
  8
0
  6
CONTINUOUS
 62
     7
 10
-130.4577291077374
 20
229.1473007164184
 30
0.0
 11
-130.8143543323145
 21
229.5102051814685
 31
0.0
  0
LINE
  5
EB
  8
0
  6
CONTINUOUS
 62
     7
 10
-161.1338881444497
 20
225.460814403951
 30
0.0
 11
-159.0628275168686
 21
223.460814403951
 31
0.0
  0
LINE
  5
EC
  8
0
  6
CONTINUOUS
 62
     7
 10
-159.0628275168686
 20
223.460814403951
 30
0.0
 11
-142.1384839336147
 21
223.460814403951
 31
0.0
  0
LINE
  5
ED
  8
0
  6
CONTINUOUS
 62
     7
 10
-142.1384839336147
 20
223.460814403951
 30
0.0
 11
-133.460814403951
 21
232.1384839336147
 31
0.0
  0
LINE
  5
EE
  8
0
  6
CONTINUOUS
 62
     7
 10
-133.460814403951
 20
249.0628275168686
 30
0.0
 11
-133.460814403951
 21
232.1384839336147
 31
0.0
  0
LINE
  5
EF
  8
0
  6
CONTINUOUS
 62
     7
 10
-135.460814403951
 20
251.1338881444497
 30
0.0
 11
-133.460814403951
 21
249.0628275168686
 31
0.0
  0
LINE
  5
F0
  8
0
  6
CONTINUOUS
 62
     7
 10
-128.9577291077374
 20
254.4577291077374
 30
0.0
 11
-128.9577291077374
 21
256.3602899244751
 31
0.0
  0
LINE
  5
F1
  8
0
  6
CONTINUOUS
 62
     7
 10
-130.0006223265509
 20
253.414835888924
 30
0.0
 11
-128.9577291077374
 21
254.4577291077374
 31
0.0
  0
ARC
  5
F2
  8
0
  6
CONTINUOUS
 62
     7
 10
-129.2935155453643
 20
252.7077291077374
 30
0.0
 40
1.0
 50
135.0000000000011
 51
225.0000000000012
  0
LINE
  5
F3
  8
0
  6
CONTINUOUS
 62
     7
 10
-128.9577291077374
 20
250.9577291077374
 30
0.0
 11
-130.0006223265509
 21
252.0006223265509
 31
0.0
  0
LINE
  5
F4
  8
0
  6
CONTINUOUS
 62
     7
 10
-128.9577291077374
 20
236.9577291077374
 30
0.0
 11
-128.9577291077374
 21
250.9577291077374
 31
0.0
  0
LINE
  5
F5
  8
0
  6
CONTINUOUS
 62
     7
 10
-130.0006223265509
 20
235.914835888924
 30
0.0
 11
-128.9577291077374
 21
236.9577291077374
 31
0.0
  0
ARC
  5
F6
  8
0
  6
CONTINUOUS
 62
     7
 10
-129.2935155453643
 20
235.2077291077374
 30
0.0
 40
1.0
 50
135.0
 51
225.0
  0
LINE
  5
F7
  8
0
  6
CONTINUOUS
 62
     7
 10
-128.9577291077374
 20
233.4577291077374
 30
0.0
 11
-130.0006223265509
 21
234.5006223265509
 31
0.0
  0
LINE
  5
F8
  8
0
  6
CONTINUOUS
 62
     7
 10
-143.4577291077374
 20
218.9577291077375
 30
0.0
 11
-144.5006223265509
 21
220.0006223265509
 31
0.0
  0
ARC
  5
F9
  8
0
  6
CONTINUOUS
 62
     7
 10
-145.2077291077374
 20
219.2935155453644
 30
0.0
 40
1.000000000000001
 50
45.00000000000001
 51
135.0
  0
LINE
  5
FA
  8
0
  6
CONTINUOUS
 62
     7
 10
-145.914835888924
 20
220.0006223265509
 30
0.0
 11
-146.9577291077374
 21
218.9577291077374
 31
0.0
  0
LINE
  5
FB
  8
0
  6
CONTINUOUS
 62
     7
 10
-146.9577291077374
 20
218.9577291077374
 30
0.0
 11
-160.9577291077374
 21
218.9577291077375
 31
0.0
  0
LINE
  5
FC
  8
0
  6
CONTINUOUS
 62
     7
 10
-160.9577291077374
 20
218.9577291077375
 30
0.0
 11
-162.0006223265509
 21
220.0006223265509
 31
0.0
  0
ARC
  5
FD
  8
0
  6
CONTINUOUS
 62
     7
 10
-162.7077291077374
 20
219.2935155453644
 30
0.0
 40
1.000000000000001
 50
45.00000000000113
 51
135.0000000000011
  0
LINE
  5
FE
  8
0
  6
CONTINUOUS
 62
     7
 10
-163.414835888924
 20
220.0006223265509
 30
0.0
 11
-164.4577291077374
 21
218.9577291077374
 31
0.0
  0
LINE
  5
FF
  8
0
  6
CONTINUOUS
 62
     7
 10
-164.4577291077374
 20
218.9577291077374
 30
0.0
 11
-166.360289924475
 21
218.9577291077374
 31
0.0
  0
LINE
  5
100
  8
0
  6
CONTINUOUS
 62
     7
 10
-128.9577291077374
 20
232.9577291077374
 30
0.0
 11
-128.9577291077374
 21
233.4577291077374
 31
0.0
  0
LINE
  5
101
  8
0
  6
CONTINUOUS
 62
     7
 10
-130.2714376067222
 20
228.9577291077375
 30
0.0
 11
-138.9577291077374
 21
220.2714376067222
 31
0.0
  0
LINE
  5
102
  8
0
  6
CONTINUOUS
 62
     7
 10
-142.9577291077374
 20
218.9577291077374
 30
0.0
 11
-143.4577291077374
 21
218.9577291077375
 31
0.0
  0
LINE
  5
103
  8
0
  6
CONTINUOUS
 62
     7
 10
-159.0628275168686
 20
223.460814403951
 30
0.0
 11
-158.8577421430001
 21
223.9577291077374
 31
0.0
  0
LINE
  5
104
  8
0
  6
CONTINUOUS
 62
     7
 10
-142.3425054185876
 20
223.9577291077374
 30
0.0
 11
-158.8577421430001
 21
223.9577291077374
 31
0.0
  0
LINE
  5
105
  8
0
  6
CONTINUOUS
 62
     7
 10
-133.460814403951
 20
249.0628275168686
 30
0.0
 11
-133.9577291077374
 21
248.8577421430001
 31
0.0
  0
LINE
  5
106
  8
0
  6
CONTINUOUS
 62
     7
 10
-133.9577291077374
 20
232.3425054185877
 30
0.0
 11
-133.9577291077374
 21
248.8577421430001
 31
0.0
  0
LINE
  5
107
  8
0
  6
CONTINUOUS
 62
     7
 10
-158.8577291077374
 20
223.9577291077374
 30
0.0
 11
-160.7834736630066
 21
225.8173990079067
 31
0.0
  0
LINE
  5
108
  8
0
  6
CONTINUOUS
 62
     7
 10
-160.7834736630066
 20
225.8173990079068
 30
0.0
 11
-160.7907583786991
 21
225.811080555698
 31
0.0
  0
LINE
  5
109
  8
0
  6
CONTINUOUS
 62
     7
 10
-160.7907583786991
 20
225.811080555698
 30
0.0
 11
-160.8111082869215
 21
225.7911856300809
 31
0.0
  0
LINE
  5
10A
  8
0
  6
CONTINUOUS
 62
     7
 10
-160.8111082869215
 20
225.7911856300809
 30
0.0
 11
-160.8437415032654
 21
225.7584786341169
 31
0.0
  0
LINE
  5
10B
  8
0
  6
CONTINUOUS
 62
     7
 10
-160.8437415032654
 20
225.7584786341169
 30
0.0
 11
-160.887404193916
 21
225.7142162363823
 31
0.0
  0
LINE
  5
10C
  8
0
  6
CONTINUOUS
 62
     7
 10
-160.887404193916
 20
225.7142162363823
 30
0.0
 11
-160.9404187504698
 21
225.660099087233
 31
0.0
  0
LINE
  5
10D
  8
0
  6
CONTINUOUS
 62
     7
 10
-160.9404187504698
 20
225.660099087233
 30
0.0
 11
-161.0007482470234
 21
225.598206476398
 31
0.0
  0
LINE
  5
10E
  8
0
  6
CONTINUOUS
 62
     7
 10
-161.0007482470234
 20
225.598206476398
 30
0.0
 11
-161.0660747029645
 21
225.5309164424843
 31
0.0
  0
LINE
  5
10F
  8
0
  6
CONTINUOUS
 62
     7
 10
-161.0660747029645
 20
225.5309164424843
 30
0.0
 11
-161.1338881444497
 21
225.460814403951
 31
0.0
  0
LINE
  5
110
  8
0
  6
CONTINUOUS
 62
     7
 10
-133.9577291077374
 20
248.8577291077374
 30
0.0
 11
-135.8173990079067
 21
250.7834736630066
 31
0.0
  0
LINE
  5
111
  8
0
  6
CONTINUOUS
 62
     7
 10
-135.460814403951
 20
251.1338881444498
 30
0.0
 11
-135.5309164424841
 21
251.0660747029648
 31
0.0
  0
LINE
  5
112
  8
0
  6
CONTINUOUS
 62
     7
 10
-135.5309164424841
 20
251.0660747029648
 30
0.0
 11
-135.5982064763976
 21
251.0007482470238
 31
0.0
  0
LINE
  5
113
  8
0
  6
CONTINUOUS
 62
     7
 10
-135.5982064763976
 20
251.0007482470238
 30
0.0
 11
-135.6600990872325
 21
250.9404187504703
 31
0.0
  0
LINE
  5
114
  8
0
  6
CONTINUOUS
 62
     7
 10
-135.6600990872325
 20
250.9404187504703
 30
0.0
 11
-135.7142162363817
 21
250.8874041939166
 31
0.0
  0
LINE
  5
115
  8
0
  6
CONTINUOUS
 62
     7
 10
-135.7142162363817
 20
250.8874041939166
 30
0.0
 11
-135.7584786341164
 21
250.843741503266
 31
0.0
  0
LINE
  5
116
  8
0
  6
CONTINUOUS
 62
     7
 10
-135.7584786341164
 20
250.843741503266
 30
0.0
 11
-135.7911856300803
 21
250.811108286922
 31
0.0
  0
LINE
  5
117
  8
0
  6
CONTINUOUS
 62
     7
 10
-135.7911856300803
 20
250.811108286922
 30
0.0
 11
-135.8110805556976
 21
250.7907583786995
 31
0.0
  0
LINE
  5
118
  8
0
  6
CONTINUOUS
 62
     7
 10
-135.8110805556976
 20
250.7907583786995
 30
0.0
 11
-135.8173990079067
 21
250.7834736630067
 31
0.0
  0
LINE
  5
119
  8
0
  6
CONTINUOUS
 62
     7
 10
-166.5405396207958
 20
225.0100650639804
 30
0.0
 11
-166.8577291077374
 21
218.9577291077374
 31
0.0
  0
LINE
  5
11A
  8
0
  6
CONTINUOUS
 62
     7
 10
-166.8577291077374
 20
218.9577291077374
 30
0.0
 11
-166.360289924475
 21
218.9577291077374
 31
0.0
  0
LINE
  5
11B
  8
0
  6
CONTINUOUS
 62
     7
 10
-135.0100650639804
 20
256.5405396207958
 30
0.0
 11
-128.9577291077374
 21
256.8577291077374
 31
0.0
  0
LINE
  5
11C
  8
0
  6
CONTINUOUS
 62
     7
 10
-128.9577291077374
 20
256.8577291077374
 30
0.0
 11
-128.9577291077374
 21
256.360289924475
 31
0.0
  0
LINE
  5
11D
  8
0
  6
CONTINUOUS
 62
     7
 10
-161.1308028482361
 20
225.9577291077374
 30
0.0
 11
-161.1314024368528
 21
225.9481968414589
 31
0.0
  0
LINE
  5
11E
  8
0
  6
CONTINUOUS
 62
     7
 10
-161.1314024368528
 20
225.9481968414589
 30
0.0
 11
-161.131979163716
 21
225.9199634990249
 31
0.0
  0
LINE
  5
11F
  8
0
  6
CONTINUOUS
 62
     7
 10
-161.131979163716
 20
225.9199634990249
 30
0.0
 11
-161.1325110387697
 21
225.8741055913876
 31
0.0
  0
LINE
  5
120
  8
0
  6
CONTINUOUS
 62
     7
 10
-161.1325110387697
 20
225.8741055913876
 30
0.0
 11
-161.1329777821153
 21
225.8123716376932
 31
0.0
  0
LINE
  5
121
  8
0
  6
CONTINUOUS
 62
     7
 10
-161.1329777821153
 20
225.8123716376932
 30
0.0
 11
-161.1333615972654
 21
225.7371154958818
 31
0.0
  0
LINE
  5
122
  8
0
  6
CONTINUOUS
 62
     7
 10
-161.1333615972654
 20
225.7371154958818
 30
0.0
 11
-161.1336478497072
 21
225.6512066122849
 31
0.0
  0
LINE
  5
123
  8
0
  6
CONTINUOUS
 62
     7
 10
-161.1336478497072
 20
225.6512066122849
 30
0.0
 11
-161.1338256249026
 21
225.557920612319
 31
0.0
  0
LINE
  5
124
  8
0
  6
CONTINUOUS
 62
     7
 10
-161.1338256249026
 20
225.557920612319
 30
0.0
 11
-161.1338881444497
 21
225.460814403951
 31
0.0
  0
LINE
  5
125
  8
0
  6
CONTINUOUS
 62
     7
 10
-161.1308028482361
 20
225.9577291077374
 30
0.0
 11
-165.5419100860412
 21
225.9577291077374
 31
0.0
  0
ARC
  5
126
  8
0
  6
CONTINUOUS
 62
     7
 10
-161.1308028482361
 20
225.4577291077374
 30
0.0
 40
0.5000000000000004
 50
45.99999999999989
 51
90.0
  0
ARC
  5
127
  8
0
  6
CONTINUOUS
 62
     7
 10
-135.4577291077374
 20
251.1308028482362
 30
0.0
 40
0.5000000000000004
 50
180.0
 51
224.0000000000001
  0
LINE
  5
128
  8
0
  6
CONTINUOUS
 62
     7
 10
-135.460814403951
 20
251.1338881444498
 30
0.0
 11
-135.557920612319
 21
251.1338256249027
 31
0.0
  0
LINE
  5
129
  8
0
  6
CONTINUOUS
 62
     7
 10
-135.557920612319
 20
251.1338256249027
 30
0.0
 11
-135.6512066122849
 21
251.1336478497072
 31
0.0
  0
LINE
  5
12A
  8
0
  6
CONTINUOUS
 62
     7
 10
-135.6512066122849
 20
251.1336478497072
 30
0.0
 11
-135.7371154958818
 21
251.1333615972655
 31
0.0
  0
LINE
  5
12B
  8
0
  6
CONTINUOUS
 62
     7
 10
-135.7371154958818
 20
251.1333615972655
 30
0.0
 11
-135.8123716376931
 21
251.1329777821153
 31
0.0
  0
LINE
  5
12C
  8
0
  6
CONTINUOUS
 62
     7
 10
-135.8123716376931
 20
251.1329777821153
 30
0.0
 11
-135.8741055913876
 21
251.1325110387697
 31
0.0
  0
LINE
  5
12D
  8
0
  6
CONTINUOUS
 62
     7
 10
-135.8741055913876
 20
251.1325110387697
 30
0.0
 11
-135.9199634990249
 21
251.131979163716
 31
0.0
  0
LINE
  5
12E
  8
0
  6
CONTINUOUS
 62
     7
 10
-135.9199634990249
 20
251.131979163716
 30
0.0
 11
-135.9481968414589
 21
251.1314024368528
 31
0.0
  0
LINE
  5
12F
  8
0
  6
CONTINUOUS
 62
     7
 10
-135.9481968414589
 20
251.1314024368528
 30
0.0
 11
-135.9577291077374
 21
251.1308028482362
 31
0.0
  0
LINE
  5
130
  8
0
  6
CONTINUOUS
 62
     7
 10
-135.9577291077374
 20
251.1308028482362
 30
0.0
 11
-135.9577291077374
 21
255.5419100860413
 31
0.0
  0
ARC
  5
131
  8
0
  6
CONTINUOUS
 62
     7
 10
-165.5419100860412
 20
224.9577291077374
 30
0.0
 40
1.000000000000001
 50
90.0
 51
177.0000000000006
  0
LINE
  5
132
  8
0
  6
CONTINUOUS
 62
     7
 10
-135.9577291077374
 20
255.5419100860413
 30
0.0
 11
-135.9566035136631
 21
255.5893434201699
 31
0.0
  0
LINE
  5
133
  8
0
  6
CONTINUOUS
 62
     7
 10
-135.9566035136631
 20
255.5893434201699
 30
0.0
 11
-135.9532292653643
 21
255.6366699729389
 31
0.0
  0
LINE
  5
134
  8
0
  6
CONTINUOUS
 62
     7
 10
-135.9532292653643
 20
255.6366699729389
 30
0.0
 11
-135.9476139589087
 21
255.6837832033735
 31
0.0
  0
LINE
  5
135
  8
0
  6
CONTINUOUS
 62
     7
 10
-135.9476139589087
 20
255.6837832033735
 30
0.0
 11
-135.9397702354077
 21
255.7305770507278
 31
0.0
  0
LINE
  5
136
  8
0
  6
CONTINUOUS
 62
     7
 10
-135.9397702354077
 20
255.7305770507278
 30
0.0
 11
-135.9297157525587
 21
255.7769461732472
 31
0.0
  0
LINE
  5
137
  8
0
  6
CONTINUOUS
 62
     7
 10
-135.9297157525587
 20
255.7769461732472
 30
0.0
 11
-135.9174731448943
 21
255.8227861853126
 31
0.0
  0
LINE
  5
138
  8
0
  6
CONTINUOUS
 62
     7
 10
-135.9174731448943
 20
255.8227861853126
 30
0.0
 11
-135.9030699728277
 21
255.867993892432
 31
0.0
  0
LINE
  5
139
  8
0
  6
CONTINUOUS
 62
     7
 10
-135.9030699728277
 20
255.867993892432
 30
0.0
 11
-135.8865386606093
 21
255.9124675235511
 31
0.0
  0
LINE
  5
13A
  8
0
  6
CONTINUOUS
 62
     7
 10
-135.8865386606093
 20
255.9124675235511
 30
0.0
 11
-135.8679164233332
 21
255.9561069601585
 31
0.0
  0
LINE
  5
13B
  8
0
  6
CONTINUOUS
 62
     7
 10
-135.8679164233332
 20
255.9561069601585
 30
0.0
 11
-135.8472451831593
 21
255.9988139616717
 31
0.0
  0
LINE
  5
13C
  8
0
  6
CONTINUOUS
 62
     7
 10
-135.8472451831593
 20
255.9988139616717
 30
0.0
 11
-135.8245714749384
 21
256.040492386595
 31
0.0
  0
LINE
  5
13D
  8
0
  6
CONTINUOUS
 62
     7
 10
-135.8245714749384
 20
256.040492386595
 30
0.0
 11
-135.7999463414537
 21
256.0810484089523
 31
0.0
  0
LINE
  5
13E
  8
0
  6
CONTINUOUS
 62
     7
 10
-135.7999463414537
 20
256.0810484089523
 30
0.0
 11
-135.773425218514
 21
256.1203907295065
 31
0.0
  0
LINE
  5
13F
  8
0
  6
CONTINUOUS
 62
     7
 10
-135.773425218514
 20
256.1203907295065
 30
0.0
 11
-135.7450678101569
 21
256.1584307812921
 31
0.0
  0
LINE
  5
140
  8
0
  6
CONTINUOUS
 62
     7
 10
-135.7450678101569
 20
256.1584307812921
 30
0.0
 11
-135.7149379542439
 21
256.1950829289951
 31
0.0
  0
LINE
  5
141
  8
0
  6
CONTINUOUS
 62
     7
 10
-135.7149379542439
 20
256.1950829289951
 30
0.0
 11
-135.6831034787497
 21
256.230264661735
 31
0.0
  0
LINE
  5
142
  8
0
  6
CONTINUOUS
 62
     7
 10
-135.6831034787497
 20
256.230264661735
 30
0.0
 11
-135.6496360490682
 21
256.2638967788122
 31
0.0
  0
LINE
  5
143
  8
0
  6
CONTINUOUS
 62
     7
 10
-135.6496360490682
 20
256.2638967788122
 30
0.0
 11
-135.6146110066805
 21
256.2959035680032
 31
0.0
  0
LINE
  5
144
  8
0
  6
CONTINUOUS
 62
     7
 10
-135.6146110066805
 20
256.2959035680032
 30
0.0
 11
-135.5781071995468
 21
256.3262129760034
 31
0.0
  0
LINE
  5
145
  8
0
  6
CONTINUOUS
 62
     7
 10
-135.5781071995468
 20
256.3262129760034
 30
0.0
 11
-135.5402068046052
 21
256.3547567706329
 31
0.0
  0
LINE
  5
146
  8
0
  6
CONTINUOUS
 62
     7
 10
-135.5402068046052
 20
256.3547567706329
 30
0.0
 11
-135.5009951427756
 21
256.3814706944394
 31
0.0
  0
LINE
  5
147
  8
0
  6
CONTINUOUS
 62
     7
 10
-135.5009951427756
 20
256.3814706944394
 30
0.0
 11
-135.4605604868865
 21
256.4062946093543
 31
0.0
  0
LINE
  5
148
  8
0
  6
CONTINUOUS
 62
     7
 10
-135.4605604868865
 20
256.4062946093543
 30
0.0
 11
-135.4189938629558
 21
256.4291726320744
 31
0.0
  0
LINE
  5
149
  8
0
  6
CONTINUOUS
 62
     7
 10
-135.4189938629558
 20
256.4291726320744
 30
0.0
 11
-135.3763888452748
 21
256.4500532598664
 31
0.0
  0
LINE
  5
14A
  8
0
  6
CONTINUOUS
 62
     7
 10
-135.3763888452748
 20
256.4500532598664
 30
0.0
 11
-135.3328413457544
 21
256.4688894865081
 31
0.0
  0
LINE
  5
14B
  8
0
  6
CONTINUOUS
 62
     7
 10
-135.3328413457544
 20
256.4688894865081
 30
0.0
 11
-135.2884493980094
 21
256.4856389081095
 31
0.0
  0
LINE
  5
14C
  8
0
  6
CONTINUOUS
 62
     7
 10
-135.2884493980094
 20
256.4856389081095
 30
0.0
 11
-135.2433129366665
 21
256.5002638185713
 31
0.0
  0
LINE
  5
14D
  8
0
  6
CONTINUOUS
 62
     7
 10
-135.2433129366665
 20
256.5002638185713
 30
0.0
 11
-135.1975335723924
 21
256.5127312944682
 31
0.0
  0
LINE
  5
14E
  8
0
  6
CONTINUOUS
 62
     7
 10
-135.1975335723924
 20
256.5127312944682
 30
0.0
 11
-135.1512143631496
 21
256.5230132691663
 31
0.0
  0
LINE
  5
14F
  8
0
  6
CONTINUOUS
 62
     7
 10
-135.1512143631496
 20
256.5230132691663
 30
0.0
 11
-135.1044595821928
 21
256.5310865960061
 31
0.0
  0
LINE
  5
150
  8
0
  6
CONTINUOUS
 62
     7
 10
-135.1044595821928
 20
256.5310865960061
 30
0.0
 11
-135.0573744833308
 21
256.5369331004097
 31
0.0
  0
LINE
  5
151
  8
0
  6
CONTINUOUS
 62
     7
 10
-135.0573744833308
 20
256.5369331004097
 30
0.0
 11
-135.0100650639804
 21
256.5405396207958
 31
0.0
  0
LINE
  5
152
  8
0
  6
CONTINUOUS
 62
     7
 10
-148.0577291077374
 20
218.8577291077374
 30
0.0
 11
-148.0577291077374
 21
218.9577291077374
 31
0.0
  0
LINE
  5
153
  8
0
  6
CONTINUOUS
 62
     7
 10
-157.8577291077374
 20
218.8577291077374
 30
0.0
 11
-148.0577291077374
 21
218.8577291077374
 31
0.0
  0
LINE
  5
154
  8
0
  6
CONTINUOUS
 62
     7
 10
-157.8577291077374
 20
218.9577291077374
 30
0.0
 11
-157.8577291077374
 21
218.8577291077374
 31
0.0
  0
ARC
  5
155
  8
0
  6
CONTINUOUS
 62
     7
 10
-157.8577291077374
 20
218.9577291077374
 30
0.0
 40
0.099999999999989
 50
180.0
 51
270.0
  0
ARC
  5
156
  8
0
  6
CONTINUOUS
 62
     7
 10
-148.0577291077374
 20
218.9577291077374
 30
0.0
 40
0.099999999999989
 50
270.0
 51
0.0
  0
LINE
  5
157
  8
0
  6
CONTINUOUS
 62
     7
 10
-128.8577291077374
 20
247.8577291077374
 30
0.0
 11
-128.8577291077374
 21
238.0577291077374
 31
0.0
  0
LINE
  5
158
  8
0
  6
CONTINUOUS
 62
     7
 10
-128.8577291077374
 20
238.0577291077374
 30
0.0
 11
-128.9577291077374
 21
237.9577291077374
 31
0.0
  0
LINE
  5
159
  8
0
  6
CONTINUOUS
 62
     7
 10
-128.8577291077374
 20
247.8577291077374
 30
0.0
 11
-128.9577291077374
 21
247.9577291077374
 31
0.0
  0
LINE
  5
15A
  8
0
  6
CONTINUOUS
 62
     7
 10
-152.4706725012674
 20
259.9588276969122
 30
0.0
 11
-152.471207722215
 21
259.9586077252369
 31
0.0
  0
ARC
  5
15B
  8
0
  6
CONTINUOUS
 62
     7
 10
-128.9577291077374
 20
8.957729107737483
 30
0.0
 40
252.0999999999999
 50
90.0
 51
95.3516592858024
  0
LINE
  5
15C
  8
0
  6
CONTINUOUS
 62
     7
 10
-128.9577291077374
 20
259.5577168115126
 30
0.0
 11
-128.9577291077374
 21
261.0577291077374
 31
0.0
  0
ARC
  5
15D
  8
0
  6
CONTINUOUS
 62
     7
 10
81.04227089226251
 20
218.9577291077374
 30
0.0
 40
252.0999999999999
 50
174.6483407141976
 51
180.0
  0
LINE
  5
15E
  8
0
  6
CONTINUOUS
 62
     7
 10
-169.9588276969123
 20
242.4706725012675
 30
0.0
 11
-169.9586077252369
 21
242.471207722215
 31
0.0
  0
LINE
  5
15F
  8
0
  6
CONTINUOUS
 62
     7
 10
-169.5577168115126
 20
218.9577291077374
 30
0.0
 11
-171.0577291077374
 21
218.9577291077374
 31
0.0
  0
ARC
  5
160
  8
0
  6
CONTINUOUS
 62
     7
 10
-140.2684829623597
 20
230.2684829623597
 30
0.0
 40
30.09999999999999
 50
135.0
 51
157.0973832704117
  0
ARC
  5
161
  8
0
  6
CONTINUOUS
 62
     7
 10
81.04227089226251
 20
218.9577291077374
 30
0.0
 40
250.1000000000001
 50
174.7177690998624
 51
180.0
  0
LINE
  5
162
  8
0
  6
CONTINUOUS
 62
     7
 10
-169.5577168115126
 20
218.9577291077374
 30
0.0
 11
-169.0577291077374
 21
218.9577291077374
 31
0.0
  0
ARC
  5
163
  8
0
  6
CONTINUOUS
 62
     7
 10
-128.9577291077374
 20
8.957729107737483
 30
0.0
 40
250.1000000000001
 50
90.0
 51
95.28223090013775
  0
ARC
  5
164
  8
0
  6
CONTINUOUS
 62
     7
 10
-140.2684829623597
 20
230.2684829623597
 30
0.0
 40
30.09999999999999
 50
112.9026167295883
 51
134.9999999999999
  0
LINE
  5
165
  8
0
  6
CONTINUOUS
 62
     7
 10
-128.9577291077374
 20
259.5577168115126
 30
0.0
 11
-128.9577291077374
 21
259.0577291077374
 31
0.0
  0
ARC
  5
166
  8
0
  6
CONTINUOUS
 62
     7
 10
-140.2684829623597
 20
230.2684829623597
 30
0.0
 40
32.10000000000001
 50
112.3428001657282
 51
134.9999999999999
  0
ARC
  5
167
  8
0
  6
CONTINUOUS
 62
     7
 10
-140.2684829623597
 20
230.2684829623597
 30
0.0
 40
32.10000000000001
 50
135.0000000000001
 51
157.6571998342719
  0
ARC
  5
168
  8
0
  6
CONTINUOUS
 62
   253
 10
-140.2684829623597
 20
230.2684829623597
 30
0.0
 40
28.09999999999999
 50
135.0
 51
156.4746317535932
  0
ARC
  5
169
  8
0
  6
CONTINUOUS
 62
   253
 10
81.04227089226251
 20
218.9577291077374
 30
0.0
 40
248.0999999999999
 50
174.7904765417984
 51
180.0
  0
LINE
  5
16A
  8
0
  6
CONTINUOUS
 62
     7
 10
-169.0577291077373
 20
218.9577291077374
 30
0.0
 11
-167.0577291077374
 21
218.9577291077375
 31
0.0
  0
ARC
  5
16B
  8
0
  6
CONTINUOUS
 62
     7
 10
-140.2684829623597
 20
230.2684829623597
 30
0.0
 40
28.09999999999999
 50
113.5253682464067
 51
135.0
  0
ARC
  5
16C
  8
0
  6
CONTINUOUS
 62
   253
 10
-128.9577291077374
 20
8.957729107737483
 30
0.0
 40
248.0999999999999
 50
89.99999999999994
 51
95.20952345820162
  0
LINE
  5
16D
  8
0
  6
CONTINUOUS
 62
     7
 10
-128.9577291077374
 20
259.0577291077373
 30
0.0
 11
-128.9577291077374
 21
257.0577291077374
 31
0.0
  0
ARC
  5
16E
  8
0
  6
CONTINUOUS
 62
     7
 10
-165.135079376927
 20
220.9577291077374
 30
0.0
 40
2.000000000000014
 50
296.1888033653174
 51
333.426126628025
  0
LINE
  5
16F
  8
0
  6
CONTINUOUS
 62
     7
 10
-166.8577291077374
 20
218.9577291077374
 30
0.0
 11
-167.0577291077374
 21
218.9577291077374
 31
0.0
  0
ARC
  5
170
  8
0
  6
CONTINUOUS
 62
     7
 10
-130.9577291077374
 20
255.135079376927
 30
0.0
 40
2.000000000000027
 50
296.5738733719797
 51
333.8111966346826
  0
LINE
  5
171
  8
0
  6
CONTINUOUS
 62
     7
 10
-128.9577291077374
 20
256.8577291077374
 30
0.0
 11
-128.9577291077374
 21
257.0577291077374
 31
0.0
  0
LINE
  5
172
  8
0
  6
CONTINUOUS
 62
     7
 10
-142.2551964372745
 20
220.9577291074104
 30
0.0
 11
-142.2603569439442
 21
220.9577287229186
 31
0.0
  0
LINE
  5
173
  8
0
  6
CONTINUOUS
 62
     7
 10
-142.2603569439442
 20
220.9577287229186
 30
0.0
 11
-142.2727389888194
 21
220.9577231179773
 31
0.0
  0
LINE
  5
174
  8
0
  6
CONTINUOUS
 62
     7
 10
-142.2727389888194
 20
220.9577231179773
 30
0.0
 11
-142.2845265956553
 21
220.9577090935577
 31
0.0
  0
LINE
  5
175
  8
0
  6
CONTINUOUS
 62
     7
 10
-142.2845265956553
 20
220.9577090935577
 30
0.0
 11
-142.295765731187
 21
220.957686634189
 31
0.0
  0
LINE
  5
176
  8
0
  6
CONTINUOUS
 62
     7
 10
-142.295765731187
 20
220.957686634189
 30
0.0
 11
-142.3065299193584
 21
220.9576586192493
 31
0.0
  0
LINE
  5
177
  8
0
  6
CONTINUOUS
 62
     7
 10
-142.3065299193584
 20
220.9576586192493
 30
0.0
 11
-142.3203193013336
 21
220.9576224063863
 31
0.0
  0
LINE
  5
178
  8
0
  6
CONTINUOUS
 62
     7
 10
-142.3203193013336
 20
220.9576224063863
 30
0.0
 11
-142.3337471388644
 21
220.9576033061635
 31
0.0
  0
LINE
  5
179
  8
0
  6
CONTINUOUS
 62
     7
 10
-142.3337471388644
 20
220.9576033061635
 30
0.0
 11
-142.3471830138166
 21
220.9576162269226
 31
0.0
  0
LINE
  5
17A
  8
0
  6
CONTINUOUS
 62
     7
 10
-142.3471830138166
 20
220.9576162269226
 30
0.0
 11
-142.3610519720263
 21
220.9576631042894
 31
0.0
  0
LINE
  5
17B
  8
0
  6
CONTINUOUS
 62
     7
 10
-142.3610519720263
 20
220.9576631042894
 30
0.0
 11
-142.3758221187206
 21
220.9577183188325
 31
0.0
  0
LINE
  5
17C
  8
0
  6
CONTINUOUS
 62
     7
 10
-142.3758221187206
 20
220.9577183188325
 30
0.0
 11
-142.391982405063
 21
220.9577105152354
 31
0.0
  0
LINE
  5
17D
  8
0
  6
CONTINUOUS
 62
     7
 10
-142.391982405063
 20
220.9577105152354
 30
0.0
 11
-142.4017656410784
 21
220.9576322731594
 31
0.0
  0
LINE
  5
17E
  8
0
  6
CONTINUOUS
 62
     7
 10
-142.4017656410784
 20
220.9576322731594
 30
0.0
 11
-142.412099850362
 21
220.9574646941954
 31
0.0
  0
LINE
  5
17F
  8
0
  6
CONTINUOUS
 62
     7
 10
-142.412099850362
 20
220.9574646941954
 30
0.0
 11
-142.4229959761343
 21
220.9571744559532
 31
0.0
  0
LINE
  5
180
  8
0
  6
CONTINUOUS
 62
     7
 10
-142.4229959761343
 20
220.9571744559532
 30
0.0
 11
-142.4344600165388
 21
220.9567249108923
 31
0.0
  0
LINE
  5
181
  8
0
  6
CONTINUOUS
 62
     7
 10
-142.4344600165388
 20
220.9567249108923
 30
0.0
 11
-142.4464931635119
 21
220.956076490728
 31
0.0
  0
LINE
  5
182
  8
0
  6
CONTINUOUS
 62
     7
 10
-142.4464931635119
 20
220.956076490728
 30
0.0
 11
-142.4590919044378
 21
220.9551871154634
 31
0.0
  0
LINE
  5
183
  8
0
  6
CONTINUOUS
 62
     7
 10
-142.4590919044378
 20
220.9551871154634
 30
0.0
 11
-142.4746551733738
 21
220.9537693895184
 31
0.0
  0
LINE
  5
184
  8
0
  6
CONTINUOUS
 62
     7
 10
-142.4746551733738
 20
220.9537693895184
 30
0.0
 11
-142.4909710532338
 21
220.9518802971529
 31
0.0
  0
LINE
  5
185
  8
0
  6
CONTINUOUS
 62
     7
 10
-142.4909710532338
 20
220.9518802971529
 30
0.0
 11
-142.5080092907103
 21
220.9494423602663
 31
0.0
  0
LINE
  5
186
  8
0
  6
CONTINUOUS
 62
     7
 10
-142.5080092907103
 20
220.9494423602663
 30
0.0
 11
-142.5257309463464
 21
220.9463768655099
 31
0.0
  0
LINE
  5
187
  8
0
  6
CONTINUOUS
 62
     7
 10
-142.5257309463464
 20
220.9463768655099
 30
0.0
 11
-142.5444277956047
 21
220.9425292868316
 31
0.0
  0
LINE
  5
188
  8
0
  6
CONTINUOUS
 62
     7
 10
-142.5444277956047
 20
220.9425292868316
 30
0.0
 11
-142.5637245790586
 21
220.9378669257596
 31
0.0
  0
LINE
  5
189
  8
0
  6
CONTINUOUS
 62
     7
 10
-142.5637245790586
 20
220.9378669257596
 30
0.0
 11
-142.5835530846478
 21
220.9323094758259
 31
0.0
  0
LINE
  5
18A
  8
0
  6
CONTINUOUS
 62
     7
 10
-142.5835530846478
 20
220.9323094758259
 30
0.0
 11
-142.6038363671745
 21
220.9257798882251
 31
0.0
  0
LINE
  5
18B
  8
0
  6
CONTINUOUS
 62
     7
 10
-142.6038363671745
 20
220.9257798882251
 30
0.0
 11
-142.6244890695865
 21
220.918205548331
 31
0.0
  0
LINE
  5
18C
  8
0
  6
CONTINUOUS
 62
     7
 10
-142.6244890695865
 20
220.918205548331
 30
0.0
 11
-142.645042266374
 21
220.9096846572724
 31
0.0
  0
LINE
  5
18D
  8
0
  6
CONTINUOUS
 62
     7
 10
-142.645042266374
 20
220.9096846572724
 30
0.0
 11
-142.6657663280601
 21
220.9000341499952
 31
0.0
  0
LINE
  5
18E
  8
0
  6
CONTINUOUS
 62
     7
 10
-142.6657663280601
 20
220.9000341499952
 30
0.0
 11
-142.6865594348461
 21
220.8892041103666
 31
0.0
  0
LINE
  5
18F
  8
0
  6
CONTINUOUS
 62
     7
 10
-142.6865594348461
 20
220.8892041103666
 30
0.0
 11
-142.7073140898989
 21
220.8771528291666
 31
0.0
  0
LINE
  5
190
  8
0
  6
CONTINUOUS
 62
     7
 10
-142.7073140898989
 20
220.8771528291666
 30
0.0
 11
-142.7260541059911
 21
220.8651097227979
 31
0.0
  0
LINE
  5
191
  8
0
  6
CONTINUOUS
 62
     7
 10
-142.7260541059911
 20
220.8651097227979
 30
0.0
 11
-142.7445821896969
 21
220.8520127846326
 31
0.0
  0
LINE
  5
192
  8
0
  6
CONTINUOUS
 62
     7
 10
-142.7445821896969
 20
220.8520127846326
 30
0.0
 11
-142.7628089029346
 21
220.8378517310228
 31
0.0
  0
LINE
  5
193
  8
0
  6
CONTINUOUS
 62
     7
 10
-142.7628089029346
 20
220.8378517310228
 30
0.0
 11
-142.7806433583342
 21
220.8226238186092
 31
0.0
  0
LINE
  5
194
  8
0
  6
CONTINUOUS
 62
     7
 10
-142.7806433583342
 20
220.8226238186092
 30
0.0
 11
-142.7979939272091
 21
220.806334138233
 31
0.0
  0
LINE
  5
195
  8
0
  6
CONTINUOUS
 62
     7
 10
-142.7979939272091
 20
220.806334138233
 30
0.0
 11
-142.8147689852588
 21
220.7889958303128
 31
0.0
  0
LINE
  5
196
  8
0
  6
CONTINUOUS
 62
     7
 10
-142.8147689852588
 20
220.7889958303128
 30
0.0
 11
-142.8308776881266
 21
220.7706302159916
 31
0.0
  0
LINE
  5
197
  8
0
  6
CONTINUOUS
 62
     7
 10
-142.8308776881266
 20
220.7706302159916
 30
0.0
 11
-142.8462307679733
 21
220.7512668393742
 31
0.0
  0
LINE
  5
198
  8
0
  6
CONTINUOUS
 62
     7
 10
-142.8462307679733
 20
220.7512668393742
 30
0.0
 11
-142.8607413414021
 21
220.7309434173508
 31
0.0
  0
LINE
  5
199
  8
0
  6
CONTINUOUS
 62
     7
 10
-142.8607413414021
 20
220.7309434173508
 30
0.0
 11
-142.8743257184258
 21
220.7097056947964
 31
0.0
  0
LINE
  5
19A
  8
0
  6
CONTINUOUS
 62
     7
 10
-142.8743257184258
 20
220.7097056947964
 30
0.0
 11
-142.8848808856811
 21
220.6913475629989
 31
0.0
  0
LINE
  5
19B
  8
0
  6
CONTINUOUS
 62
     7
 10
-142.8848808856811
 20
220.6913475629989
 30
0.0
 11
-142.8946938075972
 21
220.672426494831
 31
0.0
  0
LINE
  5
19C
  8
0
  6
CONTINUOUS
 62
     7
 10
-142.8946938075972
 20
220.672426494831
 30
0.0
 11
-142.9037234638014
 21
220.6529808689094
 31
0.0
  0
LINE
  5
19D
  8
0
  6
CONTINUOUS
 62
     7
 10
-142.9037234638014
 20
220.6529808689094
 30
0.0
 11
-142.9119317249487
 21
220.6330522924886
 31
0.0
  0
LINE
  5
19E
  8
0
  6
CONTINUOUS
 62
     7
 10
-142.9119317249487
 20
220.6330522924886
 30
0.0
 11
-142.9192836238249
 21
220.6126853738874
 31
0.0
  0
LINE
  5
19F
  8
0
  6
CONTINUOUS
 62
     7
 10
-142.9192836238249
 20
220.6126853738874
 30
0.0
 11
-142.9257476068833
 21
220.5919274679403
 31
0.0
  0
LINE
  5
1A0
  8
0
  6
CONTINUOUS
 62
     7
 10
-142.9257476068833
 20
220.5919274679403
 30
0.0
 11
-142.9312957635318
 21
220.5708283965038
 31
0.0
  0
LINE
  5
1A1
  8
0
  6
CONTINUOUS
 62
     7
 10
-142.9312957635318
 20
220.5708283965038
 30
0.0
 11
-142.9359040306906
 21
220.5494401463569
 31
0.0
  0
LINE
  5
1A2
  8
0
  6
CONTINUOUS
 62
     7
 10
-142.9359040306906
 20
220.5494401463569
 30
0.0
 11
-142.9395523703863
 21
220.5278165471157
 31
0.0
  0
LINE
  5
1A3
  8
0
  6
CONTINUOUS
 62
     7
 10
-142.9395523703863
 20
220.5278165471157
 30
0.0
 11
-142.9422249184256
 21
220.5060129320347
 31
0.0
  0
LINE
  5
1A4
  8
0
  6
CONTINUOUS
 62
     7
 10
-142.9422249184256
 20
220.5060129320347
 30
0.0
 11
-142.943910102498
 21
220.4840857847859
 31
0.0
  0
LINE
  5
1A5
  8
0
  6
CONTINUOUS
 62
     7
 10
-142.943910102498
 20
220.4840857847859
 30
0.0
 11
-142.9446007283905
 21
220.4620923754866
 31
0.0
  0
LINE
  5
1A6
  8
0
  6
CONTINUOUS
 62
     7
 10
-130.4620923754866
 20
232.9446007283905
 30
0.0
 11
-130.5589440944483
 21
232.9152512593084
 31
0.0
  0
LINE
  5
1A7
  8
0
  6
CONTINUOUS
 62
     7
 10
-130.5589440944483
 20
232.9152512593084
 30
0.0
 11
-130.6367966818001
 21
232.8494829753379
 31
0.0
  0
LINE
  5
1A8
  8
0
  6
CONTINUOUS
 62
     7
 10
-130.6367966818001
 20
232.8494829753379
 30
0.0
 11
-130.7099075800783
 21
232.7515307762334
 31
0.0
  0
ARC
  5
1A9
  8
0
  6
CONTINUOUS
 62
     7
 10
-129.0364936755825
 20
231.7960777006997
 30
0.0
 40
1.926967741117269
 50
150.2753440524444
 51
175.5794844474206
  0
LINE
  5
1AA
  8
0
  6
CONTINUOUS
 62
     7
 10
-212.5
 20
153.8577291077375
 30
0.0
 11
-212.5
 21
153.9577291077375
 31
0.0
  0
LINE
  5
1AB
  8
0
  6
CONTINUOUS
 62
     7
 10
-227.5
 20
153.8577291077375
 30
0.0
 11
-212.5
 21
153.8577291077375
 31
0.0
  0
LINE
  5
1AC
  8
0
  6
CONTINUOUS
 62
     7
 10
-227.5
 20
153.8577291077375
 30
0.0
 11
-227.5
 21
153.9577291077375
 31
0.0
  0
LINE
  5
1AD
  8
0
  6
CONTINUOUS
 62
     7
 10
-227.5
 20
172.9577291077375
 30
0.0
 11
-212.5
 21
172.9577291077375
 31
0.0
  0
LINE
  5
1AE
  8
0
  6
CONTINUOUS
 62
     7
 10
-212.5
 20
172.9577291077375
 30
0.0
 11
-212.5
 21
182.9577291077375
 31
0.0
  0
LINE
  5
1AF
  8
0
  6
CONTINUOUS
 62
     7
 10
-212.5
 20
182.9577291077375
 30
0.0
 11
-227.5
 21
182.9577291077375
 31
0.0
  0
LINE
  5
1B0
  8
0
  6
CONTINUOUS
 62
     7
 10
-227.5
 20
182.9577291077375
 30
0.0
 11
-227.5
 21
172.9577291077375
 31
0.0
  0
ARC
  5
1B1
  8
0
  6
CONTINUOUS
 62
     7
 10
-229.9999999999999
 20
182.8577291077374
 30
0.0
 40
0.099999999999989
 50
0.0
 51
90.0
  0
LINE
  5
1B2
  8
0
  6
CONTINUOUS
 62
     7
 10
-229.8999999999999
 20
182.8577291077374
 30
0.0
 11
-229.9999999999999
 21
182.8577291077374
 31
0.0
  0
LINE
  5
1B3
  8
0
  6
CONTINUOUS
 62
     7
 10
-229.9999999999999
 20
182.8577291077374
 30
0.0
 11
-229.9999999999999
 21
182.9577291077374
 31
0.0
  0
LINE
  5
1B4
  8
0
  6
CONTINUOUS
 62
     7
 10
-229.9999999999999
 20
182.8577291077374
 30
0.0
 11
-230.1
 21
182.8577291077374
 31
0.0
  0
LINE
  5
1B5
  8
0
  6
CONTINUOUS
 62
     7
 10
-230.1
 20
173.0577291077375
 30
0.0
 11
-230.0
 21
173.0577291077375
 31
0.0
  0
LINE
  5
1B6
  8
0
  6
CONTINUOUS
 62
     7
 10
-230.1
 20
182.8577291077374
 30
0.0
 11
-230.1
 21
173.0577291077375
 31
0.0
  0
LINE
  5
1B7
  8
0
  6
CONTINUOUS
 62
     7
 10
-229.8999999999999
 20
173.0577291077375
 30
0.0
 11
-229.8999999999999
 21
182.8577291077374
 31
0.0
  0
LINE
  5
1B8
  8
0
  6
CONTINUOUS
 62
     7
 10
-229.9999999999999
 20
173.0577291077375
 30
0.0
 11
-229.8999999999999
 21
173.0577291077375
 31
0.0
  0
ARC
  5
1B9
  8
0
  6
CONTINUOUS
 62
     7
 10
-229.9999999999999
 20
182.8577291077374
 30
0.0
 40
0.1000000000000029
 50
90.0
 51
180.0
  0
ARC
  5
1BA
  8
0
  6
CONTINUOUS
 62
     7
 10
-229.9999999999999
 20
173.0577291077375
 30
0.0
 40
0.099999999999989
 50
180.0
 51
270.0
  0
LINE
  5
1BB
  8
0
  6
CONTINUOUS
 62
     7
 10
-229.9999999999999
 20
172.9577291077375
 30
0.0
 11
-229.9999999999999
 21
173.0577291077375
 31
0.0
  0
ARC
  5
1BC
  8
0
  6
CONTINUOUS
 62
     7
 10
-229.9999999999999
 20
173.0577291077375
 30
0.0
 40
0.099999999999989
 50
270.0
 51
0.0
  0
LINE
  5
1BD
  8
0
  6
CONTINUOUS
 62
     7
 10
-210.0
 20
173.0577291077375
 30
0.0
 11
-209.9
 21
173.0577291077375
 31
0.0
  0
LINE
  5
1BE
  8
0
  6
CONTINUOUS
 62
     7
 10
-209.9
 20
182.8577291077374
 30
0.0
 11
-210.0
 21
182.8577291077374
 31
0.0
  0
LINE
  5
1BF
  8
0
  6
CONTINUOUS
 62
     7
 10
-209.9
 20
182.8577291077374
 30
0.0
 11
-209.9
 21
173.0577291077375
 31
0.0
  0
LINE
  5
1C0
  8
0
  6
CONTINUOUS
 62
     7
 10
-210.1
 20
173.0577291077375
 30
0.0
 11
-210.0
 21
173.0577291077375
 31
0.0
  0
LINE
  5
1C1
  8
0
  6
CONTINUOUS
 62
     7
 10
-210.1
 20
173.0577291077375
 30
0.0
 11
-210.1
 21
182.8577291077374
 31
0.0
  0
LINE
  5
1C2
  8
0
  6
CONTINUOUS
 62
     7
 10
-210.0
 20
182.8577291077374
 30
0.0
 11
-210.1
 21
182.8577291077374
 31
0.0
  0
LINE
  5
1C3
  8
0
  6
CONTINUOUS
 62
     7
 10
-210.0
 20
172.9577291077375
 30
0.0
 11
-210.0
 21
173.0577291077375
 31
0.0
  0
ARC
  5
1C4
  8
0
  6
CONTINUOUS
 62
     7
 10
-210.0
 20
173.0577291077375
 30
0.0
 40
0.099999999999989
 50
180.0
 51
270.0
  0
ARC
  5
1C5
  8
0
  6
CONTINUOUS
 62
     7
 10
-210.0
 20
173.0577291077375
 30
0.0
 40
0.1000000000000029
 50
270.0
 51
0.0
  0
LINE
  5
1C6
  8
0
  6
CONTINUOUS
 62
     7
 10
-210.0
 20
182.8577291077374
 30
0.0
 11
-210.0
 21
182.9577291077374
 31
0.0
  0
ARC
  5
1C7
  8
0
  6
CONTINUOUS
 62
     7
 10
-210.0
 20
182.8577291077374
 30
0.0
 40
0.099999999999989
 50
90.0
 51
180.0
  0
ARC
  5
1C8
  8
0
  6
CONTINUOUS
 62
     7
 10
-210.0
 20
182.8577291077374
 30
0.0
 40
0.099999999999989
 50
0.0
 51
90.0
  0
LINE
  5
1C9
  8
0
  6
CONTINUOUS
 62
     7
 10
-229.5
 20
191.8577291077375
 30
0.0
 11
-229.5
 21
189.4577291077375
 31
0.0
  0
LINE
  5
1CA
  8
0
  6
CONTINUOUS
 62
     7
 10
-229.4660916177464
 20
191.6540978558843
 30
0.0
 11
-229.5
 21
191.8577291077375
 31
0.0
  0
LINE
  5
1CB
  8
0
  6
CONTINUOUS
 62
     7
 10
-229.4520022271508
 20
188.8577291077375
 30
0.0
 11
-229.4660916177464
 21
191.6540978558843
 31
0.0
  0
LINE
  5
1CC
  8
0
  6
CONTINUOUS
 62
     7
 10
-229.5
 20
183.1623123818893
 30
0.0
 11
-229.4520022271508
 21
188.8577291077375
 31
0.0
  0
LINE
  5
1CD
  8
0
  6
CONTINUOUS
 62
     7
 10
-229.5
 20
185.9577291077375
 30
0.0
 11
-229.5
 21
183.1623123818893
 31
0.0
  0
LINE
  5
1CE
  8
0
  6
CONTINUOUS
 62
     7
 10
-229.4908988087595
 20
187.0006223265509
 30
0.0
 11
-229.5
 21
185.9577291077375
 31
0.0
  0
LINE
  5
1CF
  8
0
  6
CONTINUOUS
 62
     7
 10
-229.4908988087595
 20
188.414835888924
 30
0.0
 11
-229.4908988087595
 21
187.0006223265509
 31
0.0
  0
LINE
  5
1D0
  8
0
  6
CONTINUOUS
 62
     7
 10
-229.5
 20
189.4577291077375
 30
0.0
 11
-229.4908988087595
 21
188.414835888924
 31
0.0
  0
LINE
  5
1D1
  8
0
  6
CONTINUOUS
 62
     7
 10
-210.5479977728492
 20
188.8577291077375
 30
0.0
 11
-212.0
 21
188.8577291077375
 31
0.0
  0
LINE
  5
1D2
  8
0
  6
CONTINUOUS
 62
     7
 10
-228.0
 20
188.8577291077375
 30
0.0
 11
-229.4520022271508
 21
188.8577291077375
 31
0.0
  0
LINE
  5
1D3
  8
0
  6
CONTINUOUS
 62
     7
 10
-210.5
 20
183.1623123818893
 30
0.0
 11
-210.5479977728492
 21
188.8577291077375
 31
0.0
  0
LINE
  5
1D4
  8
0
  6
CONTINUOUS
 62
     7
 10
-210.5
 20
183.1623123818893
 30
0.0
 11
-229.5
 21
183.1623123818893
 31
0.0
  0
LINE
  5
1D5
  8
0
  6
CONTINUOUS
 62
     7
 10
-210.5
 20
185.9577291077375
 30
0.0
 11
-210.5
 21
183.1623123818893
 31
0.0
  0
LINE
  5
1D6
  8
0
  6
CONTINUOUS
 62
     7
 10
-208.0412599507544
 20
171.9577291077375
 30
0.0
 11
-208.1276515342615
 21
185.9577291077375
 31
0.0
  0
LINE
  5
1D7
  8
0
  6
CONTINUOUS
 62
     7
 10
-231.9587400492455
 20
171.9577291077375
 30
0.0
 11
-231.8723484657384
 21
185.9577291077375
 31
0.0
  0
LINE
  5
1D8
  8
0
  6
CONTINUOUS
 62
     7
 10
-231.8507505698616
 20
189.4577291077375
 30
0.0
 11
-231.8390101954562
 21
191.3602899244751
 31
0.0
  0
LINE
  5
1D9
  8
0
  6
CONTINUOUS
 62
     7
 10
-231.3391642082454
 20
191.8577291077375
 30
0.0
 11
-231.4363105453352
 21
191.8481875845488
 31
0.0
  0
LINE
  5
1DA
  8
0
  6
CONTINUOUS
 62
     7
 10
-231.4363105453352
 20
191.8481875845488
 30
0.0
 11
-231.5297484355863
 21
191.8199266785697
 31
0.0
  0
LINE
  5
1DB
  8
0
  6
CONTINUOUS
 62
     7
 10
-231.5297484355863
 20
191.8199266785697
 30
0.0
 11
-231.6159166071098
 21
191.7740235199637
 31
0.0
  0
LINE
  5
1DC
  8
0
  6
CONTINUOUS
 62
     7
 10
-231.6159166071098
 20
191.7740235199637
 30
0.0
 11
-231.6915308645312
 21
191.7122276519613
 31
0.0
  0
LINE
  5
1DD
  8
0
  6
CONTINUOUS
 62
     7
 10
-231.6915308645312
 20
191.7122276519613
 30
0.0
 11
-231.753709262115
 21
191.6368943491409
 31
0.0
  0
LINE
  5
1DE
  8
0
  6
CONTINUOUS
 62
     7
 10
-231.753709262115
 20
191.6368943491409
 30
0.0
 11
-231.8000819456315
 21
191.5508948489941
 31
0.0
  0
LINE
  5
1DF
  8
0
  6
CONTINUOUS
 62
     7
 10
-231.8000819456315
 20
191.5508948489941
 30
0.0
 11
-231.8288814764776
 21
191.4575069181905
 31
0.0
  0
LINE
  5
1E0
  8
0
  6
CONTINUOUS
 62
     7
 10
-231.8288814764776
 20
191.4575069181905
 30
0.0
 11
-231.8390101954562
 21
191.360289924475
 31
0.0
  0
LINE
  5
1E1
  8
0
  6
CONTINUOUS
 62
     7
 10
-231.3391642082453
 20
191.8577291077375
 30
0.0
 11
-229.5
 21
191.8577291077375
 31
0.0
  0
LINE
  5
1E2
  8
0
  6
CONTINUOUS
 62
     7
 10
-208.016576641181
 20
167.9577291077375
 30
0.0
 11
-208.0196620548777
 21
168.4577291077375
 31
0.0
  0
LINE
  5
1E3
  8
0
  6
CONTINUOUS
 62
     7
 10
-208.016576641181
 20
167.9577291077375
 30
0.0
 11
-194.0
 21
167.9577291077375
 31
0.0
  0
LINE
  5
1E4
  8
0
  6
CONTINUOUS
 62
     7
 10
-193.0
 20
166.9576910293517
 30
0.0
 11
-193.0192147195967
 21
167.1527887800924
 31
0.0
  0
LINE
  5
1E5
  8
0
  6
CONTINUOUS
 62
     7
 10
-193.0192147195967
 20
167.1527887800924
 30
0.0
 11
-193.0761204674887
 21
167.3403890336842
 31
0.0
  0
LINE
  5
1E6
  8
0
  6
CONTINUOUS
 62
     7
 10
-193.0761204674887
 20
167.3403890336842
 30
0.0
 11
-193.1685303876974
 21
167.513282417589
 31
0.0
  0
LINE
  5
1E7
  8
0
  6
CONTINUOUS
 62
     7
 10
-193.1685303876974
 20
167.513282417589
 30
0.0
 11
-193.2928932188134
 21
167.664824736023
 31
0.0
  0
LINE
  5
1E8
  8
0
  6
CONTINUOUS
 62
     7
 10
-193.2928932188134
 20
167.664824736023
 30
0.0
 11
-193.4444297669804
 21
167.7891923026749
 31
0.0
  0
LINE
  5
1E9
  8
0
  6
CONTINUOUS
 62
     7
 10
-193.4444297669804
 20
167.7891923026749
 30
0.0
 11
-193.6173165676349
 21
167.8816057417042
 31
0.0
  0
LINE
  5
1EA
  8
0
  6
CONTINUOUS
 62
     7
 10
-193.6173165676349
 20
167.8816057417042
 30
0.0
 11
-193.8049096779839
 21
167.9385136564752
 31
0.0
  0
LINE
  5
1EB
  8
0
  6
CONTINUOUS
 62
     7
 10
-193.8049096779839
 20
167.9385136564752
 30
0.0
 11
-194.0
 21
167.9577291077375
 31
0.0
  0
LINE
  5
1EC
  8
0
  6
CONTINUOUS
 62
     7
 10
-193.0
 20
166.9576910293517
 30
0.0
 11
-193.0
 21
165.2714376067222
 31
0.0
  0
LINE
  5
1ED
  8
0
  6
CONTINUOUS
 62
     7
 10
-247.0
 20
165.2714376067222
 30
0.0
 11
-193.0
 21
165.2714376067222
 31
0.0
  0
LINE
  5
1EE
  8
0
  6
CONTINUOUS
 62
     7
 10
-247.0
 20
166.9576910293517
 30
0.0
 11
-247.0
 21
165.2714376067222
 31
0.0
  0
LINE
  5
1EF
  8
0
  6
CONTINUOUS
 62
     7
 10
-246.0
 20
167.9577291077375
 30
0.0
 11
-246.1950903220161
 21
167.9385136564752
 31
0.0
  0
LINE
  5
1F0
  8
0
  6
CONTINUOUS
 62
     7
 10
-246.1950903220161
 20
167.9385136564752
 30
0.0
 11
-246.3826834323651
 21
167.8816057417042
 31
0.0
  0
LINE
  5
1F1
  8
0
  6
CONTINUOUS
 62
     7
 10
-246.3826834323651
 20
167.8816057417042
 30
0.0
 11
-246.5555702330196
 21
167.7891923026749
 31
0.0
  0
LINE
  5
1F2
  8
0
  6
CONTINUOUS
 62
     7
 10
-246.5555702330196
 20
167.7891923026749
 30
0.0
 11
-246.7071067811865
 21
167.664824736023
 31
0.0
  0
LINE
  5
1F3
  8
0
  6
CONTINUOUS
 62
     7
 10
-246.7071067811865
 20
167.664824736023
 30
0.0
 11
-246.8314696123025
 21
167.513282417589
 31
0.0
  0
LINE
  5
1F4
  8
0
  6
CONTINUOUS
 62
     7
 10
-246.8314696123025
 20
167.513282417589
 30
0.0
 11
-246.9238795325113
 21
167.3403890336842
 31
0.0
  0
LINE
  5
1F5
  8
0
  6
CONTINUOUS
 62
     7
 10
-246.9238795325113
 20
167.3403890336842
 30
0.0
 11
-246.9807852804032
 21
167.1527887800924
 31
0.0
  0
LINE
  5
1F6
  8
0
  6
CONTINUOUS
 62
     7
 10
-246.9807852804032
 20
167.1527887800924
 30
0.0
 11
-247.0
 21
166.9576910293517
 31
0.0
  0
LINE
  5
1F7
  8
0
  6
CONTINUOUS
 62
     7
 10
-231.9834233588189
 20
167.9577291077375
 30
0.0
 11
-246.0
 21
167.9577291077375
 31
0.0
  0
LINE
  5
1F8
  8
0
  6
CONTINUOUS
 62
     7
 10
-231.9834233588189
 20
167.9577291077375
 30
0.0
 11
-231.9803379451223
 21
168.4577291077375
 31
0.0
  0
LINE
  5
1F9
  8
0
  6
CONTINUOUS
 62
     7
 10
-247.0
 20
153.9577291077375
 30
0.0
 11
-247.0
 21
155.2714376067222
 31
0.0
  0
LINE
  5
1FA
  8
0
  6
CONTINUOUS
 62
     7
 10
-232.0
 20
155.2714376067222
 30
0.0
 11
-247.0
 21
155.2714376067222
 31
0.0
  0
LINE
  5
1FB
  8
0
  6
CONTINUOUS
 62
     7
 10
-232.0
 20
163.9577291077375
 30
0.0
 11
-247.0
 21
163.9577291077375
 31
0.0
  0
LINE
  5
1FC
  8
0
  6
CONTINUOUS
 62
     7
 10
-193.0
 20
165.2714376067222
 30
0.0
 11
-193.0
 21
163.9577291077375
 31
0.0
  0
LINE
  5
1FD
  8
0
  6
CONTINUOUS
 62
     7
 10
-208.0
 20
163.9577291077375
 30
0.0
 11
-192.9999999999999
 21
163.9577291077375
 31
0.0
  0
LINE
  5
1FE
  8
0
  6
CONTINUOUS
 62
     7
 10
-208.0
 20
155.2714376067222
 30
0.0
 11
-208.0
 21
163.9577291077375
 31
0.0
  0
LINE
  5
1FF
  8
0
  6
CONTINUOUS
 62
     7
 10
-208.0
 20
155.2714376067222
 30
0.0
 11
-192.9999999999999
 21
155.2714376067222
 31
0.0
  0
LINE
  5
200
  8
0
  6
CONTINUOUS
 62
     7
 10
-193.0
 20
153.9577291077375
 30
0.0
 11
-193.0
 21
155.2714376067222
 31
0.0
  0
LINE
  5
201
  8
0
  6
CONTINUOUS
 62
     7
 10
-247.0
 20
153.9577291077375
 30
0.0
 11
-193.0
 21
153.9577291077375
 31
0.0
  0
LINE
  5
202
  8
0
  6
CONTINUOUS
 62
     7
 10
-247.0
 20
165.2714376067222
 30
0.0
 11
-247.0
 21
163.9577291077375
 31
0.0
  0
LINE
  5
203
  8
0
  6
CONTINUOUS
 62
     7
 10
-232.0
 20
155.2714376067222
 30
0.0
 11
-232.0
 21
163.9577291077375
 31
0.0
  0
LINE
  5
204
  8
0
  6
CONTINUOUS
 62
     7
 10
-210.5091011912404
 20
188.414835888924
 30
0.0
 11
-210.5091011912404
 21
187.0006223265509
 31
0.0
  0
LINE
  5
205
  8
0
  6
CONTINUOUS
 62
     7
 10
-210.5091011912404
 20
187.0006223265509
 30
0.0
 11
-210.5
 21
185.9577291077375
 31
0.0
  0
LINE
  5
206
  8
0
  6
CONTINUOUS
 62
     7
 10
-210.5479977728492
 20
188.8577291077375
 30
0.0
 11
-210.5339083822535
 21
191.6540978558843
 31
0.0
  0
LINE
  5
207
  8
0
  6
CONTINUOUS
 62
     7
 10
-210.5
 20
191.8577291077375
 30
0.0
 11
-210.5
 21
189.4577291077375
 31
0.0
  0
LINE
  5
208
  8
0
  6
CONTINUOUS
 62
     7
 10
-210.5
 20
189.4577291077375
 30
0.0
 11
-210.5091011912404
 21
188.414835888924
 31
0.0
  0
LINE
  5
209
  8
0
  6
CONTINUOUS
 62
     7
 10
-210.5339083822535
 20
191.6540978558843
 30
0.0
 11
-210.5
 21
191.8577291077375
 31
0.0
  0
LINE
  5
20A
  8
0
  6
CONTINUOUS
 62
     7
 10
-231.8507505698616
 20
188.414835888924
 30
0.0
 11
-231.8507505698616
 21
189.4577291077375
 31
0.0
  0
LINE
  5
20B
  8
0
  6
CONTINUOUS
 62
     7
 10
-208.1609898045438
 20
191.360289924475
 30
0.0
 11
-208.1711185235223
 21
191.4575069181905
 31
0.0
  0
LINE
  5
20C
  8
0
  6
CONTINUOUS
 62
     7
 10
-208.1711185235223
 20
191.4575069181905
 30
0.0
 11
-208.1999180543685
 21
191.5508948489941
 31
0.0
  0
LINE
  5
20D
  8
0
  6
CONTINUOUS
 62
     7
 10
-208.1999180543685
 20
191.5508948489941
 30
0.0
 11
-208.246290737885
 21
191.6368943491409
 31
0.0
  0
LINE
  5
20E
  8
0
  6
CONTINUOUS
 62
     7
 10
-208.246290737885
 20
191.6368943491409
 30
0.0
 11
-208.3084691354687
 21
191.7122276519613
 31
0.0
  0
LINE
  5
20F
  8
0
  6
CONTINUOUS
 62
     7
 10
-208.3084691354687
 20
191.7122276519613
 30
0.0
 11
-208.3840833928901
 21
191.7740235199637
 31
0.0
  0
LINE
  5
210
  8
0
  6
CONTINUOUS
 62
     7
 10
-208.3840833928901
 20
191.7740235199637
 30
0.0
 11
-208.4702515644136
 21
191.8199266785697
 31
0.0
  0
LINE
  5
211
  8
0
  6
CONTINUOUS
 62
     7
 10
-208.4702515644136
 20
191.8199266785697
 30
0.0
 11
-208.5636894546647
 21
191.8481875845488
 31
0.0
  0
LINE
  5
212
  8
0
  6
CONTINUOUS
 62
     7
 10
-208.5636894546647
 20
191.8481875845488
 30
0.0
 11
-208.6608357917546
 21
191.8577291077375
 31
0.0
  0
LINE
  5
213
  8
0
  6
CONTINUOUS
 62
     7
 10
-208.1492494301383
 20
189.4577291077375
 30
0.0
 11
-208.1609898045438
 21
191.3602899244751
 31
0.0
  0
LINE
  5
214
  8
0
  6
CONTINUOUS
 62
     7
 10
-208.6608357917546
 20
191.8577291077375
 30
0.0
 11
-210.5
 21
191.8577291077375
 31
0.0
  0
LINE
  5
215
  8
0
  6
CONTINUOUS
 62
     7
 10
-208.0412599507544
 20
170.914835888924
 30
0.0
 11
-208.0412599507544
 21
171.9577291077375
 31
0.0
  0
LINE
  5
216
  8
0
  6
CONTINUOUS
 62
     7
 10
-231.9587400492455
 20
170.914835888924
 30
0.0
 11
-231.9587400492455
 21
171.9577291077375
 31
0.0
  0
LINE
  5
217
  8
0
  6
CONTINUOUS
 62
     7
 10
-208.1492494301383
 20
188.414835888924
 30
0.0
 11
-208.1492494301383
 21
189.4577291077375
 31
0.0
  0
LINE
  5
218
  8
0
  6
CONTINUOUS
 62
     7
 10
-231.8723484657384
 20
185.9577291077375
 30
0.0
 11
-231.8594774376524
 21
187.0006223265509
 31
0.0
  0
LINE
  5
219
  8
0
  6
CONTINUOUS
 62
     7
 10
-208.1276515342615
 20
185.9577291077375
 30
0.0
 11
-208.1405225623475
 21
187.0006223265509
 31
0.0
  0
LINE
  5
21A
  8
0
  6
CONTINUOUS
 62
     7
 10
-208.0196620548777
 20
168.4577291077375
 30
0.0
 11
-208.0325330829637
 21
169.5006223265509
 31
0.0
  0
LINE
  5
21B
  8
0
  6
CONTINUOUS
 62
     7
 10
-231.9803379451223
 20
168.4577291077375
 30
0.0
 11
-231.9674669170362
 21
169.5006223265509
 31
0.0
  0
LINE
  5
21C
  8
0
  6
CONTINUOUS
 62
     7
 10
-231.8594774376524
 20
187.0006223265509
 30
0.0
 11
-231.8507505698616
 21
188.414835888924
 31
0.0
  0
LINE
  5
21D
  8
0
  6
CONTINUOUS
 62
     7
 10
-208.1405225623475
 20
187.0006223265509
 30
0.0
 11
-208.1492494301383
 21
188.414835888924
 31
0.0
  0
LINE
  5
21E
  8
0
  6
CONTINUOUS
 62
     7
 10
-208.0325330829637
 20
169.5006223265509
 30
0.0
 11
-208.0412599507544
 21
170.914835888924
 31
0.0
  0
LINE
  5
21F
  8
0
  6
CONTINUOUS
 62
     7
 10
-231.9674669170362
 20
169.5006223265509
 30
0.0
 11
-231.9587400492455
 21
170.914835888924
 31
0.0
  0
LINE
  5
220
  8
0
  6
CONTINUOUS
 62
     7
 10
-210.5339083822535
 20
191.6540978558843
 30
0.0
 11
-212.0
 21
191.6540978558843
 31
0.0
  0
LINE
  5
221
  8
0
  6
CONTINUOUS
 62
     7
 10
-228.0
 20
191.6540978558843
 30
0.0
 11
-229.4660916177464
 21
191.6540978558843
 31
0.0
  0
LINE
  5
222
  8
0
  6
CONTINUOUS
 62
     7
 10
-193.0
 20
155.2714376067222
 30
0.0
 11
-193.0
 21
155.4577291077375
 31
0.0
  0
LINE
  5
223
  8
0
  6
CONTINUOUS
 62
     7
 10
-193.0
 20
155.4577291077375
 30
0.0
 11
-193.1495453678501
 21
155.8143543323145
 31
0.0
  0
LINE
  5
224
  8
0
  6
CONTINUOUS
 62
     7
 10
-247.0
 20
155.2714376067222
 30
0.0
 11
-247.0
 21
155.4577291077375
 31
0.0
  0
LINE
  5
225
  8
0
  6
CONTINUOUS
 62
     7
 10
-247.0
 20
155.4577291077375
 30
0.0
 11
-246.8504546321499
 21
155.8143543323145
 31
0.0
  0
LINE
  5
226
  8
0
  6
CONTINUOUS
 62
     7
 10
-232.0
 20
155.9577291077375
 30
0.0
 11
-246.5
 21
155.9577291077375
 31
0.0
  0
LINE
  5
227
  8
0
  6
CONTINUOUS
 62
     7
 10
-246.8504546321499
 20
155.8143543323145
 30
0.0
 11
-246.5
 21
155.9577291077375
 31
0.0
  0
LINE
  5
228
  8
0
  6
CONTINUOUS
 62
     7
 10
-208.0
 20
155.9577291077375
 30
0.0
 11
-193.4999999999999
 21
155.9577291077375
 31
0.0
  0
LINE
  5
229
  8
0
  6
CONTINUOUS
 62
     7
 10
-193.1495453678501
 20
155.8143543323145
 30
0.0
 11
-193.5
 21
155.9577291077375
 31
0.0
  0
LINE
  5
22A
  8
0
  6
CONTINUOUS
 62
     7
 10
-229.8999999999999
 20
153.9577291077375
 30
0.0
 11
-229.9999999999999
 21
153.8577291077375
 31
0.0
  0
LINE
  5
22B
  8
0
  6
CONTINUOUS
 62
     7
 10
-229.9999999999999
 20
153.8577291077375
 30
0.0
 11
-230.1
 21
153.9577291077375
 31
0.0
  0
LINE
  5
22C
  8
0
  6
CONTINUOUS
 62
     7
 10
-210.1
 20
153.9577291077375
 30
0.0
 11
-210.0
 21
153.8577291077375
 31
0.0
  0
LINE
  5
22D
  8
0
  6
CONTINUOUS
 62
     7
 10
-210.0
 20
153.8577291077375
 30
0.0
 11
-209.9
 21
153.9577291077375
 31
0.0
  0
LINE
  5
22E
  8
0
  6
CONTINUOUS
 62
     7
 10
-214.0
 20
192.0577291077375
 30
0.0
 11
-226.0
 21
192.0577291077375
 31
0.0
  0
LINE
  5
22F
  8
0
  6
CONTINUOUS
 62
     7
 10
-226.0
 20
192.0577291077375
 30
0.0
 11
-226.0
 21
190.1350793769271
 31
0.0
  0
LINE
  5
230
  8
0
  6
CONTINUOUS
 62
     7
 10
-226.0
 20
190.1350793769271
 30
0.0
 11
-228.0
 21
190.1350793769271
 31
0.0
  0
LINE
  5
231
  8
0
  6
CONTINUOUS
 62
     7
 10
-228.0
 20
190.1350793769271
 30
0.0
 11
-228.0
 21
192.0577291077375
 31
0.0
  0
LINE
  5
232
  8
0
  6
CONTINUOUS
 62
     7
 10
-228.5
 20
192.0577291077374
 30
0.0
 11
-228.0
 21
192.0577291077375
 31
0.0
  0
LINE
  5
233
  8
0
  6
CONTINUOUS
 62
     7
 10
-231.0
 20
194.0577291077373
 30
0.0
 11
-228.5
 21
192.0577291077374
 31
0.0
  0
LINE
  5
234
  8
0
  6
CONTINUOUS
 62
     7
 10
-248.0
 20
194.0577291077375
 30
0.0
 11
-231.0
 21
194.0577291077374
 31
0.0
  0
LINE
  5
235
  8
0
  6
CONTINUOUS
 62
     7
 10
-248.0
 20
194.5577168115126
 30
0.0
 11
-248.0
 21
194.0577291077375
 31
0.0
  0
ARC
  5
236
  8
0
  6
CONTINUOUS
 62
     7
 10
-246.4994599276095
 20
194.5569687981269
 30
0.0
 40
1.500540258831381
 50
100.3944650278699
 51
179.9714382792834
  0
LINE
  5
237
  8
0
  6
CONTINUOUS
 62
     7
 10
-246.4979414810031
 20
196.0577291077375
 30
0.0
 11
-231.0
 21
196.0577291077373
 31
0.0
  0
LINE
  5
238
  8
0
  6
CONTINUOUS
 62
     7
 10
-228.5
 20
194.0577291077373
 30
0.0
 11
-231.0
 21
196.0577291077373
 31
0.0
  0
LINE
  5
239
  8
0
  6
CONTINUOUS
 62
     7
 10
-211.5
 20
194.0577291077374
 30
0.0
 11
-228.5
 21
194.0577291077374
 31
0.0
  0
LINE
  5
23A
  8
0
  6
CONTINUOUS
 62
     7
 10
-211.5
 20
194.0577291077373
 30
0.0
 11
-209.0
 21
196.0577291077373
 31
0.0
  0
LINE
  5
23B
  8
0
  6
CONTINUOUS
 62
     7
 10
-193.5020585189968
 20
196.0577291077375
 30
0.0
 11
-209.0
 21
196.0577291077373
 31
0.0
  0
ARC
  5
23C
  8
0
  6
CONTINUOUS
 62
     7
 10
-193.5005400723904
 20
194.5569687981269
 30
0.0
 40
1.500540258831305
 50
0.0285617207155366
 51
79.60553497213412
  0
LINE
  5
23D
  8
0
  6
CONTINUOUS
 62
     7
 10
-192.0
 20
194.5577168115126
 30
0.0
 11
-192.0
 21
194.0577291077375
 31
0.0
  0
LINE
  5
23E
  8
0
  6
CONTINUOUS
 62
     7
 10
-192.0
 20
194.0577291077375
 30
0.0
 11
-209.0
 21
194.0577291077374
 31
0.0
  0
LINE
  5
23F
  8
0
  6
CONTINUOUS
 62
     7
 10
-209.0
 20
194.0577291077373
 30
0.0
 11
-211.5
 21
192.0577291077374
 31
0.0
  0
LINE
  5
240
  8
0
  6
CONTINUOUS
 62
     7
 10
-211.5
 20
192.0577291077374
 30
0.0
 11
-212.0
 21
192.0577291077375
 31
0.0
  0
LINE
  5
241
  8
0
  6
CONTINUOUS
 62
     7
 10
-212.0
 20
190.1350793769271
 30
0.0
 11
-212.0
 21
192.0577291077375
 31
0.0
  0
LINE
  5
242
  8
0
  6
CONTINUOUS
 62
     7
 10
-214.0
 20
190.1350793769271
 30
0.0
 11
-212.0
 21
190.1350793769271
 31
0.0
  0
LINE
  5
243
  8
0
  6
CONTINUOUS
 62
     7
 10
-214.0
 20
192.0577291077375
 30
0.0
 11
-214.0
 21
190.1350793769271
 31
0.0
  0
LINE
  5
244
  8
0
  6
CONTINUOUS
 62
     7
 10
-193.2298064047011
 20
196.0328835482237
 30
0.0
 11
-193.5020585189968
 21
196.0577291077374
 31
0.0
  0
LINE
  5
245
  8
0
  6
CONTINUOUS
 62
     7
 10
-246.7701935952989
 20
196.0328835482237
 30
0.0
 11
-246.4979414810031
 21
196.0577291077375
 31
0.0
  0
LINE
  5
246
  8
0
  6
CONTINUOUS
 62
     7
 10
-209.0
 20
192.9956287187115
 30
0.0
 11
-210.4493902461964
 21
191.8577291077375
 31
0.0
  0
LINE
  5
247
  8
0
  6
CONTINUOUS
 62
     7
 10
-210.5076113499133
 20
191.8120203888857
 30
0.0
 11
-210.7087638740723
 21
191.6540978558843
 31
0.0
  0
LINE
  5
248
  8
0
  6
CONTINUOUS
 62
     7
 10
-211.5
 20
192.0577291077374
 30
0.0
 11
-211.5
 21
191.6540978558842
 31
0.0
  0
LINE
  5
249
  8
0
  6
CONTINUOUS
 62
     7
 10
-209.0
 20
192.9956287187114
 30
0.0
 11
-209.0
 21
194.0577291077372
 31
0.0
  0
LINE
  5
24A
  8
0
  6
CONTINUOUS
 62
     7
 10
-228.5
 20
192.0577291077375
 30
0.0
 11
-228.5
 21
191.6540978558843
 31
0.0
  0
LINE
  5
24B
  8
0
  6
CONTINUOUS
 62
     7
 10
-231.0
 20
192.9956287187115
 30
0.0
 11
-229.5506097538035
 21
191.8577291077375
 31
0.0
  0
LINE
  5
24C
  8
0
  6
CONTINUOUS
 62
     7
 10
-229.4923886500866
 20
191.8120203888857
 30
0.0
 11
-229.2912361259277
 21
191.6540978558843
 31
0.0
  0
LINE
  5
24D
  8
0
  6
CONTINUOUS
 62
     7
 10
-231.0
 20
192.9956287187115
 30
0.0
 11
-231.0
 21
194.0577291077373
 31
0.0
  0
LINE
  5
24E
  8
0
  6
CONTINUOUS
 62
     7
 10
-192.0
 20
194.0577291077375
 30
0.0
 11
-193.2066708318681
 21
192.9956287187116
 31
0.0
  0
LINE
  5
24F
  8
0
  6
CONTINUOUS
 62
     7
 10
-193.2066708318681
 20
192.9956287187116
 30
0.0
 11
-209.0
 21
192.9956287187115
 31
0.0
  0
LINE
  5
250
  8
0
  6
CONTINUOUS
 62
     7
 10
-246.7933291681318
 20
192.9956287187116
 30
0.0
 11
-231.0
 21
192.9956287187115
 31
0.0
  0
LINE
  5
251
  8
0
  6
CONTINUOUS
 62
     7
 10
-246.7933291681318
 20
192.9956287187115
 30
0.0
 11
-248.0
 21
194.0577291077375
 31
0.0
  0
LINE
  5
252
  8
0
  6
CONTINUOUS
 62
     7
 10
-226.0
 20
188.1350793769271
 30
0.0
 11
-226.0
 21
190.1350793769271
 31
0.0
  0
LINE
  5
253
  8
0
  6
CONTINUOUS
 62
     7
 10
-228.0
 20
190.1350793769271
 30
0.0
 11
-228.0
 21
188.1350793769271
 31
0.0
  0
LINE
  5
254
  8
0
  6
CONTINUOUS
 62
     7
 10
-214.0
 20
188.1350793769271
 30
0.0
 11
-214.0
 21
190.1350793769271
 31
0.0
  0
LINE
  5
255
  8
0
  6
CONTINUOUS
 62
     7
 10
-212.0
 20
190.1350793769271
 30
0.0
 11
-212.0
 21
188.1350793769271
 31
0.0
  0
LINE
  5
256
  8
0
  6
CONTINUOUS
 62
     7
 10
-226.0
 20
192.0545849983732
 30
0.0
 11
-214.0
 21
192.0545849983732
 31
0.0
  0
LINE
  5
257
  8
0
  6
CONTINUOUS
 62
     7
 10
-226.0
 20
188.5577291077375
 30
0.0
 11
-214.0
 21
188.5577291077375
 31
0.0
  0
LINE
  5
258
  8
0
  6
CONTINUOUS
 62
     7
 10
-209.0
 20
191.8577291077374
 30
0.0
 11
-209.0
 21
192.9956287187115
 31
0.0
  0
LINE
  5
259
  8
0
  6
CONTINUOUS
 62
     7
 10
-231.0
 20
191.8577291077374
 30
0.0
 11
-231.0
 21
192.9956287187115
 31
0.0
  0
LINE
  5
25A
  8
0
  6
CONTINUOUS
 62
     7
 10
-246.7933291681318
 20
176.982380187708
 30
0.0
 11
-231.9277337947191
 21
176.9823801877081
 31
0.0
  0
LINE
  5
25B
  8
0
  6
CONTINUOUS
 62
     7
 10
-246.2917858353113
 20
186.5523970760748
 30
0.0
 11
-246.7933291681318
 21
176.982380187708
 31
0.0
  0
LINE
  5
25C
  8
0
  6
CONTINUOUS
 62
     7
 10
-246.2917858353113
 20
186.5523970760747
 30
0.0
 11
-246.5262278675585
 21
190.2368089616678
 31
0.0
  0
LINE
  5
25D
  8
0
  6
CONTINUOUS
 62
     7
 10
-246.5262278675585
 20
190.2368089616678
 30
0.0
 11
-246.7933291681319
 21
192.9956287187116
 31
0.0
  0
LINE
  5
25E
  8
0
  6
CONTINUOUS
 62
     7
 10
-193.7082141646886
 20
186.5523970760748
 30
0.0
 11
-193.2066708318681
 21
176.982380187708
 31
0.0
  0
LINE
  5
25F
  8
0
  6
CONTINUOUS
 62
     7
 10
-193.2066708318681
 20
176.982380187708
 30
0.0
 11
-208.0722662052808
 21
176.9823801877081
 31
0.0
  0
LINE
  5
260
  8
0
  6
CONTINUOUS
 62
     7
 10
-193.2066708318681
 20
192.9956287187116
 30
0.0
 11
-193.4737721324415
 21
190.2368089616679
 31
0.0
  0
LINE
  5
261
  8
0
  6
CONTINUOUS
 62
     7
 10
-193.4737721324415
 20
190.2368089616679
 30
0.0
 11
-193.7082141646886
 21
186.5523970760748
 31
0.0
  0
LINE
  5
262
  8
0
  6
CONTINUOUS
 62
     7
 10
-192.0
 20
153.9577291077375
 30
0.0
 11
-193.0
 21
153.9577291077375
 31
0.0
  0
LINE
  5
263
  8
0
  6
CONTINUOUS
 62
     7
 10
-193.2066708318681
 20
176.9823801877081
 30
0.0
 11
-191.9999999999999
 21
153.9577291077375
 31
0.0
  0
LINE
  5
264
  8
0
  6
CONTINUOUS
 62
     7
 10
-248.0
 20
153.9577291077375
 30
0.0
 11
-247.0
 21
153.9577291077375
 31
0.0
  0
LINE
  5
265
  8
0
  6
CONTINUOUS
 62
     7
 10
-246.7933291681318
 20
176.9823801877081
 30
0.0
 11
-248.0
 21
153.9577291077375
 31
0.0
  0
LINE
  5
266
  8
0
  6
CONTINUOUS
 62
     7
 10
-193.2301542670896
 20
196.0329484975207
 30
0.0
 11
-193.5940920431256
 21
196.0515391649032
 31
0.0
  0
LINE
  5
267
  8
0
  6
CONTINUOUS
 62
     7
 10
-246.4059079568743
 20
196.0515391649032
 30
0.0
 11
-246.7698457329103
 21
196.0329484975207
 31
0.0
  0
LINE
  5
268
  8
0
  6
CONTINUOUS
 62
     7
 10
-228.0
 20
188.1350793769271
 30
0.0
 11
-226.0
 21
188.1350793769271
 31
0.0
  0
LINE
  5
269
  8
0
  6
CONTINUOUS
 62
     7
 10
-214.0
 20
188.1350793769271
 30
0.0
 11
-212.0
 21
188.1350793769271
 31
0.0
  0
ENDSEC
  0
EOF
