  0
SECTION
  2
HEADER
  9
$ACADVER
  1
AC1006
  9
$DWGCODEPAGE
  3
ansi_932
  9
$INSBASE
 10
0.0
 20
0.0
 30
0.0
  9
$EXTMIN
 10
-337.5
 20
35.00000000000001
  9
$EXTMAX
 10
-50.47500000000001
 20
395.0000000000001
  9
$LIMMIN
 10
0.0
 20
0.0
  9
$LIMMAX
 10
12.0
 20
9.0
  9
$ORTHOMODE
 70
     0
  9
$REGENMODE
 70
     1
  9
$FILLMODE
 70
     1
  9
$QTEXTMODE
 70
     0
  9
$MIRRTEXT
 70
     1
  9
$DRAGMODE
 70
     2
  9
$LTSCALE
 40
1.0
  9
$OSMODE
 70
    37
  9
$ATTMODE
 70
     1
  9
$TEXTSIZE
 40
0.2
  9
$TRACEWID
 40
0.05
  9
$TEXTSTYLE
  7
STANDARD
  9
$CLAYER
  8
0
  9
$CELTYPE
  6
BYLAYER
  9
$CECOLOR
 62
   256
  9
$DIMSCALE
 40
1.0
  9
$DIMASZ
 40
3.0
  9
$DIMEXO
 40
0.0625
  9
$DIMDLI
 40
0.38
  9
$DIMRND
 40
0.0
  9
$DIMDLE
 40
0.0
  9
$DIMEXE
 40
1.5
  9
$DIMTP
 40
0.0
  9
$DIMTM
 40
0.0
  9
$DIMTXT
 40
3.0
  9
$DIMCEN
 40
0.09
  9
$DIMTSZ
 40
0.0
  9
$DIMTOL
 70
     0
  9
$DIMLIM
 70
     0
  9
$DIMTIH
 70
     1
  9
$DIMTOH
 70
     1
  9
$DIMSE1
 70
     0
  9
$DIMSE2
 70
     0
  9
$DIMTAD
 70
     1
  9
$DIMZIN
 70
     0
  9
$DIMBLK
  1

  9
$DIMASO
 70
     1
  9
$DIMSHO
 70
     1
  9
$DIMPOST
  1

  9
$DIMAPOST
  1

  9
$DIMALT
 70
     0
  9
$DIMALTD
 70
     2
  9
$DIMALTF
 40
25.4
  9
$DIMLFAC
 40
1.0
  9
$DIMTOFL
 70
     0
  9
$DIMTVP
 40
0.0
  9
$DIMTIX
 70
     0
  9
$DIMSOXD
 70
     0
  9
$DIMSAH
 70
     0
  9
$DIMBLK1
  1

  9
$DIMBLK2
  1

  9
$LUNITS
 70
     2
  9
$LUPREC
 70
     4
  9
$SKETCHINC
 40
0.1
  9
$FILLETRAD
 40
0.5
  9
$AUNITS
 70
     0
  9
$AUPREC
 70
     0
  9
$MENU
  1
.
  9
$ELEVATION
 40
0.0
  9
$THICKNESS
 40
0.0
  9
$LIMCHECK
 70
     0
  9
$CHAMFERA
 40
0.0
  9
$CHAMFERB
 40
0.0
  9
$SKPOLY
 70
     0
  9
$TDCREATE
 40
2460384.781869618
  9
$TDUPDATE
 40
2460384.781869953
  9
$TDINDWG
 40
0.0000000116
  9
$TDUSRTIMER
 40
0.0000000116
  9
$USRTIMER
 70
     1
  9
$ANGBASE
 50
0.0
  9
$ANGDIR
 70
     0
  9
$PDMODE
 70
     0
  9
$PDSIZE
 40
0.0
  9
$PLINEWID
 40
0.0
  9
$COORDS
 70
     1
  9
$SPLFRAME
 70
     0
  9
$SPLINETYPE
 70
     6
  9
$SPLINESEGS
 70
     8
  9
$ATTDIA
 70
     0
  9
$ATTREQ
 70
     1
  9
$HANDLING
 70
     1
  9
$HANDSEED
  5
874
  9
$SURFTAB1
 70
     6
  9
$SURFTAB2
 70
     6
  9
$SURFTYPE
 70
     6
  9
$SURFU
 70
     6
  9
$SURFV
 70
     6
  9
$UCSNAME
  2

  9
$UCSORG
 10
0.0
 20
0.0
 30
0.0
  9
$UCSXDIR
 10
1.0
 20
0.0
 30
0.0
  9
$UCSYDIR
 10
0.0
 20
1.0
 30
0.0
  9
$USERI1
 70
     0
  9
$USERI2
 70
     0
  9
$USERI3
 70
     0
  9
$USERI4
 70
     0
  9
$USERI5
 70
     0
  9
$USERR1
 40
0.0
  9
$USERR2
 40
0.0
  9
$USERR3
 40
0.0
  9
$USERR4
 40
0.0
  9
$USERR5
 40
0.0
  9
$WORLDVIEW
 70
     1
  0
ENDSEC
  0
SECTION
  2
TABLES
  0
TABLE
  2
VPORT
 70
     1
  0
VPORT
  2
*ACTIVE
 70
     0
 10
0.0
 20
0.0
 11
1.0
 21
1.0
 12
-193.9875
 22
215.0000000000001
 13
0.0
 23
0.0
 14
0.5
 24
0.5
 15
0.5
 25
0.5
 16
0.0
 26
0.0
 36
1.0
 17
0.0
 27
0.0
 37
0.0
 40
360.0000000000001
 41
1.6
 42
50.0
 43
0.0
 44
0.0
 50
0.0
 51
0.0
 71
     0
 72
   100
 73
     1
 74
     3
 75
     0
 76
     0
 77
     0
 78
     0
  0
ENDTAB
  0
TABLE
  2
LTYPE
 70
     2
  0
LTYPE
  2
CONTINUOUS
 70
     0
  3
Solid line
 72
    65
 73
     0
 40
0.0
  0
LTYPE
  2
________________
 70
     0
  3

 72
    65
 73
     4
 40
6.0
 49
2.25
 49
-1.5
 49
0.7499999999999999
 49
-1.5
  0
ENDTAB
  0
TABLE
  2
LAYER
 70
     1
  0
LAYER
  2
0
 70
     0
 62
     7
  6
CONTINUOUS
  0
ENDTAB
  0
TABLE
  2
STYLE
 70
     2
  0
STYLE
  2
STANDARD
 70
     0
 40
0.0
 41
1.0
 50
0.0
 71
     0
 42
0.2
  3
txt
  4

  0
STYLE
  2
ＭＳ_ゴシック
 70
     0
 40
0.0
 41
1.0
 50
0.0
 71
     0
 42
0.2
  3
ＭＳ ゴシック.shx
  4

  0
ENDTAB
  0
TABLE
  2
VIEW
 70
     0
  0
ENDTAB
  0
TABLE
  2
UCS
 70
     0
  0
ENDTAB
  0
ENDSEC
  0
SECTION
  2
BLOCKS
  0
ENDSEC
  0
SECTION
  2
ENTITIES
  0
TEXT
  5
6F
  8
0
  6
CONTINUOUS
 62
     7
 10
-117.6609353507565
 20
163.0136582468426
 30
0.0
 40
3.0
  1
RMGT-20
  0
LINE
  5
70
  8
0
  6
CONTINUOUS
 62
     7
 10
-257.5
 20
198.85
 30
0.0
 11
-257.5
 21
198.95
 31
0.0
  0
LINE
  5
71
  8
0
  6
CONTINUOUS
 62
     7
 10
-247.5
 20
198.85
 30
0.0
 11
-257.5
 21
198.85
 31
0.0
  0
LINE
  5
72
  8
0
  6
CONTINUOUS
 62
     7
 10
-247.5
 20
198.85
 30
0.0
 11
-247.5
 21
198.95
 31
0.0
  0
LINE
  5
73
  8
0
  6
CONTINUOUS
 62
     7
 10
-232.3476387932554
 20
222.05
 30
0.0
 11
-232.4
 21
222.05
 31
0.0
  0
LINE
  5
74
  8
0
  6
CONTINUOUS
 62
     7
 10
-232.2778238509294
 20
214.05
 30
0.0
 11
-232.4
 21
214.05
 31
0.0
  0
LINE
  5
75
  8
0
  6
CONTINUOUS
 62
     7
 10
-232.5
 20
226.034029785436
 30
0.0
 11
-232.5
 21
225.8881130178411
 31
0.0
  0
ARC
  5
76
  8
0
  6
CONTINUOUS
 62
     7
 10
-240.4
 20
224.6271609965493
 30
0.0
 40
8.000000000000007
 50
359.9999999999998
 51
46.32779344528063
  0
LINE
  5
77
  8
0
  6
CONTINUOUS
 62
     7
 10
-232.4
 20
214.05
 30
0.0
 11
-232.4
 21
224.6271609965493
 31
0.0
  0
LINE
  5
78
  8
0
  6
CONTINUOUS
 62
     7
 10
-236.4
 20
214.05
 30
0.0
 11
-232.4
 21
214.05
 31
0.0
  0
LINE
  5
79
  8
0
  6
CONTINUOUS
 62
     7
 10
-236.4
 20
224.6271609965493
 30
0.0
 11
-236.4
 21
214.05
 31
0.0
  0
ARC
  5
7A
  8
0
  6
CONTINUOUS
 62
     7
 10
-240.4
 20
224.6271609965493
 30
0.0
 40
4.00000000000002
 50
0.0
 51
46.32779344528069
  0
LINE
  5
7B
  8
0
  6
CONTINUOUS
 62
     7
 10
-244.2126510013104
 20
233.7972646007054
 30
0.0
 11
-237.6378734890133
 21
227.5203697925585
 31
0.0
  0
ARC
  5
7C
  8
0
  6
CONTINUOUS
 62
     7
 10
-252.5
 20
98.05000000000003
 30
0.0
 40
136.0
 50
86.50643769796415
 51
93.49356230203591
  0
LINE
  5
7D
  8
0
  6
CONTINUOUS
 62
     7
 10
-267.3621265109867
 20
227.5203697925585
 30
0.0
 11
-260.7873489986896
 21
233.7972646007054
 31
0.0
  0
ARC
  5
7E
  8
0
  6
CONTINUOUS
 62
     7
 10
-264.6
 20
224.6271609965493
 30
0.0
 40
4.000000000000004
 50
133.6722065547194
 51
180.0000000000002
  0
LINE
  5
7F
  8
0
  6
CONTINUOUS
 62
     7
 10
-272.6
 20
214.05
 30
0.0
 11
-268.6
 21
214.05
 31
0.0
  0
LINE
  5
80
  8
0
  6
CONTINUOUS
 62
     7
 10
-272.6
 20
224.6271609965493
 30
0.0
 11
-272.6
 21
214.05
 31
0.0
  0
ARC
  5
81
  8
0
  6
CONTINUOUS
 62
     7
 10
-264.6
 20
224.6271609965493
 30
0.0
 40
8.000000000000021
 50
133.6722065547194
 51
180.0
  0
LINE
  5
82
  8
0
  6
CONTINUOUS
 62
     7
 10
-268.6
 20
214.05
 30
0.0
 11
-268.6
 21
224.6271609965493
 31
0.0
  0
LINE
  5
83
  8
0
  6
CONTINUOUS
 62
     7
 10
-259.9825843413543
 20
201.05
 30
0.0
 11
-252.8
 21
201.05
 31
0.0
  0
LINE
  5
84
  8
0
  6
CONTINUOUS
 62
     7
 10
-252.8
 20
201.05
 30
0.0
 11
-252.5
 21
200.75
 31
0.0
  0
LINE
  5
85
  8
0
  6
CONTINUOUS
 62
     7
 10
-252.5
 20
200.75
 30
0.0
 11
-252.2
 21
201.05
 31
0.0
  0
LINE
  5
86
  8
0
  6
CONTINUOUS
 62
     7
 10
-252.2
 20
201.05
 30
0.0
 11
-245.0174156586457
 21
201.05
 31
0.0
  0
LINE
  5
87
  8
0
  6
CONTINUOUS
 62
     7
 10
-244.9999619230642
 20
199.05
 30
0.0
 11
-260.0000380769358
 21
199.05
 31
0.0
  0
LINE
  5
88
  8
0
  6
CONTINUOUS
 62
     7
 10
-260.0000380769358
 20
199.05
 30
0.0
 11
-261.0
 21
199.05
 31
0.0
  0
LINE
  5
89
  8
0
  6
CONTINUOUS
 62
     7
 10
-261.0
 20
199.05
 30
0.0
 11
-260.9825462644185
 21
201.05
 31
0.0
  0
LINE
  5
8A
  8
0
  6
CONTINUOUS
 62
     7
 10
-260.9825462644185
 20
201.05
 30
0.0
 11
-259.9825843413543
 21
201.05
 31
0.0
  0
LINE
  5
8B
  8
0
  6
CONTINUOUS
 62
     7
 10
-244.0174537355815
 20
201.05
 30
0.0
 11
-244.0
 21
199.05
 31
0.0
  0
LINE
  5
8C
  8
0
  6
CONTINUOUS
 62
     7
 10
-245.0174156586457
 20
201.05
 30
0.0
 11
-244.0174537355815
 21
201.05
 31
0.0
  0
LINE
  5
8D
  8
0
  6
CONTINUOUS
 62
     7
 10
-244.0
 20
199.05
 30
0.0
 11
-244.9999619230642
 21
199.05
 31
0.0
  0
ARC
  5
8E
  8
0
  6
CONTINUOUS
 62
     7
 10
-234.3970615154281
 20
210.05
 30
0.0
 40
1.0
 50
10.0000000000002
 51
89.99999999999996
  0
LINE
  5
8F
  8
0
  6
CONTINUOUS
 62
     7
 10
-233.4122537624159
 20
210.2236481776669
 30
0.0
 11
-232.5
 21
205.05
 31
0.0
  0
LINE
  5
90
  8
0
  6
CONTINUOUS
 62
     7
 10
-232.5
 20
205.05
 30
0.0
 11
-232.5
 21
199.05
 31
0.0
  0
LINE
  5
91
  8
0
  6
CONTINUOUS
 62
     7
 10
-240.5
 20
200.35
 30
0.0
 11
-240.4754661628363
 21
200.3493977281026
 31
0.0
  0
LINE
  5
92
  8
0
  6
CONTINUOUS
 62
     7
 10
-240.4754661628363
 20
200.3493977281026
 30
0.0
 11
-240.4509914298353
 21
200.3475923633361
 31
0.0
  0
LINE
  5
93
  8
0
  6
CONTINUOUS
 62
     7
 10
-240.4509914298353
 20
200.3475923633361
 30
0.0
 11
-240.4266347627724
 21
200.3445882549824
 31
0.0
  0
LINE
  5
94
  8
0
  6
CONTINUOUS
 62
     7
 10
-240.4266347627724
 20
200.3445882549824
 30
0.0
 11
-240.4024548389919
 21
200.3403926402017
 31
0.0
  0
LINE
  5
95
  8
0
  6
CONTINUOUS
 62
     7
 10
-240.4024548389919
 20
200.3403926402017
 30
0.0
 11
-240.3785099100484
 21
200.3350156265973
 31
0.0
  0
LINE
  5
96
  8
0
  6
CONTINUOUS
 62
     7
 10
-240.3785099100484
 20
200.3350156265973
 30
0.0
 11
-240.3548576613728
 21
200.3284701678661
 31
0.0
  0
LINE
  5
97
  8
0
  6
CONTINUOUS
 62
     7
 10
-240.3548576613728
 20
200.3284701678661
 30
0.0
 11
-240.3315550733039
 21
200.3207720325915
 31
0.0
  0
LINE
  5
98
  8
0
  6
CONTINUOUS
 62
     7
 10
-240.3315550733039
 20
200.3207720325915
 30
0.0
 11
-240.3086582838175
 21
200.3119397662556
 31
0.0
  0
LINE
  5
99
  8
0
  6
CONTINUOUS
 62
     7
 10
-240.3086582838175
 20
200.3119397662556
 30
0.0
 11
-240.2862224532849
 21
200.3019946465618
 31
0.0
  0
LINE
  5
9A
  8
0
  6
CONTINUOUS
 62
     7
 10
-240.2862224532849
 20
200.3019946465618
 30
0.0
 11
-240.264301631587
 21
200.2909606321742
 31
0.0
  0
LINE
  5
9B
  8
0
  6
CONTINUOUS
 62
     7
 10
-240.264301631587
 20
200.2909606321742
 30
0.0
 11
-240.2429486279034
 21
200.2788643050002
 31
0.0
  0
LINE
  5
9C
  8
0
  6
CONTINUOUS
 62
     7
 10
-240.2429486279034
 20
200.2788643050002
 30
0.0
 11
-240.2222148834902
 21
200.2657348061513
 31
0.0
  0
LINE
  5
9D
  8
0
  6
CONTINUOUS
 62
     7
 10
-240.2222148834902
 20
200.2657348061513
 30
0.0
 11
-240.2021503477538
 21
200.2516037657404
 31
0.0
  0
LINE
  5
9E
  8
0
  6
CONTINUOUS
 62
     7
 10
-240.2021503477538
 20
200.2516037657404
 30
0.0
 11
-240.1828033579182
 21
200.2365052266814
 31
0.0
  0
LINE
  5
9F
  8
0
  6
CONTINUOUS
 62
     7
 10
-240.1828033579182
 20
200.2365052266814
 30
0.0
 11
-240.1642205225765
 21
200.2204755626775
 31
0.0
  0
LINE
  5
A0
  8
0
  6
CONTINUOUS
 62
     7
 10
-240.1642205225765
 20
200.2204755626775
 30
0.0
 11
-240.1464466094068
 21
200.2035533905933
 31
0.0
  0
LINE
  5
A1
  8
0
  6
CONTINUOUS
 62
     7
 10
-240.1464466094068
 20
200.2035533905933
 30
0.0
 11
-240.1295244373225
 21
200.1857794774236
 31
0.0
  0
LINE
  5
A2
  8
0
  6
CONTINUOUS
 62
     7
 10
-240.1295244373225
 20
200.1857794774236
 30
0.0
 11
-240.1134947733186
 21
200.1671966420818
 31
0.0
  0
LINE
  5
A3
  8
0
  6
CONTINUOUS
 62
     7
 10
-240.1134947733186
 20
200.1671966420818
 30
0.0
 11
-240.0983962342597
 21
200.1478496522462
 31
0.0
  0
LINE
  5
A4
  8
0
  6
CONTINUOUS
 62
     7
 10
-240.0983962342597
 20
200.1478496522462
 30
0.0
 11
-240.0842651938487
 21
200.1277851165098
 31
0.0
  0
LINE
  5
A5
  8
0
  6
CONTINUOUS
 62
     7
 10
-240.0842651938487
 20
200.1277851165098
 30
0.0
 11
-240.0711356949999
 21
200.1070513720966
 31
0.0
  0
LINE
  5
A6
  8
0
  6
CONTINUOUS
 62
     7
 10
-240.0711356949999
 20
200.1070513720966
 30
0.0
 11
-240.0590393678258
 21
200.085698368413
 31
0.0
  0
LINE
  5
A7
  8
0
  6
CONTINUOUS
 62
     7
 10
-240.0590393678258
 20
200.085698368413
 30
0.0
 11
-240.0480053534383
 21
200.0637775467152
 31
0.0
  0
LINE
  5
A8
  8
0
  6
CONTINUOUS
 62
     7
 10
-240.0480053534383
 20
200.0637775467152
 30
0.0
 11
-240.0380602337444
 21
200.0413417161826
 31
0.0
  0
LINE
  5
A9
  8
0
  6
CONTINUOUS
 62
     7
 10
-240.0380602337444
 20
200.0413417161826
 30
0.0
 11
-240.0292279674085
 21
200.0184449266962
 31
0.0
  0
LINE
  5
AA
  8
0
  6
CONTINUOUS
 62
     7
 10
-240.0292279674085
 20
200.0184449266962
 30
0.0
 11
-240.0215298321339
 21
199.9951423386273
 31
0.0
  0
LINE
  5
AB
  8
0
  6
CONTINUOUS
 62
     7
 10
-240.0215298321339
 20
199.9951423386273
 30
0.0
 11
-240.0149843734027
 21
199.9714900899517
 31
0.0
  0
LINE
  5
AC
  8
0
  6
CONTINUOUS
 62
     7
 10
-240.0149843734027
 20
199.9714900899517
 30
0.0
 11
-240.0096073597984
 21
199.9475451610081
 31
0.0
  0
LINE
  5
AD
  8
0
  6
CONTINUOUS
 62
     7
 10
-240.0096073597984
 20
199.9475451610081
 30
0.0
 11
-240.0054117450176
 21
199.9233652372277
 31
0.0
  0
LINE
  5
AE
  8
0
  6
CONTINUOUS
 62
     7
 10
-240.0054117450176
 20
199.9233652372277
 30
0.0
 11
-240.0024076366639
 21
199.8990085701648
 31
0.0
  0
LINE
  5
AF
  8
0
  6
CONTINUOUS
 62
     7
 10
-240.0024076366639
 20
199.8990085701648
 30
0.0
 11
-240.0006022718974
 21
199.8745338371637
 31
0.0
  0
LINE
  5
B0
  8
0
  6
CONTINUOUS
 62
     7
 10
-240.0006022718974
 20
199.8745338371637
 30
0.0
 11
-240.0
 21
199.85
 31
0.0
  0
LINE
  5
B1
  8
0
  6
CONTINUOUS
 62
     7
 10
-241.5
 20
200.35
 30
0.0
 11
-240.5
 21
200.35
 31
0.0
  0
LINE
  5
B2
  8
0
  6
CONTINUOUS
 62
     7
 10
-242.0
 20
199.85
 30
0.0
 11
-241.9993977281026
 21
199.8745338371637
 31
0.0
  0
LINE
  5
B3
  8
0
  6
CONTINUOUS
 62
     7
 10
-241.9993977281026
 20
199.8745338371637
 30
0.0
 11
-241.9975923633361
 21
199.8990085701648
 31
0.0
  0
LINE
  5
B4
  8
0
  6
CONTINUOUS
 62
     7
 10
-241.9975923633361
 20
199.8990085701648
 30
0.0
 11
-241.9945882549824
 21
199.9233652372277
 31
0.0
  0
LINE
  5
B5
  8
0
  6
CONTINUOUS
 62
     7
 10
-241.9945882549824
 20
199.9233652372277
 30
0.0
 11
-241.9903926402016
 21
199.9475451610081
 31
0.0
  0
LINE
  5
B6
  8
0
  6
CONTINUOUS
 62
     7
 10
-241.9903926402016
 20
199.9475451610081
 30
0.0
 11
-241.9850156265973
 21
199.9714900899517
 31
0.0
  0
LINE
  5
B7
  8
0
  6
CONTINUOUS
 62
     7
 10
-241.9850156265973
 20
199.9714900899517
 30
0.0
 11
-241.9784701678661
 21
199.9951423386273
 31
0.0
  0
LINE
  5
B8
  8
0
  6
CONTINUOUS
 62
     7
 10
-241.9784701678661
 20
199.9951423386273
 30
0.0
 11
-241.9707720325915
 21
200.0184449266962
 31
0.0
  0
LINE
  5
B9
  8
0
  6
CONTINUOUS
 62
     7
 10
-241.9707720325915
 20
200.0184449266962
 30
0.0
 11
-241.9619397662557
 21
200.0413417161826
 31
0.0
  0
LINE
  5
BA
  8
0
  6
CONTINUOUS
 62
     7
 10
-241.9619397662557
 20
200.0413417161826
 30
0.0
 11
-241.9519946465618
 21
200.0637775467152
 31
0.0
  0
LINE
  5
BB
  8
0
  6
CONTINUOUS
 62
     7
 10
-241.9519946465618
 20
200.0637775467152
 30
0.0
 11
-241.9409606321742
 21
200.085698368413
 31
0.0
  0
LINE
  5
BC
  8
0
  6
CONTINUOUS
 62
     7
 10
-241.9409606321742
 20
200.085698368413
 30
0.0
 11
-241.9288643050002
 21
200.1070513720966
 31
0.0
  0
LINE
  5
BD
  8
0
  6
CONTINUOUS
 62
     7
 10
-241.9288643050002
 20
200.1070513720966
 30
0.0
 11
-241.9157348061513
 21
200.1277851165098
 31
0.0
  0
LINE
  5
BE
  8
0
  6
CONTINUOUS
 62
     7
 10
-241.9157348061513
 20
200.1277851165098
 30
0.0
 11
-241.9016037657404
 21
200.1478496522462
 31
0.0
  0
LINE
  5
BF
  8
0
  6
CONTINUOUS
 62
     7
 10
-241.9016037657404
 20
200.1478496522462
 30
0.0
 11
-241.8865052266814
 21
200.1671966420818
 31
0.0
  0
LINE
  5
C0
  8
0
  6
CONTINUOUS
 62
     7
 10
-241.8865052266814
 20
200.1671966420818
 30
0.0
 11
-241.8704755626775
 21
200.1857794774236
 31
0.0
  0
LINE
  5
C1
  8
0
  6
CONTINUOUS
 62
     7
 10
-241.8704755626775
 20
200.1857794774236
 30
0.0
 11
-241.8535533905933
 21
200.2035533905933
 31
0.0
  0
LINE
  5
C2
  8
0
  6
CONTINUOUS
 62
     7
 10
-241.8535533905933
 20
200.2035533905933
 30
0.0
 11
-241.8357794774235
 21
200.2204755626775
 31
0.0
  0
LINE
  5
C3
  8
0
  6
CONTINUOUS
 62
     7
 10
-241.8357794774235
 20
200.2204755626775
 30
0.0
 11
-241.8171966420818
 21
200.2365052266814
 31
0.0
  0
LINE
  5
C4
  8
0
  6
CONTINUOUS
 62
     7
 10
-241.8171966420818
 20
200.2365052266814
 30
0.0
 11
-241.7978496522462
 21
200.2516037657404
 31
0.0
  0
LINE
  5
C5
  8
0
  6
CONTINUOUS
 62
     7
 10
-241.7978496522462
 20
200.2516037657404
 30
0.0
 11
-241.7777851165098
 21
200.2657348061513
 31
0.0
  0
LINE
  5
C6
  8
0
  6
CONTINUOUS
 62
     7
 10
-241.7777851165098
 20
200.2657348061513
 30
0.0
 11
-241.7570513720966
 21
200.2788643050002
 31
0.0
  0
LINE
  5
C7
  8
0
  6
CONTINUOUS
 62
     7
 10
-241.7570513720966
 20
200.2788643050002
 30
0.0
 11
-241.735698368413
 21
200.2909606321742
 31
0.0
  0
LINE
  5
C8
  8
0
  6
CONTINUOUS
 62
     7
 10
-241.735698368413
 20
200.2909606321742
 30
0.0
 11
-241.7137775467152
 21
200.3019946465618
 31
0.0
  0
LINE
  5
C9
  8
0
  6
CONTINUOUS
 62
     7
 10
-241.7137775467152
 20
200.3019946465618
 30
0.0
 11
-241.6913417161826
 21
200.3119397662556
 31
0.0
  0
LINE
  5
CA
  8
0
  6
CONTINUOUS
 62
     7
 10
-241.6913417161826
 20
200.3119397662556
 30
0.0
 11
-241.6684449266961
 21
200.3207720325915
 31
0.0
  0
LINE
  5
CB
  8
0
  6
CONTINUOUS
 62
     7
 10
-241.6684449266961
 20
200.3207720325915
 30
0.0
 11
-241.6451423386272
 21
200.3284701678661
 31
0.0
  0
LINE
  5
CC
  8
0
  6
CONTINUOUS
 62
     7
 10
-241.6451423386272
 20
200.3284701678661
 30
0.0
 11
-241.6214900899516
 21
200.3350156265973
 31
0.0
  0
LINE
  5
CD
  8
0
  6
CONTINUOUS
 62
     7
 10
-241.6214900899516
 20
200.3350156265973
 30
0.0
 11
-241.5975451610081
 21
200.3403926402017
 31
0.0
  0
LINE
  5
CE
  8
0
  6
CONTINUOUS
 62
     7
 10
-241.5975451610081
 20
200.3403926402017
 30
0.0
 11
-241.5733652372277
 21
200.3445882549824
 31
0.0
  0
LINE
  5
CF
  8
0
  6
CONTINUOUS
 62
     7
 10
-241.5733652372277
 20
200.3445882549824
 30
0.0
 11
-241.5490085701648
 21
200.3475923633361
 31
0.0
  0
LINE
  5
D0
  8
0
  6
CONTINUOUS
 62
     7
 10
-241.5490085701648
 20
200.3475923633361
 30
0.0
 11
-241.5245338371637
 21
200.3493977281026
 31
0.0
  0
LINE
  5
D1
  8
0
  6
CONTINUOUS
 62
     7
 10
-241.5245338371637
 20
200.3493977281026
 30
0.0
 11
-241.5
 21
200.35
 31
0.0
  0
LINE
  5
D2
  8
0
  6
CONTINUOUS
 62
     7
 10
-242.0
 20
199.05
 30
0.0
 11
-242.0
 21
199.85
 31
0.0
  0
LINE
  5
D3
  8
0
  6
CONTINUOUS
 62
     7
 10
-238.1794919243112
 20
201.05
 30
0.0
 11
-235.599299419155
 21
210.6794095225513
 31
0.0
  0
LINE
  5
D4
  8
0
  6
CONTINUOUS
 62
     7
 10
-235.1163365060105
 20
211.05
 30
0.0
 11
-235.1397029377526
 21
211.0494537114365
 31
0.0
  0
LINE
  5
D5
  8
0
  6
CONTINUOUS
 62
     7
 10
-235.1397029377526
 20
211.0494537114365
 30
0.0
 11
-235.163018310237
 21
211.0478160394706
 31
0.0
  0
LINE
  5
D6
  8
0
  6
CONTINUOUS
 62
     7
 10
-235.163018310237
 20
211.0478160394706
 30
0.0
 11
-235.1862316757783
 21
211.0450905626682
 31
0.0
  0
LINE
  5
D7
  8
0
  6
CONTINUOUS
 62
     7
 10
-235.1862316757783
 20
211.0450905626682
 30
0.0
 11
-235.209292309592
 21
211.0412832366167
 31
0.0
  0
LINE
  5
D8
  8
0
  6
CONTINUOUS
 62
     7
 10
-235.209292309592
 20
211.0412832366167
 30
0.0
 11
-235.232149820636
 21
211.0364023809106
 31
0.0
  0
LINE
  5
D9
  8
0
  6
CONTINUOUS
 62
     7
 10
-235.232149820636
 20
211.0364023809106
 30
0.0
 11
-235.2547542617229
 21
211.0304586609726
 31
0.0
  0
LINE
  5
DA
  8
0
  6
CONTINUOUS
 62
     7
 10
-235.2547542617229
 20
211.0304586609726
 30
0.0
 11
-235.2770562386621
 21
211.0234650647476
 31
0.0
  0
LINE
  5
DB
  8
0
  6
CONTINUOUS
 62
     7
 10
-235.2770562386621
 20
211.0234650647476
 30
0.0
 11
-235.2990070181937
 21
211.0154368743221
 31
0.0
  0
LINE
  5
DC
  8
0
  6
CONTINUOUS
 62
     7
 10
-235.2990070181937
 20
211.0154368743221
 30
0.0
 11
-235.3205586344785
 21
211.0063916325307
 31
0.0
  0
LINE
  5
DD
  8
0
  6
CONTINUOUS
 62
     7
 10
-235.3205586344785
 20
211.0063916325307
 30
0.0
 11
-235.3416639939105
 21
210.9963491046218
 31
0.0
  0
LINE
  5
DE
  8
0
  6
CONTINUOUS
 62
     7
 10
-235.3416639939105
 20
210.9963491046218
 30
0.0
 11
-235.3622769780237
 21
210.9853312350681
 31
0.0
  0
LINE
  5
DF
  8
0
  6
CONTINUOUS
 62
     7
 10
-235.3622769780237
 20
210.9853312350681
 30
0.0
 11
-235.3823525442682
 21
210.9733620996142
 31
0.0
  0
LINE
  5
E0
  8
0
  6
CONTINUOUS
 62
     7
 10
-235.3823525442682
 20
210.9733620996142
 30
0.0
 11
-235.401846824435
 21
210.9604678526671
 31
0.0
  0
LINE
  5
E1
  8
0
  6
CONTINUOUS
 62
     7
 10
-235.401846824435
 20
210.9604678526671
 30
0.0
 11
-235.4207172205149
 21
210.9466766701456
 31
0.0
  0
LINE
  5
E2
  8
0
  6
CONTINUOUS
 62
     7
 10
-235.4207172205149
 20
210.9466766701456
 30
0.0
 11
-235.4389224977816
 21
210.9320186879108
 31
0.0
  0
LINE
  5
E3
  8
0
  6
CONTINUOUS
 62
     7
 10
-235.4389224977816
 20
210.9320186879108
 30
0.0
 11
-235.456422874896
 21
210.9165259359149
 31
0.0
  0
LINE
  5
E4
  8
0
  6
CONTINUOUS
 62
     7
 10
-235.456422874896
 20
210.9165259359149
 30
0.0
 11
-235.4731801108346
 21
210.9002322682109
 31
0.0
  0
LINE
  5
E5
  8
0
  6
CONTINUOUS
 62
     7
 10
-235.4731801108346
 20
210.9002322682109
 30
0.0
 11
-235.4891575884521
 21
210.883173288976
 31
0.0
  0
LINE
  5
E6
  8
0
  6
CONTINUOUS
 62
     7
 10
-235.4891575884521
 20
210.883173288976
 30
0.0
 11
-235.5043203944952
 21
210.8653862747113
 31
0.0
  0
LINE
  5
E7
  8
0
  6
CONTINUOUS
 62
     7
 10
-235.5043203944952
 20
210.8653862747113
 30
0.0
 11
-235.5186353958939
 21
210.8469100927868
 31
0.0
  0
LINE
  5
E8
  8
0
  6
CONTINUOUS
 62
     7
 10
-235.5186353958939
 20
210.8469100927868
 30
0.0
 11
-235.5320713121618
 21
210.8277851165098
 31
0.0
  0
LINE
  5
E9
  8
0
  6
CONTINUOUS
 62
     7
 10
-235.5320713121618
 20
210.8277851165098
 30
0.0
 11
-235.5445987837494
 21
210.8080531369038
 31
0.0
  0
LINE
  5
EA
  8
0
  6
CONTINUOUS
 62
     7
 10
-235.5445987837494
 20
210.8080531369038
 30
0.0
 11
-235.556190436199
 21
210.7877572713878
 31
0.0
  0
LINE
  5
EB
  8
0
  6
CONTINUOUS
 62
     7
 10
-235.556190436199
 20
210.7877572713878
 30
0.0
 11
-235.5668209399617
 21
210.7669418695588
 31
0.0
  0
LINE
  5
EC
  8
0
  6
CONTINUOUS
 62
     7
 10
-235.5668209399617
 20
210.7669418695588
 30
0.0
 11
-235.5764670657472
 21
210.7456524162806
 31
0.0
  0
LINE
  5
ED
  8
0
  6
CONTINUOUS
 62
     7
 10
-235.5764670657472
 20
210.7456524162806
 30
0.0
 11
-235.5851077352825
 21
210.7239354322926
 31
0.0
  0
LINE
  5
EE
  8
0
  6
CONTINUOUS
 62
     7
 10
-235.5851077352825
 20
210.7239354322926
 30
0.0
 11
-235.592724067372
 21
210.7018383725548
 31
0.0
  0
LINE
  5
EF
  8
0
  6
CONTINUOUS
 62
     7
 10
-235.592724067372
 20
210.7018383725548
 30
0.0
 11
-235.599299419155
 21
210.6794095225513
 31
0.0
  0
LINE
  5
F0
  8
0
  6
CONTINUOUS
 62
     7
 10
-235.1163365060105
 20
211.05
 30
0.0
 11
-234.3970615154281
 21
211.05
 31
0.0
  0
LINE
  5
F1
  8
0
  6
CONTINUOUS
 62
     7
 10
-240.0
 20
199.85
 30
0.0
 11
-240.0
 21
199.05
 31
0.0
  0
LINE
  5
F2
  8
0
  6
CONTINUOUS
 62
     7
 10
-232.5
 20
199.05
 30
0.0
 11
-240.0
 21
199.05
 31
0.0
  0
LINE
  5
F3
  8
0
  6
CONTINUOUS
 62
     7
 10
-244.0174537355815
 20
201.05
 30
0.0
 11
-238.1794919243112
 21
201.05
 31
0.0
  0
LINE
  5
F4
  8
0
  6
CONTINUOUS
 62
     7
 10
-242.0
 20
199.05
 30
0.0
 11
-244.0
 21
199.05
 31
0.0
  0
LINE
  5
F5
  8
0
  6
CONTINUOUS
 62
     7
 10
-263.5
 20
200.35
 30
0.0
 11
-263.4754661628363
 21
200.3493977281026
 31
0.0
  0
LINE
  5
F6
  8
0
  6
CONTINUOUS
 62
     7
 10
-263.4754661628363
 20
200.3493977281026
 30
0.0
 11
-263.4509914298353
 21
200.3475923633361
 31
0.0
  0
LINE
  5
F7
  8
0
  6
CONTINUOUS
 62
     7
 10
-263.4509914298353
 20
200.3475923633361
 30
0.0
 11
-263.4266347627723
 21
200.3445882549824
 31
0.0
  0
LINE
  5
F8
  8
0
  6
CONTINUOUS
 62
     7
 10
-263.4266347627723
 20
200.3445882549824
 30
0.0
 11
-263.402454838992
 21
200.3403926402017
 31
0.0
  0
LINE
  5
F9
  8
0
  6
CONTINUOUS
 62
     7
 10
-263.402454838992
 20
200.3403926402017
 30
0.0
 11
-263.3785099100484
 21
200.3350156265973
 31
0.0
  0
LINE
  5
FA
  8
0
  6
CONTINUOUS
 62
     7
 10
-263.3785099100484
 20
200.3350156265973
 30
0.0
 11
-263.3548576613728
 21
200.3284701678661
 31
0.0
  0
LINE
  5
FB
  8
0
  6
CONTINUOUS
 62
     7
 10
-263.3548576613728
 20
200.3284701678661
 30
0.0
 11
-263.3315550733039
 21
200.3207720325915
 31
0.0
  0
LINE
  5
FC
  8
0
  6
CONTINUOUS
 62
     7
 10
-263.3315550733039
 20
200.3207720325915
 30
0.0
 11
-263.3086582838175
 21
200.3119397662556
 31
0.0
  0
LINE
  5
FD
  8
0
  6
CONTINUOUS
 62
     7
 10
-263.3086582838175
 20
200.3119397662556
 30
0.0
 11
-263.2862224532848
 21
200.3019946465618
 31
0.0
  0
LINE
  5
FE
  8
0
  6
CONTINUOUS
 62
     7
 10
-263.2862224532848
 20
200.3019946465618
 30
0.0
 11
-263.264301631587
 21
200.2909606321742
 31
0.0
  0
LINE
  5
FF
  8
0
  6
CONTINUOUS
 62
     7
 10
-263.264301631587
 20
200.2909606321742
 30
0.0
 11
-263.2429486279034
 21
200.2788643050002
 31
0.0
  0
LINE
  5
100
  8
0
  6
CONTINUOUS
 62
     7
 10
-263.2429486279034
 20
200.2788643050002
 30
0.0
 11
-263.2222148834902
 21
200.2657348061513
 31
0.0
  0
LINE
  5
101
  8
0
  6
CONTINUOUS
 62
     7
 10
-263.2222148834902
 20
200.2657348061513
 30
0.0
 11
-263.2021503477538
 21
200.2516037657404
 31
0.0
  0
LINE
  5
102
  8
0
  6
CONTINUOUS
 62
     7
 10
-263.2021503477538
 20
200.2516037657404
 30
0.0
 11
-263.1828033579181
 21
200.2365052266814
 31
0.0
  0
LINE
  5
103
  8
0
  6
CONTINUOUS
 62
     7
 10
-263.1828033579181
 20
200.2365052266814
 30
0.0
 11
-263.1642205225765
 21
200.2204755626775
 31
0.0
  0
LINE
  5
104
  8
0
  6
CONTINUOUS
 62
     7
 10
-263.1642205225765
 20
200.2204755626775
 30
0.0
 11
-263.1464466094067
 21
200.2035533905933
 31
0.0
  0
LINE
  5
105
  8
0
  6
CONTINUOUS
 62
     7
 10
-263.1464466094067
 20
200.2035533905933
 30
0.0
 11
-263.1295244373225
 21
200.1857794774236
 31
0.0
  0
LINE
  5
106
  8
0
  6
CONTINUOUS
 62
     7
 10
-263.1295244373225
 20
200.1857794774236
 30
0.0
 11
-263.1134947733186
 21
200.1671966420818
 31
0.0
  0
LINE
  5
107
  8
0
  6
CONTINUOUS
 62
     7
 10
-263.1134947733186
 20
200.1671966420818
 30
0.0
 11
-263.0983962342597
 21
200.1478496522462
 31
0.0
  0
LINE
  5
108
  8
0
  6
CONTINUOUS
 62
     7
 10
-263.0983962342597
 20
200.1478496522462
 30
0.0
 11
-263.0842651938488
 21
200.1277851165098
 31
0.0
  0
LINE
  5
109
  8
0
  6
CONTINUOUS
 62
     7
 10
-263.0842651938488
 20
200.1277851165098
 30
0.0
 11
-263.0711356949998
 21
200.1070513720966
 31
0.0
  0
LINE
  5
10A
  8
0
  6
CONTINUOUS
 62
     7
 10
-263.0711356949998
 20
200.1070513720966
 30
0.0
 11
-263.0590393678258
 21
200.085698368413
 31
0.0
  0
LINE
  5
10B
  8
0
  6
CONTINUOUS
 62
     7
 10
-263.0590393678258
 20
200.085698368413
 30
0.0
 11
-263.0480053534383
 21
200.0637775467152
 31
0.0
  0
LINE
  5
10C
  8
0
  6
CONTINUOUS
 62
     7
 10
-263.0480053534383
 20
200.0637775467152
 30
0.0
 11
-263.0380602337444
 21
200.0413417161826
 31
0.0
  0
LINE
  5
10D
  8
0
  6
CONTINUOUS
 62
     7
 10
-263.0380602337444
 20
200.0413417161826
 30
0.0
 11
-263.0292279674085
 21
200.0184449266962
 31
0.0
  0
LINE
  5
10E
  8
0
  6
CONTINUOUS
 62
     7
 10
-263.0292279674085
 20
200.0184449266962
 30
0.0
 11
-263.0215298321339
 21
199.9951423386273
 31
0.0
  0
LINE
  5
10F
  8
0
  6
CONTINUOUS
 62
     7
 10
-263.0215298321339
 20
199.9951423386273
 30
0.0
 11
-263.0149843734027
 21
199.9714900899517
 31
0.0
  0
LINE
  5
110
  8
0
  6
CONTINUOUS
 62
     7
 10
-263.0149843734027
 20
199.9714900899517
 30
0.0
 11
-263.0096073597984
 21
199.9475451610081
 31
0.0
  0
LINE
  5
111
  8
0
  6
CONTINUOUS
 62
     7
 10
-263.0096073597984
 20
199.9475451610081
 30
0.0
 11
-263.0054117450176
 21
199.9233652372277
 31
0.0
  0
LINE
  5
112
  8
0
  6
CONTINUOUS
 62
     7
 10
-263.0054117450176
 20
199.9233652372277
 30
0.0
 11
-263.0024076366639
 21
199.8990085701648
 31
0.0
  0
LINE
  5
113
  8
0
  6
CONTINUOUS
 62
     7
 10
-263.0024076366639
 20
199.8990085701648
 30
0.0
 11
-263.0006022718974
 21
199.8745338371637
 31
0.0
  0
LINE
  5
114
  8
0
  6
CONTINUOUS
 62
     7
 10
-263.0006022718974
 20
199.8745338371637
 30
0.0
 11
-263.0
 21
199.85
 31
0.0
  0
LINE
  5
115
  8
0
  6
CONTINUOUS
 62
     7
 10
-263.5
 20
200.35
 30
0.0
 11
-264.4999999999999
 21
200.35
 31
0.0
  0
LINE
  5
116
  8
0
  6
CONTINUOUS
 62
     7
 10
-264.9999999999999
 20
199.85
 30
0.0
 11
-264.9993977281025
 21
199.8745338371637
 31
0.0
  0
LINE
  5
117
  8
0
  6
CONTINUOUS
 62
     7
 10
-264.9993977281025
 20
199.8745338371637
 30
0.0
 11
-264.997592363336
 21
199.8990085701648
 31
0.0
  0
LINE
  5
118
  8
0
  6
CONTINUOUS
 62
     7
 10
-264.997592363336
 20
199.8990085701648
 30
0.0
 11
-264.9945882549823
 21
199.9233652372277
 31
0.0
  0
LINE
  5
119
  8
0
  6
CONTINUOUS
 62
     7
 10
-264.9945882549823
 20
199.9233652372277
 30
0.0
 11
-264.9903926402015
 21
199.9475451610081
 31
0.0
  0
LINE
  5
11A
  8
0
  6
CONTINUOUS
 62
     7
 10
-264.9903926402015
 20
199.9475451610081
 30
0.0
 11
-264.9850156265972
 21
199.9714900899517
 31
0.0
  0
LINE
  5
11B
  8
0
  6
CONTINUOUS
 62
     7
 10
-264.9850156265972
 20
199.9714900899517
 30
0.0
 11
-264.978470167866
 21
199.9951423386273
 31
0.0
  0
LINE
  5
11C
  8
0
  6
CONTINUOUS
 62
     7
 10
-264.978470167866
 20
199.9951423386273
 30
0.0
 11
-264.9707720325915
 21
200.0184449266962
 31
0.0
  0
LINE
  5
11D
  8
0
  6
CONTINUOUS
 62
     7
 10
-264.9707720325915
 20
200.0184449266962
 30
0.0
 11
-264.9619397662555
 21
200.0413417161826
 31
0.0
  0
LINE
  5
11E
  8
0
  6
CONTINUOUS
 62
     7
 10
-264.9619397662555
 20
200.0413417161826
 30
0.0
 11
-264.9519946465617
 21
200.0637775467152
 31
0.0
  0
LINE
  5
11F
  8
0
  6
CONTINUOUS
 62
     7
 10
-264.9519946465617
 20
200.0637775467152
 30
0.0
 11
-264.9409606321741
 21
200.085698368413
 31
0.0
  0
LINE
  5
120
  8
0
  6
CONTINUOUS
 62
     7
 10
-264.9409606321741
 20
200.085698368413
 30
0.0
 11
-264.928864305
 21
200.1070513720966
 31
0.0
  0
LINE
  5
121
  8
0
  6
CONTINUOUS
 62
     7
 10
-264.928864305
 20
200.1070513720966
 30
0.0
 11
-264.9157348061512
 21
200.1277851165098
 31
0.0
  0
LINE
  5
122
  8
0
  6
CONTINUOUS
 62
     7
 10
-264.9157348061512
 20
200.1277851165098
 30
0.0
 11
-264.9016037657402
 21
200.1478496522462
 31
0.0
  0
LINE
  5
123
  8
0
  6
CONTINUOUS
 62
     7
 10
-264.9016037657402
 20
200.1478496522462
 30
0.0
 11
-264.8865052266813
 21
200.1671966420818
 31
0.0
  0
LINE
  5
124
  8
0
  6
CONTINUOUS
 62
     7
 10
-264.8865052266813
 20
200.1671966420818
 30
0.0
 11
-264.8704755626774
 21
200.1857794774236
 31
0.0
  0
LINE
  5
125
  8
0
  6
CONTINUOUS
 62
     7
 10
-264.8704755626774
 20
200.1857794774236
 30
0.0
 11
-264.8535533905932
 21
200.2035533905933
 31
0.0
  0
LINE
  5
126
  8
0
  6
CONTINUOUS
 62
     7
 10
-264.8535533905932
 20
200.2035533905933
 30
0.0
 11
-264.8357794774234
 21
200.2204755626775
 31
0.0
  0
LINE
  5
127
  8
0
  6
CONTINUOUS
 62
     7
 10
-264.8357794774234
 20
200.2204755626775
 30
0.0
 11
-264.8171966420817
 21
200.2365052266814
 31
0.0
  0
LINE
  5
128
  8
0
  6
CONTINUOUS
 62
     7
 10
-264.8171966420817
 20
200.2365052266814
 30
0.0
 11
-264.7978496522461
 21
200.2516037657404
 31
0.0
  0
LINE
  5
129
  8
0
  6
CONTINUOUS
 62
     7
 10
-264.7978496522461
 20
200.2516037657404
 30
0.0
 11
-264.7777851165097
 21
200.2657348061513
 31
0.0
  0
LINE
  5
12A
  8
0
  6
CONTINUOUS
 62
     7
 10
-264.7777851165097
 20
200.2657348061513
 30
0.0
 11
-264.7570513720966
 21
200.2788643050002
 31
0.0
  0
LINE
  5
12B
  8
0
  6
CONTINUOUS
 62
     7
 10
-264.7570513720966
 20
200.2788643050002
 30
0.0
 11
-264.7356983684129
 21
200.2909606321742
 31
0.0
  0
LINE
  5
12C
  8
0
  6
CONTINUOUS
 62
     7
 10
-264.7356983684129
 20
200.2909606321742
 30
0.0
 11
-264.7137775467151
 21
200.3019946465618
 31
0.0
  0
LINE
  5
12D
  8
0
  6
CONTINUOUS
 62
     7
 10
-264.7137775467151
 20
200.3019946465618
 30
0.0
 11
-264.6913417161825
 21
200.3119397662556
 31
0.0
  0
LINE
  5
12E
  8
0
  6
CONTINUOUS
 62
     7
 10
-264.6913417161825
 20
200.3119397662556
 30
0.0
 11
-264.6684449266961
 21
200.3207720325915
 31
0.0
  0
LINE
  5
12F
  8
0
  6
CONTINUOUS
 62
     7
 10
-264.6684449266961
 20
200.3207720325915
 30
0.0
 11
-264.6451423386271
 21
200.3284701678661
 31
0.0
  0
LINE
  5
130
  8
0
  6
CONTINUOUS
 62
     7
 10
-264.6451423386271
 20
200.3284701678661
 30
0.0
 11
-264.6214900899516
 21
200.3350156265973
 31
0.0
  0
LINE
  5
131
  8
0
  6
CONTINUOUS
 62
     7
 10
-264.6214900899516
 20
200.3350156265973
 30
0.0
 11
-264.597545161008
 21
200.3403926402017
 31
0.0
  0
LINE
  5
132
  8
0
  6
CONTINUOUS
 62
     7
 10
-264.597545161008
 20
200.3403926402017
 30
0.0
 11
-264.5733652372276
 21
200.3445882549824
 31
0.0
  0
LINE
  5
133
  8
0
  6
CONTINUOUS
 62
     7
 10
-264.5733652372276
 20
200.3445882549824
 30
0.0
 11
-264.5490085701647
 21
200.3475923633361
 31
0.0
  0
LINE
  5
134
  8
0
  6
CONTINUOUS
 62
     7
 10
-264.5490085701647
 20
200.3475923633361
 30
0.0
 11
-264.5245338371636
 21
200.3493977281026
 31
0.0
  0
LINE
  5
135
  8
0
  6
CONTINUOUS
 62
     7
 10
-264.5245338371636
 20
200.3493977281026
 30
0.0
 11
-264.4999999999999
 21
200.35
 31
0.0
  0
LINE
  5
136
  8
0
  6
CONTINUOUS
 62
     7
 10
-272.5
 20
199.05
 30
0.0
 11
-264.9999999999999
 21
199.0500000000001
 31
0.0
  0
LINE
  5
137
  8
0
  6
CONTINUOUS
 62
     7
 10
-272.5
 20
205.05
 30
0.0
 11
-272.5
 21
199.05
 31
0.0
  0
LINE
  5
138
  8
0
  6
CONTINUOUS
 62
     7
 10
-271.5877462375842
 20
210.2236481776669
 30
0.0
 11
-272.5
 21
205.05
 31
0.0
  0
ARC
  5
139
  8
0
  6
CONTINUOUS
 62
     7
 10
-270.602938484572
 20
210.05
 30
0.0
 40
1.0
 50
89.99999999999682
 51
169.9999999999995
  0
LINE
  5
13A
  8
0
  6
CONTINUOUS
 62
     7
 10
-269.8836634939895
 20
211.05
 30
0.0
 11
-270.6029384845719
 21
211.05
 31
0.0
  0
LINE
  5
13B
  8
0
  6
CONTINUOUS
 62
     7
 10
-269.400700580845
 20
210.6794095225513
 30
0.0
 11
-269.407275932628
 21
210.7018383725548
 31
0.0
  0
LINE
  5
13C
  8
0
  6
CONTINUOUS
 62
     7
 10
-269.407275932628
 20
210.7018383725548
 30
0.0
 11
-269.4148922647175
 21
210.7239354322926
 31
0.0
  0
LINE
  5
13D
  8
0
  6
CONTINUOUS
 62
     7
 10
-269.4148922647175
 20
210.7239354322926
 30
0.0
 11
-269.4235329342529
 21
210.7456524162806
 31
0.0
  0
LINE
  5
13E
  8
0
  6
CONTINUOUS
 62
     7
 10
-269.4235329342529
 20
210.7456524162806
 30
0.0
 11
-269.4331790600382
 21
210.7669418695588
 31
0.0
  0
LINE
  5
13F
  8
0
  6
CONTINUOUS
 62
     7
 10
-269.4331790600382
 20
210.7669418695588
 30
0.0
 11
-269.443809563801
 21
210.7877572713878
 31
0.0
  0
LINE
  5
140
  8
0
  6
CONTINUOUS
 62
     7
 10
-269.443809563801
 20
210.7877572713878
 30
0.0
 11
-269.4554012162506
 21
210.8080531369038
 31
0.0
  0
LINE
  5
141
  8
0
  6
CONTINUOUS
 62
     7
 10
-269.4554012162506
 20
210.8080531369038
 30
0.0
 11
-269.4679286878382
 21
210.8277851165098
 31
0.0
  0
LINE
  5
142
  8
0
  6
CONTINUOUS
 62
     7
 10
-269.4679286878382
 20
210.8277851165098
 30
0.0
 11
-269.4813646041061
 21
210.8469100927867
 31
0.0
  0
LINE
  5
143
  8
0
  6
CONTINUOUS
 62
     7
 10
-269.4813646041061
 20
210.8469100927867
 30
0.0
 11
-269.4956796055048
 21
210.8653862747113
 31
0.0
  0
LINE
  5
144
  8
0
  6
CONTINUOUS
 62
     7
 10
-269.4956796055048
 20
210.8653862747113
 30
0.0
 11
-269.5108424115479
 21
210.883173288976
 31
0.0
  0
LINE
  5
145
  8
0
  6
CONTINUOUS
 62
     7
 10
-269.5108424115479
 20
210.883173288976
 30
0.0
 11
-269.5268198891654
 21
210.9002322682109
 31
0.0
  0
LINE
  5
146
  8
0
  6
CONTINUOUS
 62
     7
 10
-269.5268198891654
 20
210.9002322682109
 30
0.0
 11
-269.543577125104
 21
210.9165259359149
 31
0.0
  0
LINE
  5
147
  8
0
  6
CONTINUOUS
 62
     7
 10
-269.543577125104
 20
210.9165259359149
 30
0.0
 11
-269.5610775022184
 21
210.9320186879108
 31
0.0
  0
LINE
  5
148
  8
0
  6
CONTINUOUS
 62
     7
 10
-269.5610775022184
 20
210.9320186879108
 30
0.0
 11
-269.5792827794851
 21
210.9466766701456
 31
0.0
  0
LINE
  5
149
  8
0
  6
CONTINUOUS
 62
     7
 10
-269.5792827794851
 20
210.9466766701456
 30
0.0
 11
-269.598153175565
 21
210.9604678526671
 31
0.0
  0
LINE
  5
14A
  8
0
  6
CONTINUOUS
 62
     7
 10
-269.598153175565
 20
210.9604678526671
 30
0.0
 11
-269.6176474557318
 21
210.9733620996141
 31
0.0
  0
LINE
  5
14B
  8
0
  6
CONTINUOUS
 62
     7
 10
-269.6176474557318
 20
210.9733620996141
 30
0.0
 11
-269.6377230219763
 21
210.9853312350681
 31
0.0
  0
LINE
  5
14C
  8
0
  6
CONTINUOUS
 62
     7
 10
-269.6377230219763
 20
210.9853312350681
 30
0.0
 11
-269.6583360060895
 21
210.9963491046218
 31
0.0
  0
LINE
  5
14D
  8
0
  6
CONTINUOUS
 62
     7
 10
-269.6583360060895
 20
210.9963491046218
 30
0.0
 11
-269.6794413655215
 21
211.0063916325306
 31
0.0
  0
LINE
  5
14E
  8
0
  6
CONTINUOUS
 62
     7
 10
-269.6794413655215
 20
211.0063916325306
 30
0.0
 11
-269.7009929818063
 21
211.0154368743221
 31
0.0
  0
LINE
  5
14F
  8
0
  6
CONTINUOUS
 62
     7
 10
-269.7009929818063
 20
211.0154368743221
 30
0.0
 11
-269.7229437613379
 21
211.0234650647476
 31
0.0
  0
LINE
  5
150
  8
0
  6
CONTINUOUS
 62
     7
 10
-269.7229437613379
 20
211.0234650647476
 30
0.0
 11
-269.745245738277
 21
211.0304586609726
 31
0.0
  0
LINE
  5
151
  8
0
  6
CONTINUOUS
 62
     7
 10
-269.745245738277
 20
211.0304586609726
 30
0.0
 11
-269.767850179364
 21
211.0364023809106
 31
0.0
  0
LINE
  5
152
  8
0
  6
CONTINUOUS
 62
     7
 10
-269.767850179364
 20
211.0364023809106
 30
0.0
 11
-269.790707690408
 21
211.0412832366166
 31
0.0
  0
LINE
  5
153
  8
0
  6
CONTINUOUS
 62
     7
 10
-269.790707690408
 20
211.0412832366166
 30
0.0
 11
-269.8137683242217
 21
211.0450905626682
 31
0.0
  0
LINE
  5
154
  8
0
  6
CONTINUOUS
 62
     7
 10
-269.8137683242217
 20
211.0450905626682
 30
0.0
 11
-269.836981689763
 21
211.0478160394705
 31
0.0
  0
LINE
  5
155
  8
0
  6
CONTINUOUS
 62
     7
 10
-269.836981689763
 20
211.0478160394705
 30
0.0
 11
-269.8602970622474
 21
211.0494537114365
 31
0.0
  0
LINE
  5
156
  8
0
  6
CONTINUOUS
 62
     7
 10
-269.8602970622474
 20
211.0494537114365
 30
0.0
 11
-269.8836634939895
 21
211.05
 31
0.0
  0
LINE
  5
157
  8
0
  6
CONTINUOUS
 62
     7
 10
-266.8205080756888
 20
201.05
 30
0.0
 11
-269.400700580845
 21
210.6794095225513
 31
0.0
  0
LINE
  5
158
  8
0
  6
CONTINUOUS
 62
     7
 10
-263.0
 20
199.0500000000001
 30
0.0
 11
-263.0
 21
199.85
 31
0.0
  0
LINE
  5
159
  8
0
  6
CONTINUOUS
 62
     7
 10
-264.9999999999999
 20
199.85
 30
0.0
 11
-264.9999999999999
 21
199.0500000000001
 31
0.0
  0
LINE
  5
15A
  8
0
  6
CONTINUOUS
 62
     7
 10
-260.9825462644185
 20
201.05
 30
0.0
 11
-266.8205080756888
 21
201.05
 31
0.0
  0
LINE
  5
15B
  8
0
  6
CONTINUOUS
 62
     7
 10
-263.0
 20
199.0500000000001
 30
0.0
 11
-261.0
 21
199.05
 31
0.0
  0
ARC
  5
15C
  8
0
  6
CONTINUOUS
 62
     7
 10
-245.1
 20
199.05
 30
0.0
 40
0.099999999999989
 50
270.0
 51
0.0000000000001137
  0
ARC
  5
15D
  8
0
  6
CONTINUOUS
 62
     7
 10
-259.9
 20
199.05
 30
0.0
 40
0.099999999999989
 50
180.0
 51
270.0
  0
LINE
  5
15E
  8
0
  6
CONTINUOUS
 62
     7
 10
-245.1
 20
198.95
 30
0.0
 11
-259.9
 21
198.95
 31
0.0
  0
LINE
  5
15F
  8
0
  6
CONTINUOUS
 62
     7
 10
-272.853079165932
 20
199.05
 30
0.0
 11
-272.5
 21
199.05
 31
0.0
  0
POLYLINE
  5
160
  8
0
  6
CONTINUOUS
 62
     7
 66
     1
 10
0.0
 20
0.0
 30
0.0
  0
VERTEX
  5
7AB
  8
0
  6
CONTINUOUS
 62
     7
 10
-272.8016912016387
 20
204.9384774612636
 30
0.0
  0
VERTEX
  5
7AC
  8
0
  6
CONTINUOUS
 62
     7
 10
-272.5824031883145
 20
204.9856651275643
 30
0.0
  0
VERTEX
  5
7AD
  8
0
  6
CONTINUOUS
 62
     7
 10
-272.5005115957032
 20
205.0470985965895
 30
0.0
  0
SEQEND
  5
85B
  8
0
  6
CONTINUOUS
 62
     7
  0
LINE
  5
161
  8
0
  6
CONTINUOUS
 62
     7
 10
-272.8078935179674
 20
204.2277624054803
 30
0.0
 11
-272.5
 21
204.05
 31
0.0
  0
LINE
  5
162
  8
0
  6
CONTINUOUS
 62
     7
 10
-272.5
 20
205.0499999999999
 30
0.0
 11
-272.5005115957032
 21
205.0470985965894
 31
0.0
  0
POLYLINE
  5
163
  8
0
  6
CONTINUOUS
 62
     7
 66
     1
 10
0.0
 20
0.0
 30
0.0
  0
VERTEX
  5
7AE
  8
0
  6
CONTINUOUS
 62
     7
 10
-232.4994884042968
 20
205.0470985965895
 30
0.0
  0
VERTEX
  5
7AF
  8
0
  6
CONTINUOUS
 62
     7
 10
-232.4175968116855
 20
204.9856651275643
 30
0.0
  0
VERTEX
  5
7B0
  8
0
  6
CONTINUOUS
 62
     7
 10
-232.1983087983613
 20
204.9384774612636
 30
0.0
  0
SEQEND
  5
85C
  8
0
  6
CONTINUOUS
 62
     7
  0
LINE
  5
164
  8
0
  6
CONTINUOUS
 62
     7
 10
-232.5
 20
204.05
 30
0.0
 11
-232.1921064820326
 21
204.2277624054803
 31
0.0
  0
LINE
  5
165
  8
0
  6
CONTINUOUS
 62
     7
 10
-232.4994884042968
 20
205.0470985965894
 30
0.0
 11
-232.5
 21
205.05
 31
0.0
  0
LINE
  5
166
  8
0
  6
CONTINUOUS
 62
     7
 10
-232.5
 20
199.05
 30
0.0
 11
-232.146920834068
 21
199.05
 31
0.0
  0
LINE
  5
167
  8
0
  6
CONTINUOUS
 62
     7
 10
-232.2516432475571
 20
211.05
 30
0.0
 11
-234.3970615154281
 21
211.05
 31
0.0
  0
LINE
  5
168
  8
0
  6
CONTINUOUS
 62
     7
 10
-270.602938484572
 20
211.05
 30
0.0
 11
-272.7483567524429
 21
211.05
 31
0.0
  0
LINE
  5
169
  8
0
  6
CONTINUOUS
 62
     7
 10
-252.2
 20
201.05
 30
0.0
 11
-252.8
 21
201.05
 31
0.0
  0
LINE
  5
16A
  8
0
  6
CONTINUOUS
 62
     7
 10
-235.3421742807755
 20
210.9960911336142
 30
0.0
 11
-269.6578257192245
 21
210.9960911336142
 31
0.0
  0
CIRCLE
  5
16B
  8
0
  6
CONTINUOUS
 62
     7
 10
-252.5
 20
224.05
 30
0.0
 40
2.0
  0
LINE
  5
16C
  8
0
  6
CONTINUOUS
 62
     7
 10
-274.6369149804407
 20
224.7199622217464
 30
0.0
 11
-274.8609333469437
 21
199.0500000000001
 31
0.0
  0
LINE
  5
16D
  8
0
  6
CONTINUOUS
 62
     7
 10
-274.8609333469437
 20
199.05
 30
0.0
 11
-273.3613330743056
 21
199.05
 31
0.0
  0
LINE
  5
16E
  8
0
  6
CONTINUOUS
 62
     7
 10
-230.3630850195593
 20
224.7199622217464
 30
0.0
 11
-230.1390666530563
 21
199.0500000000001
 31
0.0
  0
LINE
  5
16F
  8
0
  6
CONTINUOUS
 62
     7
 10
-230.1390666530563
 20
199.05
 30
0.0
 11
-231.6386669256944
 21
199.05
 31
0.0
  0
ARC
  5
170
  8
0
  6
CONTINUOUS
 62
     7
 10
-240.3701855652498
 20
224.598697361036
 30
0.0
 40
8.000000000000004
 50
0.4999999999996854
 51
46.32779344528048
  0
LINE
  5
171
  8
0
  6
CONTINUOUS
 62
     7
 10
-234.8459325432764
 20
230.3851149530542
 30
0.0
 11
-242.5
 21
237.6924004376894
 31
0.0
  0
ARC
  5
172
  8
0
  6
CONTINUOUS
 62
     7
 10
-252.5
 20
98.05000000000003
 30
0.0
 40
140.0
 50
85.90395624184764
 51
94.09604375815223
  0
LINE
  5
173
  8
0
  6
CONTINUOUS
 62
     7
 10
-270.1540674567236
 20
230.3851149530542
 30
0.0
 11
-262.5
 21
237.6924004376894
 31
0.0
  0
ARC
  5
174
  8
0
  6
CONTINUOUS
 62
     7
 10
-264.6298144347502
 20
224.598697361036
 30
0.0
 40
8.000000000000004
 50
133.6722065547195
 51
179.5000000000004
  0
LINE
  5
175
  8
0
  6
CONTINUOUS
 62
     7
 10
-272.853079165932
 20
199.05
 30
0.0
 11
-272.6295098192636
 21
224.6685096450229
 31
0.0
  0
LINE
  5
176
  8
0
  6
CONTINUOUS
 62
     7
 10
-232.146920834068
 20
199.05
 30
0.0
 11
-232.3704901807364
 21
224.6685096450229
 31
0.0
  0
LINE
  5
177
  8
0
  6
CONTINUOUS
 62
     7
 10
-273.3613330743056
 20
199.05
 30
0.0
 11
-272.853079165932
 21
199.05
 31
0.0
  0
LINE
  5
178
  8
0
  6
CONTINUOUS
 62
     7
 10
-231.6386669256944
 20
199.05
 30
0.0
 11
-232.146920834068
 21
199.05
 31
0.0
  0
ARC
  5
179
  8
0
  6
CONTINUOUS
 62
     7
 10
-240.362704250201
 20
224.6326968667626
 30
0.0
 40
10.0
 50
0.5
 51
46.3586569954029
  0
ARC
  5
17A
  8
0
  6
CONTINUOUS
 62
     7
 10
-264.637295749799
 20
224.6326968667626
 30
0.0
 40
10.0
 50
133.6413430045972
 51
179.5
  0
LINE
  5
17B
  8
0
  6
CONTINUOUS
 62
     7
 10
-242.2471052490416
 20
238.227750758219
 30
0.0
 11
-241.6001077031006
 21
239.6310451575916
 31
0.0
  0
LINE
  5
17C
  8
0
  6
CONTINUOUS
 62
     7
 10
-241.6001077031006
 20
239.6310451575916
 30
0.0
 11
-241.6
 21
239.6310368658177
 31
0.0
  0
LINE
  5
17D
  8
0
  6
CONTINUOUS
 62
     7
 10
-241.6
 20
239.6310368658176
 30
0.0
 11
-233.4612851904571
 21
231.8694374978619
 31
0.0
  0
LINE
  5
17E
  8
0
  6
CONTINUOUS
 62
     7
 10
-263.3998922968994
 20
239.6310451575916
 30
0.0
 11
-263.4
 21
239.6310368658177
 31
0.0
  0
LINE
  5
17F
  8
0
  6
CONTINUOUS
 62
     7
 10
-262.7528947509584
 20
238.227750758219
 30
0.0
 11
-263.3998922968994
 21
239.6310451575916
 31
0.0
  0
LINE
  5
180
  8
0
  6
CONTINUOUS
 62
     7
 10
-263.4
 20
239.6310368658176
 30
0.0
 11
-271.538714809543
 21
231.8694374978619
 31
0.0
  0
ARC
  5
181
  8
0
  6
CONTINUOUS
 62
     7
 10
-252.5
 20
98.05000000000003
 30
0.0
 40
142.0
 50
85.597656752744
 51
94.40234324725606
  0
LINE
  5
182
  8
0
  6
CONTINUOUS
 62
     7
 10
-232.146920834068
 20
199.05
 30
0.0
 11
-232.5
 21
199.403079165932
 31
0.0
  0
LINE
  5
183
  8
0
  6
CONTINUOUS
 62
     7
 10
-272.5
 20
199.403079165932
 30
0.0
 11
-272.853079165932
 21
199.05
 31
0.0
  0
LINE
  5
184
  8
0
  6
CONTINUOUS
 62
     7
 10
-232.1905551730218
 20
204.05
 30
0.0
 11
-232.5
 21
203.8713419458448
 31
0.0
  0
LINE
  5
185
  8
0
  6
CONTINUOUS
 62
     7
 10
-272.8094448269782
 20
204.05
 30
0.0
 11
-272.5
 21
203.8713419458448
 31
0.0
  0
LINE
  5
186
  8
0
  6
CONTINUOUS
 62
     7
 10
-276.6491806417392
 20
222.5629235576721
 30
0.0
 11
-276.6541872747582
 21
222.5629433935301
 31
0.0
  0
ARC
  5
187
  8
0
  6
CONTINUOUS
 62
     7
 10
-276.4307736944434
 20
227.4315066787316
 30
0.0
 40
4.873479578421594
 50
267.431406305838
 51
288.997876516439
  0
LINE
  5
188
  8
0
  6
CONTINUOUS
 62
     7
 10
-274.844294722803
 20
222.8234824086311
 30
0.0
 11
-274.750507683017
 21
222.8790919036134
 31
0.0
  0
LINE
  5
189
  8
0
  6
CONTINUOUS
 62
     7
 10
-274.750507683017
 20
222.8790919036134
 30
0.0
 11
-274.6719655763798
 21
222.95895660111
 31
0.0
  0
LINE
  5
18A
  8
0
  6
CONTINUOUS
 62
     7
 10
-274.6719655763798
 20
222.95895660111
 30
0.0
 11
-274.6517030401325
 21
223.0254184236325
 31
0.0
  0
LINE
  5
18B
  8
0
  6
CONTINUOUS
 62
     7
 10
-276.8610095037151
 20
199.05
 30
0.0
 11
-274.8609333469437
 21
199.05
 31
0.0
  0
ARC
  5
18C
  8
0
  6
CONTINUOUS
 62
     7
 10
-228.5692263055564
 20
227.4315066787328
 30
0.0
 40
4.873479578422833
 50
251.0021234835633
 51
272.5685936941591
  0
LINE
  5
18D
  8
0
  6
CONTINUOUS
 62
     7
 10
-230.155705277197
 20
222.8234824086311
 30
0.0
 11
-230.249492316983
 21
222.8790919036134
 31
0.0
  0
LINE
  5
18E
  8
0
  6
CONTINUOUS
 62
     7
 10
-230.249492316983
 20
222.8790919036134
 30
0.0
 11
-230.3280344236202
 21
222.9589566011099
 31
0.0
  0
LINE
  5
18F
  8
0
  6
CONTINUOUS
 62
     7
 10
-230.3280344236202
 20
222.9589566011099
 30
0.0
 11
-230.3482969598675
 21
223.0254184236325
 31
0.0
  0
LINE
  5
190
  8
0
  6
CONTINUOUS
 62
     7
 10
-228.3508193582608
 20
222.5629235576721
 30
0.0
 11
-228.3458127252418
 21
222.5629433935301
 31
0.0
  0
LINE
  5
191
  8
0
  6
CONTINUOUS
 62
     7
 10
-228.1389904962849
 20
199.05
 30
0.0
 11
-230.1390666530563
 21
199.05
 31
0.0
  0
LINE
  5
192
  8
0
  6
CONTINUOUS
 62
     7
 10
-331.0
 20
222.5629433935302
 30
0.0
 11
-276.6541872747582
 21
222.5629433935301
 31
0.0
  0
LINE
  5
193
  8
0
  6
CONTINUOUS
 62
     7
 10
-331.0
 20
199.05
 30
0.0
 11
-276.8610095037151
 21
199.05
 31
0.0
  0
LINE
  5
194
  8
0
  6
CONTINUOUS
 62
     7
 10
-174.0
 20
222.5629433935301
 30
0.0
 11
-228.3458127252418
 21
222.5629433935301
 31
0.0
  0
LINE
  5
195
  8
0
  6
CONTINUOUS
 62
     7
 10
-174.0
 20
199.05
 30
0.0
 11
-228.1389904962849
 21
199.05
 31
0.0
  0
ARC
  5
196
  8
0
  6
CONTINUOUS
 62
     7
 10
-173.8915084378541
 20
218.6059687689776
 30
0.0
 40
3.958461645438666
 50
72.53861703890044
 51
91.5705310979202
  0
LINE
  5
197
  8
0
  6
CONTINUOUS
 62
     7
 10
-172.7037208331022
 20
222.3820221590142
 30
0.0
 11
-172.5961645721892
 21
222.326841695901
 31
0.0
  0
LINE
  5
198
  8
0
  6
CONTINUOUS
 62
     7
 10
-172.5961645721892
 20
222.326841695901
 30
0.0
 11
-172.5166217109999
 21
222.2521152708721
 31
0.0
  0
LINE
  5
199
  8
0
  6
CONTINUOUS
 62
     7
 10
-172.5166217109999
 20
222.2521152708721
 30
0.0
 11
-172.5
 21
222.1975591737688
 31
0.0
  0
LINE
  5
19A
  8
0
  6
CONTINUOUS
 62
     7
 10
-172.5
 20
222.1975591737688
 30
0.0
 11
-172.5
 21
199.0500000000001
 31
0.0
  0
LINE
  5
19B
  8
0
  6
CONTINUOUS
 62
     7
 10
-172.5
 20
199.05
 30
0.0
 11
-174.0
 21
199.05
 31
0.0
  0
LINE
  5
19C
  8
0
  6
CONTINUOUS
 62
     7
 10
-332.5
 20
222.1975591737688
 30
0.0
 11
-332.5
 21
199.0500000000002
 31
0.0
  0
ARC
  5
19D
  8
0
  6
CONTINUOUS
 62
     7
 10
-331.1084915621457
 20
218.6059687689774
 30
0.0
 40
3.958461645438937
 50
88.42946890208313
 51
107.4613829611022
  0
LINE
  5
19E
  8
0
  6
CONTINUOUS
 62
     7
 10
-332.2962791668979
 20
222.3820221590142
 30
0.0
 11
-332.4038354278108
 21
222.3268416959009
 31
0.0
  0
LINE
  5
19F
  8
0
  6
CONTINUOUS
 62
     7
 10
-332.4038354278108
 20
222.3268416959009
 30
0.0
 11
-332.4833782890001
 21
222.2521152708722
 31
0.0
  0
LINE
  5
1A0
  8
0
  6
CONTINUOUS
 62
     7
 10
-332.4833782890001
 20
222.2521152708722
 30
0.0
 11
-332.5
 21
222.1975591737688
 31
0.0
  0
LINE
  5
1A1
  8
0
  6
CONTINUOUS
 62
     7
 10
-332.5
 20
199.05
 30
0.0
 11
-331.0
 21
199.05
 31
0.0
  0
LINE
  5
1A2
  8
0
  6
CONTINUOUS
 62
     7
 10
-174.0
 20
240.0510985891748
 30
0.0
 11
-243.1582586524823
 21
240.0510985891748
 31
0.0
  0
LINE
  5
1A3
  8
0
  6
CONTINUOUS
 62
     7
 10
-331.0
 20
240.0510985891748
 30
0.0
 11
-261.8417413475177
 21
240.0510985891748
 31
0.0
  0
LINE
  5
1A4
  8
0
  6
CONTINUOUS
 62
     7
 10
-332.5
 20
238.5786566795423
 30
0.0
 11
-332.5
 21
222.1975591737688
 31
0.0
  0
ARC
  5
1A5
  8
0
  6
CONTINUOUS
 62
     7
 10
-331.0137987327769
 20
238.5648976904229
 30
0.0
 40
1.486264955005375
 50
89.46804874434827
 51
179.4695809352881
  0
LINE
  5
1A6
  8
0
  6
CONTINUOUS
 62
     7
 10
-172.5
 20
238.5786566795423
 30
0.0
 11
-172.5
 21
222.1975591737688
 31
0.0
  0
ARC
  5
1A7
  8
0
  6
CONTINUOUS
 62
     7
 10
-173.9862012672231
 20
238.5648976904229
 30
0.0
 40
1.486264955005375
 50
0.5304190647108346
 51
90.5319512556517
  0
LINE
  5
1A8
  8
0
  6
CONTINUOUS
 62
     7
 10
-241.5062600000088
 20
239.6237888198681
 30
0.0
 11
-241.4594738258155
 21
239.6233575744936
 31
0.0
  0
LINE
  5
1A9
  8
0
  6
CONTINUOUS
 62
     7
 10
-241.4594738258155
 20
239.6233575744936
 30
0.0
 11
-241.40978254157
 21
239.6290594615146
 31
0.0
  0
LINE
  5
1AA
  8
0
  6
CONTINUOUS
 62
     7
 10
-241.40978254157
 20
239.6290594615146
 30
0.0
 11
-241.3575205856066
 21
239.6408529052382
 31
0.0
  0
LINE
  5
1AB
  8
0
  6
CONTINUOUS
 62
     7
 10
-241.3575205856066
 20
239.6408529052382
 30
0.0
 11
-241.3030223962597
 21
239.6586963299709
 31
0.0
  0
LINE
  5
1AC
  8
0
  6
CONTINUOUS
 62
     7
 10
-241.3030223962597
 20
239.6586963299709
 30
0.0
 11
-241.2448963809935
 21
239.683336668564
 31
0.0
  0
LINE
  5
1AD
  8
0
  6
CONTINUOUS
 62
     7
 10
-241.2448963809935
 20
239.683336668564
 30
0.0
 11
-241.1848988321275
 21
239.7143062510297
 31
0.0
  0
LINE
  5
1AE
  8
0
  6
CONTINUOUS
 62
     7
 10
-241.1848988321275
 20
239.7143062510297
 30
0.0
 11
-241.1233679687633
 21
239.7515142859283
 31
0.0
  0
LINE
  5
1AF
  8
0
  6
CONTINUOUS
 62
     7
 10
-241.1233679687633
 20
239.7515142859283
 30
0.0
 11
-241.0606420100026
 21
239.79486998182
 31
0.0
  0
LINE
  5
1B0
  8
0
  6
CONTINUOUS
 62
     7
 10
-241.0606420100026
 20
239.79486998182
 30
0.0
 11
-240.9950086391301
 21
239.8459402111718
 31
0.0
  0
LINE
  5
1B1
  8
0
  6
CONTINUOUS
 62
     7
 10
-240.9950086391301
 20
239.8459402111718
 30
0.0
 11
-240.9285426734657
 21
239.9035249184931
 31
0.0
  0
LINE
  5
1B2
  8
0
  6
CONTINUOUS
 62
     7
 10
-240.9285426734657
 20
239.9035249184931
 30
0.0
 11
-240.9232589230739
 21
239.908356262391
 31
0.0
  0
LINE
  5
1B3
  8
0
  6
CONTINUOUS
 62
     7
 10
-241.6
 20
239.6310368658176
 30
0.0
 11
-241.50626000001
 21
239.6237888198682
 31
0.0
  0
LINE
  5
1B4
  8
0
  6
CONTINUOUS
 62
     7
 10
-263.4937399999912
 20
239.6237888198681
 30
0.0
 11
-263.5405261741845
 21
239.6233575744936
 31
0.0
  0
LINE
  5
1B5
  8
0
  6
CONTINUOUS
 62
     7
 10
-263.5405261741845
 20
239.6233575744936
 30
0.0
 11
-263.59021745843
 21
239.6290594615146
 31
0.0
  0
LINE
  5
1B6
  8
0
  6
CONTINUOUS
 62
     7
 10
-263.59021745843
 20
239.6290594615146
 30
0.0
 11
-263.6424794143934
 21
239.6408529052382
 31
0.0
  0
LINE
  5
1B7
  8
0
  6
CONTINUOUS
 62
     7
 10
-263.6424794143934
 20
239.6408529052382
 30
0.0
 11
-263.6969776037403
 21
239.6586963299709
 31
0.0
  0
LINE
  5
1B8
  8
0
  6
CONTINUOUS
 62
     7
 10
-263.6969776037403
 20
239.6586963299709
 30
0.0
 11
-263.7551036190065
 21
239.683336668564
 31
0.0
  0
LINE
  5
1B9
  8
0
  6
CONTINUOUS
 62
     7
 10
-263.7551036190065
 20
239.683336668564
 30
0.0
 11
-263.8151011678725
 21
239.7143062510297
 31
0.0
  0
LINE
  5
1BA
  8
0
  6
CONTINUOUS
 62
     7
 10
-263.8151011678725
 20
239.7143062510297
 30
0.0
 11
-263.8766320312367
 21
239.7515142859283
 31
0.0
  0
LINE
  5
1BB
  8
0
  6
CONTINUOUS
 62
     7
 10
-263.8766320312367
 20
239.7515142859283
 30
0.0
 11
-263.9393579899974
 21
239.79486998182
 31
0.0
  0
LINE
  5
1BC
  8
0
  6
CONTINUOUS
 62
     7
 10
-263.9393579899974
 20
239.79486998182
 30
0.0
 11
-264.0049913608698
 21
239.8459402111718
 31
0.0
  0
LINE
  5
1BD
  8
0
  6
CONTINUOUS
 62
     7
 10
-264.0049913608698
 20
239.8459402111718
 30
0.0
 11
-264.0714573265342
 21
239.9035249184931
 31
0.0
  0
LINE
  5
1BE
  8
0
  6
CONTINUOUS
 62
     7
 10
-264.0714573265342
 20
239.9035249184931
 30
0.0
 11
-264.0767410769261
 21
239.908356262391
 31
0.0
  0
LINE
  5
1BF
  8
0
  6
CONTINUOUS
 62
     7
 10
-263.4
 20
239.6310368658176
 30
0.0
 11
-263.4937399999901
 21
239.6237888198682
 31
0.0
  0
LINE
  5
1C0
  8
0
  6
CONTINUOUS
 62
     7
 10
-243.1582586524823
 20
240.0510985891748
 30
0.0
 11
-261.8417413475177
 21
240.0510985891748
 31
0.0
  0
ARC
  5
1C1
  8
0
  6
CONTINUOUS
 62
     7
 10
-331.0
 20
239.65
 30
0.0
 40
1.500000000000001
 50
90.0
 51
180.0
  0
LINE
  5
1C2
  8
0
  6
CONTINUOUS
 62
     7
 10
-332.5
 20
239.65
 30
0.0
 11
-332.5
 21
238.5786566795423
 31
0.0
  0
ARC
  5
1C3
  8
0
  6
CONTINUOUS
 62
     7
 10
-174.0
 20
239.65
 30
0.0
 40
1.500000000000001
 50
0.0
 51
90.0
  0
LINE
  5
1C4
  8
0
  6
CONTINUOUS
 62
     7
 10
-172.5
 20
239.65
 30
0.0
 11
-172.5
 21
238.5786566795423
 31
0.0
  0
LINE
  5
1C5
  8
0
  6
CONTINUOUS
 62
     7
 10
-174.0
 20
241.15
 30
0.0
 11
-331.0
 21
241.15
 31
0.0
  0
LINE
  5
1C6
  8
0
  6
CONTINUOUS
 62
     7
 10
-243.1582586524823
 20
361.4870566064696
 30
0.0
 11
-261.8417413475177
 21
361.4870566064696
 31
0.0
  0
LINE
  5
1C7
  8
0
  6
CONTINUOUS
 62
     7
 10
-331.0
 20
361.4870566064696
 30
0.0
 11
-261.8417413475177
 21
361.4870566064696
 31
0.0
  0
LINE
  5
1C8
  8
0
  6
CONTINUOUS
 62
     7
 10
-174.0
 20
385.0
 30
0.0
 11
-331.0
 21
385.0
 31
0.0
  0
LINE
  5
1C9
  8
0
  6
CONTINUOUS
 62
     7
 10
-174.0
 20
361.4870566064696
 30
0.0
 11
-243.1582586524823
 21
361.4870566064696
 31
0.0
  0
LINE
  5
1CA
  8
0
  6
CONTINUOUS
 62
     7
 10
-332.5
 20
361.8524408262313
 30
0.0
 11
-332.4442148901388
 21
361.7532357888921
 31
0.0
  0
LINE
  5
1CB
  8
0
  6
CONTINUOUS
 62
     7
 10
-332.4442148901388
 20
361.7532357888921
 30
0.0
 11
-332.3566058384392
 21
361.6959397410909
 31
0.0
  0
LINE
  5
1CC
  8
0
  6
CONTINUOUS
 62
     7
 10
-332.3566058384392
 20
361.6959397410909
 30
0.0
 11
-332.2639516676041
 21
361.655078956615
 31
0.0
  0
ARC
  5
1CD
  8
0
  6
CONTINUOUS
 62
     7
 10
-331.0857380326883
 20
365.6801531444638
 30
0.0
 40
4.193973007446265
 50
253.6842707944528
 51
271.1713879992637
  0
LINE
  5
1CE
  8
0
  6
CONTINUOUS
 62
     7
 10
-332.5
 20
385.0
 30
0.0
 11
-332.5
 21
361.8524408262313
 31
0.0
  0
LINE
  5
1CF
  8
0
  6
CONTINUOUS
 62
     7
 10
-331.0
 20
385.0
 30
0.0
 11
-332.5
 21
385.0
 31
0.0
  0
LINE
  5
1D0
  8
0
  6
CONTINUOUS
 62
     7
 10
-172.5
 20
385.0
 30
0.0
 11
-172.5
 21
361.8524408262317
 31
0.0
  0
LINE
  5
1D1
  8
0
  6
CONTINUOUS
 62
     7
 10
-172.5
 20
361.8524408262313
 30
0.0
 11
-172.5557851098612
 21
361.7532357888921
 31
0.0
  0
LINE
  5
1D2
  8
0
  6
CONTINUOUS
 62
     7
 10
-172.5557851098612
 20
361.7532357888921
 30
0.0
 11
-172.6433941615608
 21
361.695939741091
 31
0.0
  0
LINE
  5
1D3
  8
0
  6
CONTINUOUS
 62
     7
 10
-172.6433941615608
 20
361.695939741091
 30
0.0
 11
-172.7360483323959
 21
361.655078956615
 31
0.0
  0
ARC
  5
1D4
  8
0
  6
CONTINUOUS
 62
     7
 10
-173.9142619673118
 20
365.680153144464
 30
0.0
 40
4.193973007446539
 50
268.8286120007364
 51
286.3157292055465
  0
LINE
  5
1D5
  8
0
  6
CONTINUOUS
 62
     7
 10
-174.0
 20
385.0
 30
0.0
 11
-172.5
 21
385.0
 31
0.0
  0
LINE
  5
1D6
  8
0
  6
CONTINUOUS
 62
     7
 10
-332.5
 20
361.8524408262313
 30
0.0
 11
-332.5
 21
345.4713433204578
 31
0.0
  0
LINE
  5
1D7
  8
0
  6
CONTINUOUS
 62
     7
 10
-172.5
 20
361.8524408262313
 30
0.0
 11
-172.5
 21
345.4713433204578
 31
0.0
  0
LINE
  5
1D8
  8
0
  6
CONTINUOUS
 62
     7
 10
-263.4937399999912
 20
359.6329639433432
 30
0.0
 11
-264.0767410769261
 21
361.1453555227511
 31
0.0
  0
LINE
  5
1D9
  8
0
  6
CONTINUOUS
 62
     7
 10
-263.4
 20
358.8825875991121
 30
0.0
 11
-263.4937399999901
 21
359.6329639433432
 31
0.0
  0
LINE
  5
1DA
  8
0
  6
CONTINUOUS
 62
     7
 10
-241.5062600000088
 20
359.6329639433432
 30
0.0
 11
-240.9232589230739
 21
361.1453555227511
 31
0.0
  0
LINE
  5
1DB
  8
0
  6
CONTINUOUS
 62
     7
 10
-241.6
 20
358.8825875991121
 30
0.0
 11
-241.50626000001
 21
359.6329639433432
 31
0.0
  0
LINE
  5
1DC
  8
0
  6
CONTINUOUS
 62
     7
 10
-276.6491806417392
 20
343.9988932586576
 30
0.0
 11
-276.6541872747582
 21
343.9989014108252
 31
0.0
  0
LINE
  5
1DD
  8
0
  6
CONTINUOUS
 62
     7
 10
-228.3508193582608
 20
343.9988932586576
 30
0.0
 11
-228.3458127252418
 21
343.9989014108252
 31
0.0
  0
LINE
  5
1DE
  8
0
  6
CONTINUOUS
 62
     7
 10
-241.6
 20
287.880128467858
 30
0.0
 11
-241.6
 21
358.8825875991121
 31
0.0
  0
LINE
  5
1DF
  8
0
  6
CONTINUOUS
 62
     7
 10
-241.6001077031006
 20
287.8658090305285
 30
0.0
 11
-241.6
 21
287.880128467858
 31
0.0
  0
LINE
  5
1E0
  8
0
  6
CONTINUOUS
 62
     7
 10
-263.3998922968994
 20
287.8658090305285
 30
0.0
 11
-263.4
 21
287.880128467858
 31
0.0
  0
LINE
  5
1E1
  8
0
  6
CONTINUOUS
 62
     7
 10
-263.4
 20
287.880128467858
 30
0.0
 11
-263.4
 21
358.8825875991121
 31
0.0
  0
LINE
  5
1E2
  8
0
  6
CONTINUOUS
 62
     7
 10
-242.2471052490416
 20
286.3681172034329
 30
0.0
 11
-242.1307353155123
 21
286.4017578395594
 31
0.0
  0
LINE
  5
1E3
  8
0
  6
CONTINUOUS
 62
     7
 10
-242.1307353155123
 20
286.4017578395594
 30
0.0
 11
-242.0426854661713
 21
286.4610743050427
 31
0.0
  0
LINE
  5
1E4
  8
0
  6
CONTINUOUS
 62
     7
 10
-242.0426854661713
 20
286.4610743050427
 30
0.0
 11
-241.9679324969707
 21
286.5369179554679
 31
0.0
  0
ARC
  5
1E5
  8
0
  6
CONTINUOUS
 62
     7
 10
-243.9348897827206
 20
287.7967043847556
 30
0.0
 40
2.335804531929468
 50
327.3614649647337
 51
1.695339790476908
  0
LINE
  5
1E6
  8
0
  6
CONTINUOUS
 62
     7
 10
-262.7528947509584
 20
286.3681172034329
 30
0.0
 11
-262.8692646844877
 21
286.4017578395594
 31
0.0
  0
LINE
  5
1E7
  8
0
  6
CONTINUOUS
 62
     7
 10
-262.8692646844877
 20
286.4017578395594
 30
0.0
 11
-262.9573145338287
 21
286.4610743050427
 31
0.0
  0
LINE
  5
1E8
  8
0
  6
CONTINUOUS
 62
     7
 10
-262.9573145338287
 20
286.4610743050427
 30
0.0
 11
-263.0320675030293
 21
286.5369179554679
 31
0.0
  0
ARC
  5
1E9
  8
0
  6
CONTINUOUS
 62
     7
 10
-261.0651102172787
 20
287.7967043847558
 30
0.0
 40
2.335804531930048
 50
178.3046602095276
 51
212.638535035262
  0
LINE
  5
1EA
  8
0
  6
CONTINUOUS
 62
     7
 10
-231.6386669256944
 20
285.0
 30
0.0
 11
-232.146920834068
 21
285.0
 31
0.0
  0
LINE
  5
1EB
  8
0
  6
CONTINUOUS
 62
     7
 10
-232.146920834068
 20
285.0
 30
0.0
 11
-232.3704901807364
 21
285.894618070036
 31
0.0
  0
POLYLINE
  5
1EC
  8
0
  6
CONTINUOUS
 62
     7
 66
     1
 10
0.0
 20
0.0
 30
0.0
  0
VERTEX
  5
7B1
  8
0
  6
CONTINUOUS
 62
     7
 10
-232.3704901807364
 20
285.894618070036
 30
0.0
  0
VERTEX
  5
7B2
  8
0
  6
CONTINUOUS
 62
     7
 10
-232.5437571816587
 20
285.9500583182077
 30
0.0
  0
VERTEX
  5
7B3
  8
0
  6
CONTINUOUS
 62
     7
 10
-233.0289193810496
 20
286.0031920332823
 30
0.0
  0
VERTEX
  5
7B4
  8
0
  6
CONTINUOUS
 62
     7
 10
-233.8066423196829
 20
286.0519017550603
 30
0.0
  0
VERTEX
  5
7B5
  8
0
  6
CONTINUOUS
 62
     7
 10
-234.8459325432765
 20
286.0942463262731
 30
0.0
  0
SEQEND
  5
85D
  8
0
  6
CONTINUOUS
 62
     7
  0
LINE
  5
1ED
  8
0
  6
CONTINUOUS
 62
     7
 10
-234.8459325432764
 20
286.094246326273
 30
0.0
 11
-242.5
 21
286.3494223582924
 31
0.0
  0
LINE
  5
1EE
  8
0
  6
CONTINUOUS
 62
     7
 10
-242.5
 20
286.3494223582924
 30
0.0
 11
-262.5
 21
286.3494223582924
 31
0.0
  0
LINE
  5
1EF
  8
0
  6
CONTINUOUS
 62
     7
 10
-270.1540674567236
 20
286.094246326273
 30
0.0
 11
-262.5
 21
286.3494223582924
 31
0.0
  0
POLYLINE
  5
1F0
  8
0
  6
CONTINUOUS
 62
     7
 66
     1
 10
0.0
 20
0.0
 30
0.0
  0
VERTEX
  5
7B6
  8
0
  6
CONTINUOUS
 62
     7
 10
-270.1540674567235
 20
286.0942463262731
 30
0.0
  0
VERTEX
  5
7B7
  8
0
  6
CONTINUOUS
 62
     7
 10
-271.1933576803171
 20
286.0519017550603
 30
0.0
  0
VERTEX
  5
7B8
  8
0
  6
CONTINUOUS
 62
     7
 10
-271.9710806189504
 20
286.0031920332824
 30
0.0
  0
VERTEX
  5
7B9
  8
0
  6
CONTINUOUS
 62
     7
 10
-272.4562428183413
 20
285.9500583182077
 30
0.0
  0
VERTEX
  5
7BA
  8
0
  6
CONTINUOUS
 62
     7
 10
-272.6295098192635
 20
285.894618070036
 30
0.0
  0
SEQEND
  5
85E
  8
0
  6
CONTINUOUS
 62
     7
  0
LINE
  5
1F1
  8
0
  6
CONTINUOUS
 62
     7
 10
-272.853079165932
 20
285.0
 30
0.0
 11
-272.6295098192636
 21
285.894618070036
 31
0.0
  0
LINE
  5
1F2
  8
0
  6
CONTINUOUS
 62
     7
 10
-273.3613330743056
 20
285.0
 30
0.0
 11
-272.853079165932
 21
285.0
 31
0.0
  0
POLYLINE
  5
1F3
  8
0
  6
CONTINUOUS
 62
     7
 66
     1
 10
0.0
 20
0.0
 30
0.0
  0
VERTEX
  5
7BB
  8
0
  6
CONTINUOUS
 62
     7
 10
-274.8609333469436
 20
286.5004572104463
 30
0.0
  0
VERTEX
  5
7BC
  8
0
  6
CONTINUOUS
 62
     7
 10
-274.8321213097376
 20
286.2077081870456
 30
0.0
  0
VERTEX
  5
7BD
  8
0
  6
CONTINUOUS
 62
     7
 10
-274.7467920006249
 20
285.9262225559656
 30
0.0
  0
VERTEX
  5
7BE
  8
0
  6
CONTINUOUS
 62
     7
 10
-274.6082233097607
 20
285.6668134714264
 30
0.0
  0
VERTEX
  5
7BF
  8
0
  6
CONTINUOUS
 62
     7
 10
-274.4217382961538
 20
285.4394460262337
 30
0.0
  0
VERTEX
  5
7C0
  8
0
  6
CONTINUOUS
 62
     7
 10
-274.1945007045543
 20
285.2528544468561
 30
0.0
  0
VERTEX
  5
7C1
  8
0
  6
CONTINUOUS
 62
     7
 10
-273.9352397731585
 20
285.1142065717237
 30
0.0
  0
VERTEX
  5
7C2
  8
0
  6
CONTINUOUS
 62
     7
 10
-273.6539149035305
 20
285.0288285016762
 30
0.0
  0
VERTEX
  5
7C3
  8
0
  6
CONTINUOUS
 62
     7
 10
-273.3613330743055
 20
284.9999999999999
 30
0.0
  0
SEQEND
  5
85F
  8
0
  6
CONTINUOUS
 62
     7
  0
POLYLINE
  5
1F4
  8
0
  6
CONTINUOUS
 62
     7
 66
     1
 10
0.0
 20
0.0
 30
0.0
  0
VERTEX
  5
7C4
  8
0
  6
CONTINUOUS
 62
     7
 10
-231.6386669256944
 20
284.9999999999999
 30
0.0
  0
VERTEX
  5
7C5
  8
0
  6
CONTINUOUS
 62
     7
 10
-231.3460850964694
 20
285.0288285016762
 30
0.0
  0
VERTEX
  5
7C6
  8
0
  6
CONTINUOUS
 62
     7
 10
-231.0647602268414
 20
285.1142065717237
 30
0.0
  0
VERTEX
  5
7C7
  8
0
  6
CONTINUOUS
 62
     7
 10
-230.8054992954456
 20
285.2528544468561
 30
0.0
  0
VERTEX
  5
7C8
  8
0
  6
CONTINUOUS
 62
     7
 10
-230.5782617038461
 20
285.4394460262337
 30
0.0
  0
VERTEX
  5
7C9
  8
0
  6
CONTINUOUS
 62
     7
 10
-230.3917766902392
 20
285.6668134714264
 30
0.0
  0
VERTEX
  5
7CA
  8
0
  6
CONTINUOUS
 62
     7
 10
-230.253207999375
 20
285.9262225559656
 30
0.0
  0
VERTEX
  5
7CB
  8
0
  6
CONTINUOUS
 62
     7
 10
-230.1678786902623
 20
286.2077081870456
 30
0.0
  0
VERTEX
  5
7CC
  8
0
  6
CONTINUOUS
 62
     7
 10
-230.1390666530563
 20
286.5004572104463
 30
0.0
  0
SEQEND
  5
860
  8
0
  6
CONTINUOUS
 62
     7
  0
LINE
  5
1F5
  8
0
  6
CONTINUOUS
 62
     7
 10
-274.8609333469437
 20
286.5004572104464
 30
0.0
 11
-274.8609333469437
 21
340.9000005993894
 31
0.0
  0
LINE
  5
1F6
  8
0
  6
CONTINUOUS
 62
     7
 10
-230.1390666530563
 20
286.5004572104464
 30
0.0
 11
-230.1390666530563
 21
340.9000005993894
 31
0.0
  0
LINE
  5
1F7
  8
0
  6
CONTINUOUS
 62
     7
 10
-276.8610095037151
 20
342.8999999999999
 30
0.0
 11
-276.8456778937026
 21
342.9060255604003
 31
0.0
  0
ARC
  5
1F8
  8
0
  6
CONTINUOUS
 62
     7
 10
-276.8609460331206
 20
340.8999769958867
 30
0.0
 40
2.000012686316211
 50
0.0006761862526901
 51
78.10226323263782
  0
LINE
  5
1F9
  8
0
  6
CONTINUOUS
 62
     7
 10
-228.1543221062974
 20
342.9060255604003
 30
0.0
 11
-228.1389904962849
 21
342.8999999999999
 31
0.0
  0
ARC
  5
1FA
  8
0
  6
CONTINUOUS
 62
     7
 10
-228.1390539668794
 20
340.8999769958867
 30
0.0
 40
2.000012686316218
 50
101.897736767363
 51
179.9993238137473
  0
ARC
  5
1FB
  8
0
  6
CONTINUOUS
 62
     7
 10
-331.0
 20
344.4
 30
0.0
 40
1.500000000000001
 50
180.0
 51
270.0
  0
LINE
  5
1FC
  8
0
  6
CONTINUOUS
 62
     7
 10
-332.5
 20
345.4713433204578
 30
0.0
 11
-332.5
 21
344.4
 31
0.0
  0
ARC
  5
1FD
  8
0
  6
CONTINUOUS
 62
     7
 10
-174.0
 20
344.4
 30
0.0
 40
1.500000000000001
 50
270.0
 51
0.0
  0
LINE
  5
1FE
  8
0
  6
CONTINUOUS
 62
     7
 10
-172.5
 20
345.4713433204578
 30
0.0
 11
-172.5
 21
344.4
 31
0.0
  0
LINE
  5
1FF
  8
0
  6
CONTINUOUS
 62
     7
 10
-331.0
 20
342.9
 30
0.0
 11
-276.8610095037151
 21
342.9
 31
0.0
  0
LINE
  5
200
  8
0
  6
CONTINUOUS
 62
     7
 10
-174.0
 20
342.9
 30
0.0
 11
-228.1389904962849
 21
342.9
 31
0.0
  0
LINE
  5
201
  8
0
  6
CONTINUOUS
 62
     7
 10
-276.8435921942017
 20
342.9077765248502
 30
0.0
 11
-276.4486467870821
 21
342.8570309183906
 31
0.0
  0
LINE
  5
202
  8
0
  6
CONTINUOUS
 62
     7
 10
-228.5513532129179
 20
342.8570309183906
 30
0.0
 11
-228.1564078057983
 21
342.9077765248502
 31
0.0
  0
LINE
  5
203
  8
0
  6
CONTINUOUS
 62
     7
 10
-94.50000000000009
 20
198.85
 30
0.0
 11
-94.50000000000009
 21
199.05
 31
0.0
  0
LINE
  5
204
  8
0
  6
CONTINUOUS
 62
     7
 10
-119.5000000000001
 20
198.85
 30
0.0
 11
-119.5000000000001
 21
199.05
 31
0.0
  0
LINE
  5
205
  8
0
  6
CONTINUOUS
 62
     7
 10
-94.50000000000009
 20
198.85
 30
0.0
 11
-119.5000000000001
 21
198.85
 31
0.0
  0
ARC
  5
206
  8
0
  6
CONTINUOUS
 62
     7
 10
-52.50000000000008
 20
-10.94999999999976
 30
0.0
 40
249.9999999999997
 50
91.83377800004665
 51
95.27867610332093
  0
LINE
  5
207
  8
0
  6
CONTINUOUS
 62
     7
 10
-60.50000000000024
 20
234.9198842884179
 30
0.0
 11
-60.50000000000008
 21
238.9219672152121
 31
0.0
  0
ARC
  5
208
  8
0
  6
CONTINUOUS
 62
     7
 10
-63.81075385462238
 20
210.3607538546223
 30
0.0
 40
25.99999999999996
 50
114.2589370559113
 51
155.7410629440853
  0
ARC
  5
209
  8
0
  6
CONTINUOUS
 62
     7
 10
-63.81075385462238
 20
210.3607538546223
 30
0.0
 40
29.99999999999996
 50
112.9321967018483
 51
157.0678032981518
  0
ARC
  5
20A
  8
0
  6
CONTINUOUS
 62
     7
 10
157.4999999999999
 20
199.0500000000001
 30
0.0
 40
245.9999999999999
 50
174.8707361111009
 51
176.5041863676101
  0
ARC
  5
20B
  8
0
  6
CONTINUOUS
 62
     7
 10
-52.50000000000008
 20
-10.94999999999976
 30
0.0
 40
245.9999999999998
 50
91.86360596379616
 51
95.12926388889878
  0
LINE
  5
20C
  8
0
  6
CONTINUOUS
 62
     7
 10
-92.0495942693557
 20
214.05
 30
0.0
 11
-88.04225705568489
 21
214.05
 31
0.0
  0
LINE
  5
20D
  8
0
  6
CONTINUOUS
 62
     7
 10
-65.50003807693585
 20
199.05
 30
0.0
 11
-66.50000000000001
 21
199.05
 31
0.0
  0
LINE
  5
20E
  8
0
  6
CONTINUOUS
 62
     7
 10
-66.50000000000001
 20
199.05
 30
0.0
 11
-66.4868716206531
 21
200.5543632677492
 31
0.0
  0
LINE
  5
20F
  8
0
  6
CONTINUOUS
 62
     7
 10
-63.81370849898484
 20
199.05
 30
0.0
 11
-65.50003807693585
 21
199.05
 31
0.0
  0
LINE
  5
210
  8
0
  6
CONTINUOUS
 62
     7
 10
-62.50000000000001
 20
200.5543632677492
 30
0.0
 11
-62.50000000000001
 21
200.3637084989848
 31
0.0
  0
LINE
  5
211
  8
0
  6
CONTINUOUS
 62
     7
 10
-62.50000000000001
 20
200.3637084989848
 30
0.0
 11
-63.81370849898484
 21
199.05
 31
0.0
  0
LINE
  5
212
  8
0
  6
CONTINUOUS
 62
     7
 10
-65.48690969758893
 20
201.05
 30
0.0
 11
-62.50000000000003
 21
201.05
 31
0.0
  0
LINE
  5
213
  8
0
  6
CONTINUOUS
 62
     7
 10
-62.50000000000003
 20
201.05
 30
0.0
 11
-62.50000000000001
 21
200.5543632677492
 31
0.0
  0
ARC
  5
214
  8
0
  6
CONTINUOUS
 62
     7
 10
-65.98689065912102
 20
200.55
 30
0.0
 40
0.5000000000000016
 50
90.0
 51
179.5
  0
LINE
  5
215
  8
0
  6
CONTINUOUS
 62
     7
 10
-65.98689065912102
 20
201.05
 30
0.0
 11
-65.48690969758893
 21
201.05
 31
0.0
  0
LINE
  5
216
  8
0
  6
CONTINUOUS
 62
     7
 10
-52.50000000000006
 20
212.0587265354984
 30
0.0
 11
-52.50000000000009
 21
210.3637084989848
 31
0.0
  0
LINE
  5
217
  8
0
  6
CONTINUOUS
 62
     7
 10
-53.8137084989848
 20
209.05
 30
0.0
 11
-53.91275036056035
 21
209.05
 31
0.0
  0
LINE
  5
218
  8
0
  6
CONTINUOUS
 62
     7
 10
-52.50000000000009
 20
210.3637084989848
 30
0.0
 11
-53.8137084989848
 21
209.05
 31
0.0
  0
LINE
  5
219
  8
0
  6
CONTINUOUS
 62
     7
 10
-54.41273132209244
 20
209.05
 30
0.0
 11
-54.38647456339861
 21
212.0587265354984
 31
0.0
  0
LINE
  5
21A
  8
0
  6
CONTINUOUS
 62
     7
 10
-53.91275036056035
 20
209.05
 30
0.0
 11
-54.41273132209245
 21
209.05
 31
0.0
  0
LINE
  5
21B
  8
0
  6
CONTINUOUS
 62
     7
 10
-54.3864745633986
 20
212.0587265354984
 30
0.0
 11
-54.38214920716401
 21
212.5543632677492
 31
0.0
  0
ARC
  5
21C
  8
0
  6
CONTINUOUS
 62
     7
 10
-53.88216824563192
 20
212.55
 30
0.0
 40
0.5000000000000016
 50
90.0
 51
179.5
  0
LINE
  5
21D
  8
0
  6
CONTINUOUS
 62
     7
 10
-53.88216824563192
 20
213.05
 30
0.0
 11
-52.50000000000003
 21
213.05
 31
0.0
  0
LINE
  5
21E
  8
0
  6
CONTINUOUS
 62
     7
 10
-52.50000000000003
 20
213.05
 30
0.0
 11
-52.50000000000006
 21
212.0587265354984
 31
0.0
  0
LINE
  5
21F
  8
0
  6
CONTINUOUS
 62
     7
 10
-57.00000000000005
 20
238.85
 30
0.0
 11
-52.50000000000006
 21
238.85
 31
0.0
  0
LINE
  5
220
  8
0
  6
CONTINUOUS
 62
     7
 10
-52.50000000000006
 20
238.85
 30
0.0
 11
-52.50000000000006
 21
234.05
 31
0.0
  0
LINE
  5
221
  8
0
  6
CONTINUOUS
 62
     7
 10
-53.00000000000006
 20
234.05
 30
0.0
 11
-52.50000000000006
 21
234.05
 31
0.0
  0
LINE
  5
222
  8
0
  6
CONTINUOUS
 62
     7
 10
-53.50000000000006
 20
233.55
 30
0.0
 11
-53.49939772810264
 21
233.5745338371637
 31
0.0
  0
LINE
  5
223
  8
0
  6
CONTINUOUS
 62
     7
 10
-53.49939772810264
 20
233.5745338371637
 30
0.0
 11
-53.49759236333615
 21
233.5990085701648
 31
0.0
  0
LINE
  5
224
  8
0
  6
CONTINUOUS
 62
     7
 10
-53.49759236333615
 20
233.5990085701648
 30
0.0
 11
-53.49458825498245
 21
233.6233652372277
 31
0.0
  0
LINE
  5
225
  8
0
  6
CONTINUOUS
 62
     7
 10
-53.49458825498245
 20
233.6233652372277
 30
0.0
 11
-53.49039264020168
 21
233.6475451610081
 31
0.0
  0
LINE
  5
226
  8
0
  6
CONTINUOUS
 62
     7
 10
-53.49039264020168
 20
233.6475451610081
 30
0.0
 11
-53.48501562659733
 21
233.6714900899517
 31
0.0
  0
LINE
  5
227
  8
0
  6
CONTINUOUS
 62
     7
 10
-53.48501562659733
 20
233.6714900899517
 30
0.0
 11
-53.47847016786616
 21
233.6951423386272
 31
0.0
  0
LINE
  5
228
  8
0
  6
CONTINUOUS
 62
     7
 10
-53.47847016786616
 20
233.6951423386272
 30
0.0
 11
-53.47077203259157
 21
233.7184449266961
 31
0.0
  0
LINE
  5
229
  8
0
  6
CONTINUOUS
 62
     7
 10
-53.47077203259157
 20
233.7184449266961
 30
0.0
 11
-53.4619397662557
 21
233.7413417161826
 31
0.0
  0
LINE
  5
22A
  8
0
  6
CONTINUOUS
 62
     7
 10
-53.4619397662557
 20
233.7413417161826
 30
0.0
 11
-53.45199464656179
 21
233.7637775467152
 31
0.0
  0
LINE
  5
22B
  8
0
  6
CONTINUOUS
 62
     7
 10
-53.45199464656179
 20
233.7637775467152
 30
0.0
 11
-53.44096063217424
 21
233.785698368413
 31
0.0
  0
LINE
  5
22C
  8
0
  6
CONTINUOUS
 62
     7
 10
-53.44096063217424
 20
233.785698368413
 30
0.0
 11
-53.4288643050002
 21
233.8070513720967
 31
0.0
  0
LINE
  5
22D
  8
0
  6
CONTINUOUS
 62
     7
 10
-53.4288643050002
 20
233.8070513720967
 30
0.0
 11
-53.41573480615133
 21
233.8277851165098
 31
0.0
  0
LINE
  5
22E
  8
0
  6
CONTINUOUS
 62
     7
 10
-53.41573480615133
 20
233.8277851165098
 30
0.0
 11
-53.40160376574038
 21
233.8478496522463
 31
0.0
  0
LINE
  5
22F
  8
0
  6
CONTINUOUS
 62
     7
 10
-53.40160376574038
 20
233.8478496522463
 30
0.0
 11
-53.38650522668143
 21
233.8671966420819
 31
0.0
  0
LINE
  5
230
  8
0
  6
CONTINUOUS
 62
     7
 10
-53.38650522668143
 20
233.8671966420819
 30
0.0
 11
-53.37047556267753
 21
233.8857794774235
 31
0.0
  0
LINE
  5
231
  8
0
  6
CONTINUOUS
 62
     7
 10
-53.37047556267753
 20
233.8857794774235
 30
0.0
 11
-53.35355339059333
 21
233.9035533905933
 31
0.0
  0
LINE
  5
232
  8
0
  6
CONTINUOUS
 62
     7
 10
-53.35355339059333
 20
233.9035533905933
 30
0.0
 11
-53.33577947742357
 21
233.9204755626775
 31
0.0
  0
LINE
  5
233
  8
0
  6
CONTINUOUS
 62
     7
 10
-53.33577947742357
 20
233.9204755626775
 30
0.0
 11
-53.31719664208188
 21
233.9365052266814
 31
0.0
  0
LINE
  5
234
  8
0
  6
CONTINUOUS
 62
     7
 10
-53.31719664208188
 20
233.9365052266814
 30
0.0
 11
-53.29784965224628
 21
233.9516037657404
 31
0.0
  0
LINE
  5
235
  8
0
  6
CONTINUOUS
 62
     7
 10
-53.29784965224628
 20
233.9516037657404
 30
0.0
 11
-53.27778511650986
 21
233.9657348061513
 31
0.0
  0
LINE
  5
236
  8
0
  6
CONTINUOUS
 62
     7
 10
-53.27778511650986
 20
233.9657348061513
 30
0.0
 11
-53.25705137209667
 21
233.9788643050002
 31
0.0
  0
LINE
  5
237
  8
0
  6
CONTINUOUS
 62
     7
 10
-53.25705137209667
 20
233.9788643050002
 30
0.0
 11
-53.23569836841306
 21
233.9909606321742
 31
0.0
  0
LINE
  5
238
  8
0
  6
CONTINUOUS
 62
     7
 10
-53.23569836841306
 20
233.9909606321742
 30
0.0
 11
-53.21377754671521
 21
234.0019946465617
 31
0.0
  0
LINE
  5
239
  8
0
  6
CONTINUOUS
 62
     7
 10
-53.21377754671521
 20
234.0019946465617
 30
0.0
 11
-53.19134171618261
 21
234.0119397662557
 31
0.0
  0
LINE
  5
23A
  8
0
  6
CONTINUOUS
 62
     7
 10
-53.19134171618261
 20
234.0119397662557
 30
0.0
 11
-53.16844492669617
 21
234.0207720325915
 31
0.0
  0
LINE
  5
23B
  8
0
  6
CONTINUOUS
 62
     7
 10
-53.16844492669617
 20
234.0207720325915
 30
0.0
 11
-53.14514233862729
 21
234.0284701678661
 31
0.0
  0
LINE
  5
23C
  8
0
  6
CONTINUOUS
 62
     7
 10
-53.14514233862729
 20
234.0284701678661
 30
0.0
 11
-53.12149008995169
 21
234.0350156265973
 31
0.0
  0
LINE
  5
23D
  8
0
  6
CONTINUOUS
 62
     7
 10
-53.12149008995169
 20
234.0350156265973
 30
0.0
 11
-53.09754516100813
 21
234.0403926402016
 31
0.0
  0
LINE
  5
23E
  8
0
  6
CONTINUOUS
 62
     7
 10
-53.09754516100813
 20
234.0403926402016
 30
0.0
 11
-53.07336523722774
 21
234.0445882549824
 31
0.0
  0
LINE
  5
23F
  8
0
  6
CONTINUOUS
 62
     7
 10
-53.07336523722774
 20
234.0445882549824
 30
0.0
 11
-53.04900857016484
 21
234.0475923633361
 31
0.0
  0
LINE
  5
240
  8
0
  6
CONTINUOUS
 62
     7
 10
-53.04900857016484
 20
234.0475923633361
 30
0.0
 11
-53.02453383716377
 21
234.0493977281026
 31
0.0
  0
LINE
  5
241
  8
0
  6
CONTINUOUS
 62
     7
 10
-53.02453383716377
 20
234.0493977281026
 30
0.0
 11
-53.00000000000006
 21
234.05
 31
0.0
  0
LINE
  5
242
  8
0
  6
CONTINUOUS
 62
     7
 10
-53.50000000000006
 20
232.55
 30
0.0
 11
-53.50000000000006
 21
233.55
 31
0.0
  0
LINE
  5
243
  8
0
  6
CONTINUOUS
 62
     7
 10
-53.00000000000006
 20
232.05
 30
0.0
 11
-53.02453383716377
 21
232.0506022718974
 31
0.0
  0
LINE
  5
244
  8
0
  6
CONTINUOUS
 62
     7
 10
-53.02453383716377
 20
232.0506022718974
 30
0.0
 11
-53.04900857016484
 21
232.0524076366639
 31
0.0
  0
LINE
  5
245
  8
0
  6
CONTINUOUS
 62
     7
 10
-53.04900857016484
 20
232.0524076366639
 30
0.0
 11
-53.07336523722774
 21
232.0554117450176
 31
0.0
  0
LINE
  5
246
  8
0
  6
CONTINUOUS
 62
     7
 10
-53.07336523722774
 20
232.0554117450176
 30
0.0
 11
-53.09754516100813
 21
232.0596073597984
 31
0.0
  0
LINE
  5
247
  8
0
  6
CONTINUOUS
 62
     7
 10
-53.09754516100813
 20
232.0596073597984
 30
0.0
 11
-53.12149008995169
 21
232.0649843734028
 31
0.0
  0
LINE
  5
248
  8
0
  6
CONTINUOUS
 62
     7
 10
-53.12149008995169
 20
232.0649843734028
 30
0.0
 11
-53.14514233862729
 21
232.0715298321339
 31
0.0
  0
LINE
  5
249
  8
0
  6
CONTINUOUS
 62
     7
 10
-53.14514233862729
 20
232.0715298321339
 30
0.0
 11
-53.16844492669617
 21
232.0792279674085
 31
0.0
  0
LINE
  5
24A
  8
0
  6
CONTINUOUS
 62
     7
 10
-53.16844492669617
 20
232.0792279674085
 30
0.0
 11
-53.1913417161826
 21
232.0880602337444
 31
0.0
  0
LINE
  5
24B
  8
0
  6
CONTINUOUS
 62
     7
 10
-53.1913417161826
 20
232.0880602337444
 30
0.0
 11
-53.21377754671521
 21
232.0980053534383
 31
0.0
  0
LINE
  5
24C
  8
0
  6
CONTINUOUS
 62
     7
 10
-53.21377754671521
 20
232.0980053534383
 30
0.0
 11
-53.23569836841306
 21
232.1090393678258
 31
0.0
  0
LINE
  5
24D
  8
0
  6
CONTINUOUS
 62
     7
 10
-53.23569836841306
 20
232.1090393678258
 30
0.0
 11
-53.25705137209667
 21
232.1211356949999
 31
0.0
  0
LINE
  5
24E
  8
0
  6
CONTINUOUS
 62
     7
 10
-53.25705137209667
 20
232.1211356949999
 30
0.0
 11
-53.27778511650986
 21
232.1342651938487
 31
0.0
  0
LINE
  5
24F
  8
0
  6
CONTINUOUS
 62
     7
 10
-53.27778511650986
 20
232.1342651938487
 30
0.0
 11
-53.29784965224628
 21
232.1483962342597
 31
0.0
  0
LINE
  5
250
  8
0
  6
CONTINUOUS
 62
     7
 10
-53.29784965224628
 20
232.1483962342597
 30
0.0
 11
-53.31719664208188
 21
232.1634947733187
 31
0.0
  0
LINE
  5
251
  8
0
  6
CONTINUOUS
 62
     7
 10
-53.31719664208188
 20
232.1634947733187
 30
0.0
 11
-53.33577947742357
 21
232.1795244373225
 31
0.0
  0
LINE
  5
252
  8
0
  6
CONTINUOUS
 62
     7
 10
-53.33577947742357
 20
232.1795244373225
 30
0.0
 11
-53.35355339059333
 21
232.1964466094067
 31
0.0
  0
LINE
  5
253
  8
0
  6
CONTINUOUS
 62
     7
 10
-53.35355339059333
 20
232.1964466094067
 30
0.0
 11
-53.37047556267753
 21
232.2142205225765
 31
0.0
  0
LINE
  5
254
  8
0
  6
CONTINUOUS
 62
     7
 10
-53.37047556267753
 20
232.2142205225765
 30
0.0
 11
-53.38650522668143
 21
232.2328033579182
 31
0.0
  0
LINE
  5
255
  8
0
  6
CONTINUOUS
 62
     7
 10
-53.38650522668143
 20
232.2328033579182
 30
0.0
 11
-53.40160376574038
 21
232.2521503477538
 31
0.0
  0
LINE
  5
256
  8
0
  6
CONTINUOUS
 62
     7
 10
-53.40160376574038
 20
232.2521503477538
 30
0.0
 11
-53.41573480615133
 21
232.2722148834902
 31
0.0
  0
LINE
  5
257
  8
0
  6
CONTINUOUS
 62
     7
 10
-53.41573480615133
 20
232.2722148834902
 30
0.0
 11
-53.4288643050002
 21
232.2929486279034
 31
0.0
  0
LINE
  5
258
  8
0
  6
CONTINUOUS
 62
     7
 10
-53.4288643050002
 20
232.2929486279034
 30
0.0
 11
-53.44096063217424
 21
232.314301631587
 31
0.0
  0
LINE
  5
259
  8
0
  6
CONTINUOUS
 62
     7
 10
-53.44096063217424
 20
232.314301631587
 30
0.0
 11
-53.45199464656179
 21
232.3362224532849
 31
0.0
  0
LINE
  5
25A
  8
0
  6
CONTINUOUS
 62
     7
 10
-53.45199464656179
 20
232.3362224532849
 30
0.0
 11
-53.4619397662557
 21
232.3586582838175
 31
0.0
  0
LINE
  5
25B
  8
0
  6
CONTINUOUS
 62
     7
 10
-53.4619397662557
 20
232.3586582838175
 30
0.0
 11
-53.47077203259157
 21
232.3815550733039
 31
0.0
  0
LINE
  5
25C
  8
0
  6
CONTINUOUS
 62
     7
 10
-53.47077203259157
 20
232.3815550733039
 30
0.0
 11
-53.47847016786616
 21
232.4048576613728
 31
0.0
  0
LINE
  5
25D
  8
0
  6
CONTINUOUS
 62
     7
 10
-53.47847016786616
 20
232.4048576613728
 30
0.0
 11
-53.48501562659733
 21
232.4285099100484
 31
0.0
  0
LINE
  5
25E
  8
0
  6
CONTINUOUS
 62
     7
 10
-53.48501562659733
 20
232.4285099100484
 30
0.0
 11
-53.49039264020168
 21
232.452454838992
 31
0.0
  0
LINE
  5
25F
  8
0
  6
CONTINUOUS
 62
     7
 10
-53.49039264020168
 20
232.452454838992
 30
0.0
 11
-53.49458825498245
 21
232.4766347627724
 31
0.0
  0
LINE
  5
260
  8
0
  6
CONTINUOUS
 62
     7
 10
-53.49458825498245
 20
232.4766347627724
 30
0.0
 11
-53.49759236333615
 21
232.5009914298352
 31
0.0
  0
LINE
  5
261
  8
0
  6
CONTINUOUS
 62
     7
 10
-53.49759236333615
 20
232.5009914298352
 30
0.0
 11
-53.49939772810264
 21
232.5254661628363
 31
0.0
  0
LINE
  5
262
  8
0
  6
CONTINUOUS
 62
     7
 10
-53.49939772810264
 20
232.5254661628363
 30
0.0
 11
-53.50000000000006
 21
232.55
 31
0.0
  0
LINE
  5
263
  8
0
  6
CONTINUOUS
 62
     7
 10
-52.50000000000006
 20
232.05
 30
0.0
 11
-53.00000000000006
 21
232.05
 31
0.0
  0
LINE
  5
264
  8
0
  6
CONTINUOUS
 62
     7
 10
-52.50000000000006
 20
232.05
 30
0.0
 11
-52.50000000000006
 21
216.05
 31
0.0
  0
LINE
  5
265
  8
0
  6
CONTINUOUS
 62
     7
 10
-53.00000000000006
 20
216.05
 30
0.0
 11
-52.50000000000006
 21
216.05
 31
0.0
  0
LINE
  5
266
  8
0
  6
CONTINUOUS
 62
     7
 10
-53.50000000000006
 20
215.55
 30
0.0
 11
-53.49939772810264
 21
215.5745338371637
 31
0.0
  0
LINE
  5
267
  8
0
  6
CONTINUOUS
 62
     7
 10
-53.49939772810264
 20
215.5745338371637
 30
0.0
 11
-53.49759236333615
 21
215.5990085701648
 31
0.0
  0
LINE
  5
268
  8
0
  6
CONTINUOUS
 62
     7
 10
-53.49759236333615
 20
215.5990085701648
 30
0.0
 11
-53.49458825498245
 21
215.6233652372277
 31
0.0
  0
LINE
  5
269
  8
0
  6
CONTINUOUS
 62
     7
 10
-53.49458825498245
 20
215.6233652372277
 30
0.0
 11
-53.49039264020168
 21
215.6475451610081
 31
0.0
  0
LINE
  5
26A
  8
0
  6
CONTINUOUS
 62
     7
 10
-53.49039264020168
 20
215.6475451610081
 30
0.0
 11
-53.48501562659733
 21
215.6714900899516
 31
0.0
  0
LINE
  5
26B
  8
0
  6
CONTINUOUS
 62
     7
 10
-53.48501562659733
 20
215.6714900899516
 30
0.0
 11
-53.47847016786616
 21
215.6951423386273
 31
0.0
  0
LINE
  5
26C
  8
0
  6
CONTINUOUS
 62
     7
 10
-53.47847016786616
 20
215.6951423386273
 30
0.0
 11
-53.47077203259157
 21
215.7184449266962
 31
0.0
  0
LINE
  5
26D
  8
0
  6
CONTINUOUS
 62
     7
 10
-53.47077203259157
 20
215.7184449266962
 30
0.0
 11
-53.4619397662557
 21
215.7413417161826
 31
0.0
  0
LINE
  5
26E
  8
0
  6
CONTINUOUS
 62
     7
 10
-53.4619397662557
 20
215.7413417161826
 30
0.0
 11
-53.45199464656179
 21
215.7637775467151
 31
0.0
  0
LINE
  5
26F
  8
0
  6
CONTINUOUS
 62
     7
 10
-53.45199464656179
 20
215.7637775467151
 30
0.0
 11
-53.44096063217424
 21
215.785698368413
 31
0.0
  0
LINE
  5
270
  8
0
  6
CONTINUOUS
 62
     7
 10
-53.44096063217424
 20
215.785698368413
 30
0.0
 11
-53.4288643050002
 21
215.8070513720966
 31
0.0
  0
LINE
  5
271
  8
0
  6
CONTINUOUS
 62
     7
 10
-53.4288643050002
 20
215.8070513720966
 30
0.0
 11
-53.41573480615133
 21
215.8277851165098
 31
0.0
  0
LINE
  5
272
  8
0
  6
CONTINUOUS
 62
     7
 10
-53.41573480615133
 20
215.8277851165098
 30
0.0
 11
-53.40160376574038
 21
215.8478496522462
 31
0.0
  0
LINE
  5
273
  8
0
  6
CONTINUOUS
 62
     7
 10
-53.40160376574038
 20
215.8478496522462
 30
0.0
 11
-53.38650522668143
 21
215.8671966420818
 31
0.0
  0
LINE
  5
274
  8
0
  6
CONTINUOUS
 62
     7
 10
-53.38650522668143
 20
215.8671966420818
 30
0.0
 11
-53.37047556267753
 21
215.8857794774235
 31
0.0
  0
LINE
  5
275
  8
0
  6
CONTINUOUS
 62
     7
 10
-53.37047556267753
 20
215.8857794774235
 30
0.0
 11
-53.35355339059333
 21
215.9035533905933
 31
0.0
  0
LINE
  5
276
  8
0
  6
CONTINUOUS
 62
     7
 10
-53.35355339059333
 20
215.9035533905933
 30
0.0
 11
-53.33577947742357
 21
215.9204755626775
 31
0.0
  0
LINE
  5
277
  8
0
  6
CONTINUOUS
 62
     7
 10
-53.33577947742357
 20
215.9204755626775
 30
0.0
 11
-53.31719664208188
 21
215.9365052266814
 31
0.0
  0
LINE
  5
278
  8
0
  6
CONTINUOUS
 62
     7
 10
-53.31719664208188
 20
215.9365052266814
 30
0.0
 11
-53.29784965224628
 21
215.9516037657403
 31
0.0
  0
LINE
  5
279
  8
0
  6
CONTINUOUS
 62
     7
 10
-53.29784965224628
 20
215.9516037657403
 30
0.0
 11
-53.27778511650986
 21
215.9657348061513
 31
0.0
  0
LINE
  5
27A
  8
0
  6
CONTINUOUS
 62
     7
 10
-53.27778511650986
 20
215.9657348061513
 30
0.0
 11
-53.25705137209667
 21
215.9788643050001
 31
0.0
  0
LINE
  5
27B
  8
0
  6
CONTINUOUS
 62
     7
 10
-53.25705137209667
 20
215.9788643050001
 30
0.0
 11
-53.23569836841306
 21
215.9909606321742
 31
0.0
  0
LINE
  5
27C
  8
0
  6
CONTINUOUS
 62
     7
 10
-53.23569836841306
 20
215.9909606321742
 30
0.0
 11
-53.21377754671521
 21
216.0019946465617
 31
0.0
  0
LINE
  5
27D
  8
0
  6
CONTINUOUS
 62
     7
 10
-53.21377754671521
 20
216.0019946465617
 30
0.0
 11
-53.19134171618261
 21
216.0119397662557
 31
0.0
  0
LINE
  5
27E
  8
0
  6
CONTINUOUS
 62
     7
 10
-53.19134171618261
 20
216.0119397662557
 30
0.0
 11
-53.16844492669617
 21
216.0207720325915
 31
0.0
  0
LINE
  5
27F
  8
0
  6
CONTINUOUS
 62
     7
 10
-53.16844492669617
 20
216.0207720325915
 30
0.0
 11
-53.14514233862729
 21
216.0284701678661
 31
0.0
  0
LINE
  5
280
  8
0
  6
CONTINUOUS
 62
     7
 10
-53.14514233862729
 20
216.0284701678661
 30
0.0
 11
-53.12149008995169
 21
216.0350156265973
 31
0.0
  0
LINE
  5
281
  8
0
  6
CONTINUOUS
 62
     7
 10
-53.12149008995169
 20
216.0350156265973
 30
0.0
 11
-53.09754516100813
 21
216.0403926402016
 31
0.0
  0
LINE
  5
282
  8
0
  6
CONTINUOUS
 62
     7
 10
-53.09754516100813
 20
216.0403926402016
 30
0.0
 11
-53.07336523722774
 21
216.0445882549824
 31
0.0
  0
LINE
  5
283
  8
0
  6
CONTINUOUS
 62
     7
 10
-53.07336523722774
 20
216.0445882549824
 30
0.0
 11
-53.04900857016484
 21
216.0475923633361
 31
0.0
  0
LINE
  5
284
  8
0
  6
CONTINUOUS
 62
     7
 10
-53.04900857016484
 20
216.0475923633361
 30
0.0
 11
-53.02453383716377
 21
216.0493977281026
 31
0.0
  0
LINE
  5
285
  8
0
  6
CONTINUOUS
 62
     7
 10
-53.02453383716377
 20
216.0493977281026
 30
0.0
 11
-53.00000000000006
 21
216.05
 31
0.0
  0
LINE
  5
286
  8
0
  6
CONTINUOUS
 62
     7
 10
-53.50000000000006
 20
214.55
 30
0.0
 11
-53.50000000000006
 21
215.55
 31
0.0
  0
LINE
  5
287
  8
0
  6
CONTINUOUS
 62
     7
 10
-53.00000000000006
 20
214.05
 30
0.0
 11
-53.02453383716377
 21
214.0506022718974
 31
0.0
  0
LINE
  5
288
  8
0
  6
CONTINUOUS
 62
     7
 10
-53.02453383716377
 20
214.0506022718974
 30
0.0
 11
-53.04900857016484
 21
214.0524076366639
 31
0.0
  0
LINE
  5
289
  8
0
  6
CONTINUOUS
 62
     7
 10
-53.04900857016484
 20
214.0524076366639
 30
0.0
 11
-53.07336523722774
 21
214.0554117450176
 31
0.0
  0
LINE
  5
28A
  8
0
  6
CONTINUOUS
 62
     7
 10
-53.07336523722774
 20
214.0554117450176
 30
0.0
 11
-53.09754516100813
 21
214.0596073597984
 31
0.0
  0
LINE
  5
28B
  8
0
  6
CONTINUOUS
 62
     7
 10
-53.09754516100813
 20
214.0596073597984
 30
0.0
 11
-53.12149008995169
 21
214.0649843734028
 31
0.0
  0
LINE
  5
28C
  8
0
  6
CONTINUOUS
 62
     7
 10
-53.12149008995169
 20
214.0649843734028
 30
0.0
 11
-53.14514233862729
 21
214.0715298321339
 31
0.0
  0
LINE
  5
28D
  8
0
  6
CONTINUOUS
 62
     7
 10
-53.14514233862729
 20
214.0715298321339
 30
0.0
 11
-53.16844492669617
 21
214.0792279674085
 31
0.0
  0
LINE
  5
28E
  8
0
  6
CONTINUOUS
 62
     7
 10
-53.16844492669617
 20
214.0792279674085
 30
0.0
 11
-53.1913417161826
 21
214.0880602337444
 31
0.0
  0
LINE
  5
28F
  8
0
  6
CONTINUOUS
 62
     7
 10
-53.1913417161826
 20
214.0880602337444
 30
0.0
 11
-53.21377754671521
 21
214.0980053534383
 31
0.0
  0
LINE
  5
290
  8
0
  6
CONTINUOUS
 62
     7
 10
-53.21377754671521
 20
214.0980053534383
 30
0.0
 11
-53.23569836841306
 21
214.1090393678259
 31
0.0
  0
LINE
  5
291
  8
0
  6
CONTINUOUS
 62
     7
 10
-53.23569836841306
 20
214.1090393678259
 30
0.0
 11
-53.25705137209667
 21
214.1211356949999
 31
0.0
  0
LINE
  5
292
  8
0
  6
CONTINUOUS
 62
     7
 10
-53.25705137209667
 20
214.1211356949999
 30
0.0
 11
-53.27778511650986
 21
214.1342651938488
 31
0.0
  0
LINE
  5
293
  8
0
  6
CONTINUOUS
 62
     7
 10
-53.27778511650986
 20
214.1342651938488
 30
0.0
 11
-53.29784965224628
 21
214.1483962342597
 31
0.0
  0
LINE
  5
294
  8
0
  6
CONTINUOUS
 62
     7
 10
-53.29784965224628
 20
214.1483962342597
 30
0.0
 11
-53.31719664208188
 21
214.1634947733187
 31
0.0
  0
LINE
  5
295
  8
0
  6
CONTINUOUS
 62
     7
 10
-53.31719664208188
 20
214.1634947733187
 30
0.0
 11
-53.33577947742357
 21
214.1795244373226
 31
0.0
  0
LINE
  5
296
  8
0
  6
CONTINUOUS
 62
     7
 10
-53.33577947742357
 20
214.1795244373226
 30
0.0
 11
-53.35355339059333
 21
214.1964466094068
 31
0.0
  0
LINE
  5
297
  8
0
  6
CONTINUOUS
 62
     7
 10
-53.35355339059333
 20
214.1964466094068
 30
0.0
 11
-53.37047556267753
 21
214.2142205225765
 31
0.0
  0
LINE
  5
298
  8
0
  6
CONTINUOUS
 62
     7
 10
-53.37047556267753
 20
214.2142205225765
 30
0.0
 11
-53.38650522668143
 21
214.2328033579182
 31
0.0
  0
LINE
  5
299
  8
0
  6
CONTINUOUS
 62
     7
 10
-53.38650522668143
 20
214.2328033579182
 30
0.0
 11
-53.40160376574038
 21
214.2521503477538
 31
0.0
  0
LINE
  5
29A
  8
0
  6
CONTINUOUS
 62
     7
 10
-53.40160376574038
 20
214.2521503477538
 30
0.0
 11
-53.41573480615133
 21
214.2722148834902
 31
0.0
  0
LINE
  5
29B
  8
0
  6
CONTINUOUS
 62
     7
 10
-53.41573480615133
 20
214.2722148834902
 30
0.0
 11
-53.4288643050002
 21
214.2929486279034
 31
0.0
  0
LINE
  5
29C
  8
0
  6
CONTINUOUS
 62
     7
 10
-53.4288643050002
 20
214.2929486279034
 30
0.0
 11
-53.44096063217424
 21
214.314301631587
 31
0.0
  0
LINE
  5
29D
  8
0
  6
CONTINUOUS
 62
     7
 10
-53.44096063217424
 20
214.314301631587
 30
0.0
 11
-53.45199464656179
 21
214.3362224532849
 31
0.0
  0
LINE
  5
29E
  8
0
  6
CONTINUOUS
 62
     7
 10
-53.45199464656179
 20
214.3362224532849
 30
0.0
 11
-53.4619397662557
 21
214.3586582838175
 31
0.0
  0
LINE
  5
29F
  8
0
  6
CONTINUOUS
 62
     7
 10
-53.4619397662557
 20
214.3586582838175
 30
0.0
 11
-53.47077203259157
 21
214.3815550733039
 31
0.0
  0
LINE
  5
2A0
  8
0
  6
CONTINUOUS
 62
     7
 10
-53.47077203259157
 20
214.3815550733039
 30
0.0
 11
-53.47847016786616
 21
214.4048576613728
 31
0.0
  0
LINE
  5
2A1
  8
0
  6
CONTINUOUS
 62
     7
 10
-53.47847016786616
 20
214.4048576613728
 30
0.0
 11
-53.48501562659733
 21
214.4285099100484
 31
0.0
  0
LINE
  5
2A2
  8
0
  6
CONTINUOUS
 62
     7
 10
-53.48501562659733
 20
214.4285099100484
 30
0.0
 11
-53.49039264020168
 21
214.452454838992
 31
0.0
  0
LINE
  5
2A3
  8
0
  6
CONTINUOUS
 62
     7
 10
-53.49039264020168
 20
214.452454838992
 30
0.0
 11
-53.49458825498245
 21
214.4766347627723
 31
0.0
  0
LINE
  5
2A4
  8
0
  6
CONTINUOUS
 62
     7
 10
-53.49458825498245
 20
214.4766347627723
 30
0.0
 11
-53.49759236333615
 21
214.5009914298352
 31
0.0
  0
LINE
  5
2A5
  8
0
  6
CONTINUOUS
 62
     7
 10
-53.49759236333615
 20
214.5009914298352
 30
0.0
 11
-53.49939772810264
 21
214.5254661628363
 31
0.0
  0
LINE
  5
2A6
  8
0
  6
CONTINUOUS
 62
     7
 10
-53.49939772810264
 20
214.5254661628363
 30
0.0
 11
-53.50000000000006
 21
214.55
 31
0.0
  0
LINE
  5
2A7
  8
0
  6
CONTINUOUS
 62
     7
 10
-52.50000000000006
 20
214.05
 30
0.0
 11
-53.00000000000006
 21
214.05
 31
0.0
  0
LINE
  5
2A8
  8
0
  6
CONTINUOUS
 62
     7
 10
-67.50000000000004
 20
199.55
 30
0.0
 11
-67.50000000000004
 21
199.05
 31
0.0
  0
LINE
  5
2A9
  8
0
  6
CONTINUOUS
 62
     7
 10
-68.00000000000004
 20
200.05
 30
0.0
 11
-67.97546616283634
 21
200.0493977281026
 31
0.0
  0
LINE
  5
2AA
  8
0
  6
CONTINUOUS
 62
     7
 10
-67.97546616283634
 20
200.0493977281026
 30
0.0
 11
-67.95099142983527
 21
200.0475923633361
 31
0.0
  0
LINE
  5
2AB
  8
0
  6
CONTINUOUS
 62
     7
 10
-67.95099142983527
 20
200.0475923633361
 30
0.0
 11
-67.92663476277237
 21
200.0445882549824
 31
0.0
  0
LINE
  5
2AC
  8
0
  6
CONTINUOUS
 62
     7
 10
-67.92663476277237
 20
200.0445882549824
 30
0.0
 11
-67.90245483899199
 21
200.0403926402016
 31
0.0
  0
LINE
  5
2AD
  8
0
  6
CONTINUOUS
 62
     7
 10
-67.90245483899199
 20
200.0403926402016
 30
0.0
 11
-67.87850991004841
 21
200.0350156265973
 31
0.0
  0
LINE
  5
2AE
  8
0
  6
CONTINUOUS
 62
     7
 10
-67.87850991004841
 20
200.0350156265973
 30
0.0
 11
-67.85485766137282
 21
200.0284701678661
 31
0.0
  0
LINE
  5
2AF
  8
0
  6
CONTINUOUS
 62
     7
 10
-67.85485766137282
 20
200.0284701678661
 30
0.0
 11
-67.83155507330393
 21
200.0207720325915
 31
0.0
  0
LINE
  5
2B0
  8
0
  6
CONTINUOUS
 62
     7
 10
-67.83155507330393
 20
200.0207720325915
 30
0.0
 11
-67.80865828381751
 21
200.0119397662557
 31
0.0
  0
LINE
  5
2B1
  8
0
  6
CONTINUOUS
 62
     7
 10
-67.80865828381751
 20
200.0119397662557
 30
0.0
 11
-67.78622245328492
 21
200.0019946465617
 31
0.0
  0
LINE
  5
2B2
  8
0
  6
CONTINUOUS
 62
     7
 10
-67.78622245328492
 20
200.0019946465617
 30
0.0
 11
-67.76430163158706
 21
199.9909606321742
 31
0.0
  0
LINE
  5
2B3
  8
0
  6
CONTINUOUS
 62
     7
 10
-67.76430163158706
 20
199.9909606321742
 30
0.0
 11
-67.74294862790343
 21
199.9788643050002
 31
0.0
  0
LINE
  5
2B4
  8
0
  6
CONTINUOUS
 62
     7
 10
-67.74294862790343
 20
199.9788643050002
 30
0.0
 11
-67.72221488349025
 21
199.9657348061513
 31
0.0
  0
LINE
  5
2B5
  8
0
  6
CONTINUOUS
 62
     7
 10
-67.72221488349025
 20
199.9657348061513
 30
0.0
 11
-67.70215034775383
 21
199.9516037657403
 31
0.0
  0
LINE
  5
2B6
  8
0
  6
CONTINUOUS
 62
     7
 10
-67.70215034775383
 20
199.9516037657403
 30
0.0
 11
-67.68280335791822
 21
199.9365052266814
 31
0.0
  0
LINE
  5
2B7
  8
0
  6
CONTINUOUS
 62
     7
 10
-67.68280335791822
 20
199.9365052266814
 30
0.0
 11
-67.66422052257653
 21
199.9204755626775
 31
0.0
  0
LINE
  5
2B8
  8
0
  6
CONTINUOUS
 62
     7
 10
-67.66422052257653
 20
199.9204755626775
 30
0.0
 11
-67.64644660940677
 21
199.9035533905933
 31
0.0
  0
LINE
  5
2B9
  8
0
  6
CONTINUOUS
 62
     7
 10
-67.64644660940677
 20
199.9035533905933
 30
0.0
 11
-67.62952443732256
 21
199.8857794774235
 31
0.0
  0
LINE
  5
2BA
  8
0
  6
CONTINUOUS
 62
     7
 10
-67.62952443732256
 20
199.8857794774235
 30
0.0
 11
-67.61349477331868
 21
199.8671966420819
 31
0.0
  0
LINE
  5
2BB
  8
0
  6
CONTINUOUS
 62
     7
 10
-67.61349477331868
 20
199.8671966420819
 30
0.0
 11
-67.59839623425972
 21
199.8478496522463
 31
0.0
  0
LINE
  5
2BC
  8
0
  6
CONTINUOUS
 62
     7
 10
-67.59839623425972
 20
199.8478496522463
 30
0.0
 11
-67.58426519384878
 21
199.8277851165098
 31
0.0
  0
LINE
  5
2BD
  8
0
  6
CONTINUOUS
 62
     7
 10
-67.58426519384878
 20
199.8277851165098
 30
0.0
 11
-67.57113569499991
 21
199.8070513720967
 31
0.0
  0
LINE
  5
2BE
  8
0
  6
CONTINUOUS
 62
     7
 10
-67.57113569499991
 20
199.8070513720967
 30
0.0
 11
-67.55903936782586
 21
199.785698368413
 31
0.0
  0
LINE
  5
2BF
  8
0
  6
CONTINUOUS
 62
     7
 10
-67.55903936782586
 20
199.785698368413
 30
0.0
 11
-67.54800535343833
 21
199.7637775467152
 31
0.0
  0
LINE
  5
2C0
  8
0
  6
CONTINUOUS
 62
     7
 10
-67.54800535343833
 20
199.7637775467152
 30
0.0
 11
-67.5380602337444
 21
199.7413417161826
 31
0.0
  0
LINE
  5
2C1
  8
0
  6
CONTINUOUS
 62
     7
 10
-67.5380602337444
 20
199.7413417161826
 30
0.0
 11
-67.52922796740854
 21
199.7184449266961
 31
0.0
  0
LINE
  5
2C2
  8
0
  6
CONTINUOUS
 62
     7
 10
-67.52922796740854
 20
199.7184449266961
 30
0.0
 11
-67.52152983213394
 21
199.6951423386272
 31
0.0
  0
LINE
  5
2C3
  8
0
  6
CONTINUOUS
 62
     7
 10
-67.52152983213394
 20
199.6951423386272
 30
0.0
 11
-67.51498437340278
 21
199.6714900899516
 31
0.0
  0
LINE
  5
2C4
  8
0
  6
CONTINUOUS
 62
     7
 10
-67.51498437340278
 20
199.6714900899516
 30
0.0
 11
-67.50960735979844
 21
199.6475451610081
 31
0.0
  0
LINE
  5
2C5
  8
0
  6
CONTINUOUS
 62
     7
 10
-67.50960735979844
 20
199.6475451610081
 30
0.0
 11
-67.50541174501765
 21
199.6233652372277
 31
0.0
  0
LINE
  5
2C6
  8
0
  6
CONTINUOUS
 62
     7
 10
-67.50541174501765
 20
199.6233652372277
 30
0.0
 11
-67.50240763666396
 21
199.5990085701648
 31
0.0
  0
LINE
  5
2C7
  8
0
  6
CONTINUOUS
 62
     7
 10
-67.50240763666396
 20
199.5990085701648
 30
0.0
 11
-67.50060227189746
 21
199.5745338371637
 31
0.0
  0
LINE
  5
2C8
  8
0
  6
CONTINUOUS
 62
     7
 10
-67.50060227189746
 20
199.5745338371637
 30
0.0
 11
-67.50000000000004
 21
199.55
 31
0.0
  0
LINE
  5
2C9
  8
0
  6
CONTINUOUS
 62
     7
 10
-69.00000000000004
 20
200.05
 30
0.0
 11
-68.00000000000004
 21
200.05
 31
0.0
  0
LINE
  5
2CA
  8
0
  6
CONTINUOUS
 62
     7
 10
-69.50000000000004
 20
199.55
 30
0.0
 11
-69.49939772810264
 21
199.5745338371637
 31
0.0
  0
LINE
  5
2CB
  8
0
  6
CONTINUOUS
 62
     7
 10
-69.49939772810264
 20
199.5745338371637
 30
0.0
 11
-69.49759236333615
 21
199.5990085701648
 31
0.0
  0
LINE
  5
2CC
  8
0
  6
CONTINUOUS
 62
     7
 10
-69.49759236333615
 20
199.5990085701648
 30
0.0
 11
-69.49458825498245
 21
199.6233652372277
 31
0.0
  0
LINE
  5
2CD
  8
0
  6
CONTINUOUS
 62
     7
 10
-69.49458825498245
 20
199.6233652372277
 30
0.0
 11
-69.49039264020166
 21
199.6475451610081
 31
0.0
  0
LINE
  5
2CE
  8
0
  6
CONTINUOUS
 62
     7
 10
-69.49039264020166
 20
199.6475451610081
 30
0.0
 11
-69.48501562659733
 21
199.6714900899516
 31
0.0
  0
LINE
  5
2CF
  8
0
  6
CONTINUOUS
 62
     7
 10
-69.48501562659733
 20
199.6714900899516
 30
0.0
 11
-69.47847016786615
 21
199.6951423386272
 31
0.0
  0
LINE
  5
2D0
  8
0
  6
CONTINUOUS
 62
     7
 10
-69.47847016786615
 20
199.6951423386272
 30
0.0
 11
-69.47077203259155
 21
199.7184449266961
 31
0.0
  0
LINE
  5
2D1
  8
0
  6
CONTINUOUS
 62
     7
 10
-69.47077203259155
 20
199.7184449266961
 30
0.0
 11
-69.4619397662557
 21
199.7413417161826
 31
0.0
  0
LINE
  5
2D2
  8
0
  6
CONTINUOUS
 62
     7
 10
-69.4619397662557
 20
199.7413417161826
 30
0.0
 11
-69.45199464656176
 21
199.7637775467152
 31
0.0
  0
LINE
  5
2D3
  8
0
  6
CONTINUOUS
 62
     7
 10
-69.45199464656176
 20
199.7637775467152
 30
0.0
 11
-69.44096063217422
 21
199.785698368413
 31
0.0
  0
LINE
  5
2D4
  8
0
  6
CONTINUOUS
 62
     7
 10
-69.44096063217422
 20
199.785698368413
 30
0.0
 11
-69.42886430500019
 21
199.8070513720967
 31
0.0
  0
LINE
  5
2D5
  8
0
  6
CONTINUOUS
 62
     7
 10
-69.42886430500019
 20
199.8070513720967
 30
0.0
 11
-69.41573480615132
 21
199.8277851165098
 31
0.0
  0
LINE
  5
2D6
  8
0
  6
CONTINUOUS
 62
     7
 10
-69.41573480615132
 20
199.8277851165098
 30
0.0
 11
-69.40160376574036
 21
199.8478496522463
 31
0.0
  0
LINE
  5
2D7
  8
0
  6
CONTINUOUS
 62
     7
 10
-69.40160376574036
 20
199.8478496522463
 30
0.0
 11
-69.38650522668141
 21
199.8671966420819
 31
0.0
  0
LINE
  5
2D8
  8
0
  6
CONTINUOUS
 62
     7
 10
-69.38650522668141
 20
199.8671966420819
 30
0.0
 11
-69.37047556267753
 21
199.8857794774235
 31
0.0
  0
LINE
  5
2D9
  8
0
  6
CONTINUOUS
 62
     7
 10
-69.37047556267753
 20
199.8857794774235
 30
0.0
 11
-69.35355339059332
 21
199.9035533905933
 31
0.0
  0
LINE
  5
2DA
  8
0
  6
CONTINUOUS
 62
     7
 10
-69.35355339059332
 20
199.9035533905933
 30
0.0
 11
-69.33577947742356
 21
199.9204755626775
 31
0.0
  0
LINE
  5
2DB
  8
0
  6
CONTINUOUS
 62
     7
 10
-69.33577947742356
 20
199.9204755626775
 30
0.0
 11
-69.31719664208187
 21
199.9365052266814
 31
0.0
  0
LINE
  5
2DC
  8
0
  6
CONTINUOUS
 62
     7
 10
-69.31719664208187
 20
199.9365052266814
 30
0.0
 11
-69.29784965224627
 21
199.9516037657403
 31
0.0
  0
LINE
  5
2DD
  8
0
  6
CONTINUOUS
 62
     7
 10
-69.29784965224627
 20
199.9516037657403
 30
0.0
 11
-69.27778511650985
 21
199.9657348061513
 31
0.0
  0
LINE
  5
2DE
  8
0
  6
CONTINUOUS
 62
     7
 10
-69.27778511650985
 20
199.9657348061513
 30
0.0
 11
-69.25705137209665
 21
199.9788643050002
 31
0.0
  0
LINE
  5
2DF
  8
0
  6
CONTINUOUS
 62
     7
 10
-69.25705137209665
 20
199.9788643050002
 30
0.0
 11
-69.23569836841305
 21
199.9909606321742
 31
0.0
  0
LINE
  5
2E0
  8
0
  6
CONTINUOUS
 62
     7
 10
-69.23569836841305
 20
199.9909606321742
 30
0.0
 11
-69.21377754671519
 21
200.0019946465617
 31
0.0
  0
LINE
  5
2E1
  8
0
  6
CONTINUOUS
 62
     7
 10
-69.21377754671519
 20
200.0019946465617
 30
0.0
 11
-69.1913417161826
 21
200.0119397662557
 31
0.0
  0
LINE
  5
2E2
  8
0
  6
CONTINUOUS
 62
     7
 10
-69.1913417161826
 20
200.0119397662557
 30
0.0
 11
-69.16844492669615
 21
200.0207720325915
 31
0.0
  0
LINE
  5
2E3
  8
0
  6
CONTINUOUS
 62
     7
 10
-69.16844492669615
 20
200.0207720325915
 30
0.0
 11
-69.14514233862728
 21
200.0284701678661
 31
0.0
  0
LINE
  5
2E4
  8
0
  6
CONTINUOUS
 62
     7
 10
-69.14514233862728
 20
200.0284701678661
 30
0.0
 11
-69.12149008995168
 21
200.0350156265973
 31
0.0
  0
LINE
  5
2E5
  8
0
  6
CONTINUOUS
 62
     7
 10
-69.12149008995168
 20
200.0350156265973
 30
0.0
 11
-69.09754516100811
 21
200.0403926402016
 31
0.0
  0
LINE
  5
2E6
  8
0
  6
CONTINUOUS
 62
     7
 10
-69.09754516100811
 20
200.0403926402016
 30
0.0
 11
-69.07336523722773
 21
200.0445882549824
 31
0.0
  0
LINE
  5
2E7
  8
0
  6
CONTINUOUS
 62
     7
 10
-69.07336523722773
 20
200.0445882549824
 30
0.0
 11
-69.04900857016483
 21
200.0475923633361
 31
0.0
  0
LINE
  5
2E8
  8
0
  6
CONTINUOUS
 62
     7
 10
-69.04900857016483
 20
200.0475923633361
 30
0.0
 11
-69.02453383716376
 21
200.0493977281026
 31
0.0
  0
LINE
  5
2E9
  8
0
  6
CONTINUOUS
 62
     7
 10
-69.02453383716376
 20
200.0493977281026
 30
0.0
 11
-69.00000000000004
 21
200.05
 31
0.0
  0
LINE
  5
2EA
  8
0
  6
CONTINUOUS
 62
     7
 10
-86.00000000000004
 20
200.05
 30
0.0
 11
-85.97546616283634
 21
200.0493977281026
 31
0.0
  0
LINE
  5
2EB
  8
0
  6
CONTINUOUS
 62
     7
 10
-85.97546616283634
 20
200.0493977281026
 30
0.0
 11
-85.95099142983527
 21
200.0475923633361
 31
0.0
  0
LINE
  5
2EC
  8
0
  6
CONTINUOUS
 62
     7
 10
-85.95099142983527
 20
200.0475923633361
 30
0.0
 11
-85.92663476277237
 21
200.0445882549824
 31
0.0
  0
LINE
  5
2ED
  8
0
  6
CONTINUOUS
 62
     7
 10
-85.92663476277237
 20
200.0445882549824
 30
0.0
 11
-85.90245483899199
 21
200.0403926402016
 31
0.0
  0
LINE
  5
2EE
  8
0
  6
CONTINUOUS
 62
     7
 10
-85.90245483899199
 20
200.0403926402016
 30
0.0
 11
-85.87850991004842
 21
200.0350156265973
 31
0.0
  0
LINE
  5
2EF
  8
0
  6
CONTINUOUS
 62
     7
 10
-85.87850991004842
 20
200.0350156265973
 30
0.0
 11
-85.85485766137282
 21
200.0284701678661
 31
0.0
  0
LINE
  5
2F0
  8
0
  6
CONTINUOUS
 62
     7
 10
-85.85485766137282
 20
200.0284701678661
 30
0.0
 11
-85.83155507330393
 21
200.0207720325915
 31
0.0
  0
LINE
  5
2F1
  8
0
  6
CONTINUOUS
 62
     7
 10
-85.83155507330393
 20
200.0207720325915
 30
0.0
 11
-85.80865828381751
 21
200.0119397662557
 31
0.0
  0
LINE
  5
2F2
  8
0
  6
CONTINUOUS
 62
     7
 10
-85.80865828381751
 20
200.0119397662557
 30
0.0
 11
-85.7862224532849
 21
200.0019946465618
 31
0.0
  0
LINE
  5
2F3
  8
0
  6
CONTINUOUS
 62
     7
 10
-85.7862224532849
 20
200.0019946465618
 30
0.0
 11
-85.76430163158705
 21
199.9909606321742
 31
0.0
  0
LINE
  5
2F4
  8
0
  6
CONTINUOUS
 62
     7
 10
-85.76430163158705
 20
199.9909606321742
 30
0.0
 11
-85.74294862790343
 21
199.9788643050002
 31
0.0
  0
LINE
  5
2F5
  8
0
  6
CONTINUOUS
 62
     7
 10
-85.74294862790343
 20
199.9788643050002
 30
0.0
 11
-85.72221488349024
 21
199.9657348061513
 31
0.0
  0
LINE
  5
2F6
  8
0
  6
CONTINUOUS
 62
     7
 10
-85.72221488349024
 20
199.9657348061513
 30
0.0
 11
-85.70215034775383
 21
199.9516037657404
 31
0.0
  0
LINE
  5
2F7
  8
0
  6
CONTINUOUS
 62
     7
 10
-85.70215034775383
 20
199.9516037657404
 30
0.0
 11
-85.68280335791822
 21
199.9365052266814
 31
0.0
  0
LINE
  5
2F8
  8
0
  6
CONTINUOUS
 62
     7
 10
-85.68280335791822
 20
199.9365052266814
 30
0.0
 11
-85.66422052257653
 21
199.9204755626775
 31
0.0
  0
LINE
  5
2F9
  8
0
  6
CONTINUOUS
 62
     7
 10
-85.66422052257653
 20
199.9204755626775
 30
0.0
 11
-85.64644660940678
 21
199.9035533905933
 31
0.0
  0
LINE
  5
2FA
  8
0
  6
CONTINUOUS
 62
     7
 10
-85.64644660940678
 20
199.9035533905933
 30
0.0
 11
-85.62952443732257
 21
199.8857794774235
 31
0.0
  0
LINE
  5
2FB
  8
0
  6
CONTINUOUS
 62
     7
 10
-85.62952443732257
 20
199.8857794774235
 30
0.0
 11
-85.61349477331868
 21
199.8671966420819
 31
0.0
  0
LINE
  5
2FC
  8
0
  6
CONTINUOUS
 62
     7
 10
-85.61349477331868
 20
199.8671966420819
 30
0.0
 11
-85.59839623425972
 21
199.8478496522463
 31
0.0
  0
LINE
  5
2FD
  8
0
  6
CONTINUOUS
 62
     7
 10
-85.59839623425972
 20
199.8478496522463
 30
0.0
 11
-85.58426519384878
 21
199.8277851165098
 31
0.0
  0
LINE
  5
2FE
  8
0
  6
CONTINUOUS
 62
     7
 10
-85.58426519384878
 20
199.8277851165098
 30
0.0
 11
-85.57113569499991
 21
199.8070513720967
 31
0.0
  0
LINE
  5
2FF
  8
0
  6
CONTINUOUS
 62
     7
 10
-85.57113569499991
 20
199.8070513720967
 30
0.0
 11
-85.55903936782587
 21
199.785698368413
 31
0.0
  0
LINE
  5
300
  8
0
  6
CONTINUOUS
 62
     7
 10
-85.55903936782587
 20
199.785698368413
 30
0.0
 11
-85.54800535343833
 21
199.7637775467152
 31
0.0
  0
LINE
  5
301
  8
0
  6
CONTINUOUS
 62
     7
 10
-85.54800535343833
 20
199.7637775467152
 30
0.0
 11
-85.5380602337444
 21
199.7413417161826
 31
0.0
  0
LINE
  5
302
  8
0
  6
CONTINUOUS
 62
     7
 10
-85.5380602337444
 20
199.7413417161826
 30
0.0
 11
-85.52922796740854
 21
199.7184449266961
 31
0.0
  0
LINE
  5
303
  8
0
  6
CONTINUOUS
 62
     7
 10
-85.52922796740854
 20
199.7184449266961
 30
0.0
 11
-85.52152983213394
 21
199.6951423386272
 31
0.0
  0
LINE
  5
304
  8
0
  6
CONTINUOUS
 62
     7
 10
-85.52152983213394
 20
199.6951423386272
 30
0.0
 11
-85.51498437340278
 21
199.6714900899516
 31
0.0
  0
LINE
  5
305
  8
0
  6
CONTINUOUS
 62
     7
 10
-85.51498437340278
 20
199.6714900899516
 30
0.0
 11
-85.50960735979844
 21
199.6475451610081
 31
0.0
  0
LINE
  5
306
  8
0
  6
CONTINUOUS
 62
     7
 10
-85.50960735979844
 20
199.6475451610081
 30
0.0
 11
-85.50541174501765
 21
199.6233652372277
 31
0.0
  0
LINE
  5
307
  8
0
  6
CONTINUOUS
 62
     7
 10
-85.50541174501765
 20
199.6233652372277
 30
0.0
 11
-85.50240763666395
 21
199.5990085701648
 31
0.0
  0
LINE
  5
308
  8
0
  6
CONTINUOUS
 62
     7
 10
-85.50240763666395
 20
199.5990085701648
 30
0.0
 11
-85.50060227189746
 21
199.5745338371637
 31
0.0
  0
LINE
  5
309
  8
0
  6
CONTINUOUS
 62
     7
 10
-85.50060227189746
 20
199.5745338371637
 30
0.0
 11
-85.50000000000004
 21
199.55
 31
0.0
  0
LINE
  5
30A
  8
0
  6
CONTINUOUS
 62
     7
 10
-87.00000000000004
 20
200.05
 30
0.0
 11
-86.00000000000004
 21
200.05
 31
0.0
  0
LINE
  5
30B
  8
0
  6
CONTINUOUS
 62
     7
 10
-87.50000000000004
 20
199.55
 30
0.0
 11
-87.49939772810262
 21
199.5745338371637
 31
0.0
  0
LINE
  5
30C
  8
0
  6
CONTINUOUS
 62
     7
 10
-87.49939772810262
 20
199.5745338371637
 30
0.0
 11
-87.49759236333615
 21
199.5990085701648
 31
0.0
  0
LINE
  5
30D
  8
0
  6
CONTINUOUS
 62
     7
 10
-87.49759236333615
 20
199.5990085701648
 30
0.0
 11
-87.49458825498243
 21
199.6233652372277
 31
0.0
  0
LINE
  5
30E
  8
0
  6
CONTINUOUS
 62
     7
 10
-87.49458825498243
 20
199.6233652372277
 30
0.0
 11
-87.49039264020165
 21
199.6475451610081
 31
0.0
  0
LINE
  5
30F
  8
0
  6
CONTINUOUS
 62
     7
 10
-87.49039264020165
 20
199.6475451610081
 30
0.0
 11
-87.48501562659732
 21
199.6714900899516
 31
0.0
  0
LINE
  5
310
  8
0
  6
CONTINUOUS
 62
     7
 10
-87.48501562659732
 20
199.6714900899516
 30
0.0
 11
-87.47847016786615
 21
199.6951423386272
 31
0.0
  0
LINE
  5
311
  8
0
  6
CONTINUOUS
 62
     7
 10
-87.47847016786615
 20
199.6951423386272
 30
0.0
 11
-87.47077203259155
 21
199.7184449266961
 31
0.0
  0
LINE
  5
312
  8
0
  6
CONTINUOUS
 62
     7
 10
-87.47077203259155
 20
199.7184449266961
 30
0.0
 11
-87.46193976625568
 21
199.7413417161826
 31
0.0
  0
LINE
  5
313
  8
0
  6
CONTINUOUS
 62
     7
 10
-87.46193976625568
 20
199.7413417161826
 30
0.0
 11
-87.45199464656177
 21
199.7637775467152
 31
0.0
  0
LINE
  5
314
  8
0
  6
CONTINUOUS
 62
     7
 10
-87.45199464656177
 20
199.7637775467152
 30
0.0
 11
-87.44096063217422
 21
199.785698368413
 31
0.0
  0
LINE
  5
315
  8
0
  6
CONTINUOUS
 62
     7
 10
-87.44096063217422
 20
199.785698368413
 30
0.0
 11
-87.42886430500019
 21
199.8070513720967
 31
0.0
  0
LINE
  5
316
  8
0
  6
CONTINUOUS
 62
     7
 10
-87.42886430500019
 20
199.8070513720967
 30
0.0
 11
-87.41573480615132
 21
199.8277851165098
 31
0.0
  0
LINE
  5
317
  8
0
  6
CONTINUOUS
 62
     7
 10
-87.41573480615132
 20
199.8277851165098
 30
0.0
 11
-87.40160376574036
 21
199.8478496522463
 31
0.0
  0
LINE
  5
318
  8
0
  6
CONTINUOUS
 62
     7
 10
-87.40160376574036
 20
199.8478496522463
 30
0.0
 11
-87.38650522668141
 21
199.8671966420819
 31
0.0
  0
LINE
  5
319
  8
0
  6
CONTINUOUS
 62
     7
 10
-87.38650522668141
 20
199.8671966420819
 30
0.0
 11
-87.37047556267751
 21
199.8857794774235
 31
0.0
  0
LINE
  5
31A
  8
0
  6
CONTINUOUS
 62
     7
 10
-87.37047556267751
 20
199.8857794774235
 30
0.0
 11
-87.35355339059332
 21
199.9035533905933
 31
0.0
  0
LINE
  5
31B
  8
0
  6
CONTINUOUS
 62
     7
 10
-87.35355339059332
 20
199.9035533905933
 30
0.0
 11
-87.33577947742356
 21
199.9204755626775
 31
0.0
  0
LINE
  5
31C
  8
0
  6
CONTINUOUS
 62
     7
 10
-87.33577947742356
 20
199.9204755626775
 30
0.0
 11
-87.31719664208187
 21
199.9365052266814
 31
0.0
  0
LINE
  5
31D
  8
0
  6
CONTINUOUS
 62
     7
 10
-87.31719664208187
 20
199.9365052266814
 30
0.0
 11
-87.29784965224627
 21
199.9516037657404
 31
0.0
  0
LINE
  5
31E
  8
0
  6
CONTINUOUS
 62
     7
 10
-87.29784965224627
 20
199.9516037657404
 30
0.0
 11
-87.27778511650985
 21
199.9657348061513
 31
0.0
  0
LINE
  5
31F
  8
0
  6
CONTINUOUS
 62
     7
 10
-87.27778511650985
 20
199.9657348061513
 30
0.0
 11
-87.25705137209665
 21
199.9788643050002
 31
0.0
  0
LINE
  5
320
  8
0
  6
CONTINUOUS
 62
     7
 10
-87.25705137209665
 20
199.9788643050002
 30
0.0
 11
-87.23569836841305
 21
199.9909606321742
 31
0.0
  0
LINE
  5
321
  8
0
  6
CONTINUOUS
 62
     7
 10
-87.23569836841305
 20
199.9909606321742
 30
0.0
 11
-87.21377754671519
 21
200.0019946465618
 31
0.0
  0
LINE
  5
322
  8
0
  6
CONTINUOUS
 62
     7
 10
-87.21377754671519
 20
200.0019946465618
 30
0.0
 11
-87.19134171618259
 21
200.0119397662557
 31
0.0
  0
LINE
  5
323
  8
0
  6
CONTINUOUS
 62
     7
 10
-87.19134171618259
 20
200.0119397662557
 30
0.0
 11
-87.16844492669615
 21
200.0207720325915
 31
0.0
  0
LINE
  5
324
  8
0
  6
CONTINUOUS
 62
     7
 10
-87.16844492669615
 20
200.0207720325915
 30
0.0
 11
-87.14514233862727
 21
200.0284701678661
 31
0.0
  0
LINE
  5
325
  8
0
  6
CONTINUOUS
 62
     7
 10
-87.14514233862727
 20
200.0284701678661
 30
0.0
 11
-87.12149008995168
 21
200.0350156265973
 31
0.0
  0
LINE
  5
326
  8
0
  6
CONTINUOUS
 62
     7
 10
-87.12149008995168
 20
200.0350156265973
 30
0.0
 11
-87.0975451610081
 21
200.0403926402016
 31
0.0
  0
LINE
  5
327
  8
0
  6
CONTINUOUS
 62
     7
 10
-87.0975451610081
 20
200.0403926402016
 30
0.0
 11
-87.07336523722772
 21
200.0445882549824
 31
0.0
  0
LINE
  5
328
  8
0
  6
CONTINUOUS
 62
     7
 10
-87.07336523722772
 20
200.0445882549824
 30
0.0
 11
-87.04900857016483
 21
200.0475923633361
 31
0.0
  0
LINE
  5
329
  8
0
  6
CONTINUOUS
 62
     7
 10
-87.04900857016483
 20
200.0475923633361
 30
0.0
 11
-87.02453383716376
 21
200.0493977281026
 31
0.0
  0
LINE
  5
32A
  8
0
  6
CONTINUOUS
 62
     7
 10
-87.02453383716376
 20
200.0493977281026
 30
0.0
 11
-87.00000000000004
 21
200.05
 31
0.0
  0
LINE
  5
32B
  8
0
  6
CONTINUOUS
 62
     7
 10
-87.50000000000004
 20
199.05
 30
0.0
 11
-87.50000000000004
 21
199.55
 31
0.0
  0
LINE
  5
32C
  8
0
  6
CONTINUOUS
 62
     7
 10
-90.40000000000008
 20
202.8952994616208
 30
0.0
 11
-92.40000000000008
 21
204.05
 31
0.0
  0
LINE
  5
32D
  8
0
  6
CONTINUOUS
 62
     7
 10
-92.40000000000008
 20
204.05
 30
0.0
 11
-92.40000000000008
 21
205.05
 31
0.0
  0
LINE
  5
32E
  8
0
  6
CONTINUOUS
 62
     7
 10
-92.40000000000008
 20
205.05
 30
0.0
 11
-91.4877462375842
 21
210.2236481776669
 31
0.0
  0
ARC
  5
32F
  8
0
  6
CONTINUOUS
 62
     7
 10
-90.50293848457201
 20
210.05
 30
0.0
 40
1.0
 50
90.0
 51
169.9999999999996
  0
LINE
  5
330
  8
0
  6
CONTINUOUS
 62
     7
 10
-90.50293848457201
 20
211.05
 30
0.0
 11
-89.7836634939896
 21
211.05
 31
0.0
  0
LINE
  5
331
  8
0
  6
CONTINUOUS
 62
     7
 10
-89.30070058084506
 20
210.6794095225513
 30
0.0
 11
-89.30727593262816
 21
210.7018383725548
 31
0.0
  0
LINE
  5
332
  8
0
  6
CONTINUOUS
 62
     7
 10
-89.30727593262816
 20
210.7018383725548
 30
0.0
 11
-89.3148922647176
 21
210.7239354322926
 31
0.0
  0
LINE
  5
333
  8
0
  6
CONTINUOUS
 62
     7
 10
-89.3148922647176
 20
210.7239354322926
 30
0.0
 11
-89.32353293425295
 21
210.7456524162806
 31
0.0
  0
LINE
  5
334
  8
0
  6
CONTINUOUS
 62
     7
 10
-89.32353293425295
 20
210.7456524162806
 30
0.0
 11
-89.33317906003839
 21
210.7669418695588
 31
0.0
  0
LINE
  5
335
  8
0
  6
CONTINUOUS
 62
     7
 10
-89.33317906003839
 20
210.7669418695588
 30
0.0
 11
-89.34380956380114
 21
210.7877572713878
 31
0.0
  0
LINE
  5
336
  8
0
  6
CONTINUOUS
 62
     7
 10
-89.34380956380114
 20
210.7877572713878
 30
0.0
 11
-89.35540121625068
 21
210.8080531369038
 31
0.0
  0
LINE
  5
337
  8
0
  6
CONTINUOUS
 62
     7
 10
-89.35540121625068
 20
210.8080531369038
 30
0.0
 11
-89.36792868783833
 21
210.8277851165098
 31
0.0
  0
LINE
  5
338
  8
0
  6
CONTINUOUS
 62
     7
 10
-89.36792868783833
 20
210.8277851165098
 30
0.0
 11
-89.38136460410627
 21
210.8469100927868
 31
0.0
  0
LINE
  5
339
  8
0
  6
CONTINUOUS
 62
     7
 10
-89.38136460410627
 20
210.8469100927868
 30
0.0
 11
-89.3956796055049
 21
210.8653862747113
 31
0.0
  0
LINE
  5
33A
  8
0
  6
CONTINUOUS
 62
     7
 10
-89.3956796055049
 20
210.8653862747113
 30
0.0
 11
-89.41084241154802
 21
210.8831732889761
 31
0.0
  0
LINE
  5
33B
  8
0
  6
CONTINUOUS
 62
     7
 10
-89.41084241154802
 20
210.8831732889761
 30
0.0
 11
-89.4268198891655
 21
210.9002322682109
 31
0.0
  0
LINE
  5
33C
  8
0
  6
CONTINUOUS
 62
     7
 10
-89.4268198891655
 20
210.9002322682109
 30
0.0
 11
-89.44357712510414
 21
210.9165259359149
 31
0.0
  0
LINE
  5
33D
  8
0
  6
CONTINUOUS
 62
     7
 10
-89.44357712510414
 20
210.9165259359149
 30
0.0
 11
-89.46107750221856
 21
210.9320186879108
 31
0.0
  0
LINE
  5
33E
  8
0
  6
CONTINUOUS
 62
     7
 10
-89.46107750221856
 20
210.9320186879108
 30
0.0
 11
-89.47928277948525
 21
210.9466766701456
 31
0.0
  0
LINE
  5
33F
  8
0
  6
CONTINUOUS
 62
     7
 10
-89.47928277948525
 20
210.9466766701456
 30
0.0
 11
-89.49815317556512
 21
210.9604678526671
 31
0.0
  0
LINE
  5
340
  8
0
  6
CONTINUOUS
 62
     7
 10
-89.49815317556512
 20
210.9604678526671
 30
0.0
 11
-89.51764745573195
 21
210.9733620996142
 31
0.0
  0
LINE
  5
341
  8
0
  6
CONTINUOUS
 62
     7
 10
-89.51764745573195
 20
210.9733620996142
 30
0.0
 11
-89.53772302197643
 21
210.9853312350681
 31
0.0
  0
LINE
  5
342
  8
0
  6
CONTINUOUS
 62
     7
 10
-89.53772302197643
 20
210.9853312350681
 30
0.0
 11
-89.55833600608963
 21
210.9963491046218
 31
0.0
  0
LINE
  5
343
  8
0
  6
CONTINUOUS
 62
     7
 10
-89.55833600608963
 20
210.9963491046218
 30
0.0
 11
-89.5794413655216
 21
211.0063916325307
 31
0.0
  0
LINE
  5
344
  8
0
  6
CONTINUOUS
 62
     7
 10
-89.5794413655216
 20
211.0063916325307
 30
0.0
 11
-89.6009929818064
 21
211.0154368743221
 31
0.0
  0
LINE
  5
345
  8
0
  6
CONTINUOUS
 62
     7
 10
-89.6009929818064
 20
211.0154368743221
 30
0.0
 11
-89.62294376133804
 21
211.0234650647476
 31
0.0
  0
LINE
  5
346
  8
0
  6
CONTINUOUS
 62
     7
 10
-89.62294376133804
 20
211.0234650647476
 30
0.0
 11
-89.64524573827718
 21
211.0304586609726
 31
0.0
  0
LINE
  5
347
  8
0
  6
CONTINUOUS
 62
     7
 10
-89.64524573827718
 20
211.0304586609726
 30
0.0
 11
-89.66785017936408
 21
211.0364023809106
 31
0.0
  0
LINE
  5
348
  8
0
  6
CONTINUOUS
 62
     7
 10
-89.66785017936408
 20
211.0364023809106
 30
0.0
 11
-89.69070769040816
 21
211.0412832366167
 31
0.0
  0
LINE
  5
349
  8
0
  6
CONTINUOUS
 62
     7
 10
-89.69070769040816
 20
211.0412832366167
 30
0.0
 11
-89.71376832422186
 21
211.0450905626682
 31
0.0
  0
LINE
  5
34A
  8
0
  6
CONTINUOUS
 62
     7
 10
-89.71376832422186
 20
211.0450905626682
 30
0.0
 11
-89.73698168976313
 21
211.0478160394706
 31
0.0
  0
LINE
  5
34B
  8
0
  6
CONTINUOUS
 62
     7
 10
-89.73698168976313
 20
211.0478160394706
 30
0.0
 11
-89.7602970622475
 21
211.0494537114365
 31
0.0
  0
LINE
  5
34C
  8
0
  6
CONTINUOUS
 62
     7
 10
-89.7602970622475
 20
211.0494537114365
 30
0.0
 11
-89.78366349398961
 21
211.05
 31
0.0
  0
LINE
  5
34D
  8
0
  6
CONTINUOUS
 62
     7
 10
-89.30070058084506
 20
210.6794095225513
 30
0.0
 11
-87.39155019083645
 21
203.5543632677492
 31
0.0
  0
LINE
  5
34E
  8
0
  6
CONTINUOUS
 62
     7
 10
-69.50000000000004
 20
199.05
 30
0.0
 11
-85.50000000000004
 21
199.05
 31
0.0
  0
LINE
  5
34F
  8
0
  6
CONTINUOUS
 62
     7
 10
-87.50000000000004
 20
199.05
 30
0.0
 11
-90.40000000000008
 21
199.05
 31
0.0
  0
LINE
  5
350
  8
0
  6
CONTINUOUS
 62
     7
 10
-69.50000000000004
 20
199.05
 30
0.0
 11
-69.50000000000004
 21
199.55
 31
0.0
  0
LINE
  5
351
  8
0
  6
CONTINUOUS
 62
     7
 10
-90.40000000000008
 20
199.05
 30
0.0
 11
-90.40000000000008
 21
202.8952994616208
 31
0.0
  0
LINE
  5
352
  8
0
  6
CONTINUOUS
 62
     7
 10
-85.50000000000004
 20
199.55
 30
0.0
 11
-85.50000000000004
 21
199.05
 31
0.0
  0
LINE
  5
353
  8
0
  6
CONTINUOUS
 62
     7
 10
-52.50000000000006
 20
214.05
 30
0.0
 11
-52.50000000000003
 21
213.05
 31
0.0
  0
LINE
  5
354
  8
0
  6
CONTINUOUS
 62
     7
 10
-66.50000000000001
 20
199.05
 30
0.0
 11
-67.50000000000004
 21
199.05
 31
0.0
  0
LINE
  5
355
  8
0
  6
CONTINUOUS
 62
     7
 10
-53.8137084989848
 20
209.05
 30
0.0
 11
-62.50000000000001
 21
200.3637084989848
 31
0.0
  0
LINE
  5
356
  8
0
  6
CONTINUOUS
 62
     7
 10
-87.52435565298218
 20
204.0500000000001
 30
0.0
 11
-65.88477631085026
 21
204.05
 31
0.0
  0
LINE
  5
357
  8
0
  6
CONTINUOUS
 62
     7
 10
-65.88477400103835
 20
204.05
 30
0.0
 11
-65.67766952966369
 21
203.5543632677492
 31
0.0
  0
LINE
  5
358
  8
0
  6
CONTINUOUS
 62
     7
 10
-65.88477631085026
 20
204.05
 30
0.0
 11
-57.49999048085672
 21
212.4347858299936
 31
0.0
  0
LINE
  5
359
  8
0
  6
CONTINUOUS
 62
     7
 10
-57.00000000000005
 20
212.2320327974129
 30
0.0
 11
-57.49999048085671
 21
212.4347858299936
 31
0.0
  0
LINE
  5
35A
  8
0
  6
CONTINUOUS
 62
     7
 10
-57.50000000000005
 20
238.85
 30
0.0
 11
-57.00000000000005
 21
238.85
 31
0.0
  0
LINE
  5
35B
  8
0
  6
CONTINUOUS
 62
     7
 10
-57.50000000000005
 20
212.4347763108503
 30
0.0
 11
-57.50000000000005
 21
238.85
 31
0.0
  0
LINE
  5
35C
  8
0
  6
CONTINUOUS
 62
     7
 10
-57.50000000000005
 20
228.05
 30
0.0
 11
-57.83347274889425
 21
228.3834727488942
 31
0.0
  0
ARC
  5
35D
  8
0
  6
CONTINUOUS
 62
     7
 10
-56.41925918652117
 20
229.7976863112673
 30
0.0
 40
2.0
 50
176.9999999999998
 51
225.0
  0
LINE
  5
35E
  8
0
  6
CONTINUOUS
 62
     7
 10
-58.41651825603032
 20
229.9023582237532
 30
0.0
 11
-58.0000000000001
 21
237.85
 31
0.0
  0
LINE
  5
35F
  8
0
  6
CONTINUOUS
 62
     7
 10
-58.0000000000001
 20
237.85
 30
0.0
 11
-57.50000000000005
 21
237.85
 31
0.0
  0
LINE
  5
360
  8
0
  6
CONTINUOUS
 62
     7
 10
-92.42891737385732
 20
205.0112297667203
 30
0.0
 11
-92.40051159570325
 21
205.0470985965895
 31
0.0
  0
LINE
  5
361
  8
0
  6
CONTINUOUS
 62
     7
 10
-92.40000000000006
 20
205.0500000000001
 30
0.0
 11
-92.40051159570325
 21
205.0470985965896
 31
0.0
  0
LINE
  5
362
  8
0
  6
CONTINUOUS
 62
     7
 10
-92.44942257274046
 20
204.0785341356757
 30
0.0
 11
-92.40000000000008
 21
204.05
 31
0.0
  0
LINE
  5
363
  8
0
  6
CONTINUOUS
 62
     7
 10
-91.67975536524226
 20
203.5773379388087
 30
0.0
 11
-91.31861413250611
 21
203.4256615783045
 31
0.0
  0
LINE
  5
364
  8
0
  6
CONTINUOUS
 62
     7
 10
-92.50000000000007
 20
199.05
 30
0.0
 11
-90.40000000000008
 21
199.05
 31
0.0
  0
LINE
  5
365
  8
0
  6
CONTINUOUS
 62
     7
 10
-90.502938484572
 20
211.05
 30
0.0
 11
-92.21183392062147
 21
211.05
 31
0.0
  0
ARC
  5
366
  8
0
  6
CONTINUOUS
 62
     7
 10
-122.5000000000001
 20
199.05
 30
0.0
 40
0.099999999999989
 50
180.0
 51
270.000000000004
  0
ARC
  5
367
  8
0
  6
CONTINUOUS
 62
     7
 10
-122.5000000000001
 20
199.05
 30
0.0
 40
0.1000000000000029
 50
270.0
 51
0.0000000000001137
  0
ARC
  5
368
  8
0
  6
CONTINUOUS
 62
     7
 10
-92.50000000000014
 20
199.05
 30
0.0
 40
0.099999999999989
 50
270.0
 51
0.0000000000001137
  0
ARC
  5
369
  8
0
  6
CONTINUOUS
 62
     7
 10
-92.50000000000014
 20
199.05
 30
0.0
 40
0.099999999999989
 50
180.0
 51
270.0
  0
ARC
  5
36A
  8
0
  6
CONTINUOUS
 62
     7
 10
157.4999999999999
 20
199.05
 30
0.0
 40
252.1
 50
174.6483407141976
 51
180.0
  0
LINE
  5
36B
  8
0
  6
CONTINUOUS
 62
     7
 10
-93.50109858917484
 20
222.5629433935301
 30
0.0
 11
-92.02865667954231
 21
222.1975591737688
 31
0.0
  0
LINE
  5
36C
  8
0
  6
CONTINUOUS
 62
     7
 10
-93.10000000000007
 20
199.05
 30
0.0
 11
-94.60000000000007
 21
199.05
 31
0.0
  0
LINE
  5
36D
  8
0
  6
CONTINUOUS
 62
     7
 10
-75.64755917376888
 20
238.5786566795423
 30
0.0
 11
-76.0129433935305
 21
240.0510985891748
 31
0.0
  0
ARC
  5
36E
  8
0
  6
CONTINUOUS
 62
     7
 10
-52.50000000000007
 20
-10.94999999999996
 30
0.0
 40
252.1
 50
90.0
 51
95.3516592858025
  0
LINE
  5
36F
  8
0
  6
CONTINUOUS
 62
     7
 10
-52.50000000000008
 20
241.15
 30
0.0
 11
-52.50000000000007
 21
239.65
 31
0.0
  0
ARC
  5
370
  8
0
  6
CONTINUOUS
 62
     7
 10
-63.81075385462237
 20
210.3607538546223
 30
0.0
 40
32.09999999999999
 50
112.3417673041951
 51
157.6582326958055
  0
LINE
  5
371
  8
0
  6
CONTINUOUS
 62
     7
 10
-52.50000000000006
 20
239.15
 30
0.0
 11
-52.50000000000008
 21
239.65
 31
0.0
  0
ARC
  5
372
  8
0
  6
CONTINUOUS
 62
     7
 10
-52.50000000000007
 20
-10.94999999999996
 30
0.0
 40
250.1
 50
90.00000000000011
 51
95.28223090013775
  0
ARC
  5
373
  8
0
  6
CONTINUOUS
 62
     7
 10
-63.81075385462237
 20
210.3607538546223
 30
0.0
 40
30.09999999999997
 50
112.9026167295884
 51
156.4778835750103
  0
ARC
  5
374
  8
0
  6
CONTINUOUS
 62
     7
 10
157.4999999999999
 20
199.05
 30
0.0
 40
250.0
 50
174.6468041968444
 51
180.0
  0
LINE
  5
375
  8
0
  6
CONTINUOUS
 62
     7
 10
-93.10000000000007
 20
199.05
 30
0.0
 11
-92.50000000000009
 21
199.05
 31
0.0
  0
LINE
  5
376
  8
0
  6
CONTINUOUS
 62
     7
 10
-90.50000000000013
 20
201.0509351208592
 30
0.0
 11
-90.91317591116666
 21
201.2571067811865
 31
0.0
  0
LINE
  5
377
  8
0
  6
CONTINUOUS
 62
     7
 10
-90.50000000000013
 20
201.0509351208592
 30
0.0
 11
-90.50000000000013
 21
201.05
 31
0.0
  0
LINE
  5
378
  8
0
  6
CONTINUOUS
 62
     7
 10
-90.50000000000011
 20
201.05
 30
0.0
 11
-92.50000000000009
 21
199.05
 31
0.0
  0
LINE
  5
379
  8
0
  6
CONTINUOUS
 62
     7
 10
-92.4505643170658
 20
204.0214582951503
 30
0.0
 11
-90.75000000000013
 21
203.0396370289182
 31
0.0
  0
LINE
  5
37A
  8
0
  6
CONTINUOUS
 62
     7
 10
-90.50000000000013
 20
202.6066243270259
 30
0.0
 11
-90.50000000000013
 21
201.0509351208592
 31
0.0
  0
ARC
  5
37B
  8
0
  6
CONTINUOUS
 62
     7
 10
-91.00000000000013
 20
202.6066243270259
 30
0.0
 40
0.5000000000000004
 50
0.0
 51
60.0
  0
LINE
  5
37C
  8
0
  6
CONTINUOUS
 62
     7
 10
-90.50000000000013
 20
201.0509351208592
 30
0.0
 11
-90.50000000000013
 21
201.05
 31
0.0
  0
ARC
  5
37D
  8
0
  6
CONTINUOUS
 62
     7
 10
-55.00000000000009
 20
238.6374796539282
 30
0.0
 40
0.4999999999999833
 50
25.15323911937179
 51
90.57388559243948
  0
LINE
  5
37E
  8
0
  6
CONTINUOUS
 62
     7
 10
-53.45825756949565
 20
233.75
 30
0.0
 11
-52.50000000000009
 21
233.75
 31
0.0
  0
LINE
  5
37F
  8
0
  6
CONTINUOUS
 62
     7
 10
-52.50000000000009
 20
233.75
 30
0.0
 11
-52.50000000000008
 21
234.05
 31
0.0
  0
LINE
  5
380
  8
0
  6
CONTINUOUS
 62
     7
 10
-52.50000000000006
 20
238.8499999999999
 30
0.0
 11
-52.50000000000006
 21
239.15
 31
0.0
  0
LINE
  5
381
  8
0
  6
CONTINUOUS
 62
     7
 10
-93.50110674134254
 20
222.5629235576721
 30
0.0
 11
-95.4647250456914
 21
223.0254184236325
 31
0.0
  0
LINE
  5
382
  8
0
  6
CONTINUOUS
 62
     7
 10
-94.60000000000007
 20
199.05
 30
0.0
 11
-96.59999940061067
 21
199.05
 31
0.0
  0
LINE
  5
383
  8
0
  6
CONTINUOUS
 62
     7
 10
-152.5000000000001
 20
199.05
 30
0.0
 11
-151.6022141964749
 21
224.7592216635526
 31
0.0
  0
LINE
  5
384
  8
0
  6
CONTINUOUS
 62
     7
 10
-150.9995427895537
 20
199.05
 30
0.0
 11
-152.5000000000001
 21
199.05
 31
0.0
  0
LINE
  5
385
  8
0
  6
CONTINUOUS
 62
     7
 10
-150.9995427895537
 20
199.0500000000001
 30
0.0
 11
-96.59999940061067
 21
199.0500000000001
 31
0.0
  0
LINE
  5
386
  8
0
  6
CONTINUOUS
 62
     7
 10
-151.6022141964749
 20
224.7592216635526
 30
0.0
 11
-151.3899987950863
 21
230.8362756482508
 31
0.0
  0
LINE
  5
387
  8
0
  6
CONTINUOUS
 62
     7
 10
-149.6341909694717
 20
239.6310451575916
 30
0.0
 11
-149.6198715321421
 21
239.6310368658177
 31
0.0
  0
LINE
  5
388
  8
0
  6
CONTINUOUS
 62
     7
 10
-151.3899987950863
 20
230.8362756482508
 30
0.0
 11
-151.1318827965672
 21
238.227750758219
 31
0.0
  0
LINE
  5
389
  8
0
  6
CONTINUOUS
 62
     7
 10
-151.1318827965672
 20
238.2277507582191
 30
0.0
 11
-151.1188015291565
 21
238.6023492450538
 31
0.0
  0
LINE
  5
38A
  8
0
  6
CONTINUOUS
 62
     7
 10
-76.10668509449836
 20
240.05
 30
0.0
 11
-149.6197152886278
 21
240.05
 31
0.0
  0
ARC
  5
38B
  8
0
  6
CONTINUOUS
 62
     7
 10
-149.6197152886278
 20
238.55
 30
0.0
 40
1.500000000000001
 50
90.0
 51
178.0000000000001
  0
LINE
  5
38C
  8
0
  6
CONTINUOUS
 62
     7
 10
-76.10615242760011
 20
240.0499877021337
 30
0.0
 11
-76.10668509449945
 21
240.05
 31
0.0
  0
LINE
  5
38D
  8
0
  6
CONTINUOUS
 62
     7
 10
-257.5
 20
102.0000000000001
 30
0.0
 11
-247.5
 21
102.0000000000001
 31
0.0
  0
LINE
  5
38E
  8
0
  6
CONTINUOUS
 62
     7
 10
-247.5
 20
102.0000000000001
 30
0.0
 11
-247.5
 21
127.0000000000001
 31
0.0
  0
LINE
  5
38F
  8
0
  6
CONTINUOUS
 62
     7
 10
-247.5
 20
127.0000000000001
 30
0.0
 11
-257.5
 21
127.0000000000001
 31
0.0
  0
LINE
  5
390
  8
0
  6
CONTINUOUS
 62
     7
 10
-257.5
 20
127.0000000000001
 30
0.0
 11
-257.5
 21
102.0000000000001
 31
0.0
  0
LINE
  5
391
  8
0
  6
CONTINUOUS
 62
     7
 10
-192.5
 20
99.54959426935568
 30
0.0
 11
-192.5
 21
97.90000000000006
 31
0.0
  0
LINE
  5
392
  8
0
  6
CONTINUOUS
 62
     7
 10
-192.5
 20
99.54959426935568
 30
0.0
 11
-192.5418688338825
 21
99.54959426935568
 31
0.0
  0
LINE
  5
393
  8
0
  6
CONTINUOUS
 62
     7
 10
-192.5
 20
92.99999999999999
 30
0.0
 11
-192.5
 21
95.01490102593384
 31
0.0
  0
LINE
  5
394
  8
0
  6
CONTINUOUS
 62
     7
 10
-192.5
 20
68.00000000000024
 30
0.0
 11
-192.5289182959677
 21
68.00000000000024
 31
0.0
  0
LINE
  5
395
  8
0
  6
CONTINUOUS
 62
     7
 10
-192.5
 20
75.00000000000001
 30
0.0
 11
-192.5
 21
77.00000000000001
 31
0.0
  0
LINE
  5
396
  8
0
  6
CONTINUOUS
 62
     7
 10
-192.5
 20
68.00000000000023
 30
0.0
 11
-192.5
 21
69.99999999999997
 31
0.0
  0
LINE
  5
397
  8
0
  6
CONTINUOUS
 62
     7
 10
-232.4
 20
140.0000000000001
 30
0.0
 11
-232.4
 21
137.7628845651221
 31
0.0
  0
LINE
  5
398
  8
0
  6
CONTINUOUS
 62
     7
 10
-232.4
 20
117.8371154348781
 30
0.0
 11
-232.4
 21
103.4566018867944
 31
0.0
  0
LINE
  5
399
  8
0
  6
CONTINUOUS
 62
     7
 10
-232.5
 20
140.0000000000001
 30
0.0
 11
-232.4
 21
140.0000000000001
 31
0.0
  0
LINE
  5
39A
  8
0
  6
CONTINUOUS
 62
     7
 10
-272.6
 20
140.0000000000001
 30
0.0
 11
-272.6
 21
137.7620721468203
 31
0.0
  0
LINE
  5
39B
  8
0
  6
CONTINUOUS
 62
     7
 10
-272.6
 20
117.8371154348781
 30
0.0
 11
-272.6
 21
103.4566018867945
 31
0.0
  0
LINE
  5
39C
  8
0
  6
CONTINUOUS
 62
     7
 10
-272.6
 20
140.0000000000001
 30
0.0
 11
-272.5
 21
140.0000000000001
 31
0.0
  0
LINE
  5
39D
  8
0
  6
CONTINUOUS
 62
     7
 10
-242.0
 20
140.0000000000001
 30
0.0
 11
-240.0
 21
140.0000000000001
 31
0.0
  0
LINE
  5
39E
  8
0
  6
CONTINUOUS
 62
     7
 10
-264.9999999999999
 20
140.0000000000001
 30
0.0
 11
-263.0
 21
140.0000000000001
 31
0.0
  0
LINE
  5
39F
  8
0
  6
CONTINUOUS
 62
     7
 10
-245.1
 20
130.1000000000001
 30
0.0
 11
-259.9
 21
130.1000000000001
 31
0.0
  0
LINE
  5
3A0
  8
0
  6
CONTINUOUS
 62
     7
 10
-259.9
 20
129.9000000000001
 30
0.0
 11
-245.1
 21
129.9000000000001
 31
0.0
  0
ARC
  5
3A1
  8
0
  6
CONTINUOUS
 62
     7
 10
-245.1
 20
130.0000000000001
 30
0.0
 40
0.099999999999989
 50
270.0
 51
0.0
  0
ARC
  5
3A2
  8
0
  6
CONTINUOUS
 62
     7
 10
-259.9
 20
130.0000000000001
 30
0.0
 40
0.099999999999989
 50
180.0
 51
270.0
  0
ARC
  5
3A3
  8
0
  6
CONTINUOUS
 62
     7
 10
-259.9
 20
130.0000000000001
 30
0.0
 40
0.099999999999989
 50
90.0000000000005
 51
180.000000000004
  0
ARC
  5
3A4
  8
0
  6
CONTINUOUS
 62
     7
 10
-245.1
 20
130.0000000000001
 30
0.0
 40
0.099999999999989
 50
359.999999999996
 51
90.0
  0
ARC
  5
3A5
  8
0
  6
CONTINUOUS
 62
     7
 10
-259.9
 20
100.0000000000001
 30
0.0
 40
0.1000000000000029
 50
180.0
 51
270.0
  0
LINE
  5
3A6
  8
0
  6
CONTINUOUS
 62
     7
 10
-259.9
 20
99.90000000000012
 30
0.0
 11
-245.1
 21
99.90000000000012
 31
0.0
  0
ARC
  5
3A7
  8
0
  6
CONTINUOUS
 62
     7
 10
-259.9
 20
100.0000000000001
 30
0.0
 40
0.099999999999989
 50
89.99999999999949
 51
180.0
  0
ARC
  5
3A8
  8
0
  6
CONTINUOUS
 62
     7
 10
-245.1
 20
100.0000000000001
 30
0.0
 40
0.099999999999989
 50
270.0
 51
0.0
  0
ARC
  5
3A9
  8
0
  6
CONTINUOUS
 62
     7
 10
-245.1
 20
100.0000000000001
 30
0.0
 40
0.099999999999989
 50
0.0
 51
90.0
  0
LINE
  5
3AA
  8
0
  6
CONTINUOUS
 62
     7
 10
-245.1
 20
100.1000000000001
 30
0.0
 11
-259.9
 21
100.1000000000001
 31
0.0
  0
LINE
  5
3AB
  8
0
  6
CONTINUOUS
 62
     7
 10
-232.5
 20
140.0000000000001
 30
0.0
 11
-240.0
 21
140.0000000000001
 31
0.0
  0
LINE
  5
3AC
  8
0
  6
CONTINUOUS
 62
     7
 10
-232.5
 20
138.0000000000001
 30
0.0
 11
-232.5
 21
140.0000000000001
 31
0.0
  0
LINE
  5
3AD
  8
0
  6
CONTINUOUS
 62
     7
 10
-234.5
 20
138.0000000000001
 30
0.0
 11
-232.5
 21
138.0000000000001
 31
0.0
  0
LINE
  5
3AE
  8
0
  6
CONTINUOUS
 62
     7
 10
-234.5
 20
104.4000000000001
 30
0.0
 11
-234.5
 21
138.0000000000001
 31
0.0
  0
ARC
  5
3AF
  8
0
  6
CONTINUOUS
 62
     7
 10
-228.0
 20
104.4000000000001
 30
0.0
 40
6.500000000000005
 50
180.0
 51
270.0000000000001
  0
LINE
  5
3B0
  8
0
  6
CONTINUOUS
 62
     7
 10
-192.5
 20
97.90000000000006
 30
0.0
 11
-228.0
 21
97.90000000000006
 31
0.0
  0
LINE
  5
3B1
  8
0
  6
CONTINUOUS
 62
     7
 10
-192.5
 20
95.00000000000004
 30
0.0
 11
-192.5
 21
97.90000000000006
 31
0.0
  0
LINE
  5
3B2
  8
0
  6
CONTINUOUS
 62
     7
 10
-192.5
 20
95.00000000000004
 30
0.0
 11
-240.0
 21
95.00000000000004
 31
0.0
  0
LINE
  5
3B3
  8
0
  6
CONTINUOUS
 62
     7
 10
-240.0
 20
140.0000000000001
 30
0.0
 11
-240.0
 21
95.00000000000004
 31
0.0
  0
LINE
  5
3B4
  8
0
  6
CONTINUOUS
 62
     7
 10
-312.5000000000001
 20
97.90000000000003
 30
0.0
 11
-276.9999999999999
 21
97.90000000000003
 31
0.0
  0
ARC
  5
3B5
  8
0
  6
CONTINUOUS
 62
     7
 10
-277.0
 20
104.4
 30
0.0
 40
6.500000000000005
 50
270.0000000000007
 51
0.0000000000007958
  0
LINE
  5
3B6
  8
0
  6
CONTINUOUS
 62
     7
 10
-270.5
 20
104.4000000000001
 30
0.0
 11
-270.5
 21
138.0000000000001
 31
0.0
  0
LINE
  5
3B7
  8
0
  6
CONTINUOUS
 62
     7
 10
-270.5
 20
138.0000000000001
 30
0.0
 11
-272.5
 21
138.0000000000001
 31
0.0
  0
LINE
  5
3B8
  8
0
  6
CONTINUOUS
 62
     7
 10
-272.5
 20
138.0000000000001
 30
0.0
 11
-272.5
 21
140.0000000000001
 31
0.0
  0
LINE
  5
3B9
  8
0
  6
CONTINUOUS
 62
     7
 10
-272.5
 20
140.0000000000001
 30
0.0
 11
-264.9999999999999
 21
140.0000000000001
 31
0.0
  0
LINE
  5
3BA
  8
0
  6
CONTINUOUS
 62
     7
 10
-264.9999999999999
 20
140.0000000000001
 30
0.0
 11
-264.9999999999999
 21
95.00000000000004
 31
0.0
  0
LINE
  5
3BB
  8
0
  6
CONTINUOUS
 62
     7
 10
-264.9999999999999
 20
95.00000000000004
 30
0.0
 11
-312.5000000000001
 21
95.00000000000004
 31
0.0
  0
LINE
  5
3BC
  8
0
  6
CONTINUOUS
 62
     7
 10
-312.5000000000001
 20
95.00000000000004
 30
0.0
 11
-312.5000000000001
 21
97.90000000000003
 31
0.0
  0
LINE
  5
3BD
  8
0
  6
CONTINUOUS
 62
     7
 10
-232.5
 20
137.9563656610463
 30
0.0
 11
-234.5
 21
137.9664425799827
 31
0.0
  0
LINE
  5
3BE
  8
0
  6
CONTINUOUS
 62
     7
 10
-232.5
 20
138.0000000000001
 30
0.0
 11
-232.5
 21
137.9563656610463
 31
0.0
  0
LINE
  5
3BF
  8
0
  6
CONTINUOUS
 62
     7
 10
-272.4999999999999
 20
137.9563656610463
 30
0.0
 11
-270.5
 21
137.9664425799827
 31
0.0
  0
LINE
  5
3C0
  8
0
  6
CONTINUOUS
 62
     7
 10
-272.5
 20
138.0000000000001
 30
0.0
 11
-272.4999999999999
 21
137.9563656610463
 31
0.0
  0
LINE
  5
3C1
  8
0
  6
CONTINUOUS
 62
     7
 10
-192.5
 20
75.00000000000004
 30
0.0
 11
-240.0
 21
75.00000000000004
 31
0.0
  0
LINE
  5
3C2
  8
0
  6
CONTINUOUS
 62
     7
 10
-192.5
 20
74.00000000000001
 30
0.0
 11
-178.4999619230641
 21
74.00000000000001
 31
0.0
  0
POLYLINE
  5
3C3
  8
0
  6
CONTINUOUS
 62
     7
 66
     1
 10
0.0
 20
0.0
 30
0.0
  0
VERTEX
  5
7CD
  8
0
  6
CONTINUOUS
 62
     7
 10
-177.5
 20
73.00003807693587
 30
0.0
  0
VERTEX
  5
7CE
  8
0
  6
CONTINUOUS
 62
     7
 10
-177.5192135941609
 20
73.19512502743798
 30
0.0
  0
VERTEX
  5
7CF
  8
0
  6
CONTINUOUS
 62
     7
 10
-177.5761160803557
 20
73.38271269407974
 30
0.0
  0
VERTEX
  5
7D0
  8
0
  6
CONTINUOUS
 62
     7
 10
-177.6685209392904
 20
73.55559288474458
 30
0.0
  0
VERTEX
  5
7D1
  8
0
  6
CONTINUOUS
 62
     7
 10
-177.7928774472548
 20
73.70712255274518
 30
0.0
  0
VERTEX
  5
7D2
  8
0
  6
CONTINUOUS
 62
     7
 10
-177.9444071152554
 20
73.83147906070958
 30
0.0
  0
VERTEX
  5
7D3
  8
0
  6
CONTINUOUS
 62
     7
 10
-178.1172873059203
 20
73.92388391964433
 30
0.0
  0
VERTEX
  5
7D4
  8
0
  6
CONTINUOUS
 62
     7
 10
-178.304874972562
 20
73.98078640583908
 30
0.0
  0
VERTEX
  5
7D5
  8
0
  6
CONTINUOUS
 62
     7
 10
-178.4999619230641
 20
74.00000000000001
 30
0.0
  0
SEQEND
  5
861
  8
0
  6
CONTINUOUS
 62
     7
  0
LINE
  5
3C4
  8
0
  6
CONTINUOUS
 62
     7
 10
-177.5
 20
71.31370849898482
 30
0.0
 11
-177.5
 21
73.00003807693587
 31
0.0
  0
LINE
  5
3C5
  8
0
  6
CONTINUOUS
 62
     7
 10
-240.0
 20
75.00000000000004
 30
0.0
 11
-240.0
 21
71.31370849898482
 31
0.0
  0
LINE
  5
3C6
  8
0
  6
CONTINUOUS
 62
     7
 10
-192.5
 20
74.00000000000001
 30
0.0
 11
-192.5
 21
75.00000000000004
 31
0.0
  0
LINE
  5
3C7
  8
0
  6
CONTINUOUS
 62
     7
 10
-264.9999999999999
 20
75.00000000000215
 30
0.0
 11
-312.5000000000001
 21
75.00000000000004
 31
0.0
  0
LINE
  5
3C8
  8
0
  6
CONTINUOUS
 62
     7
 10
-264.9999999999999
 20
75.00000000000215
 30
0.0
 11
-264.9999999999999
 21
71.313708498987
 31
0.0
  0
LINE
  5
3C9
  8
0
  6
CONTINUOUS
 62
     7
 10
-327.5000000000001
 20
71.31370849898482
 30
0.0
 11
-327.5000000000001
 21
73.00003807693581
 31
0.0
  0
POLYLINE
  5
3CA
  8
0
  6
CONTINUOUS
 62
     7
 66
     1
 10
0.0
 20
0.0
 30
0.0
  0
VERTEX
  5
7D6
  8
0
  6
CONTINUOUS
 62
     7
 10
-326.5000380769359
 20
73.99999999999999
 30
0.0
  0
VERTEX
  5
7D7
  8
0
  6
CONTINUOUS
 62
     7
 10
-326.6951250274381
 20
73.98078640583905
 30
0.0
  0
VERTEX
  5
7D8
  8
0
  6
CONTINUOUS
 62
     7
 10
-326.8827126940798
 20
73.92388391964428
 30
0.0
  0
VERTEX
  5
7D9
  8
0
  6
CONTINUOUS
 62
     7
 10
-327.0555928847447
 20
73.83147906070954
 30
0.0
  0
VERTEX
  5
7DA
  8
0
  6
CONTINUOUS
 62
     7
 10
-327.2071225527453
 20
73.70712255274513
 30
0.0
  0
VERTEX
  5
7DB
  8
0
  6
CONTINUOUS
 62
     7
 10
-327.3314790607097
 20
73.55559288474453
 30
0.0
  0
VERTEX
  5
7DC
  8
0
  6
CONTINUOUS
 62
     7
 10
-327.4238839196445
 20
73.38271269407969
 30
0.0
  0
VERTEX
  5
7DD
  8
0
  6
CONTINUOUS
 62
     7
 10
-327.4807864058392
 20
73.19512502743792
 30
0.0
  0
VERTEX
  5
7DE
  8
0
  6
CONTINUOUS
 62
     7
 10
-327.5000000000002
 20
73.00003807693581
 30
0.0
  0
SEQEND
  5
862
  8
0
  6
CONTINUOUS
 62
     7
  0
LINE
  5
3CB
  8
0
  6
CONTINUOUS
 62
     7
 10
-312.5000000000001
 20
73.99999999999996
 30
0.0
 11
-326.5000380769359
 21
73.99999999999996
 31
0.0
  0
LINE
  5
3CC
  8
0
  6
CONTINUOUS
 62
     7
 10
-312.5000000000001
 20
73.99999999999996
 30
0.0
 11
-312.5000000000001
 21
75.00000000000004
 31
0.0
  0
LINE
  5
3CD
  8
0
  6
CONTINUOUS
 62
     7
 10
-192.5114645603862
 20
70.0
 30
0.0
 11
-177.5114645603862
 21
70.0
 31
0.0
  0
LINE
  5
3CE
  8
0
  6
CONTINUOUS
 62
     7
 10
-177.5987332382938
 20
60.00000000000009
 30
0.0
 11
-177.5872686779075
 21
61.31370849898479
 31
0.0
  0
LINE
  5
3CF
  8
0
  6
CONTINUOUS
 62
     7
 10
-177.5987332382938
 20
60.00000000000009
 30
0.0
 11
-327.4012667617063
 21
60.00000000000009
 31
0.0
  0
LINE
  5
3D0
  8
0
  6
CONTINUOUS
 62
     7
 10
-327.4012667617063
 20
60.00000000000009
 30
0.0
 11
-327.4127313220925
 21
61.31370849898473
 31
0.0
  0
LINE
  5
3D1
  8
0
  6
CONTINUOUS
 62
     7
 10
-312.4885354396138
 20
69.99999999999994
 30
0.0
 11
-327.4885354396139
 21
69.99999999999994
 31
0.0
  0
LINE
  5
3D2
  8
0
  6
CONTINUOUS
 62
     7
 10
-264.9999999999999
 20
71.313708498987
 30
0.0
 11
-264.9999999999999
 21
70.51370849898483
 31
0.0
  0
LINE
  5
3D3
  8
0
  6
CONTINUOUS
 62
     7
 10
-264.4999999999999
 20
70.01370849898483
 30
0.0
 11
-264.5245338371636
 21
70.01431077088225
 31
0.0
  0
LINE
  5
3D4
  8
0
  6
CONTINUOUS
 62
     7
 10
-264.5245338371636
 20
70.01431077088225
 30
0.0
 11
-264.5490085701647
 21
70.01611613564873
 31
0.0
  0
LINE
  5
3D5
  8
0
  6
CONTINUOUS
 62
     7
 10
-264.5490085701647
 20
70.01611613564873
 30
0.0
 11
-264.5733652372276
 21
70.01912024400244
 31
0.0
  0
LINE
  5
3D6
  8
0
  6
CONTINUOUS
 62
     7
 10
-264.5733652372276
 20
70.01912024400244
 30
0.0
 11
-264.597545161008
 21
70.0233158587832
 31
0.0
  0
LINE
  5
3D7
  8
0
  6
CONTINUOUS
 62
     7
 10
-264.597545161008
 20
70.0233158587832
 30
0.0
 11
-264.6214900899516
 21
70.02869287238755
 31
0.0
  0
LINE
  5
3D8
  8
0
  6
CONTINUOUS
 62
     7
 10
-264.6214900899516
 20
70.02869287238755
 30
0.0
 11
-264.6451423386271
 21
70.03523833111872
 31
0.0
  0
LINE
  5
3D9
  8
0
  6
CONTINUOUS
 62
     7
 10
-264.6451423386271
 20
70.03523833111872
 30
0.0
 11
-264.6684449266961
 21
70.04293646639331
 31
0.0
  0
LINE
  5
3DA
  8
0
  6
CONTINUOUS
 62
     7
 10
-264.6684449266961
 20
70.04293646639331
 30
0.0
 11
-264.6913417161825
 21
70.05176873272919
 31
0.0
  0
LINE
  5
3DB
  8
0
  6
CONTINUOUS
 62
     7
 10
-264.6913417161825
 20
70.05176873272919
 30
0.0
 11
-264.7137775467151
 21
70.0617138524231
 31
0.0
  0
LINE
  5
3DC
  8
0
  6
CONTINUOUS
 62
     7
 10
-264.7137775467151
 20
70.0617138524231
 30
0.0
 11
-264.7356983684129
 21
70.07274786681066
 31
0.0
  0
LINE
  5
3DD
  8
0
  6
CONTINUOUS
 62
     7
 10
-264.7356983684129
 20
70.07274786681066
 30
0.0
 11
-264.7570513720966
 21
70.0848441939847
 31
0.0
  0
LINE
  5
3DE
  8
0
  6
CONTINUOUS
 62
     7
 10
-264.7570513720966
 20
70.0848441939847
 30
0.0
 11
-264.7777851165097
 21
70.09797369283355
 31
0.0
  0
LINE
  5
3DF
  8
0
  6
CONTINUOUS
 62
     7
 10
-264.7777851165097
 20
70.09797369283355
 30
0.0
 11
-264.7978496522461
 21
70.1121047332445
 31
0.0
  0
LINE
  5
3E0
  8
0
  6
CONTINUOUS
 62
     7
 10
-264.7978496522461
 20
70.1121047332445
 30
0.0
 11
-264.8171966420817
 21
70.12720327230346
 31
0.0
  0
LINE
  5
3E1
  8
0
  6
CONTINUOUS
 62
     7
 10
-264.8171966420817
 20
70.12720327230346
 30
0.0
 11
-264.8357794774234
 21
70.14323293630736
 31
0.0
  0
LINE
  5
3E2
  8
0
  6
CONTINUOUS
 62
     7
 10
-264.8357794774234
 20
70.14323293630736
 30
0.0
 11
-264.8535533905932
 21
70.16015510839155
 31
0.0
  0
LINE
  5
3E3
  8
0
  6
CONTINUOUS
 62
     7
 10
-264.8535533905932
 20
70.16015510839155
 30
0.0
 11
-264.8704755626774
 21
70.17792902156133
 31
0.0
  0
LINE
  5
3E4
  8
0
  6
CONTINUOUS
 62
     7
 10
-264.8704755626774
 20
70.17792902156133
 30
0.0
 11
-264.8865052266813
 21
70.19651185690302
 31
0.0
  0
LINE
  5
3E5
  8
0
  6
CONTINUOUS
 62
     7
 10
-264.8865052266813
 20
70.19651185690302
 30
0.0
 11
-264.9016037657402
 21
70.21585884673861
 31
0.0
  0
LINE
  5
3E6
  8
0
  6
CONTINUOUS
 62
     7
 10
-264.9016037657402
 20
70.21585884673861
 30
0.0
 11
-264.9157348061512
 21
70.23592338247502
 31
0.0
  0
LINE
  5
3E7
  8
0
  6
CONTINUOUS
 62
     7
 10
-264.9157348061512
 20
70.23592338247502
 30
0.0
 11
-264.928864305
 21
70.25665712688821
 31
0.0
  0
LINE
  5
3E8
  8
0
  6
CONTINUOUS
 62
     7
 10
-264.928864305
 20
70.25665712688821
 30
0.0
 11
-264.9409606321741
 21
70.27801013057183
 31
0.0
  0
LINE
  5
3E9
  8
0
  6
CONTINUOUS
 62
     7
 10
-264.9409606321741
 20
70.27801013057183
 30
0.0
 11
-264.9519946465617
 21
70.29993095226969
 31
0.0
  0
LINE
  5
3EA
  8
0
  6
CONTINUOUS
 62
     7
 10
-264.9519946465617
 20
70.29993095226969
 30
0.0
 11
-264.9619397662555
 21
70.32236678280229
 31
0.0
  0
LINE
  5
3EB
  8
0
  6
CONTINUOUS
 62
     7
 10
-264.9619397662555
 20
70.32236678280229
 30
0.0
 11
-264.9707720325915
 21
70.34526357228872
 31
0.0
  0
LINE
  5
3EC
  8
0
  6
CONTINUOUS
 62
     7
 10
-264.9707720325915
 20
70.34526357228872
 30
0.0
 11
-264.978470167866
 21
70.36856616035759
 31
0.0
  0
LINE
  5
3ED
  8
0
  6
CONTINUOUS
 62
     7
 10
-264.978470167866
 20
70.36856616035759
 30
0.0
 11
-264.9850156265972
 21
70.3922184090332
 31
0.0
  0
LINE
  5
3EE
  8
0
  6
CONTINUOUS
 62
     7
 10
-264.9850156265972
 20
70.3922184090332
 30
0.0
 11
-264.9903926402015
 21
70.41616333797676
 31
0.0
  0
LINE
  5
3EF
  8
0
  6
CONTINUOUS
 62
     7
 10
-264.9903926402015
 20
70.41616333797676
 30
0.0
 11
-264.9945882549823
 21
70.44034326175715
 31
0.0
  0
LINE
  5
3F0
  8
0
  6
CONTINUOUS
 62
     7
 10
-264.9945882549823
 20
70.44034326175715
 30
0.0
 11
-264.997592363336
 21
70.46469992882005
 31
0.0
  0
LINE
  5
3F1
  8
0
  6
CONTINUOUS
 62
     7
 10
-264.997592363336
 20
70.46469992882005
 30
0.0
 11
-264.9993977281025
 21
70.48917466182111
 31
0.0
  0
LINE
  5
3F2
  8
0
  6
CONTINUOUS
 62
     7
 10
-264.9993977281025
 20
70.48917466182111
 30
0.0
 11
-264.9999999999999
 21
70.51370849898483
 31
0.0
  0
LINE
  5
3F3
  8
0
  6
CONTINUOUS
 62
     7
 10
-264.4999999999999
 20
70.01370849898483
 30
0.0
 11
-263.5
 21
70.01370849898483
 31
0.0
  0
LINE
  5
3F4
  8
0
  6
CONTINUOUS
 62
     7
 10
-263.0
 20
70.51370849898483
 30
0.0
 11
-263.0006022718974
 21
70.48917466182111
 31
0.0
  0
LINE
  5
3F5
  8
0
  6
CONTINUOUS
 62
     7
 10
-263.0006022718974
 20
70.48917466182111
 30
0.0
 11
-263.0024076366639
 21
70.46469992882004
 31
0.0
  0
LINE
  5
3F6
  8
0
  6
CONTINUOUS
 62
     7
 10
-263.0024076366639
 20
70.46469992882004
 30
0.0
 11
-263.0054117450176
 21
70.44034326175715
 31
0.0
  0
LINE
  5
3F7
  8
0
  6
CONTINUOUS
 62
     7
 10
-263.0054117450176
 20
70.44034326175715
 30
0.0
 11
-263.0096073597984
 21
70.41616333797676
 31
0.0
  0
LINE
  5
3F8
  8
0
  6
CONTINUOUS
 62
     7
 10
-263.0096073597984
 20
70.41616333797676
 30
0.0
 11
-263.0149843734027
 21
70.3922184090332
 31
0.0
  0
LINE
  5
3F9
  8
0
  6
CONTINUOUS
 62
     7
 10
-263.0149843734027
 20
70.3922184090332
 30
0.0
 11
-263.0215298321339
 21
70.36856616035759
 31
0.0
  0
LINE
  5
3FA
  8
0
  6
CONTINUOUS
 62
     7
 10
-263.0215298321339
 20
70.36856616035759
 30
0.0
 11
-263.0292279674085
 21
70.34526357228872
 31
0.0
  0
LINE
  5
3FB
  8
0
  6
CONTINUOUS
 62
     7
 10
-263.0292279674085
 20
70.34526357228872
 30
0.0
 11
-263.0380602337444
 21
70.32236678280228
 31
0.0
  0
LINE
  5
3FC
  8
0
  6
CONTINUOUS
 62
     7
 10
-263.0380602337444
 20
70.32236678280228
 30
0.0
 11
-263.0480053534383
 21
70.29993095226969
 31
0.0
  0
LINE
  5
3FD
  8
0
  6
CONTINUOUS
 62
     7
 10
-263.0480053534383
 20
70.29993095226969
 30
0.0
 11
-263.0590393678258
 21
70.27801013057183
 31
0.0
  0
LINE
  5
3FE
  8
0
  6
CONTINUOUS
 62
     7
 10
-263.0590393678258
 20
70.27801013057183
 30
0.0
 11
-263.0711356949998
 21
70.25665712688821
 31
0.0
  0
LINE
  5
3FF
  8
0
  6
CONTINUOUS
 62
     7
 10
-263.0711356949998
 20
70.25665712688821
 30
0.0
 11
-263.0842651938488
 21
70.23592338247502
 31
0.0
  0
LINE
  5
400
  8
0
  6
CONTINUOUS
 62
     7
 10
-263.0842651938488
 20
70.23592338247502
 30
0.0
 11
-263.0983962342597
 21
70.21585884673861
 31
0.0
  0
LINE
  5
401
  8
0
  6
CONTINUOUS
 62
     7
 10
-263.0983962342597
 20
70.21585884673861
 30
0.0
 11
-263.1134947733186
 21
70.19651185690302
 31
0.0
  0
LINE
  5
402
  8
0
  6
CONTINUOUS
 62
     7
 10
-263.1134947733186
 20
70.19651185690302
 30
0.0
 11
-263.1295244373225
 21
70.17792902156133
 31
0.0
  0
LINE
  5
403
  8
0
  6
CONTINUOUS
 62
     7
 10
-263.1295244373225
 20
70.17792902156133
 30
0.0
 11
-263.1464466094067
 21
70.16015510839155
 31
0.0
  0
LINE
  5
404
  8
0
  6
CONTINUOUS
 62
     7
 10
-263.1464466094067
 20
70.16015510839155
 30
0.0
 11
-263.1642205225765
 21
70.14323293630736
 31
0.0
  0
LINE
  5
405
  8
0
  6
CONTINUOUS
 62
     7
 10
-263.1642205225765
 20
70.14323293630736
 30
0.0
 11
-263.1828033579181
 21
70.12720327230346
 31
0.0
  0
LINE
  5
406
  8
0
  6
CONTINUOUS
 62
     7
 10
-263.1828033579181
 20
70.12720327230346
 30
0.0
 11
-263.2021503477538
 21
70.1121047332445
 31
0.0
  0
LINE
  5
407
  8
0
  6
CONTINUOUS
 62
     7
 10
-263.2021503477538
 20
70.1121047332445
 30
0.0
 11
-263.2222148834902
 21
70.09797369283355
 31
0.0
  0
LINE
  5
408
  8
0
  6
CONTINUOUS
 62
     7
 10
-263.2222148834902
 20
70.09797369283355
 30
0.0
 11
-263.2429486279034
 21
70.0848441939847
 31
0.0
  0
LINE
  5
409
  8
0
  6
CONTINUOUS
 62
     7
 10
-263.2429486279034
 20
70.0848441939847
 30
0.0
 11
-263.264301631587
 21
70.07274786681064
 31
0.0
  0
LINE
  5
40A
  8
0
  6
CONTINUOUS
 62
     7
 10
-263.264301631587
 20
70.07274786681064
 30
0.0
 11
-263.2862224532848
 21
70.0617138524231
 31
0.0
  0
LINE
  5
40B
  8
0
  6
CONTINUOUS
 62
     7
 10
-263.2862224532848
 20
70.0617138524231
 30
0.0
 11
-263.3086582838175
 21
70.05176873272919
 31
0.0
  0
LINE
  5
40C
  8
0
  6
CONTINUOUS
 62
     7
 10
-263.3086582838175
 20
70.05176873272919
 30
0.0
 11
-263.3315550733039
 21
70.04293646639331
 31
0.0
  0
LINE
  5
40D
  8
0
  6
CONTINUOUS
 62
     7
 10
-263.3315550733039
 20
70.04293646639331
 30
0.0
 11
-263.3548576613728
 21
70.03523833111872
 31
0.0
  0
LINE
  5
40E
  8
0
  6
CONTINUOUS
 62
     7
 10
-263.3548576613728
 20
70.03523833111872
 30
0.0
 11
-263.3785099100484
 21
70.02869287238755
 31
0.0
  0
LINE
  5
40F
  8
0
  6
CONTINUOUS
 62
     7
 10
-263.3785099100484
 20
70.02869287238755
 30
0.0
 11
-263.402454838992
 21
70.0233158587832
 31
0.0
  0
LINE
  5
410
  8
0
  6
CONTINUOUS
 62
     7
 10
-263.402454838992
 20
70.0233158587832
 30
0.0
 11
-263.4266347627723
 21
70.01912024400244
 31
0.0
  0
LINE
  5
411
  8
0
  6
CONTINUOUS
 62
     7
 10
-263.4266347627723
 20
70.01912024400244
 30
0.0
 11
-263.4509914298353
 21
70.01611613564873
 31
0.0
  0
LINE
  5
412
  8
0
  6
CONTINUOUS
 62
     7
 10
-263.4509914298353
 20
70.01611613564873
 30
0.0
 11
-263.4754661628363
 21
70.01431077088225
 31
0.0
  0
LINE
  5
413
  8
0
  6
CONTINUOUS
 62
     7
 10
-263.4754661628363
 20
70.01431077088225
 30
0.0
 11
-263.5
 21
70.01370849898483
 31
0.0
  0
LINE
  5
414
  8
0
  6
CONTINUOUS
 62
     7
 10
-263.0
 20
70.51370849898483
 30
0.0
 11
-263.0
 21
71.313708498987
 31
0.0
  0
LINE
  5
415
  8
0
  6
CONTINUOUS
 62
     7
 10
-242.0
 20
70.51370849898483
 30
0.0
 11
-242.0
 21
71.31370849898467
 31
0.0
  0
LINE
  5
416
  8
0
  6
CONTINUOUS
 62
     7
 10
-241.5
 20
70.0137084989848
 30
0.0
 11
-241.5245338371637
 21
70.01431077088223
 31
0.0
  0
LINE
  5
417
  8
0
  6
CONTINUOUS
 62
     7
 10
-241.5245338371637
 20
70.01431077088223
 30
0.0
 11
-241.5490085701648
 21
70.01611613564872
 31
0.0
  0
LINE
  5
418
  8
0
  6
CONTINUOUS
 62
     7
 10
-241.5490085701648
 20
70.01611613564872
 30
0.0
 11
-241.5733652372277
 21
70.01912024400242
 31
0.0
  0
LINE
  5
419
  8
0
  6
CONTINUOUS
 62
     7
 10
-241.5733652372277
 20
70.01912024400242
 30
0.0
 11
-241.5975451610081
 21
70.02331585878319
 31
0.0
  0
LINE
  5
41A
  8
0
  6
CONTINUOUS
 62
     7
 10
-241.5975451610081
 20
70.02331585878319
 30
0.0
 11
-241.6214900899516
 21
70.02869287238754
 31
0.0
  0
LINE
  5
41B
  8
0
  6
CONTINUOUS
 62
     7
 10
-241.6214900899516
 20
70.02869287238754
 30
0.0
 11
-241.6451423386273
 21
70.03523833111872
 31
0.0
  0
LINE
  5
41C
  8
0
  6
CONTINUOUS
 62
     7
 10
-241.6451423386273
 20
70.03523833111872
 30
0.0
 11
-241.6684449266961
 21
70.04293646639331
 31
0.0
  0
LINE
  5
41D
  8
0
  6
CONTINUOUS
 62
     7
 10
-241.6684449266961
 20
70.04293646639331
 30
0.0
 11
-241.6913417161826
 21
70.05176873272917
 31
0.0
  0
LINE
  5
41E
  8
0
  6
CONTINUOUS
 62
     7
 10
-241.6913417161826
 20
70.05176873272917
 30
0.0
 11
-241.7137775467152
 21
70.0617138524231
 31
0.0
  0
LINE
  5
41F
  8
0
  6
CONTINUOUS
 62
     7
 10
-241.7137775467152
 20
70.0617138524231
 30
0.0
 11
-241.735698368413
 21
70.07274786681064
 31
0.0
  0
LINE
  5
420
  8
0
  6
CONTINUOUS
 62
     7
 10
-241.735698368413
 20
70.07274786681064
 30
0.0
 11
-241.7570513720966
 21
70.08484419398468
 31
0.0
  0
LINE
  5
421
  8
0
  6
CONTINUOUS
 62
     7
 10
-241.7570513720966
 20
70.08484419398468
 30
0.0
 11
-241.7777851165098
 21
70.09797369283355
 31
0.0
  0
LINE
  5
422
  8
0
  6
CONTINUOUS
 62
     7
 10
-241.7777851165098
 20
70.09797369283355
 30
0.0
 11
-241.7978496522462
 21
70.1121047332445
 31
0.0
  0
LINE
  5
423
  8
0
  6
CONTINUOUS
 62
     7
 10
-241.7978496522462
 20
70.1121047332445
 30
0.0
 11
-241.8171966420818
 21
70.12720327230346
 31
0.0
  0
LINE
  5
424
  8
0
  6
CONTINUOUS
 62
     7
 10
-241.8171966420818
 20
70.12720327230346
 30
0.0
 11
-241.8357794774235
 21
70.14323293630734
 31
0.0
  0
LINE
  5
425
  8
0
  6
CONTINUOUS
 62
     7
 10
-241.8357794774235
 20
70.14323293630734
 30
0.0
 11
-241.8535533905933
 21
70.16015510839155
 31
0.0
  0
LINE
  5
426
  8
0
  6
CONTINUOUS
 62
     7
 10
-241.8535533905933
 20
70.16015510839155
 30
0.0
 11
-241.8704755626775
 21
70.17792902156131
 31
0.0
  0
LINE
  5
427
  8
0
  6
CONTINUOUS
 62
     7
 10
-241.8704755626775
 20
70.17792902156131
 30
0.0
 11
-241.8865052266814
 21
70.196511856903
 31
0.0
  0
LINE
  5
428
  8
0
  6
CONTINUOUS
 62
     7
 10
-241.8865052266814
 20
70.196511856903
 30
0.0
 11
-241.9016037657404
 21
70.2158588467386
 31
0.0
  0
LINE
  5
429
  8
0
  6
CONTINUOUS
 62
     7
 10
-241.9016037657404
 20
70.2158588467386
 30
0.0
 11
-241.9157348061513
 21
70.23592338247501
 31
0.0
  0
LINE
  5
42A
  8
0
  6
CONTINUOUS
 62
     7
 10
-241.9157348061513
 20
70.23592338247501
 30
0.0
 11
-241.9288643050002
 21
70.2566571268882
 31
0.0
  0
LINE
  5
42B
  8
0
  6
CONTINUOUS
 62
     7
 10
-241.9288643050002
 20
70.2566571268882
 30
0.0
 11
-241.9409606321742
 21
70.27801013057181
 31
0.0
  0
LINE
  5
42C
  8
0
  6
CONTINUOUS
 62
     7
 10
-241.9409606321742
 20
70.27801013057181
 30
0.0
 11
-241.9519946465618
 21
70.29993095226968
 31
0.0
  0
LINE
  5
42D
  8
0
  6
CONTINUOUS
 62
     7
 10
-241.9519946465618
 20
70.29993095226968
 30
0.0
 11
-241.9619397662557
 21
70.32236678280228
 31
0.0
  0
LINE
  5
42E
  8
0
  6
CONTINUOUS
 62
     7
 10
-241.9619397662557
 20
70.32236678280228
 30
0.0
 11
-241.9707720325915
 21
70.3452635722887
 31
0.0
  0
LINE
  5
42F
  8
0
  6
CONTINUOUS
 62
     7
 10
-241.9707720325915
 20
70.3452635722887
 30
0.0
 11
-241.9784701678661
 21
70.36856616035759
 31
0.0
  0
LINE
  5
430
  8
0
  6
CONTINUOUS
 62
     7
 10
-241.9784701678661
 20
70.36856616035759
 30
0.0
 11
-241.9850156265973
 21
70.39221840903319
 31
0.0
  0
LINE
  5
431
  8
0
  6
CONTINUOUS
 62
     7
 10
-241.9850156265973
 20
70.39221840903319
 30
0.0
 11
-241.9903926402016
 21
70.41616333797676
 31
0.0
  0
LINE
  5
432
  8
0
  6
CONTINUOUS
 62
     7
 10
-241.9903926402016
 20
70.41616333797676
 30
0.0
 11
-241.9945882549824
 21
70.44034326175715
 31
0.0
  0
LINE
  5
433
  8
0
  6
CONTINUOUS
 62
     7
 10
-241.9945882549824
 20
70.44034326175715
 30
0.0
 11
-241.9975923633361
 21
70.46469992882004
 31
0.0
  0
LINE
  5
434
  8
0
  6
CONTINUOUS
 62
     7
 10
-241.9975923633361
 20
70.46469992882004
 30
0.0
 11
-241.9993977281026
 21
70.48917466182111
 31
0.0
  0
LINE
  5
435
  8
0
  6
CONTINUOUS
 62
     7
 10
-241.9993977281026
 20
70.48917466182111
 30
0.0
 11
-242.0
 21
70.51370849898481
 31
0.0
  0
LINE
  5
436
  8
0
  6
CONTINUOUS
 62
     7
 10
-240.5
 20
70.0137084989848
 30
0.0
 11
-241.5
 21
70.0137084989848
 31
0.0
  0
LINE
  5
437
  8
0
  6
CONTINUOUS
 62
     7
 10
-240.0
 20
70.51370849898481
 30
0.0
 11
-240.0006022718974
 21
70.48917466182111
 31
0.0
  0
LINE
  5
438
  8
0
  6
CONTINUOUS
 62
     7
 10
-240.0006022718974
 20
70.48917466182111
 30
0.0
 11
-240.0024076366639
 21
70.46469992882004
 31
0.0
  0
LINE
  5
439
  8
0
  6
CONTINUOUS
 62
     7
 10
-240.0024076366639
 20
70.46469992882004
 30
0.0
 11
-240.0054117450176
 21
70.44034326175714
 31
0.0
  0
LINE
  5
43A
  8
0
  6
CONTINUOUS
 62
     7
 10
-240.0054117450176
 20
70.44034326175714
 30
0.0
 11
-240.0096073597984
 21
70.41616333797676
 31
0.0
  0
LINE
  5
43B
  8
0
  6
CONTINUOUS
 62
     7
 10
-240.0096073597984
 20
70.41616333797676
 30
0.0
 11
-240.0149843734027
 21
70.39221840903319
 31
0.0
  0
LINE
  5
43C
  8
0
  6
CONTINUOUS
 62
     7
 10
-240.0149843734027
 20
70.39221840903319
 30
0.0
 11
-240.0215298321339
 21
70.36856616035757
 31
0.0
  0
LINE
  5
43D
  8
0
  6
CONTINUOUS
 62
     7
 10
-240.0215298321339
 20
70.36856616035757
 30
0.0
 11
-240.0292279674085
 21
70.3452635722887
 31
0.0
  0
LINE
  5
43E
  8
0
  6
CONTINUOUS
 62
     7
 10
-240.0292279674085
 20
70.3452635722887
 30
0.0
 11
-240.0380602337444
 21
70.32236678280228
 31
0.0
  0
LINE
  5
43F
  8
0
  6
CONTINUOUS
 62
     7
 10
-240.0380602337444
 20
70.32236678280228
 30
0.0
 11
-240.0480053534383
 21
70.29993095226968
 31
0.0
  0
LINE
  5
440
  8
0
  6
CONTINUOUS
 62
     7
 10
-240.0480053534383
 20
70.29993095226968
 30
0.0
 11
-240.0590393678258
 21
70.27801013057181
 31
0.0
  0
LINE
  5
441
  8
0
  6
CONTINUOUS
 62
     7
 10
-240.0590393678258
 20
70.27801013057181
 30
0.0
 11
-240.0711356949999
 21
70.2566571268882
 31
0.0
  0
LINE
  5
442
  8
0
  6
CONTINUOUS
 62
     7
 10
-240.0711356949999
 20
70.2566571268882
 30
0.0
 11
-240.0842651938487
 21
70.23592338247501
 31
0.0
  0
LINE
  5
443
  8
0
  6
CONTINUOUS
 62
     7
 10
-240.0842651938487
 20
70.23592338247501
 30
0.0
 11
-240.0983962342597
 21
70.2158588467386
 31
0.0
  0
LINE
  5
444
  8
0
  6
CONTINUOUS
 62
     7
 10
-240.0983962342597
 20
70.2158588467386
 30
0.0
 11
-240.1134947733186
 21
70.196511856903
 31
0.0
  0
LINE
  5
445
  8
0
  6
CONTINUOUS
 62
     7
 10
-240.1134947733186
 20
70.196511856903
 30
0.0
 11
-240.1295244373225
 21
70.17792902156131
 31
0.0
  0
LINE
  5
446
  8
0
  6
CONTINUOUS
 62
     7
 10
-240.1295244373225
 20
70.17792902156131
 30
0.0
 11
-240.1464466094067
 21
70.16015510839155
 31
0.0
  0
LINE
  5
447
  8
0
  6
CONTINUOUS
 62
     7
 10
-240.1464466094067
 20
70.16015510839155
 30
0.0
 11
-240.1642205225765
 21
70.14323293630734
 31
0.0
  0
LINE
  5
448
  8
0
  6
CONTINUOUS
 62
     7
 10
-240.1642205225765
 20
70.14323293630734
 30
0.0
 11
-240.1828033579182
 21
70.12720327230345
 31
0.0
  0
LINE
  5
449
  8
0
  6
CONTINUOUS
 62
     7
 10
-240.1828033579182
 20
70.12720327230345
 30
0.0
 11
-240.2021503477538
 21
70.1121047332445
 31
0.0
  0
LINE
  5
44A
  8
0
  6
CONTINUOUS
 62
     7
 10
-240.2021503477538
 20
70.1121047332445
 30
0.0
 11
-240.2222148834902
 21
70.09797369283355
 31
0.0
  0
LINE
  5
44B
  8
0
  6
CONTINUOUS
 62
     7
 10
-240.2222148834902
 20
70.09797369283355
 30
0.0
 11
-240.2429486279034
 21
70.08484419398468
 31
0.0
  0
LINE
  5
44C
  8
0
  6
CONTINUOUS
 62
     7
 10
-240.2429486279034
 20
70.08484419398468
 30
0.0
 11
-240.264301631587
 21
70.07274786681064
 31
0.0
  0
LINE
  5
44D
  8
0
  6
CONTINUOUS
 62
     7
 10
-240.264301631587
 20
70.07274786681064
 30
0.0
 11
-240.2862224532849
 21
70.06171385242308
 31
0.0
  0
LINE
  5
44E
  8
0
  6
CONTINUOUS
 62
     7
 10
-240.2862224532849
 20
70.06171385242308
 30
0.0
 11
-240.3086582838175
 21
70.05176873272917
 31
0.0
  0
LINE
  5
44F
  8
0
  6
CONTINUOUS
 62
     7
 10
-240.3086582838175
 20
70.05176873272917
 30
0.0
 11
-240.3315550733039
 21
70.0429364663933
 31
0.0
  0
LINE
  5
450
  8
0
  6
CONTINUOUS
 62
     7
 10
-240.3315550733039
 20
70.0429364663933
 30
0.0
 11
-240.3548576613728
 21
70.03523833111872
 31
0.0
  0
LINE
  5
451
  8
0
  6
CONTINUOUS
 62
     7
 10
-240.3548576613728
 20
70.03523833111872
 30
0.0
 11
-240.3785099100484
 21
70.02869287238754
 31
0.0
  0
LINE
  5
452
  8
0
  6
CONTINUOUS
 62
     7
 10
-240.3785099100484
 20
70.02869287238754
 30
0.0
 11
-240.4024548389919
 21
70.02331585878319
 31
0.0
  0
LINE
  5
453
  8
0
  6
CONTINUOUS
 62
     7
 10
-240.4024548389919
 20
70.02331585878319
 30
0.0
 11
-240.4266347627724
 21
70.01912024400242
 31
0.0
  0
LINE
  5
454
  8
0
  6
CONTINUOUS
 62
     7
 10
-240.4266347627724
 20
70.01912024400242
 30
0.0
 11
-240.4509914298352
 21
70.01611613564872
 31
0.0
  0
LINE
  5
455
  8
0
  6
CONTINUOUS
 62
     7
 10
-240.4509914298352
 20
70.01611613564872
 30
0.0
 11
-240.4754661628363
 21
70.01431077088223
 31
0.0
  0
LINE
  5
456
  8
0
  6
CONTINUOUS
 62
     7
 10
-240.4754661628363
 20
70.01431077088223
 30
0.0
 11
-240.5
 21
70.0137084989848
 31
0.0
  0
LINE
  5
457
  8
0
  6
CONTINUOUS
 62
     7
 10
-229.4349608437373
 20
69.43496084373731
 30
0.0
 11
-229.03774550885
 21
61.85564074429157
 31
0.0
  0
LINE
  5
458
  8
0
  6
CONTINUOUS
 62
     7
 10
-229.03774550885
 20
61.85564074429157
 30
0.0
 11
-210.96225449115
 21
61.8556407442916
 31
0.0
  0
LINE
  5
459
  8
0
  6
CONTINUOUS
 62
     7
 10
-210.5650391562627
 20
69.43496084373731
 30
0.0
 11
-210.96225449115
 21
61.8556407442916
 31
0.0
  0
LINE
  5
45A
  8
0
  6
CONTINUOUS
 62
     7
 10
-210.5650391562627
 20
69.43496084373731
 30
0.0
 11
-229.4349608437373
 21
69.43496084373731
 31
0.0
  0
LINE
  5
45B
  8
0
  6
CONTINUOUS
 62
     7
 10
-294.4349608437373
 20
69.43496084373726
 30
0.0
 11
-294.03774550885
 21
61.85564074429153
 31
0.0
  0
LINE
  5
45C
  8
0
  6
CONTINUOUS
 62
     7
 10
-275.96225449115
 20
61.8556407442915
 30
0.0
 11
-294.03774550885
 21
61.85564074429153
 31
0.0
  0
LINE
  5
45D
  8
0
  6
CONTINUOUS
 62
     7
 10
-275.5650391562628
 20
69.43496084373726
 30
0.0
 11
-275.96225449115
 21
61.8556407442915
 31
0.0
  0
LINE
  5
45E
  8
0
  6
CONTINUOUS
 62
     7
 10
-294.4349608437373
 20
69.43496084373726
 30
0.0
 11
-275.5650391562628
 21
69.43496084373726
 31
0.0
  0
LINE
  5
45F
  8
0
  6
CONTINUOUS
 62
     7
 10
-327.4885354396139
 20
69.99999999999994
 30
0.0
 11
-327.5000000000001
 21
71.31370849898482
 31
0.0
  0
LINE
  5
460
  8
0
  6
CONTINUOUS
 62
     7
 10
-177.5114645603862
 20
70.0
 30
0.0
 11
-177.5
 21
71.31370849898482
 31
0.0
  0
LINE
  5
461
  8
0
  6
CONTINUOUS
 62
     7
 10
-240.0
 20
71.31370849898482
 30
0.0
 11
-240.0
 21
70.51370849898483
 31
0.0
  0
LINE
  5
462
  8
0
  6
CONTINUOUS
 62
     7
 10
-312.4127313220925
 20
61.31370849898473
 30
0.0
 11
-312.4885354396138
 21
69.99999999999994
 31
0.0
  0
LINE
  5
463
  8
0
  6
CONTINUOUS
 62
     7
 10
-192.5872686779076
 20
61.31370849898479
 30
0.0
 11
-192.5114645603862
 21
70.0
 31
0.0
  0
LINE
  5
464
  8
0
  6
CONTINUOUS
 62
     7
 10
-242.0
 20
140.0000000000001
 30
0.0
 11
-242.0
 21
95.00000000000004
 31
0.0
  0
LINE
  5
465
  8
0
  6
CONTINUOUS
 62
     7
 10
-242.0
 20
95.00000000000004
 30
0.0
 11
-262.9999999999999
 21
95.00000000000004
 31
0.0
  0
LINE
  5
466
  8
0
  6
CONTINUOUS
 62
     7
 10
-263.0
 20
140.0000000000001
 30
0.0
 11
-262.9999999999999
 21
95.00000000000004
 31
0.0
  0
LINE
  5
467
  8
0
  6
CONTINUOUS
 62
     7
 10
-261.0
 20
140.0000000000001
 30
0.0
 11
-261.0
 21
154.0000380769359
 31
0.0
  0
POLYLINE
  5
468
  8
0
  6
CONTINUOUS
 62
     7
 66
     1
 10
0.0
 20
0.0
 30
0.0
  0
VERTEX
  5
7DF
  8
0
  6
CONTINUOUS
 62
     7
 10
-260.0000380769358
 20
155.0
 30
0.0
  0
VERTEX
  5
7E0
  8
0
  6
CONTINUOUS
 62
     7
 10
-260.1951250274379
 20
154.9807864058391
 30
0.0
  0
VERTEX
  5
7E1
  8
0
  6
CONTINUOUS
 62
     7
 10
-260.3827126940797
 20
154.9238839196443
 30
0.0
  0
VERTEX
  5
7E2
  8
0
  6
CONTINUOUS
 62
     7
 10
-260.5555928847446
 20
154.8314790607096
 30
0.0
  0
VERTEX
  5
7E3
  8
0
  6
CONTINUOUS
 62
     7
 10
-260.7071225527451
 20
154.7071225527452
 30
0.0
  0
VERTEX
  5
7E4
  8
0
  6
CONTINUOUS
 62
     7
 10
-260.8314790607095
 20
154.5555928847446
 30
0.0
  0
VERTEX
  5
7E5
  8
0
  6
CONTINUOUS
 62
     7
 10
-260.9238839196443
 20
154.3827126940797
 30
0.0
  0
VERTEX
  5
7E6
  8
0
  6
CONTINUOUS
 62
     7
 10
-260.980786405839
 20
154.195125027438
 30
0.0
  0
VERTEX
  5
7E7
  8
0
  6
CONTINUOUS
 62
     7
 10
-260.9999999999999
 20
154.0000380769359
 30
0.0
  0
SEQEND
  5
863
  8
0
  6
CONTINUOUS
 62
     7
  0
LINE
  5
469
  8
0
  6
CONTINUOUS
 62
     7
 10
-244.9999619230642
 20
155.0000000000001
 30
0.0
 11
-260.0000380769358
 21
155.0000000000001
 31
0.0
  0
POLYLINE
  5
46A
  8
0
  6
CONTINUOUS
 62
     7
 66
     1
 10
0.0
 20
0.0
 30
0.0
  0
VERTEX
  5
7E8
  8
0
  6
CONTINUOUS
 62
     7
 10
-244.0
 20
154.0000380769359
 30
0.0
  0
VERTEX
  5
7E9
  8
0
  6
CONTINUOUS
 62
     7
 10
-244.0192135941609
 20
154.195125027438
 30
0.0
  0
VERTEX
  5
7EA
  8
0
  6
CONTINUOUS
 62
     7
 10
-244.0761160803557
 20
154.3827126940797
 30
0.0
  0
VERTEX
  5
7EB
  8
0
  6
CONTINUOUS
 62
     7
 10
-244.1685209392904
 20
154.5555928847446
 30
0.0
  0
VERTEX
  5
7EC
  8
0
  6
CONTINUOUS
 62
     7
 10
-244.2928774472548
 20
154.7071225527452
 30
0.0
  0
VERTEX
  5
7ED
  8
0
  6
CONTINUOUS
 62
     7
 10
-244.4444071152554
 20
154.8314790607096
 30
0.0
  0
VERTEX
  5
7EE
  8
0
  6
CONTINUOUS
 62
     7
 10
-244.6172873059203
 20
154.9238839196443
 30
0.0
  0
VERTEX
  5
7EF
  8
0
  6
CONTINUOUS
 62
     7
 10
-244.804874972562
 20
154.9807864058391
 30
0.0
  0
VERTEX
  5
7F0
  8
0
  6
CONTINUOUS
 62
     7
 10
-244.9999619230641
 20
155.0
 30
0.0
  0
SEQEND
  5
864
  8
0
  6
CONTINUOUS
 62
     7
  0
LINE
  5
46B
  8
0
  6
CONTINUOUS
 62
     7
 10
-244.0
 20
140.0000000000001
 30
0.0
 11
-244.0
 21
154.0000380769359
 31
0.0
  0
LINE
  5
46C
  8
0
  6
CONTINUOUS
 62
     7
 10
-263.0
 20
140.0000000000001
 30
0.0
 11
-261.0
 21
140.0000000000001
 31
0.0
  0
LINE
  5
46D
  8
0
  6
CONTINUOUS
 62
     7
 10
-242.0
 20
140.0000000000001
 30
0.0
 11
-244.0
 21
140.0000000000001
 31
0.0
  0
LINE
  5
46E
  8
0
  6
CONTINUOUS
 62
     7
 10
-192.5
 20
93.00000000000006
 30
0.0
 11
-240.0
 21
93.00000000000006
 31
0.0
  0
LINE
  5
46F
  8
0
  6
CONTINUOUS
 62
     7
 10
-192.5
 20
77.00000000000004
 30
0.0
 11
-240.0
 21
77.00000000000004
 31
0.0
  0
LINE
  5
470
  8
0
  6
CONTINUOUS
 62
     7
 10
-240.0
 20
93.00000000000006
 30
0.0
 11
-240.0
 21
77.00000000000004
 31
0.0
  0
LINE
  5
471
  8
0
  6
CONTINUOUS
 62
     7
 10
-192.5
 20
77.00000000000004
 30
0.0
 11
-192.5
 21
93.00000000000006
 31
0.0
  0
LINE
  5
472
  8
0
  6
CONTINUOUS
 62
     7
 10
-264.9999999999999
 20
93.00000000000158
 30
0.0
 11
-312.5000000000001
 21
93.00000000000006
 31
0.0
  0
LINE
  5
473
  8
0
  6
CONTINUOUS
 62
     7
 10
-264.9999999999999
 20
77.00000000000004
 30
0.0
 11
-312.5000000000001
 21
77.00000000000004
 31
0.0
  0
LINE
  5
474
  8
0
  6
CONTINUOUS
 62
     7
 10
-264.9999999999999
 20
93.00000000000158
 30
0.0
 11
-264.9999999999999
 21
77.00000000000004
 31
0.0
  0
LINE
  5
475
  8
0
  6
CONTINUOUS
 62
     7
 10
-312.5000000000001
 20
77.00000000000004
 30
0.0
 11
-312.5000000000001
 21
93.00000000000006
 31
0.0
  0
LINE
  5
476
  8
0
  6
CONTINUOUS
 62
     7
 10
-242.0
 20
92.99999999999994
 30
0.0
 11
-242.0
 21
77.00000000000004
 31
0.0
  0
LINE
  5
477
  8
0
  6
CONTINUOUS
 62
     7
 10
-242.0
 20
77.00000000000004
 30
0.0
 11
-262.9999999999999
 21
77.00000000000004
 31
0.0
  0
LINE
  5
478
  8
0
  6
CONTINUOUS
 62
     7
 10
-262.9999999999999
 20
93.00000000000006
 30
0.0
 11
-262.9999999999999
 21
77.00000000000004
 31
0.0
  0
CIRCLE
  5
479
  8
0
  6
CONTINUOUS
 62
     7
 10
-252.5
 20
85.00000000000018
 30
0.0
 40
2.000000000000002
  0
LINE
  5
47A
  8
0
  6
CONTINUOUS
 62
     7
 10
-242.0
 20
92.99999999999994
 30
0.0
 11
-262.9999999999999
 21
93.00000000000006
 31
0.0
  0
LINE
  5
47B
  8
0
  6
CONTINUOUS
 62
     7
 10
-262.9999999999999
 20
75.00000000000004
 30
0.0
 11
-263.0
 21
71.313708498987
 31
0.0
  0
LINE
  5
47C
  8
0
  6
CONTINUOUS
 62
     7
 10
-242.0
 20
74.9999999999999
 30
0.0
 11
-262.9999999999999
 21
75.00000000000004
 31
0.0
  0
LINE
  5
47D
  8
0
  6
CONTINUOUS
 62
     7
 10
-242.0
 20
74.9999999999999
 30
0.0
 11
-242.0
 21
71.31370849898467
 31
0.0
  0
LINE
  5
47E
  8
0
  6
CONTINUOUS
 62
     7
 10
-240.0
 20
76.90000000000005
 30
0.0
 11
-240.0
 21
76.50000000000004
 31
0.0
  0
LINE
  5
47F
  8
0
  6
CONTINUOUS
 62
     7
 10
-240.0
 20
77.00000000000004
 30
0.0
 11
-240.0
 21
76.90000000000005
 31
0.0
  0
LINE
  5
480
  8
0
  6
CONTINUOUS
 62
     7
 10
-192.5043634338954
 20
77.00000000000004
 30
0.0
 11
-192.5087268677908
 21
76.50000000000004
 31
0.0
  0
LINE
  5
481
  8
0
  6
CONTINUOUS
 62
     7
 10
-240.0
 20
75.50000000000004
 30
0.0
 11
-240.0
 21
75.10000000000005
 31
0.0
  0
LINE
  5
482
  8
0
  6
CONTINUOUS
 62
     7
 10
-240.0
 20
75.10000000000005
 30
0.0
 11
-240.0
 21
75.00000000000004
 31
0.0
  0
LINE
  5
483
  8
0
  6
CONTINUOUS
 62
     7
 10
-192.5087268677908
 20
75.50000000000004
 30
0.0
 11
-192.5043634338954
 21
75.00000000000004
 31
0.0
  0
LINE
  5
484
  8
0
  6
CONTINUOUS
 62
     7
 10
-264.9999999999999
 20
75.10000000000002
 30
0.0
 11
-264.9999999999999
 21
75.50000000000004
 31
0.0
  0
LINE
  5
485
  8
0
  6
CONTINUOUS
 62
     7
 10
-264.9999999999999
 20
75.00000000000004
 30
0.0
 11
-264.9999999999999
 21
75.10000000000004
 31
0.0
  0
LINE
  5
486
  8
0
  6
CONTINUOUS
 62
     7
 10
-312.4956365661047
 20
75.00000000000004
 30
0.0
 11
-312.4912731322093
 21
75.50000000000004
 31
0.0
  0
LINE
  5
487
  8
0
  6
CONTINUOUS
 62
     7
 10
-264.9999999999999
 20
76.50000000000004
 30
0.0
 11
-264.9999999999999
 21
76.90000000000005
 31
0.0
  0
LINE
  5
488
  8
0
  6
CONTINUOUS
 62
     7
 10
-264.9999999999999
 20
76.90000000000005
 30
0.0
 11
-264.9999999999999
 21
77.00000000000007
 31
0.0
  0
LINE
  5
489
  8
0
  6
CONTINUOUS
 62
     7
 10
-312.4912731322093
 20
76.50000000000004
 30
0.0
 11
-312.4956365661047
 21
77.00000000000004
 31
0.0
  0
LINE
  5
48A
  8
0
  6
CONTINUOUS
 62
     7
 10
-242.0
 20
76.50000000000004
 30
0.0
 11
-242.0
 21
76.90000000000005
 31
0.0
  0
LINE
  5
48B
  8
0
  6
CONTINUOUS
 62
     7
 10
-263.0
 20
76.90000000000005
 30
0.0
 11
-263.0
 21
76.50000000000004
 31
0.0
  0
LINE
  5
48C
  8
0
  6
CONTINUOUS
 62
     7
 10
-263.0
 20
77.00000000000007
 30
0.0
 11
-263.0
 21
76.90000000000005
 31
0.0
  0
LINE
  5
48D
  8
0
  6
CONTINUOUS
 62
     7
 10
-242.0
 20
76.90000000000005
 30
0.0
 11
-242.0
 21
77.00000000000004
 31
0.0
  0
LINE
  5
48E
  8
0
  6
CONTINUOUS
 62
     7
 10
-263.0
 20
75.50000000000006
 30
0.0
 11
-263.0
 21
75.10000000000004
 31
0.0
  0
LINE
  5
48F
  8
0
  6
CONTINUOUS
 62
     7
 10
-242.0
 20
75.10000000000005
 30
0.0
 11
-242.0
 21
75.50000000000004
 31
0.0
  0
LINE
  5
490
  8
0
  6
CONTINUOUS
 62
     7
 10
-263.0
 20
75.10000000000004
 30
0.0
 11
-263.0
 21
75.00000000000004
 31
0.0
  0
LINE
  5
491
  8
0
  6
CONTINUOUS
 62
     7
 10
-242.0
 20
75.00000000000004
 30
0.0
 11
-242.0
 21
75.10000000000005
 31
0.0
  0
LINE
  5
492
  8
0
  6
CONTINUOUS
 62
     7
 10
-264.9999999999999
 20
94.50000000000004
 30
0.0
 11
-264.9999999999999
 21
94.90000000000005
 31
0.0
  0
LINE
  5
493
  8
0
  6
CONTINUOUS
 62
     7
 10
-264.9999999999999
 20
94.90000000000005
 30
0.0
 11
-264.9999999999999
 21
95.00000000000006
 31
0.0
  0
LINE
  5
494
  8
0
  6
CONTINUOUS
 62
     7
 10
-312.4912731322093
 20
94.50000000000004
 30
0.0
 11
-312.4956365661047
 21
95.00000000000004
 31
0.0
  0
LINE
  5
495
  8
0
  6
CONTINUOUS
 62
     7
 10
-264.9999999999999
 20
93.10000000000002
 30
0.0
 11
-264.9999999999999
 21
93.50000000000006
 31
0.0
  0
LINE
  5
496
  8
0
  6
CONTINUOUS
 62
     7
 10
-264.9999999999999
 20
93.00000000000003
 30
0.0
 11
-264.9999999999999
 21
93.10000000000004
 31
0.0
  0
LINE
  5
497
  8
0
  6
CONTINUOUS
 62
     7
 10
-312.4956365661047
 20
93.00000000000006
 30
0.0
 11
-312.4912731322093
 21
93.50000000000006
 31
0.0
  0
LINE
  5
498
  8
0
  6
CONTINUOUS
 62
     7
 10
-240.0
 20
93.50000000000006
 30
0.0
 11
-240.0
 21
93.10000000000004
 31
0.0
  0
LINE
  5
499
  8
0
  6
CONTINUOUS
 62
     7
 10
-240.0
 20
93.10000000000004
 30
0.0
 11
-240.0
 21
93.00000000000006
 31
0.0
  0
LINE
  5
49A
  8
0
  6
CONTINUOUS
 62
     7
 10
-192.5087268677908
 20
93.50000000000006
 30
0.0
 11
-192.5043634338954
 21
93.00000000000006
 31
0.0
  0
LINE
  5
49B
  8
0
  6
CONTINUOUS
 62
     7
 10
-242.0
 20
94.50000000000004
 30
0.0
 11
-242.0
 21
94.90000000000003
 31
0.0
  0
LINE
  5
49C
  8
0
  6
CONTINUOUS
 62
     7
 10
-263.0
 20
94.90000000000005
 30
0.0
 11
-263.0
 21
94.50000000000004
 31
0.0
  0
LINE
  5
49D
  8
0
  6
CONTINUOUS
 62
     7
 10
-263.0
 20
95.00000000000006
 30
0.0
 11
-263.0
 21
94.90000000000005
 31
0.0
  0
LINE
  5
49E
  8
0
  6
CONTINUOUS
 62
     7
 10
-242.0
 20
94.90000000000003
 30
0.0
 11
-242.0
 21
95.00000000000004
 31
0.0
  0
LINE
  5
49F
  8
0
  6
CONTINUOUS
 62
     7
 10
-263.0
 20
93.50000000000006
 30
0.0
 11
-263.0
 21
93.10000000000004
 31
0.0
  0
LINE
  5
4A0
  8
0
  6
CONTINUOUS
 62
     7
 10
-242.0
 20
93.10000000000004
 30
0.0
 11
-242.0
 21
93.50000000000006
 31
0.0
  0
LINE
  5
4A1
  8
0
  6
CONTINUOUS
 62
     7
 10
-263.0
 20
93.10000000000004
 30
0.0
 11
-263.0
 21
93.00000000000004
 31
0.0
  0
LINE
  5
4A2
  8
0
  6
CONTINUOUS
 62
     7
 10
-242.0
 20
93.00000000000006
 30
0.0
 11
-242.0
 21
93.10000000000004
 31
0.0
  0
LINE
  5
4A3
  8
0
  6
CONTINUOUS
 62
     7
 10
-240.0
 20
94.90000000000003
 30
0.0
 11
-240.0
 21
94.50000000000004
 31
0.0
  0
LINE
  5
4A4
  8
0
  6
CONTINUOUS
 62
     7
 10
-240.0
 20
95.00000000000004
 30
0.0
 11
-240.0
 21
94.90000000000003
 31
0.0
  0
LINE
  5
4A5
  8
0
  6
CONTINUOUS
 62
     7
 10
-192.5043634338954
 20
95.00000000000004
 30
0.0
 11
-192.5087268677908
 21
94.50000000000004
 31
0.0
  0
LINE
  5
4A6
  8
0
  6
CONTINUOUS
 62
     7
 10
-263.5
 20
139.9886550718721
 30
0.0
 11
-263.0
 21
139.9930185057675
 31
0.0
  0
LINE
  5
4A7
  8
0
  6
CONTINUOUS
 62
     7
 10
-264.9999999999999
 20
139.9930185057675
 30
0.0
 11
-264.4999999999999
 21
139.9886550718721
 31
0.0
  0
LINE
  5
4A8
  8
0
  6
CONTINUOUS
 62
     7
 10
-240.5
 20
139.9886550718721
 30
0.0
 11
-240.0
 21
139.9930185057675
 31
0.0
  0
LINE
  5
4A9
  8
0
  6
CONTINUOUS
 62
     7
 10
-242.0
 20
139.9930185057675
 30
0.0
 11
-241.5
 21
139.9886550718721
 31
0.0
  0
LINE
  5
4AA
  8
0
  6
CONTINUOUS
 62
     7
 10
-264.9999999999999
 20
75.50000000000004
 30
0.0
 11
-264.9999999999999
 21
76.50000000000004
 31
0.0
  0
LINE
  5
4AB
  8
0
  6
CONTINUOUS
 62
     7
 10
-312.4912731322094
 20
76.50000000000004
 30
0.0
 11
-312.4912731322094
 21
75.50000000000004
 31
0.0
  0
LINE
  5
4AC
  8
0
  6
CONTINUOUS
 62
     7
 10
-240.0
 20
75.50000000000004
 30
0.0
 11
-240.0
 21
76.50000000000004
 31
0.0
  0
LINE
  5
4AD
  8
0
  6
CONTINUOUS
 62
     7
 10
-242.0
 20
76.50000000000004
 30
0.0
 11
-242.0
 21
75.50000000000004
 31
0.0
  0
LINE
  5
4AE
  8
0
  6
CONTINUOUS
 62
     7
 10
-263.0
 20
76.50000000000004
 30
0.0
 11
-263.0
 21
75.50000000000004
 31
0.0
  0
LINE
  5
4AF
  8
0
  6
CONTINUOUS
 62
     7
 10
-192.5087268677908
 20
76.50000000000004
 30
0.0
 11
-192.5087268677908
 21
75.50000000000004
 31
0.0
  0
LINE
  5
4B0
  8
0
  6
CONTINUOUS
 62
     7
 10
-264.9999999999999
 20
93.50000000000006
 30
0.0
 11
-264.9999999999999
 21
94.50000000000004
 31
0.0
  0
LINE
  5
4B1
  8
0
  6
CONTINUOUS
 62
     7
 10
-312.4912731322094
 20
94.50000000000004
 30
0.0
 11
-312.4912731322094
 21
93.50000000000006
 31
0.0
  0
LINE
  5
4B2
  8
0
  6
CONTINUOUS
 62
     7
 10
-263.0
 20
94.50000000000004
 30
0.0
 11
-263.0
 21
93.50000000000006
 31
0.0
  0
LINE
  5
4B3
  8
0
  6
CONTINUOUS
 62
     7
 10
-242.0
 20
94.50000000000004
 30
0.0
 11
-242.0
 21
93.50000000000006
 31
0.0
  0
LINE
  5
4B4
  8
0
  6
CONTINUOUS
 62
     7
 10
-240.0
 20
93.50000000000006
 30
0.0
 11
-240.0
 21
94.50000000000004
 31
0.0
  0
LINE
  5
4B5
  8
0
  6
CONTINUOUS
 62
     7
 10
-192.5087268677908
 20
94.50000000000004
 30
0.0
 11
-192.5087268677908
 21
93.50000000000006
 31
0.0
  0
LINE
  5
4B6
  8
0
  6
CONTINUOUS
 62
     7
 10
-263.5
 20
139.9886550718721
 30
0.0
 11
-264.4999999999999
 21
139.9886550718721
 31
0.0
  0
LINE
  5
4B7
  8
0
  6
CONTINUOUS
 62
     7
 10
-241.5
 20
139.9886550718721
 30
0.0
 11
-240.5
 21
139.9886550718721
 31
0.0
  0
LINE
  5
4B8
  8
0
  6
CONTINUOUS
 62
     7
 10
-210.96225449115
 20
61.8556407442916
 30
0.0
 11
-211.2002720239238
 21
61.89527508043054
 31
0.0
  0
LINE
  5
4B9
  8
0
  6
CONTINUOUS
 62
     7
 10
-211.2002720262097
 20
61.89528009221078
 30
0.0
 11
-211.0926462712436
 21
61.91320177764221
 31
0.0
  0
LINE
  5
4BA
  8
0
  6
CONTINUOUS
 62
     7
 10
-293.7997204082818
 20
61.89527883241315
 30
0.0
 11
-293.9073537287564
 21
61.91320177764214
 31
0.0
  0
LINE
  5
4BB
  8
0
  6
CONTINUOUS
 62
     7
 10
-294.03774550885
 20
61.85564074429153
 30
0.0
 11
-293.7997204082916
 21
61.89527634060703
 31
0.0
  0
LINE
  5
4BC
  8
0
  6
CONTINUOUS
 62
     7
 10
-275.96225449115
 20
61.85564074429151
 30
0.0
 11
-276.2002720239241
 21
61.89527508043049
 31
0.0
  0
LINE
  5
4BD
  8
0
  6
CONTINUOUS
 62
     7
 10
-276.2002720262099
 20
61.89528009221074
 30
0.0
 11
-276.0926462712436
 21
61.91320177764221
 31
0.0
  0
LINE
  5
4BE
  8
0
  6
CONTINUOUS
 62
     7
 10
-228.7997204082818
 20
61.89527883241321
 30
0.0
 11
-228.9073537287564
 21
61.91320177764221
 31
0.0
  0
LINE
  5
4BF
  8
0
  6
CONTINUOUS
 62
     7
 10
-229.03774550885
 20
61.85564074429158
 30
0.0
 11
-228.7997204082916
 21
61.8952763406071
 31
0.0
  0
LINE
  5
4C0
  8
0
  6
CONTINUOUS
 62
     7
 10
-292.5176326980708
 20
99.90000000000005
 30
0.0
 11
-276.9999999999999
 21
99.90000000000005
 31
0.0
  0
ARC
  5
4C1
  8
0
  6
CONTINUOUS
 62
     7
 10
-277.0
 20
104.4
 30
0.0
 40
4.500000000000006
 50
281.0422129012517
 51
294.2951889453641
  0
LINE
  5
4C2
  8
0
  6
CONTINUOUS
 62
     7
 10
-312.4664425799827
 20
97.90000000000003
 30
0.0
 11
-312.457088004915
 21
99.7566339824306
 31
0.0
  0
ARC
  5
4C3
  8
0
  6
CONTINUOUS
 62
     7
 10
-277.0
 20
104.4
 30
0.0
 40
4.500000000000005
 50
335.7048110546356
 51
0.0000000000013074
  0
LINE
  5
4C4
  8
0
  6
CONTINUOUS
 62
     7
 10
-272.4999999999999
 20
104.4000000000001
 30
0.0
 11
-272.4999999999999
 21
117.8548362998015
 31
0.0
  0
LINE
  5
4C5
  8
0
  6
CONTINUOUS
 62
     7
 10
-272.4999999999999
 20
137.7443512818968
 30
0.0
 11
-272.4999999999999
 21
137.9563656610463
 31
0.0
  0
ARC
  5
4C6
  8
0
  6
CONTINUOUS
 62
     7
 10
-228.0
 20
104.4000000000001
 30
0.0
 40
4.5
 50
180.0
 51
204.2951889453644
  0
LINE
  5
4C7
  8
0
  6
CONTINUOUS
 62
     7
 10
-232.5
 20
104.4000000000001
 30
0.0
 11
-232.5
 21
117.8548362998015
 31
0.0
  0
LINE
  5
4C8
  8
0
  6
CONTINUOUS
 62
     7
 10
-232.5
 20
137.7451637001986
 30
0.0
 11
-232.5
 21
137.9563656610463
 31
0.0
  0
ARC
  5
4C9
  8
0
  6
CONTINUOUS
 62
     7
 10
-228.0
 20
104.4000000000001
 30
0.0
 40
4.5
 50
245.7048110546355
 51
259.1922817730818
  0
LINE
  5
4CA
  8
0
  6
CONTINUOUS
 62
     7
 10
-212.4823673019291
 20
99.90000000000008
 30
0.0
 11
-228.0
 21
99.90000000000008
 31
0.0
  0
LINE
  5
4CB
  8
0
  6
CONTINUOUS
 62
     7
 10
-192.5335574200174
 20
97.90000000000006
 30
0.0
 11
-192.5429119950851
 21
99.75663398243015
 31
0.0
  0
ARC
  5
4CC
  8
0
  6
CONTINUOUS
 62
     7
 10
-277.0
 20
104.4
 30
0.0
 40
4.5
 50
294.2951889453643
 51
335.7048110546355
  0
ARC
  5
4CD
  8
0
  6
CONTINUOUS
 62
     7
 10
-228.0
 20
104.4000000000001
 30
0.0
 40
4.5
 50
204.2951889453644
 51
245.7048110546353
  0
LINE
  5
4CE
  8
0
  6
CONTINUOUS
 62
     7
 10
-293.170819574823
 20
62.00000000000001
 30
0.0
 11
-293.8052010251377
 21
61.89527885792912
 31
0.0
  0
LINE
  5
4CF
  8
0
  6
CONTINUOUS
 62
     7
 10
-293.170819574823
 20
62.00000000000001
 30
0.0
 11
-276.8291804251771
 21
62.00000000000001
 31
0.0
  0
LINE
  5
4D0
  8
0
  6
CONTINUOUS
 62
     7
 10
-276.8291804251771
 20
62.00000000000001
 30
0.0
 11
-276.1975511278153
 21
61.89573317228563
 31
0.0
  0
LINE
  5
4D1
  8
0
  6
CONTINUOUS
 62
     7
 10
-228.1708195748229
 20
62.00000000000007
 30
0.0
 11
-228.8052010251376
 21
61.89527885792919
 31
0.0
  0
LINE
  5
4D2
  8
0
  6
CONTINUOUS
 62
     7
 10
-211.8291804251771
 20
62.00000000000007
 30
0.0
 11
-228.1708195748229
 21
62.00000000000007
 31
0.0
  0
LINE
  5
4D3
  8
0
  6
CONTINUOUS
 62
     7
 10
-211.8291804251771
 20
62.00000000000007
 30
0.0
 11
-211.1975511278151
 21
61.89573317228567
 31
0.0
  0
LINE
  5
4D4
  8
0
  6
CONTINUOUS
 62
     7
 10
-327.4127313220925
 20
61.31370849898473
 30
0.0
 11
-327.4127313220925
 21
61.4127503605603
 31
0.0
  0
POLYLINE
  5
4D5
  8
0
  6
CONTINUOUS
 62
     7
 66
     1
 10
0.0
 20
0.0
 30
0.0
  0
VERTEX
  5
7F1
  8
0
  6
CONTINUOUS
 62
     7
 10
-326.9127503605604
 20
61.91273132209241
 30
0.0
  0
VERTEX
  5
7F2
  8
0
  6
CONTINUOUS
 62
     7
 10
-327.0102938358115
 20
61.90312452501194
 30
0.0
  0
VERTEX
  5
7F3
  8
0
  6
CONTINUOUS
 62
     7
 10
-327.1040876691324
 20
61.87467328191457
 30
0.0
  0
VERTEX
  5
7F4
  8
0
  6
CONTINUOUS
 62
     7
 10
-327.1905277644648
 20
61.82847085244719
 30
0.0
  0
VERTEX
  5
7F5
  8
0
  6
CONTINUOUS
 62
     7
 10
-327.2662925984652
 20
61.76629259846499
 30
0.0
  0
VERTEX
  5
7F6
  8
0
  6
CONTINUOUS
 62
     7
 10
-327.3284708524474
 20
61.69052776446468
 30
0.0
  0
VERTEX
  5
7F7
  8
0
  6
CONTINUOUS
 62
     7
 10
-327.3746732819147
 20
61.60408766913226
 30
0.0
  0
VERTEX
  5
7F8
  8
0
  6
CONTINUOUS
 62
     7
 10
-327.4031245250121
 20
61.51029383581137
 30
0.0
  0
VERTEX
  5
7F9
  8
0
  6
CONTINUOUS
 62
     7
 10
-327.4127313220926
 20
61.41275036056031
 30
0.0
  0
SEQEND
  5
865
  8
0
  6
CONTINUOUS
 62
     7
  0
LINE
  5
4D6
  8
0
  6
CONTINUOUS
 62
     7
 10
-312.4179589150734
 20
61.91273132209237
 30
0.0
 11
-326.9127503605604
 21
61.91273132209237
 31
0.0
  0
LINE
  5
4D7
  8
0
  6
CONTINUOUS
 62
     7
 10
-192.5820410849267
 20
61.91273132209244
 30
0.0
 11
-178.0872496394396
 21
61.91273132209244
 31
0.0
  0
LINE
  5
4D8
  8
0
  6
CONTINUOUS
 62
     7
 10
-177.5872686779075
 20
61.31370849898479
 30
0.0
 11
-177.5872686779076
 21
61.41275036056035
 31
0.0
  0
POLYLINE
  5
4D9
  8
0
  6
CONTINUOUS
 62
     7
 66
     1
 10
0.0
 20
0.0
 30
0.0
  0
VERTEX
  5
7FA
  8
0
  6
CONTINUOUS
 62
     7
 10
-177.5872686779075
 20
61.41275036056034
 30
0.0
  0
VERTEX
  5
7FB
  8
0
  6
CONTINUOUS
 62
     7
 10
-177.596875474988
 20
61.5102938358114
 30
0.0
  0
VERTEX
  5
7FC
  8
0
  6
CONTINUOUS
 62
     7
 10
-177.6253267180854
 20
61.60408766913228
 30
0.0
  0
VERTEX
  5
7FD
  8
0
  6
CONTINUOUS
 62
     7
 10
-177.6715291475527
 20
61.6905277644647
 30
0.0
  0
VERTEX
  5
7FE
  8
0
  6
CONTINUOUS
 62
     7
 10
-177.733707401535
 20
61.76629259846501
 30
0.0
  0
VERTEX
  5
7FF
  8
0
  6
CONTINUOUS
 62
     7
 10
-177.8094722355353
 20
61.82847085244721
 30
0.0
  0
VERTEX
  5
800
  8
0
  6
CONTINUOUS
 62
     7
 10
-177.8959123308677
 20
61.87467328191459
 30
0.0
  0
VERTEX
  5
801
  8
0
  6
CONTINUOUS
 62
     7
 10
-177.9897061641886
 20
61.90312452501198
 30
0.0
  0
VERTEX
  5
802
  8
0
  6
CONTINUOUS
 62
     7
 10
-178.0872496394396
 20
61.91273132209244
 30
0.0
  0
SEQEND
  5
866
  8
0
  6
CONTINUOUS
 62
     7
  0
LINE
  5
4DA
  8
0
  6
CONTINUOUS
 62
     7
 10
-276.8291804251771
 20
62.00000000000001
 30
0.0
 11
-277.1788199820314
 21
65.3334727488942
 31
0.0
  0
LINE
  5
4DB
  8
0
  6
CONTINUOUS
 62
     7
 10
-293.170819574823
 20
62.00000000000001
 30
0.0
 11
-292.8211800179686
 21
65.3334727488942
 31
0.0
  0
LINE
  5
4DC
  8
0
  6
CONTINUOUS
 62
     7
 10
-211.8291804251771
 20
62.00000000000007
 30
0.0
 11
-212.1788199820314
 21
65.33347274889425
 31
0.0
  0
LINE
  5
4DD
  8
0
  6
CONTINUOUS
 62
     7
 10
-228.1708195748229
 20
62.00000000000007
 30
0.0
 11
-227.8211800179686
 21
65.33347274889425
 31
0.0
  0
POLYLINE
  5
4DE
  8
0
  6
CONTINUOUS
 62
     7
 66
     1
 10
0.0
 20
0.0
 30
0.0
  0
VERTEX
  5
803
  8
0
  6
CONTINUOUS
 62
     7
 10
-277.1788199820315
 20
65.33347274889418
 30
0.0
  0
VERTEX
  5
804
  8
0
  6
CONTINUOUS
 62
     7
 10
-277.2077564183281
 20
65.58219841112617
 30
0.0
  0
VERTEX
  5
805
  8
0
  6
CONTINUOUS
 62
     7
 10
-277.2355769348509
 20
65.76701825154366
 30
0.0
  0
VERTEX
  5
806
  8
0
  6
CONTINUOUS
 62
     7
 10
-277.2612124047518
 20
65.88082974732755
 30
0.0
  0
VERTEX
  5
807
  8
0
  6
CONTINUOUS
 62
     7
 10
-277.283677671299
 20
65.91925918652109
 30
0.0
  0
SEQEND
  5
867
  8
0
  6
CONTINUOUS
 62
     7
  0
POLYLINE
  5
4DF
  8
0
  6
CONTINUOUS
 62
     7
 66
     1
 10
0.0
 20
0.0
 30
0.0
  0
VERTEX
  5
808
  8
0
  6
CONTINUOUS
 62
     7
 10
-292.7163223287011
 20
65.91925918652109
 30
0.0
  0
VERTEX
  5
809
  8
0
  6
CONTINUOUS
 62
     7
 10
-292.7387875952483
 20
65.88082974732754
 30
0.0
  0
VERTEX
  5
80A
  8
0
  6
CONTINUOUS
 62
     7
 10
-292.7644230651491
 20
65.76701825154365
 30
0.0
  0
VERTEX
  5
80B
  8
0
  6
CONTINUOUS
 62
     7
 10
-292.7922435816719
 20
65.58219841112617
 30
0.0
  0
VERTEX
  5
80C
  8
0
  6
CONTINUOUS
 62
     7
 10
-292.8211800179686
 20
65.33347274889418
 30
0.0
  0
SEQEND
  5
868
  8
0
  6
CONTINUOUS
 62
     7
  0
POLYLINE
  5
4E0
  8
0
  6
CONTINUOUS
 62
     7
 66
     1
 10
0.0
 20
0.0
 30
0.0
  0
VERTEX
  5
80D
  8
0
  6
CONTINUOUS
 62
     7
 10
-212.1788199820313
 20
65.33347274889425
 30
0.0
  0
VERTEX
  5
80E
  8
0
  6
CONTINUOUS
 62
     7
 10
-212.207756418328
 20
65.58219841112624
 30
0.0
  0
VERTEX
  5
80F
  8
0
  6
CONTINUOUS
 62
     7
 10
-212.2355769348509
 20
65.76701825154373
 30
0.0
  0
VERTEX
  5
810
  8
0
  6
CONTINUOUS
 62
     7
 10
-212.2612124047517
 20
65.88082974732762
 30
0.0
  0
VERTEX
  5
811
  8
0
  6
CONTINUOUS
 62
     7
 10
-212.2836776712989
 20
65.91925918652116
 30
0.0
  0
SEQEND
  5
869
  8
0
  6
CONTINUOUS
 62
     7
  0
POLYLINE
  5
4E1
  8
0
  6
CONTINUOUS
 62
     7
 66
     1
 10
0.0
 20
0.0
 30
0.0
  0
VERTEX
  5
812
  8
0
  6
CONTINUOUS
 62
     7
 10
-227.716322328701
 20
65.91925918652116
 30
0.0
  0
VERTEX
  5
813
  8
0
  6
CONTINUOUS
 62
     7
 10
-227.7387875952482
 20
65.88082974732764
 30
0.0
  0
VERTEX
  5
814
  8
0
  6
CONTINUOUS
 62
     7
 10
-227.764423065149
 20
65.76701825154375
 30
0.0
  0
VERTEX
  5
815
  8
0
  6
CONTINUOUS
 62
     7
 10
-227.7922435816719
 20
65.58219841112626
 30
0.0
  0
VERTEX
  5
816
  8
0
  6
CONTINUOUS
 62
     7
 10
-227.8211800179685
 20
65.33347274889427
 30
0.0
  0
SEQEND
  5
86A
  8
0
  6
CONTINUOUS
 62
     7
  0
LINE
  5
4E2
  8
0
  6
CONTINUOUS
 62
     7
 10
-193.7019737345227
 20
98.00000000000013
 30
0.0
 11
-193.7277962229944
 21
98.00000000000013
 31
0.0
  0
LINE
  5
4E3
  8
0
  6
CONTINUOUS
 62
     7
 10
-194.2202000995005
 20
98.41317591116666
 30
0.0
 11
-194.2152601790854
 21
98.38873953302198
 31
0.0
  0
LINE
  5
4E4
  8
0
  6
CONTINUOUS
 62
     7
 10
-194.2152601790854
 20
98.38873953302198
 30
0.0
 11
-194.2091083464694
 21
98.36457976592862
 31
0.0
  0
LINE
  5
4E5
  8
0
  6
CONTINUOUS
 62
     7
 10
-194.2091083464694
 20
98.36457976592862
 30
0.0
 11
-194.201759896078
 21
98.34075667487429
 31
0.0
  0
LINE
  5
4E6
  8
0
  6
CONTINUOUS
 62
     7
 10
-194.201759896078
 20
98.34075667487429
 30
0.0
 11
-194.1932330973165
 21
98.31732948781693
 31
0.0
  0
LINE
  5
4E7
  8
0
  6
CONTINUOUS
 62
     7
 10
-194.1932330973165
 20
98.31732948781693
 30
0.0
 11
-194.1835491491503
 21
98.29435644843483
 31
0.0
  0
LINE
  5
4E8
  8
0
  6
CONTINUOUS
 62
     7
 10
-194.1835491491503
 20
98.29435644843483
 30
0.0
 11
-194.1727321274002
 21
98.27189467132355
 31
0.0
  0
LINE
  5
4E9
  8
0
  6
CONTINUOUS
 62
     7
 10
-194.1727321274002
 20
98.27189467132355
 30
0.0
 11
-194.1608089248867
 21
98.25000000000013
 31
0.0
  0
LINE
  5
4EA
  8
0
  6
CONTINUOUS
 62
     7
 10
-194.1608089248867
 20
98.25000000000013
 30
0.0
 11
-194.1478091845698
 21
98.22872686806726
 31
0.0
  0
LINE
  5
4EB
  8
0
  6
CONTINUOUS
 62
     7
 10
-194.1478091845698
 20
98.22872686806726
 30
0.0
 11
-194.1337652258524
 21
98.20812816388273
 31
0.0
  0
LINE
  5
4EC
  8
0
  6
CONTINUOUS
 62
     7
 10
-194.1337652258524
 20
98.20812816388273
 30
0.0
 11
-194.1187119642285
 21
98.18825509907076
 31
0.0
  0
LINE
  5
4ED
  8
0
  6
CONTINUOUS
 62
     7
 10
-194.1187119642285
 20
98.18825509907076
 30
0.0
 11
-194.1026868244783
 21
98.1691570812017
 31
0.0
  0
LINE
  5
4EE
  8
0
  6
CONTINUOUS
 62
     7
 10
-194.1026868244783
 20
98.1691570812017
 30
0.0
 11
-194.0857296476243
 21
98.1508815909571
 31
0.0
  0
LINE
  5
4EF
  8
0
  6
CONTINUOUS
 62
     7
 10
-194.0857296476243
 20
98.1508815909571
 30
0.0
 11
-194.0678825918799
 21
98.13347406408522
 31
0.0
  0
LINE
  5
4F0
  8
0
  6
CONTINUOUS
 62
     7
 10
-194.0678825918799
 20
98.13347406408522
 30
0.0
 11
-194.0491900278377
 21
98.11697777844064
 31
0.0
  0
LINE
  5
4F1
  8
0
  6
CONTINUOUS
 62
     7
 10
-194.0491900278377
 20
98.11697777844064
 30
0.0
 11
-194.0296984281572
 21
98.10143374638868
 31
0.0
  0
LINE
  5
4F2
  8
0
  6
CONTINUOUS
 62
     7
 10
-194.0296984281572
 20
98.10143374638868
 30
0.0
 11
-194.0094562520262
 21
98.08688061284214
 31
0.0
  0
LINE
  5
4F3
  8
0
  6
CONTINUOUS
 62
     7
 10
-194.0094562520262
 20
98.08688061284214
 30
0.0
 11
-193.9885138246842
 21
98.07335455918405
 31
0.0
  0
LINE
  5
4F4
  8
0
  6
CONTINUOUS
 62
     7
 10
-193.9885138246842
 20
98.07335455918405
 30
0.0
 11
-193.9669232123051
 21
98.06088921331501
 31
0.0
  0
LINE
  5
4F5
  8
0
  6
CONTINUOUS
 62
     7
 10
-193.9669232123051
 20
98.06088921331501
 30
0.0
 11
-193.9447380925532
 21
98.04951556604892
 31
0.0
  0
LINE
  5
4F6
  8
0
  6
CONTINUOUS
 62
     7
 10
-193.9447380925532
 20
98.04951556604892
 30
0.0
 11
-193.9220136211318
 21
98.03926189406492
 31
0.0
  0
LINE
  5
4F7
  8
0
  6
CONTINUOUS
 62
     7
 10
-193.9220136211318
 20
98.03926189406492
 30
0.0
 11
-193.8988062946573
 21
98.03015368960718
 31
0.0
  0
LINE
  5
4F8
  8
0
  6
CONTINUOUS
 62
     7
 10
-193.8988062946573
 20
98.03015368960718
 30
0.0
 11
-193.8751738101999
 21
98.02221359710705
 31
0.0
  0
LINE
  5
4F9
  8
0
  6
CONTINUOUS
 62
     7
 10
-193.8751738101999
 20
98.02221359710705
 30
0.0
 11
-193.8511749218396
 21
98.01546135688558
 31
0.0
  0
LINE
  5
4FA
  8
0
  6
CONTINUOUS
 62
     7
 10
-193.8511749218396
 20
98.01546135688558
 30
0.0
 11
-193.8268692945941
 21
98.00991375607586
 31
0.0
  0
LINE
  5
4FB
  8
0
  6
CONTINUOUS
 62
     7
 10
-193.8268692945941
 20
98.00991375607586
 30
0.0
 11
-193.8023173560825
 21
98.00558458688757
 31
0.0
  0
LINE
  5
4FC
  8
0
  6
CONTINUOUS
 62
     7
 10
-193.8023173560825
 20
98.00558458688757
 30
0.0
 11
-193.7775801462923
 21
98.00248461231743
 31
0.0
  0
LINE
  5
4FD
  8
0
  6
CONTINUOUS
 62
     7
 10
-193.7775801462923
 20
98.00248461231743
 30
0.0
 11
-193.7527191658248
 21
98.00062153939066
 31
0.0
  0
LINE
  5
4FE
  8
0
  6
CONTINUOUS
 62
     7
 10
-193.7527191658248
 20
98.00062153939066
 30
0.0
 11
-193.7277962229944
 21
98.00000000000013
 31
0.0
  0
LINE
  5
4FF
  8
0
  6
CONTINUOUS
 62
     7
 10
-194.2202000995005
 20
98.41317591116666
 30
0.0
 11
-194.4998639782628
 21
99.99922858239498
 31
0.0
  0
LINE
  5
500
  8
0
  6
CONTINUOUS
 62
     7
 10
-194.4998639782628
 20
99.99922858239495
 30
0.0
 11
-194.0546276959397
 21
100.0000000000001
 31
0.0
  0
LINE
  5
501
  8
0
  6
CONTINUOUS
 62
     7
 10
-210.9453723040603
 20
100.0000000000001
 30
0.0
 11
-210.5001360217372
 21
99.99922858239493
 31
0.0
  0
LINE
  5
502
  8
0
  6
CONTINUOUS
 62
     7
 10
-194.0546276959397
 20
100.0000000000001
 30
0.0
 11
-210.9453723040603
 21
100.0000000000001
 31
0.0
  0
LINE
  5
503
  8
0
  6
CONTINUOUS
 62
     7
 10
-194.4977958576362
 20
99.98749968748444
 30
0.0
 11
-210.5022041423638
 21
99.98749968748444
 31
0.0
  0
LINE
  5
504
  8
0
  6
CONTINUOUS
 62
     7
 10
-172.5
 20
98.9096270781158
 30
0.0
 11
-172.5
 21
100.0000000000001
 31
0.0
  0
LINE
  5
505
  8
0
  6
CONTINUOUS
 62
     7
 10
-172.5
 20
98.90962707811575
 30
0.0
 11
-192.5
 21
98.90962707811575
 31
0.0
  0
LINE
  5
506
  8
0
  6
CONTINUOUS
 62
     7
 10
-212.0546276959397
 20
100.0000000000001
 30
0.0
 11
-228.146768520525
 21
100.0000000000001
 31
0.0
  0
LINE
  5
507
  8
0
  6
CONTINUOUS
 62
     7
 10
-212.4998639782628
 20
99.99922858239496
 30
0.0
 11
-212.0546276959397
 21
100.0000000000001
 31
0.0
  0
LINE
  5
508
  8
0
  6
CONTINUOUS
 62
     7
 10
-192.9453723040603
 20
100.0000000000001
 30
0.0
 11
-192.5001360217372
 21
99.99922858239493
 31
0.0
  0
LINE
  5
509
  8
0
  6
CONTINUOUS
 62
     7
 10
-172.5
 20
100.0000000000001
 30
0.0
 11
-192.9453723040603
 21
100.0000000000001
 31
0.0
  0
LINE
  5
50A
  8
0
  6
CONTINUOUS
 62
     7
 10
-211.7019737345228
 20
98.00000000000013
 30
0.0
 11
-211.7277962229944
 21
98.00000000000013
 31
0.0
  0
LINE
  5
50B
  8
0
  6
CONTINUOUS
 62
     7
 10
-211.7277962229944
 20
98.00000000000013
 30
0.0
 11
-211.7527191658248
 21
98.00062153939066
 31
0.0
  0
LINE
  5
50C
  8
0
  6
CONTINUOUS
 62
     7
 10
-211.7527191658248
 20
98.00062153939066
 30
0.0
 11
-211.7775801462923
 21
98.00248461231743
 31
0.0
  0
LINE
  5
50D
  8
0
  6
CONTINUOUS
 62
     7
 10
-211.7775801462923
 20
98.00248461231743
 30
0.0
 11
-211.8023173560825
 21
98.00558458688757
 31
0.0
  0
LINE
  5
50E
  8
0
  6
CONTINUOUS
 62
     7
 10
-211.8023173560825
 20
98.00558458688757
 30
0.0
 11
-211.8268692945942
 21
98.00991375607586
 31
0.0
  0
LINE
  5
50F
  8
0
  6
CONTINUOUS
 62
     7
 10
-211.8268692945942
 20
98.00991375607586
 30
0.0
 11
-211.8511749218396
 21
98.01546135688558
 31
0.0
  0
LINE
  5
510
  8
0
  6
CONTINUOUS
 62
     7
 10
-211.8511749218396
 20
98.01546135688558
 30
0.0
 11
-211.8751738101999
 21
98.02221359710705
 31
0.0
  0
LINE
  5
511
  8
0
  6
CONTINUOUS
 62
     7
 10
-211.8751738101999
 20
98.02221359710705
 30
0.0
 11
-211.8988062946572
 21
98.03015368960718
 31
0.0
  0
LINE
  5
512
  8
0
  6
CONTINUOUS
 62
     7
 10
-211.8988062946572
 20
98.03015368960718
 30
0.0
 11
-211.9220136211318
 21
98.03926189406492
 31
0.0
  0
LINE
  5
513
  8
0
  6
CONTINUOUS
 62
     7
 10
-211.9220136211318
 20
98.03926189406492
 30
0.0
 11
-211.9447380925532
 21
98.04951556604892
 31
0.0
  0
LINE
  5
514
  8
0
  6
CONTINUOUS
 62
     7
 10
-211.9447380925532
 20
98.04951556604892
 30
0.0
 11
-211.9669232123051
 21
98.06088921331501
 31
0.0
  0
LINE
  5
515
  8
0
  6
CONTINUOUS
 62
     7
 10
-211.9669232123051
 20
98.06088921331501
 30
0.0
 11
-211.9885138246842
 21
98.07335455918404
 31
0.0
  0
LINE
  5
516
  8
0
  6
CONTINUOUS
 62
     7
 10
-211.9885138246842
 20
98.07335455918404
 30
0.0
 11
-212.0094562520262
 21
98.08688061284214
 31
0.0
  0
LINE
  5
517
  8
0
  6
CONTINUOUS
 62
     7
 10
-212.0094562520262
 20
98.08688061284214
 30
0.0
 11
-212.0296984281572
 21
98.10143374638868
 31
0.0
  0
LINE
  5
518
  8
0
  6
CONTINUOUS
 62
     7
 10
-212.0296984281572
 20
98.10143374638868
 30
0.0
 11
-212.0491900278377
 21
98.11697777844064
 31
0.0
  0
LINE
  5
519
  8
0
  6
CONTINUOUS
 62
     7
 10
-212.0491900278377
 20
98.11697777844064
 30
0.0
 11
-212.0678825918799
 21
98.13347406408522
 31
0.0
  0
LINE
  5
51A
  8
0
  6
CONTINUOUS
 62
     7
 10
-212.0678825918799
 20
98.13347406408522
 30
0.0
 11
-212.0857296476243
 21
98.1508815909571
 31
0.0
  0
LINE
  5
51B
  8
0
  6
CONTINUOUS
 62
     7
 10
-212.0857296476243
 20
98.1508815909571
 30
0.0
 11
-212.1026868244783
 21
98.1691570812017
 31
0.0
  0
LINE
  5
51C
  8
0
  6
CONTINUOUS
 62
     7
 10
-212.1026868244783
 20
98.1691570812017
 30
0.0
 11
-212.1187119642285
 21
98.18825509907076
 31
0.0
  0
LINE
  5
51D
  8
0
  6
CONTINUOUS
 62
     7
 10
-212.1187119642285
 20
98.18825509907076
 30
0.0
 11
-212.1337652258524
 21
98.20812816388273
 31
0.0
  0
LINE
  5
51E
  8
0
  6
CONTINUOUS
 62
     7
 10
-212.1337652258524
 20
98.20812816388273
 30
0.0
 11
-212.1478091845698
 21
98.22872686806724
 31
0.0
  0
LINE
  5
51F
  8
0
  6
CONTINUOUS
 62
     7
 10
-212.1478091845698
 20
98.22872686806724
 30
0.0
 11
-212.1608089248867
 21
98.25000000000013
 31
0.0
  0
LINE
  5
520
  8
0
  6
CONTINUOUS
 62
     7
 10
-212.1608089248867
 20
98.25000000000013
 30
0.0
 11
-212.1727321274002
 21
98.27189467132355
 31
0.0
  0
LINE
  5
521
  8
0
  6
CONTINUOUS
 62
     7
 10
-212.1727321274002
 20
98.27189467132355
 30
0.0
 11
-212.1835491491503
 21
98.29435644843483
 31
0.0
  0
LINE
  5
522
  8
0
  6
CONTINUOUS
 62
     7
 10
-212.1835491491503
 20
98.29435644843483
 30
0.0
 11
-212.1932330973166
 21
98.31732948781693
 31
0.0
  0
LINE
  5
523
  8
0
  6
CONTINUOUS
 62
     7
 10
-212.1932330973166
 20
98.31732948781693
 30
0.0
 11
-212.201759896078
 21
98.34075667487429
 31
0.0
  0
LINE
  5
524
  8
0
  6
CONTINUOUS
 62
     7
 10
-212.201759896078
 20
98.34075667487429
 30
0.0
 11
-212.2091083464694
 21
98.36457976592862
 31
0.0
  0
LINE
  5
525
  8
0
  6
CONTINUOUS
 62
     7
 10
-212.2091083464694
 20
98.36457976592862
 30
0.0
 11
-212.2152601790853
 21
98.38873953302198
 31
0.0
  0
LINE
  5
526
  8
0
  6
CONTINUOUS
 62
     7
 10
-212.2152601790853
 20
98.38873953302198
 30
0.0
 11
-212.2202000995005
 21
98.41317591116666
 31
0.0
  0
LINE
  5
527
  8
0
  6
CONTINUOUS
 62
     7
 10
-212.2202000995005
 20
98.41317591116666
 30
0.0
 11
-212.4998639782628
 21
99.99922858239498
 31
0.0
  0
LINE
  5
528
  8
0
  6
CONTINUOUS
 62
     7
 10
-311.7019737345227
 20
98.00000000000013
 30
0.0
 11
-311.7277962229945
 21
98.00000000000013
 31
0.0
  0
LINE
  5
529
  8
0
  6
CONTINUOUS
 62
     7
 10
-311.7277962229945
 20
98.00000000000013
 30
0.0
 11
-311.7527191658248
 21
98.00062153939066
 31
0.0
  0
LINE
  5
52A
  8
0
  6
CONTINUOUS
 62
     7
 10
-311.7527191658248
 20
98.00062153939066
 30
0.0
 11
-311.7775801462923
 21
98.00248461231743
 31
0.0
  0
LINE
  5
52B
  8
0
  6
CONTINUOUS
 62
     7
 10
-311.7775801462923
 20
98.00248461231743
 30
0.0
 11
-311.8023173560825
 21
98.00558458688757
 31
0.0
  0
LINE
  5
52C
  8
0
  6
CONTINUOUS
 62
     7
 10
-311.8023173560825
 20
98.00558458688757
 30
0.0
 11
-311.8268692945941
 21
98.00991375607586
 31
0.0
  0
LINE
  5
52D
  8
0
  6
CONTINUOUS
 62
     7
 10
-311.8268692945941
 20
98.00991375607586
 30
0.0
 11
-311.8511749218396
 21
98.01546135688558
 31
0.0
  0
LINE
  5
52E
  8
0
  6
CONTINUOUS
 62
     7
 10
-311.8511749218396
 20
98.01546135688558
 30
0.0
 11
-311.8751738101999
 21
98.02221359710705
 31
0.0
  0
LINE
  5
52F
  8
0
  6
CONTINUOUS
 62
     7
 10
-311.8751738101999
 20
98.02221359710705
 30
0.0
 11
-311.8988062946573
 21
98.03015368960718
 31
0.0
  0
LINE
  5
530
  8
0
  6
CONTINUOUS
 62
     7
 10
-311.8988062946573
 20
98.03015368960718
 30
0.0
 11
-311.9220136211318
 21
98.03926189406492
 31
0.0
  0
LINE
  5
531
  8
0
  6
CONTINUOUS
 62
     7
 10
-311.9220136211318
 20
98.03926189406492
 30
0.0
 11
-311.9447380925532
 21
98.04951556604892
 31
0.0
  0
LINE
  5
532
  8
0
  6
CONTINUOUS
 62
     7
 10
-311.9447380925532
 20
98.04951556604892
 30
0.0
 11
-311.9669232123051
 21
98.06088921331501
 31
0.0
  0
LINE
  5
533
  8
0
  6
CONTINUOUS
 62
     7
 10
-311.9669232123051
 20
98.06088921331501
 30
0.0
 11
-311.9885138246842
 21
98.07335455918404
 31
0.0
  0
LINE
  5
534
  8
0
  6
CONTINUOUS
 62
     7
 10
-311.9885138246842
 20
98.07335455918404
 30
0.0
 11
-312.0094562520263
 21
98.08688061284214
 31
0.0
  0
LINE
  5
535
  8
0
  6
CONTINUOUS
 62
     7
 10
-312.0094562520263
 20
98.08688061284214
 30
0.0
 11
-312.0296984281572
 21
98.10143374638868
 31
0.0
  0
LINE
  5
536
  8
0
  6
CONTINUOUS
 62
     7
 10
-312.0296984281572
 20
98.10143374638868
 30
0.0
 11
-312.0491900278377
 21
98.11697777844064
 31
0.0
  0
LINE
  5
537
  8
0
  6
CONTINUOUS
 62
     7
 10
-312.0491900278377
 20
98.11697777844064
 30
0.0
 11
-312.0678825918799
 21
98.13347406408522
 31
0.0
  0
LINE
  5
538
  8
0
  6
CONTINUOUS
 62
     7
 10
-312.0678825918799
 20
98.13347406408522
 30
0.0
 11
-312.0857296476243
 21
98.1508815909571
 31
0.0
  0
LINE
  5
539
  8
0
  6
CONTINUOUS
 62
     7
 10
-312.0857296476243
 20
98.1508815909571
 30
0.0
 11
-312.1026868244783
 21
98.1691570812017
 31
0.0
  0
LINE
  5
53A
  8
0
  6
CONTINUOUS
 62
     7
 10
-312.1026868244783
 20
98.1691570812017
 30
0.0
 11
-312.1187119642285
 21
98.18825509907076
 31
0.0
  0
LINE
  5
53B
  8
0
  6
CONTINUOUS
 62
     7
 10
-312.1187119642285
 20
98.18825509907076
 30
0.0
 11
-312.1337652258524
 21
98.20812816388273
 31
0.0
  0
LINE
  5
53C
  8
0
  6
CONTINUOUS
 62
     7
 10
-312.1337652258524
 20
98.20812816388273
 30
0.0
 11
-312.1478091845698
 21
98.22872686806724
 31
0.0
  0
LINE
  5
53D
  8
0
  6
CONTINUOUS
 62
     7
 10
-312.1478091845698
 20
98.22872686806724
 30
0.0
 11
-312.1608089248867
 21
98.25000000000013
 31
0.0
  0
LINE
  5
53E
  8
0
  6
CONTINUOUS
 62
     7
 10
-312.1608089248867
 20
98.25000000000013
 30
0.0
 11
-312.1727321274001
 21
98.27189467132355
 31
0.0
  0
LINE
  5
53F
  8
0
  6
CONTINUOUS
 62
     7
 10
-312.1727321274001
 20
98.27189467132355
 30
0.0
 11
-312.1835491491502
 21
98.29435644843483
 31
0.0
  0
LINE
  5
540
  8
0
  6
CONTINUOUS
 62
     7
 10
-312.1835491491502
 20
98.29435644843483
 30
0.0
 11
-312.1932330973166
 21
98.31732948781693
 31
0.0
  0
LINE
  5
541
  8
0
  6
CONTINUOUS
 62
     7
 10
-312.1932330973166
 20
98.31732948781693
 30
0.0
 11
-312.201759896078
 21
98.34075667487429
 31
0.0
  0
LINE
  5
542
  8
0
  6
CONTINUOUS
 62
     7
 10
-312.201759896078
 20
98.34075667487429
 30
0.0
 11
-312.2091083464694
 21
98.36457976592862
 31
0.0
  0
LINE
  5
543
  8
0
  6
CONTINUOUS
 62
     7
 10
-312.2091083464694
 20
98.36457976592862
 30
0.0
 11
-312.2152601790854
 21
98.38873953302198
 31
0.0
  0
LINE
  5
544
  8
0
  6
CONTINUOUS
 62
     7
 10
-312.2152601790854
 20
98.38873953302198
 30
0.0
 11
-312.2202000995005
 21
98.41317591116666
 31
0.0
  0
LINE
  5
545
  8
0
  6
CONTINUOUS
 62
     7
 10
-312.2202000995005
 20
98.41317591116666
 30
0.0
 11
-312.4998639782629
 21
99.99922858239498
 31
0.0
  0
LINE
  5
546
  8
0
  6
CONTINUOUS
 62
     7
 10
-312.4998639782629
 20
99.99922858239498
 30
0.0
 11
-312.0546276959396
 21
100.0000000000001
 31
0.0
  0
LINE
  5
547
  8
0
  6
CONTINUOUS
 62
     7
 10
-292.9453723040603
 20
100.0000000000001
 30
0.0
 11
-292.5001360217372
 21
99.99922858239493
 31
0.0
  0
LINE
  5
548
  8
0
  6
CONTINUOUS
 62
     7
 10
-292.9453723040603
 20
100.0000000000001
 30
0.0
 11
-276.8532314794749
 21
100.0000000000001
 31
0.0
  0
LINE
  5
549
  8
0
  6
CONTINUOUS
 62
     7
 10
-332.5
 20
98.90962707811575
 30
0.0
 11
-312.4613556148716
 21
98.90962707811575
 31
0.0
  0
LINE
  5
54A
  8
0
  6
CONTINUOUS
 62
     7
 10
-332.5
 20
98.9096270781158
 30
0.0
 11
-332.5
 21
100.0000000000001
 31
0.0
  0
LINE
  5
54B
  8
0
  6
CONTINUOUS
 62
     7
 10
-332.5
 20
100.0000000000001
 30
0.0
 11
-312.0546276959396
 21
100.0000000000001
 31
0.0
  0
LINE
  5
54C
  8
0
  6
CONTINUOUS
 62
     7
 10
-310.5022041423638
 20
99.98749968748444
 30
0.0
 11
-294.4977958576362
 21
99.98749968748444
 31
0.0
  0
LINE
  5
54D
  8
0
  6
CONTINUOUS
 62
     7
 10
-310.9453723040603
 20
100.0000000000001
 30
0.0
 11
-310.5001360217372
 21
99.99922858239493
 31
0.0
  0
LINE
  5
54E
  8
0
  6
CONTINUOUS
 62
     7
 10
-310.9453723040603
 20
100.0000000000001
 30
0.0
 11
-294.0546276959397
 21
100.0000000000001
 31
0.0
  0
LINE
  5
54F
  8
0
  6
CONTINUOUS
 62
     7
 10
-294.4998639782629
 20
99.99922858239498
 30
0.0
 11
-294.0546276959397
 21
100.0000000000001
 31
0.0
  0
LINE
  5
550
  8
0
  6
CONTINUOUS
 62
     7
 10
-293.7019737345228
 20
98.00000000000013
 30
0.0
 11
-293.7277962229944
 21
98.00000000000013
 31
0.0
  0
LINE
  5
551
  8
0
  6
CONTINUOUS
 62
     7
 10
-294.2202000995006
 20
98.41317591116666
 30
0.0
 11
-294.2152601790853
 21
98.38873953302198
 31
0.0
  0
LINE
  5
552
  8
0
  6
CONTINUOUS
 62
     7
 10
-294.2152601790853
 20
98.38873953302198
 30
0.0
 11
-294.2091083464695
 21
98.36457976592862
 31
0.0
  0
LINE
  5
553
  8
0
  6
CONTINUOUS
 62
     7
 10
-294.2091083464695
 20
98.36457976592862
 30
0.0
 11
-294.201759896078
 21
98.3407566748743
 31
0.0
  0
LINE
  5
554
  8
0
  6
CONTINUOUS
 62
     7
 10
-294.201759896078
 20
98.3407566748743
 30
0.0
 11
-294.1932330973165
 21
98.31732948781693
 31
0.0
  0
LINE
  5
555
  8
0
  6
CONTINUOUS
 62
     7
 10
-294.1932330973165
 20
98.31732948781693
 30
0.0
 11
-294.1835491491503
 21
98.29435644843483
 31
0.0
  0
LINE
  5
556
  8
0
  6
CONTINUOUS
 62
     7
 10
-294.1835491491503
 20
98.29435644843483
 30
0.0
 11
-294.1727321274002
 21
98.27189467132355
 31
0.0
  0
LINE
  5
557
  8
0
  6
CONTINUOUS
 62
     7
 10
-294.1727321274002
 20
98.27189467132355
 30
0.0
 11
-294.1608089248867
 21
98.25000000000013
 31
0.0
  0
LINE
  5
558
  8
0
  6
CONTINUOUS
 62
     7
 10
-294.1608089248867
 20
98.25000000000013
 30
0.0
 11
-294.1478091845698
 21
98.22872686806726
 31
0.0
  0
LINE
  5
559
  8
0
  6
CONTINUOUS
 62
     7
 10
-294.1478091845698
 20
98.22872686806726
 30
0.0
 11
-294.1337652258524
 21
98.20812816388273
 31
0.0
  0
LINE
  5
55A
  8
0
  6
CONTINUOUS
 62
     7
 10
-294.1337652258524
 20
98.20812816388273
 30
0.0
 11
-294.1187119642285
 21
98.18825509907076
 31
0.0
  0
LINE
  5
55B
  8
0
  6
CONTINUOUS
 62
     7
 10
-294.1187119642285
 20
98.18825509907076
 30
0.0
 11
-294.1026868244783
 21
98.1691570812017
 31
0.0
  0
LINE
  5
55C
  8
0
  6
CONTINUOUS
 62
     7
 10
-294.1026868244783
 20
98.1691570812017
 30
0.0
 11
-294.0857296476243
 21
98.1508815909571
 31
0.0
  0
LINE
  5
55D
  8
0
  6
CONTINUOUS
 62
     7
 10
-294.0857296476243
 20
98.1508815909571
 30
0.0
 11
-294.0678825918799
 21
98.13347406408522
 31
0.0
  0
LINE
  5
55E
  8
0
  6
CONTINUOUS
 62
     7
 10
-294.0678825918799
 20
98.13347406408522
 30
0.0
 11
-294.0491900278377
 21
98.11697777844064
 31
0.0
  0
LINE
  5
55F
  8
0
  6
CONTINUOUS
 62
     7
 10
-294.0491900278377
 20
98.11697777844064
 30
0.0
 11
-294.0296984281572
 21
98.10143374638868
 31
0.0
  0
LINE
  5
560
  8
0
  6
CONTINUOUS
 62
     7
 10
-294.0296984281572
 20
98.10143374638868
 30
0.0
 11
-294.0094562520262
 21
98.08688061284214
 31
0.0
  0
LINE
  5
561
  8
0
  6
CONTINUOUS
 62
     7
 10
-294.0094562520262
 20
98.08688061284214
 30
0.0
 11
-293.9885138246842
 21
98.07335455918405
 31
0.0
  0
LINE
  5
562
  8
0
  6
CONTINUOUS
 62
     7
 10
-293.9885138246842
 20
98.07335455918405
 30
0.0
 11
-293.9669232123051
 21
98.06088921331501
 31
0.0
  0
LINE
  5
563
  8
0
  6
CONTINUOUS
 62
     7
 10
-293.9669232123051
 20
98.06088921331501
 30
0.0
 11
-293.9447380925532
 21
98.04951556604892
 31
0.0
  0
LINE
  5
564
  8
0
  6
CONTINUOUS
 62
     7
 10
-293.9447380925532
 20
98.04951556604892
 30
0.0
 11
-293.9220136211318
 21
98.03926189406492
 31
0.0
  0
LINE
  5
565
  8
0
  6
CONTINUOUS
 62
     7
 10
-293.9220136211318
 20
98.03926189406492
 30
0.0
 11
-293.8988062946573
 21
98.03015368960718
 31
0.0
  0
LINE
  5
566
  8
0
  6
CONTINUOUS
 62
     7
 10
-293.8988062946573
 20
98.03015368960718
 30
0.0
 11
-293.8751738101999
 21
98.02221359710705
 31
0.0
  0
LINE
  5
567
  8
0
  6
CONTINUOUS
 62
     7
 10
-293.8751738101999
 20
98.02221359710705
 30
0.0
 11
-293.8511749218396
 21
98.01546135688558
 31
0.0
  0
LINE
  5
568
  8
0
  6
CONTINUOUS
 62
     7
 10
-293.8511749218396
 20
98.01546135688558
 30
0.0
 11
-293.8268692945942
 21
98.00991375607586
 31
0.0
  0
LINE
  5
569
  8
0
  6
CONTINUOUS
 62
     7
 10
-293.8268692945942
 20
98.00991375607586
 30
0.0
 11
-293.8023173560825
 21
98.00558458688757
 31
0.0
  0
LINE
  5
56A
  8
0
  6
CONTINUOUS
 62
     7
 10
-293.8023173560825
 20
98.00558458688757
 30
0.0
 11
-293.7775801462923
 21
98.00248461231743
 31
0.0
  0
LINE
  5
56B
  8
0
  6
CONTINUOUS
 62
     7
 10
-293.7775801462923
 20
98.00248461231743
 30
0.0
 11
-293.7527191658248
 21
98.00062153939066
 31
0.0
  0
LINE
  5
56C
  8
0
  6
CONTINUOUS
 62
     7
 10
-293.7527191658248
 20
98.00062153939066
 30
0.0
 11
-293.7277962229944
 21
98.00000000000013
 31
0.0
  0
LINE
  5
56D
  8
0
  6
CONTINUOUS
 62
     7
 10
-294.2202000995006
 20
98.41317591116666
 30
0.0
 11
-294.4998639782629
 21
99.99922858239498
 31
0.0
  0
LINE
  5
56E
  8
0
  6
CONTINUOUS
 62
     7
 10
-192.5001360217371
 20
99.99922858239498
 30
0.0
 11
-192.7797999004995
 21
98.41317591116666
 31
0.0
  0
LINE
  5
56F
  8
0
  6
CONTINUOUS
 62
     7
 10
-193.2722037770056
 20
98.00000000000013
 30
0.0
 11
-193.2472808341752
 21
98.00062153939066
 31
0.0
  0
LINE
  5
570
  8
0
  6
CONTINUOUS
 62
     7
 10
-193.2472808341752
 20
98.00062153939066
 30
0.0
 11
-193.2224198537077
 21
98.00248461231743
 31
0.0
  0
LINE
  5
571
  8
0
  6
CONTINUOUS
 62
     7
 10
-193.2224198537077
 20
98.00248461231743
 30
0.0
 11
-193.1976826439175
 21
98.00558458688757
 31
0.0
  0
LINE
  5
572
  8
0
  6
CONTINUOUS
 62
     7
 10
-193.1976826439175
 20
98.00558458688757
 30
0.0
 11
-193.1731307054059
 21
98.00991375607586
 31
0.0
  0
LINE
  5
573
  8
0
  6
CONTINUOUS
 62
     7
 10
-193.1731307054059
 20
98.00991375607586
 30
0.0
 11
-193.1488250781604
 21
98.01546135688558
 31
0.0
  0
LINE
  5
574
  8
0
  6
CONTINUOUS
 62
     7
 10
-193.1488250781604
 20
98.01546135688558
 30
0.0
 11
-193.1248261898001
 21
98.02221359710705
 31
0.0
  0
LINE
  5
575
  8
0
  6
CONTINUOUS
 62
     7
 10
-193.1248261898001
 20
98.02221359710705
 30
0.0
 11
-193.1011937053427
 21
98.03015368960718
 31
0.0
  0
LINE
  5
576
  8
0
  6
CONTINUOUS
 62
     7
 10
-193.1011937053427
 20
98.03015368960718
 30
0.0
 11
-193.0779863788682
 21
98.03926189406492
 31
0.0
  0
LINE
  5
577
  8
0
  6
CONTINUOUS
 62
     7
 10
-193.0779863788682
 20
98.03926189406492
 30
0.0
 11
-193.0552619074468
 21
98.04951556604892
 31
0.0
  0
LINE
  5
578
  8
0
  6
CONTINUOUS
 62
     7
 10
-193.0552619074468
 20
98.04951556604892
 30
0.0
 11
-193.0330767876949
 21
98.06088921331501
 31
0.0
  0
LINE
  5
579
  8
0
  6
CONTINUOUS
 62
     7
 10
-193.0330767876949
 20
98.06088921331501
 30
0.0
 11
-193.0114861753158
 21
98.07335455918404
 31
0.0
  0
LINE
  5
57A
  8
0
  6
CONTINUOUS
 62
     7
 10
-193.0114861753158
 20
98.07335455918404
 30
0.0
 11
-192.9905437479738
 21
98.08688061284214
 31
0.0
  0
LINE
  5
57B
  8
0
  6
CONTINUOUS
 62
     7
 10
-192.9905437479738
 20
98.08688061284214
 30
0.0
 11
-192.9703015718428
 21
98.10143374638868
 31
0.0
  0
LINE
  5
57C
  8
0
  6
CONTINUOUS
 62
     7
 10
-192.9703015718428
 20
98.10143374638868
 30
0.0
 11
-192.9508099721623
 21
98.11697777844064
 31
0.0
  0
LINE
  5
57D
  8
0
  6
CONTINUOUS
 62
     7
 10
-192.9508099721623
 20
98.11697777844064
 30
0.0
 11
-192.9321174081201
 21
98.13347406408522
 31
0.0
  0
LINE
  5
57E
  8
0
  6
CONTINUOUS
 62
     7
 10
-192.9321174081201
 20
98.13347406408522
 30
0.0
 11
-192.9142703523757
 21
98.1508815909571
 31
0.0
  0
LINE
  5
57F
  8
0
  6
CONTINUOUS
 62
     7
 10
-192.9142703523757
 20
98.1508815909571
 30
0.0
 11
-192.8973131755217
 21
98.1691570812017
 31
0.0
  0
LINE
  5
580
  8
0
  6
CONTINUOUS
 62
     7
 10
-192.8973131755217
 20
98.1691570812017
 30
0.0
 11
-192.8812880357715
 21
98.18825509907076
 31
0.0
  0
LINE
  5
581
  8
0
  6
CONTINUOUS
 62
     7
 10
-192.8812880357715
 20
98.18825509907076
 30
0.0
 11
-192.8662347741476
 21
98.20812816388273
 31
0.0
  0
LINE
  5
582
  8
0
  6
CONTINUOUS
 62
     7
 10
-192.8662347741476
 20
98.20812816388273
 30
0.0
 11
-192.8521908154302
 21
98.22872686806724
 31
0.0
  0
LINE
  5
583
  8
0
  6
CONTINUOUS
 62
     7
 10
-192.8521908154302
 20
98.22872686806724
 30
0.0
 11
-192.8391910751133
 21
98.25000000000013
 31
0.0
  0
LINE
  5
584
  8
0
  6
CONTINUOUS
 62
     7
 10
-192.8391910751133
 20
98.25000000000013
 30
0.0
 11
-192.8272678725998
 21
98.27189467132355
 31
0.0
  0
LINE
  5
585
  8
0
  6
CONTINUOUS
 62
     7
 10
-192.8272678725998
 20
98.27189467132355
 30
0.0
 11
-192.8164508508497
 21
98.29435644843483
 31
0.0
  0
LINE
  5
586
  8
0
  6
CONTINUOUS
 62
     7
 10
-192.8164508508497
 20
98.29435644843483
 30
0.0
 11
-192.8067669026834
 21
98.31732948781693
 31
0.0
  0
LINE
  5
587
  8
0
  6
CONTINUOUS
 62
     7
 10
-192.8067669026834
 20
98.31732948781693
 30
0.0
 11
-192.798240103922
 21
98.34075667487429
 31
0.0
  0
LINE
  5
588
  8
0
  6
CONTINUOUS
 62
     7
 10
-192.798240103922
 20
98.34075667487429
 30
0.0
 11
-192.7908916535306
 21
98.36457976592862
 31
0.0
  0
LINE
  5
589
  8
0
  6
CONTINUOUS
 62
     7
 10
-192.7908916535306
 20
98.36457976592862
 30
0.0
 11
-192.7847398209146
 21
98.38873953302198
 31
0.0
  0
LINE
  5
58A
  8
0
  6
CONTINUOUS
 62
     7
 10
-192.7847398209146
 20
98.38873953302198
 30
0.0
 11
-192.7797999004995
 21
98.41317591116666
 31
0.0
  0
LINE
  5
58B
  8
0
  6
CONTINUOUS
 62
     7
 10
-193.2722037770056
 20
98.00000000000013
 30
0.0
 11
-193.2980262654772
 21
98.00000000000013
 31
0.0
  0
LINE
  5
58C
  8
0
  6
CONTINUOUS
 62
     7
 10
-210.5001360217372
 20
99.99922858239498
 30
0.0
 11
-210.7797999004994
 21
98.41317591116666
 31
0.0
  0
LINE
  5
58D
  8
0
  6
CONTINUOUS
 62
     7
 10
-211.2722037770056
 20
98.00000000000013
 30
0.0
 11
-211.2472808341752
 21
98.00062153939066
 31
0.0
  0
LINE
  5
58E
  8
0
  6
CONTINUOUS
 62
     7
 10
-211.2472808341752
 20
98.00062153939066
 30
0.0
 11
-211.2224198537077
 21
98.00248461231743
 31
0.0
  0
LINE
  5
58F
  8
0
  6
CONTINUOUS
 62
     7
 10
-211.2224198537077
 20
98.00248461231743
 30
0.0
 11
-211.1976826439175
 21
98.00558458688757
 31
0.0
  0
LINE
  5
590
  8
0
  6
CONTINUOUS
 62
     7
 10
-211.1976826439175
 20
98.00558458688757
 30
0.0
 11
-211.1731307054059
 21
98.00991375607586
 31
0.0
  0
LINE
  5
591
  8
0
  6
CONTINUOUS
 62
     7
 10
-211.1731307054059
 20
98.00991375607586
 30
0.0
 11
-211.1488250781604
 21
98.01546135688558
 31
0.0
  0
LINE
  5
592
  8
0
  6
CONTINUOUS
 62
     7
 10
-211.1488250781604
 20
98.01546135688558
 30
0.0
 11
-211.1248261898001
 21
98.02221359710705
 31
0.0
  0
LINE
  5
593
  8
0
  6
CONTINUOUS
 62
     7
 10
-211.1248261898001
 20
98.02221359710705
 30
0.0
 11
-211.1011937053427
 21
98.03015368960718
 31
0.0
  0
LINE
  5
594
  8
0
  6
CONTINUOUS
 62
     7
 10
-211.1011937053427
 20
98.03015368960718
 30
0.0
 11
-211.0779863788682
 21
98.03926189406492
 31
0.0
  0
LINE
  5
595
  8
0
  6
CONTINUOUS
 62
     7
 10
-211.0779863788682
 20
98.03926189406492
 30
0.0
 11
-211.0552619074468
 21
98.04951556604892
 31
0.0
  0
LINE
  5
596
  8
0
  6
CONTINUOUS
 62
     7
 10
-211.0552619074468
 20
98.04951556604892
 30
0.0
 11
-211.0330767876949
 21
98.06088921331501
 31
0.0
  0
LINE
  5
597
  8
0
  6
CONTINUOUS
 62
     7
 10
-211.0330767876949
 20
98.06088921331501
 30
0.0
 11
-211.0114861753158
 21
98.07335455918404
 31
0.0
  0
LINE
  5
598
  8
0
  6
CONTINUOUS
 62
     7
 10
-211.0114861753158
 20
98.07335455918404
 30
0.0
 11
-210.9905437479738
 21
98.08688061284214
 31
0.0
  0
LINE
  5
599
  8
0
  6
CONTINUOUS
 62
     7
 10
-210.9905437479738
 20
98.08688061284214
 30
0.0
 11
-210.9703015718428
 21
98.10143374638868
 31
0.0
  0
LINE
  5
59A
  8
0
  6
CONTINUOUS
 62
     7
 10
-210.9703015718428
 20
98.10143374638868
 30
0.0
 11
-210.9508099721623
 21
98.11697777844064
 31
0.0
  0
LINE
  5
59B
  8
0
  6
CONTINUOUS
 62
     7
 10
-210.9508099721623
 20
98.11697777844064
 30
0.0
 11
-210.9321174081201
 21
98.13347406408522
 31
0.0
  0
LINE
  5
59C
  8
0
  6
CONTINUOUS
 62
     7
 10
-210.9321174081201
 20
98.13347406408522
 30
0.0
 11
-210.9142703523757
 21
98.1508815909571
 31
0.0
  0
LINE
  5
59D
  8
0
  6
CONTINUOUS
 62
     7
 10
-210.9142703523757
 20
98.1508815909571
 30
0.0
 11
-210.8973131755217
 21
98.1691570812017
 31
0.0
  0
LINE
  5
59E
  8
0
  6
CONTINUOUS
 62
     7
 10
-210.8973131755217
 20
98.1691570812017
 30
0.0
 11
-210.8812880357715
 21
98.18825509907076
 31
0.0
  0
LINE
  5
59F
  8
0
  6
CONTINUOUS
 62
     7
 10
-210.8812880357715
 20
98.18825509907076
 30
0.0
 11
-210.8662347741476
 21
98.20812816388273
 31
0.0
  0
LINE
  5
5A0
  8
0
  6
CONTINUOUS
 62
     7
 10
-210.8662347741476
 20
98.20812816388273
 30
0.0
 11
-210.8521908154302
 21
98.22872686806724
 31
0.0
  0
LINE
  5
5A1
  8
0
  6
CONTINUOUS
 62
     7
 10
-210.8521908154302
 20
98.22872686806724
 30
0.0
 11
-210.8391910751133
 21
98.25000000000013
 31
0.0
  0
LINE
  5
5A2
  8
0
  6
CONTINUOUS
 62
     7
 10
-210.8391910751133
 20
98.25000000000013
 30
0.0
 11
-210.8272678725998
 21
98.27189467132355
 31
0.0
  0
LINE
  5
5A3
  8
0
  6
CONTINUOUS
 62
     7
 10
-210.8272678725998
 20
98.27189467132355
 30
0.0
 11
-210.8164508508497
 21
98.29435644843483
 31
0.0
  0
LINE
  5
5A4
  8
0
  6
CONTINUOUS
 62
     7
 10
-210.8164508508497
 20
98.29435644843483
 30
0.0
 11
-210.8067669026834
 21
98.31732948781693
 31
0.0
  0
LINE
  5
5A5
  8
0
  6
CONTINUOUS
 62
     7
 10
-210.8067669026834
 20
98.31732948781693
 30
0.0
 11
-210.798240103922
 21
98.34075667487429
 31
0.0
  0
LINE
  5
5A6
  8
0
  6
CONTINUOUS
 62
     7
 10
-210.798240103922
 20
98.34075667487429
 30
0.0
 11
-210.7908916535305
 21
98.36457976592862
 31
0.0
  0
LINE
  5
5A7
  8
0
  6
CONTINUOUS
 62
     7
 10
-210.7908916535305
 20
98.36457976592862
 30
0.0
 11
-210.7847398209146
 21
98.38873953302198
 31
0.0
  0
LINE
  5
5A8
  8
0
  6
CONTINUOUS
 62
     7
 10
-210.7847398209146
 20
98.38873953302198
 30
0.0
 11
-210.7797999004994
 21
98.41317591116666
 31
0.0
  0
LINE
  5
5A9
  8
0
  6
CONTINUOUS
 62
     7
 10
-211.2722037770056
 20
98.00000000000013
 30
0.0
 11
-211.2980262654772
 21
98.00000000000013
 31
0.0
  0
LINE
  5
5AA
  8
0
  6
CONTINUOUS
 62
     7
 10
-292.5001360217372
 20
99.99922858239498
 30
0.0
 11
-292.7797999004994
 21
98.41317591116666
 31
0.0
  0
LINE
  5
5AB
  8
0
  6
CONTINUOUS
 62
     7
 10
-293.2722037770056
 20
98.00000000000013
 30
0.0
 11
-293.2472808341752
 21
98.00062153939066
 31
0.0
  0
LINE
  5
5AC
  8
0
  6
CONTINUOUS
 62
     7
 10
-293.2472808341752
 20
98.00062153939066
 30
0.0
 11
-293.2224198537077
 21
98.00248461231743
 31
0.0
  0
LINE
  5
5AD
  8
0
  6
CONTINUOUS
 62
     7
 10
-293.2224198537077
 20
98.00248461231743
 30
0.0
 11
-293.1976826439175
 21
98.00558458688757
 31
0.0
  0
LINE
  5
5AE
  8
0
  6
CONTINUOUS
 62
     7
 10
-293.1976826439175
 20
98.00558458688757
 30
0.0
 11
-293.1731307054059
 21
98.00991375607586
 31
0.0
  0
LINE
  5
5AF
  8
0
  6
CONTINUOUS
 62
     7
 10
-293.1731307054059
 20
98.00991375607586
 30
0.0
 11
-293.1488250781604
 21
98.01546135688558
 31
0.0
  0
LINE
  5
5B0
  8
0
  6
CONTINUOUS
 62
     7
 10
-293.1488250781604
 20
98.01546135688558
 30
0.0
 11
-293.1248261898001
 21
98.02221359710705
 31
0.0
  0
LINE
  5
5B1
  8
0
  6
CONTINUOUS
 62
     7
 10
-293.1248261898001
 20
98.02221359710705
 30
0.0
 11
-293.1011937053427
 21
98.03015368960718
 31
0.0
  0
LINE
  5
5B2
  8
0
  6
CONTINUOUS
 62
     7
 10
-293.1011937053427
 20
98.03015368960718
 30
0.0
 11
-293.0779863788682
 21
98.03926189406492
 31
0.0
  0
LINE
  5
5B3
  8
0
  6
CONTINUOUS
 62
     7
 10
-293.0779863788682
 20
98.03926189406492
 30
0.0
 11
-293.0552619074468
 21
98.04951556604892
 31
0.0
  0
LINE
  5
5B4
  8
0
  6
CONTINUOUS
 62
     7
 10
-293.0552619074468
 20
98.04951556604892
 30
0.0
 11
-293.0330767876949
 21
98.06088921331501
 31
0.0
  0
LINE
  5
5B5
  8
0
  6
CONTINUOUS
 62
     7
 10
-293.0330767876949
 20
98.06088921331501
 30
0.0
 11
-293.0114861753158
 21
98.07335455918404
 31
0.0
  0
LINE
  5
5B6
  8
0
  6
CONTINUOUS
 62
     7
 10
-293.0114861753158
 20
98.07335455918404
 30
0.0
 11
-292.9905437479737
 21
98.08688061284214
 31
0.0
  0
LINE
  5
5B7
  8
0
  6
CONTINUOUS
 62
     7
 10
-292.9905437479737
 20
98.08688061284214
 30
0.0
 11
-292.9703015718428
 21
98.10143374638868
 31
0.0
  0
LINE
  5
5B8
  8
0
  6
CONTINUOUS
 62
     7
 10
-292.9703015718428
 20
98.10143374638868
 30
0.0
 11
-292.9508099721623
 21
98.11697777844064
 31
0.0
  0
LINE
  5
5B9
  8
0
  6
CONTINUOUS
 62
     7
 10
-292.9508099721623
 20
98.11697777844064
 30
0.0
 11
-292.9321174081201
 21
98.13347406408522
 31
0.0
  0
LINE
  5
5BA
  8
0
  6
CONTINUOUS
 62
     7
 10
-292.9321174081201
 20
98.13347406408522
 30
0.0
 11
-292.9142703523757
 21
98.1508815909571
 31
0.0
  0
LINE
  5
5BB
  8
0
  6
CONTINUOUS
 62
     7
 10
-292.9142703523757
 20
98.1508815909571
 30
0.0
 11
-292.8973131755217
 21
98.1691570812017
 31
0.0
  0
LINE
  5
5BC
  8
0
  6
CONTINUOUS
 62
     7
 10
-292.8973131755217
 20
98.1691570812017
 30
0.0
 11
-292.8812880357715
 21
98.18825509907076
 31
0.0
  0
LINE
  5
5BD
  8
0
  6
CONTINUOUS
 62
     7
 10
-292.8812880357715
 20
98.18825509907076
 30
0.0
 11
-292.8662347741476
 21
98.20812816388273
 31
0.0
  0
LINE
  5
5BE
  8
0
  6
CONTINUOUS
 62
     7
 10
-292.8662347741476
 20
98.20812816388273
 30
0.0
 11
-292.8521908154302
 21
98.22872686806724
 31
0.0
  0
LINE
  5
5BF
  8
0
  6
CONTINUOUS
 62
     7
 10
-292.8521908154302
 20
98.22872686806724
 30
0.0
 11
-292.8391910751134
 21
98.25000000000013
 31
0.0
  0
LINE
  5
5C0
  8
0
  6
CONTINUOUS
 62
     7
 10
-292.8391910751134
 20
98.25000000000013
 30
0.0
 11
-292.8272678725998
 21
98.27189467132355
 31
0.0
  0
LINE
  5
5C1
  8
0
  6
CONTINUOUS
 62
     7
 10
-292.8272678725998
 20
98.27189467132355
 30
0.0
 11
-292.8164508508497
 21
98.29435644843483
 31
0.0
  0
LINE
  5
5C2
  8
0
  6
CONTINUOUS
 62
     7
 10
-292.8164508508497
 20
98.29435644843483
 30
0.0
 11
-292.8067669026835
 21
98.31732948781693
 31
0.0
  0
LINE
  5
5C3
  8
0
  6
CONTINUOUS
 62
     7
 10
-292.8067669026835
 20
98.31732948781693
 30
0.0
 11
-292.798240103922
 21
98.34075667487429
 31
0.0
  0
LINE
  5
5C4
  8
0
  6
CONTINUOUS
 62
     7
 10
-292.798240103922
 20
98.34075667487429
 30
0.0
 11
-292.7908916535305
 21
98.36457976592862
 31
0.0
  0
LINE
  5
5C5
  8
0
  6
CONTINUOUS
 62
     7
 10
-292.7908916535305
 20
98.36457976592862
 30
0.0
 11
-292.7847398209146
 21
98.38873953302198
 31
0.0
  0
LINE
  5
5C6
  8
0
  6
CONTINUOUS
 62
     7
 10
-292.7847398209146
 20
98.38873953302198
 30
0.0
 11
-292.7797999004994
 21
98.41317591116666
 31
0.0
  0
LINE
  5
5C7
  8
0
  6
CONTINUOUS
 62
     7
 10
-293.2722037770056
 20
98.00000000000013
 30
0.0
 11
-293.2980262654772
 21
98.00000000000013
 31
0.0
  0
LINE
  5
5C8
  8
0
  6
CONTINUOUS
 62
     7
 10
-310.5001360217372
 20
99.99922858239498
 30
0.0
 11
-310.7797999004995
 21
98.41317591116666
 31
0.0
  0
LINE
  5
5C9
  8
0
  6
CONTINUOUS
 62
     7
 10
-311.2722037770056
 20
98.00000000000013
 30
0.0
 11
-311.2472808341752
 21
98.00062153939066
 31
0.0
  0
LINE
  5
5CA
  8
0
  6
CONTINUOUS
 62
     7
 10
-311.2472808341752
 20
98.00062153939066
 30
0.0
 11
-311.2224198537077
 21
98.00248461231743
 31
0.0
  0
LINE
  5
5CB
  8
0
  6
CONTINUOUS
 62
     7
 10
-311.2224198537077
 20
98.00248461231743
 30
0.0
 11
-311.1976826439175
 21
98.00558458688757
 31
0.0
  0
LINE
  5
5CC
  8
0
  6
CONTINUOUS
 62
     7
 10
-311.1976826439175
 20
98.00558458688757
 30
0.0
 11
-311.1731307054059
 21
98.00991375607586
 31
0.0
  0
LINE
  5
5CD
  8
0
  6
CONTINUOUS
 62
     7
 10
-311.1731307054059
 20
98.00991375607586
 30
0.0
 11
-311.1488250781604
 21
98.01546135688558
 31
0.0
  0
LINE
  5
5CE
  8
0
  6
CONTINUOUS
 62
     7
 10
-311.1488250781604
 20
98.01546135688558
 30
0.0
 11
-311.1248261898001
 21
98.02221359710705
 31
0.0
  0
LINE
  5
5CF
  8
0
  6
CONTINUOUS
 62
     7
 10
-311.1248261898001
 20
98.02221359710705
 30
0.0
 11
-311.1011937053427
 21
98.03015368960718
 31
0.0
  0
LINE
  5
5D0
  8
0
  6
CONTINUOUS
 62
     7
 10
-311.1011937053427
 20
98.03015368960718
 30
0.0
 11
-311.0779863788682
 21
98.03926189406492
 31
0.0
  0
LINE
  5
5D1
  8
0
  6
CONTINUOUS
 62
     7
 10
-311.0779863788682
 20
98.03926189406492
 30
0.0
 11
-311.0552619074468
 21
98.04951556604892
 31
0.0
  0
LINE
  5
5D2
  8
0
  6
CONTINUOUS
 62
     7
 10
-311.0552619074468
 20
98.04951556604892
 30
0.0
 11
-311.0330767876949
 21
98.06088921331501
 31
0.0
  0
LINE
  5
5D3
  8
0
  6
CONTINUOUS
 62
     7
 10
-311.0330767876949
 20
98.06088921331501
 30
0.0
 11
-311.0114861753158
 21
98.07335455918404
 31
0.0
  0
LINE
  5
5D4
  8
0
  6
CONTINUOUS
 62
     7
 10
-311.0114861753158
 20
98.07335455918404
 30
0.0
 11
-310.9905437479737
 21
98.08688061284214
 31
0.0
  0
LINE
  5
5D5
  8
0
  6
CONTINUOUS
 62
     7
 10
-310.9905437479737
 20
98.08688061284214
 30
0.0
 11
-310.9703015718428
 21
98.10143374638868
 31
0.0
  0
LINE
  5
5D6
  8
0
  6
CONTINUOUS
 62
     7
 10
-310.9703015718428
 20
98.10143374638868
 30
0.0
 11
-310.9508099721623
 21
98.11697777844064
 31
0.0
  0
LINE
  5
5D7
  8
0
  6
CONTINUOUS
 62
     7
 10
-310.9508099721623
 20
98.11697777844064
 30
0.0
 11
-310.9321174081201
 21
98.13347406408522
 31
0.0
  0
LINE
  5
5D8
  8
0
  6
CONTINUOUS
 62
     7
 10
-310.9321174081201
 20
98.13347406408522
 30
0.0
 11
-310.9142703523758
 21
98.1508815909571
 31
0.0
  0
LINE
  5
5D9
  8
0
  6
CONTINUOUS
 62
     7
 10
-310.9142703523758
 20
98.1508815909571
 30
0.0
 11
-310.8973131755217
 21
98.1691570812017
 31
0.0
  0
LINE
  5
5DA
  8
0
  6
CONTINUOUS
 62
     7
 10
-310.8973131755217
 20
98.1691570812017
 30
0.0
 11
-310.8812880357715
 21
98.18825509907076
 31
0.0
  0
LINE
  5
5DB
  8
0
  6
CONTINUOUS
 62
     7
 10
-310.8812880357715
 20
98.18825509907076
 30
0.0
 11
-310.8662347741476
 21
98.20812816388273
 31
0.0
  0
LINE
  5
5DC
  8
0
  6
CONTINUOUS
 62
     7
 10
-310.8662347741476
 20
98.20812816388273
 30
0.0
 11
-310.8521908154302
 21
98.22872686806724
 31
0.0
  0
LINE
  5
5DD
  8
0
  6
CONTINUOUS
 62
     7
 10
-310.8521908154302
 20
98.22872686806724
 30
0.0
 11
-310.8391910751134
 21
98.25000000000013
 31
0.0
  0
LINE
  5
5DE
  8
0
  6
CONTINUOUS
 62
     7
 10
-310.8391910751134
 20
98.25000000000013
 30
0.0
 11
-310.8272678725999
 21
98.27189467132355
 31
0.0
  0
LINE
  5
5DF
  8
0
  6
CONTINUOUS
 62
     7
 10
-310.8272678725999
 20
98.27189467132355
 30
0.0
 11
-310.8164508508497
 21
98.29435644843483
 31
0.0
  0
LINE
  5
5E0
  8
0
  6
CONTINUOUS
 62
     7
 10
-310.8164508508497
 20
98.29435644843483
 30
0.0
 11
-310.8067669026834
 21
98.31732948781693
 31
0.0
  0
LINE
  5
5E1
  8
0
  6
CONTINUOUS
 62
     7
 10
-310.8067669026834
 20
98.31732948781693
 30
0.0
 11
-310.798240103922
 21
98.34075667487429
 31
0.0
  0
LINE
  5
5E2
  8
0
  6
CONTINUOUS
 62
     7
 10
-310.798240103922
 20
98.34075667487429
 30
0.0
 11
-310.7908916535306
 21
98.36457976592862
 31
0.0
  0
LINE
  5
5E3
  8
0
  6
CONTINUOUS
 62
     7
 10
-310.7908916535306
 20
98.36457976592862
 30
0.0
 11
-310.7847398209146
 21
98.38873953302198
 31
0.0
  0
LINE
  5
5E4
  8
0
  6
CONTINUOUS
 62
     7
 10
-310.7847398209146
 20
98.38873953302198
 30
0.0
 11
-310.7797999004995
 21
98.41317591116666
 31
0.0
  0
LINE
  5
5E5
  8
0
  6
CONTINUOUS
 62
     7
 10
-311.2722037770056
 20
98.00000000000013
 30
0.0
 11
-311.2980262654772
 21
98.00000000000013
 31
0.0
  0
LINE
  5
5E6
  8
0
  6
CONTINUOUS
 62
     7
 10
-232.146920834068
 20
160.0000000000001
 30
0.0
 11
-232.3704901807364
 21
159.1053819299641
 31
0.0
  0
LINE
  5
5E7
  8
0
  6
CONTINUOUS
 62
     7
 10
-232.146920834068
 20
160.0000000000001
 30
0.0
 11
-232.146920834068
 21
137.3551693431514
 31
0.0
  0
LINE
  5
5E8
  8
0
  6
CONTINUOUS
 62
     7
 10
-232.1523749734045
 20
137.8000000000001
 30
0.0
 11
-232.146920834068
 21
137.3551693431514
 31
0.0
  0
LINE
  5
5E9
  8
0
  6
CONTINUOUS
 62
     7
 10
-232.1523749734045
 20
137.8000000000001
 30
0.0
 11
-232.1905551730218
 21
137.8000000000001
 31
0.0
  0
LINE
  5
5EA
  8
0
  6
CONTINUOUS
 62
     7
 10
-232.1523749734045
 20
117.8000000000001
 30
0.0
 11
-232.1905551730218
 21
117.8000000000001
 31
0.0
  0
LINE
  5
5EB
  8
0
  6
CONTINUOUS
 62
     7
 10
-232.146920834068
 20
118.2448306568488
 30
0.0
 11
-232.1523749734045
 21
117.8000000000001
 31
0.0
  0
LINE
  5
5EC
  8
0
  6
CONTINUOUS
 62
     7
 10
-232.146920834068
 20
118.2448306568488
 30
0.0
 11
-232.146920834068
 21
103.9999976014985
 31
0.0
  0
LINE
  5
5ED
  8
0
  6
CONTINUOUS
 62
     7
 10
-232.1523749734045
 20
119.8000000000001
 30
0.0
 11
-232.146920834068
 21
119.3551693431513
 31
0.0
  0
LINE
  5
5EE
  8
0
  6
CONTINUOUS
 62
     7
 10
-232.1523749734045
 20
119.8000000000001
 30
0.0
 11
-232.1687380035449
 21
119.8000000000001
 31
0.0
  0
LINE
  5
5EF
  8
0
  6
CONTINUOUS
 62
     7
 10
-232.1687380035449
 20
135.8000000000001
 30
0.0
 11
-232.1687380035449
 21
119.8000000000001
 31
0.0
  0
LINE
  5
5F0
  8
0
  6
CONTINUOUS
 62
     7
 10
-232.1523749734045
 20
135.8000000000001
 30
0.0
 11
-232.1687380035449
 21
135.8000000000001
 31
0.0
  0
LINE
  5
5F1
  8
0
  6
CONTINUOUS
 62
     7
 10
-232.146920834068
 20
136.2448306568488
 30
0.0
 11
-232.1523749734045
 21
135.8000000000001
 31
0.0
  0
LINE
  5
5F2
  8
0
  6
CONTINUOUS
 62
     7
 10
-232.146920834068
 20
136.2448306568488
 30
0.0
 11
-232.146920834068
 21
119.3551693431513
 31
0.0
  0
LINE
  5
5F3
  8
0
  6
CONTINUOUS
 62
     7
 10
-234.2654892652829
 20
136.9848826836636
 30
0.0
 11
-234.2654971573322
 21
137.0101635249237
 31
0.0
  0
LINE
  5
5F4
  8
0
  6
CONTINUOUS
 62
     7
 10
-234.2654971573322
 20
137.0101635249237
 30
0.0
 11
-234.2648934706067
 21
137.035086467754
 31
0.0
  0
LINE
  5
5F5
  8
0
  6
CONTINUOUS
 62
     7
 10
-234.2648934706067
 20
137.035086467754
 30
0.0
 11
-234.2630526716125
 21
137.0599474482215
 31
0.0
  0
LINE
  5
5F6
  8
0
  6
CONTINUOUS
 62
     7
 10
-234.2630526716125
 20
137.0599474482215
 30
0.0
 11
-234.259979336866
 21
137.0846846580117
 31
0.0
  0
LINE
  5
5F7
  8
0
  6
CONTINUOUS
 62
     7
 10
-234.259979336866
 20
137.0846846580117
 30
0.0
 11
-234.2556811071615
 21
137.1092365965233
 31
0.0
  0
LINE
  5
5F8
  8
0
  6
CONTINUOUS
 62
     7
 10
-234.2556811071615
 20
137.1092365965233
 30
0.0
 11
-234.2501686685754
 21
137.1335422237688
 31
0.0
  0
LINE
  5
5F9
  8
0
  6
CONTINUOUS
 62
     7
 10
-234.2501686685754
 20
137.1335422237688
 30
0.0
 11
-234.2434557258986
 21
137.1575411121291
 31
0.0
  0
LINE
  5
5FA
  8
0
  6
CONTINUOUS
 62
     7
 10
-234.2434557258986
 20
137.1575411121291
 30
0.0
 11
-234.2355589685642
 21
137.1811735965865
 31
0.0
  0
LINE
  5
5FB
  8
0
  6
CONTINUOUS
 62
     7
 10
-234.2355589685642
 20
137.1811735965865
 30
0.0
 11
-234.2264980291552
 21
137.204380923061
 31
0.0
  0
LINE
  5
5FC
  8
0
  6
CONTINUOUS
 62
     7
 10
-234.2264980291552
 20
137.204380923061
 30
0.0
 11
-234.2162954345947
 21
137.2271053944824
 31
0.0
  0
LINE
  5
5FD
  8
0
  6
CONTINUOUS
 62
     7
 10
-234.2162954345947
 20
137.2271053944824
 30
0.0
 11
-234.2049765501402
 21
137.2492905142343
 31
0.0
  0
LINE
  5
5FE
  8
0
  6
CONTINUOUS
 62
     7
 10
-234.2049765501402
 20
137.2492905142343
 30
0.0
 11
-234.192569516322
 21
137.2708811266134
 31
0.0
  0
LINE
  5
5FF
  8
0
  6
CONTINUOUS
 62
     7
 10
-234.192569516322
 20
137.2708811266134
 30
0.0
 11
-234.179105178981
 21
137.2918235539555
 31
0.0
  0
LINE
  5
600
  8
0
  6
CONTINUOUS
 62
     7
 10
-234.179105178981
 20
137.2918235539555
 30
0.0
 11
-234.1646170125813
 21
137.3120657300864
 31
0.0
  0
LINE
  5
601
  8
0
  6
CONTINUOUS
 62
     7
 10
-234.1646170125813
 20
137.3120657300864
 30
0.0
 11
-234.1491410369873
 21
137.3315573297669
 31
0.0
  0
LINE
  5
602
  8
0
  6
CONTINUOUS
 62
     7
 10
-234.1491410369873
 20
137.3315573297669
 30
0.0
 11
-234.1327157279128
 21
137.3502498938091
 31
0.0
  0
LINE
  5
603
  8
0
  6
CONTINUOUS
 62
     7
 10
-234.1327157279128
 20
137.3502498938091
 30
0.0
 11
-234.1153819212642
 21
137.3680969495535
 31
0.0
  0
LINE
  5
604
  8
0
  6
CONTINUOUS
 62
     7
 10
-234.1153819212642
 20
137.3680969495535
 30
0.0
 11
-234.0971827116159
 21
137.3850541264075
 31
0.0
  0
LINE
  5
605
  8
0
  6
CONTINUOUS
 62
     7
 10
-234.0971827116159
 20
137.3850541264075
 30
0.0
 11
-234.0781633450707
 21
137.4010792661577
 31
0.0
  0
LINE
  5
606
  8
0
  6
CONTINUOUS
 62
     7
 10
-234.0781633450707
 20
137.4010792661577
 30
0.0
 11
-234.0583711067706
 21
137.4161325277816
 31
0.0
  0
LINE
  5
607
  8
0
  6
CONTINUOUS
 62
     7
 10
-234.0583711067706
 20
137.4161325277816
 30
0.0
 11
-234.0378552033383
 21
137.4301764864991
 31
0.0
  0
LINE
  5
608
  8
0
  6
CONTINUOUS
 62
     7
 10
-234.0378552033383
 20
137.4301764864991
 30
0.0
 11
-234.0166666405424
 21
137.4431762268159
 31
0.0
  0
LINE
  5
609
  8
0
  6
CONTINUOUS
 62
     7
 10
-234.0166666405424
 20
137.4431762268159
 30
0.0
 11
-233.9948580964886
 21
137.4550994293294
 31
0.0
  0
LINE
  5
60A
  8
0
  6
CONTINUOUS
 62
     7
 10
-233.9948580964886
 20
137.4550994293294
 30
0.0
 11
-233.9724837906535
 21
137.4659164510795
 31
0.0
  0
LINE
  5
60B
  8
0
  6
CONTINUOUS
 62
     7
 10
-233.9724837906535
 20
137.4659164510795
 30
0.0
 11
-233.9495993490867
 21
137.4756003992458
 31
0.0
  0
LINE
  5
60C
  8
0
  6
CONTINUOUS
 62
     7
 10
-233.9495993490867
 20
137.4756003992458
 30
0.0
 11
-233.9262616661158
 21
137.4841271980072
 31
0.0
  0
LINE
  5
60D
  8
0
  6
CONTINUOUS
 62
     7
 10
-233.9262616661158
 20
137.4841271980072
 30
0.0
 11
-233.9025287628978
 21
137.4914756483987
 31
0.0
  0
LINE
  5
60E
  8
0
  6
CONTINUOUS
 62
     7
 10
-233.9025287628978
 20
137.4914756483987
 30
0.0
 11
-233.8784596431694
 21
137.4976274810146
 31
0.0
  0
LINE
  5
60F
  8
0
  6
CONTINUOUS
 62
     7
 10
-233.8784596431694
 20
137.4976274810146
 30
0.0
 11
-233.8541141465548
 21
137.5025674014298
 31
0.0
  0
LINE
  5
610
  8
0
  6
CONTINUOUS
 62
     7
 10
-233.8541141465548
 20
137.5025674014298
 30
0.0
 11
-232.1523749734045
 21
137.8000000000001
 31
0.0
  0
LINE
  5
611
  8
0
  6
CONTINUOUS
 62
     7
 10
-233.8541141465548
 20
119.5025674014298
 30
0.0
 11
-233.8784596431694
 21
119.4976274810146
 31
0.0
  0
LINE
  5
612
  8
0
  6
CONTINUOUS
 62
     7
 10
-233.8784596431694
 20
119.4976274810146
 30
0.0
 11
-233.9025287628978
 21
119.4914756483987
 31
0.0
  0
LINE
  5
613
  8
0
  6
CONTINUOUS
 62
     7
 10
-233.9025287628978
 20
119.4914756483987
 30
0.0
 11
-233.9262616661158
 21
119.4841271980072
 31
0.0
  0
LINE
  5
614
  8
0
  6
CONTINUOUS
 62
     7
 10
-233.9262616661158
 20
119.4841271980072
 30
0.0
 11
-233.9495993490867
 21
119.4756003992458
 31
0.0
  0
LINE
  5
615
  8
0
  6
CONTINUOUS
 62
     7
 10
-233.9495993490867
 20
119.4756003992458
 30
0.0
 11
-233.9724837906535
 21
119.4659164510795
 31
0.0
  0
LINE
  5
616
  8
0
  6
CONTINUOUS
 62
     7
 10
-233.9724837906535
 20
119.4659164510795
 30
0.0
 11
-233.9948580964886
 21
119.4550994293294
 31
0.0
  0
LINE
  5
617
  8
0
  6
CONTINUOUS
 62
     7
 10
-233.9948580964886
 20
119.4550994293294
 30
0.0
 11
-234.0166666405424
 21
119.4431762268159
 31
0.0
  0
LINE
  5
618
  8
0
  6
CONTINUOUS
 62
     7
 10
-234.0166666405424
 20
119.4431762268159
 30
0.0
 11
-234.0378552033383
 21
119.430176486499
 31
0.0
  0
LINE
  5
619
  8
0
  6
CONTINUOUS
 62
     7
 10
-234.0378552033383
 20
119.430176486499
 30
0.0
 11
-234.0583711067706
 21
119.4161325277816
 31
0.0
  0
LINE
  5
61A
  8
0
  6
CONTINUOUS
 62
     7
 10
-234.0583711067706
 20
119.4161325277816
 30
0.0
 11
-234.0781633450707
 21
119.4010792661577
 31
0.0
  0
LINE
  5
61B
  8
0
  6
CONTINUOUS
 62
     7
 10
-234.0781633450707
 20
119.4010792661577
 30
0.0
 11
-234.0971827116159
 21
119.3850541264075
 31
0.0
  0
LINE
  5
61C
  8
0
  6
CONTINUOUS
 62
     7
 10
-234.0971827116159
 20
119.3850541264075
 30
0.0
 11
-234.1153819212642
 21
119.3680969495535
 31
0.0
  0
LINE
  5
61D
  8
0
  6
CONTINUOUS
 62
     7
 10
-234.1153819212642
 20
119.3680969495535
 30
0.0
 11
-234.1327157279128
 21
119.3502498938091
 31
0.0
  0
LINE
  5
61E
  8
0
  6
CONTINUOUS
 62
     7
 10
-234.1327157279128
 20
119.3502498938091
 30
0.0
 11
-234.1491410369873
 21
119.3315573297669
 31
0.0
  0
LINE
  5
61F
  8
0
  6
CONTINUOUS
 62
     7
 10
-234.1491410369873
 20
119.3315573297669
 30
0.0
 11
-234.1646170125813
 21
119.3120657300864
 31
0.0
  0
LINE
  5
620
  8
0
  6
CONTINUOUS
 62
     7
 10
-234.1646170125813
 20
119.3120657300864
 30
0.0
 11
-234.179105178981
 21
119.2918235539555
 31
0.0
  0
LINE
  5
621
  8
0
  6
CONTINUOUS
 62
     7
 10
-234.179105178981
 20
119.2918235539555
 30
0.0
 11
-234.192569516322
 21
119.2708811266134
 31
0.0
  0
LINE
  5
622
  8
0
  6
CONTINUOUS
 62
     7
 10
-234.192569516322
 20
119.2708811266134
 30
0.0
 11
-234.2049765501402
 21
119.2492905142343
 31
0.0
  0
LINE
  5
623
  8
0
  6
CONTINUOUS
 62
     7
 10
-234.2049765501402
 20
119.2492905142343
 30
0.0
 11
-234.2162954345947
 21
119.2271053944825
 31
0.0
  0
LINE
  5
624
  8
0
  6
CONTINUOUS
 62
     7
 10
-234.2162954345947
 20
119.2271053944825
 30
0.0
 11
-234.2264980291552
 21
119.204380923061
 31
0.0
  0
LINE
  5
625
  8
0
  6
CONTINUOUS
 62
     7
 10
-234.2264980291552
 20
119.204380923061
 30
0.0
 11
-234.2355589685642
 21
119.1811735965865
 31
0.0
  0
LINE
  5
626
  8
0
  6
CONTINUOUS
 62
     7
 10
-234.2355589685642
 20
119.1811735965865
 30
0.0
 11
-234.2434557258986
 21
119.1575411121291
 31
0.0
  0
LINE
  5
627
  8
0
  6
CONTINUOUS
 62
     7
 10
-234.2434557258986
 20
119.1575411121291
 30
0.0
 11
-234.2501686685754
 21
119.1335422237688
 31
0.0
  0
LINE
  5
628
  8
0
  6
CONTINUOUS
 62
     7
 10
-234.2501686685754
 20
119.1335422237688
 30
0.0
 11
-234.2556811071615
 21
119.1092365965234
 31
0.0
  0
LINE
  5
629
  8
0
  6
CONTINUOUS
 62
     7
 10
-234.2556811071615
 20
119.1092365965234
 30
0.0
 11
-234.259979336866
 21
119.0846846580118
 31
0.0
  0
LINE
  5
62A
  8
0
  6
CONTINUOUS
 62
     7
 10
-234.259979336866
 20
119.0846846580118
 30
0.0
 11
-234.2630526716125
 21
119.0599474482216
 31
0.0
  0
LINE
  5
62B
  8
0
  6
CONTINUOUS
 62
     7
 10
-234.2630526716125
 20
119.0599474482216
 30
0.0
 11
-234.2648934706067
 21
119.035086467754
 31
0.0
  0
LINE
  5
62C
  8
0
  6
CONTINUOUS
 62
     7
 10
-234.2648934706067
 20
119.035086467754
 30
0.0
 11
-234.2654971573322
 21
119.0101635249237
 31
0.0
  0
LINE
  5
62D
  8
0
  6
CONTINUOUS
 62
     7
 10
-233.8541141465548
 20
119.5025674014298
 30
0.0
 11
-232.1523749734045
 21
119.8000000000001
 31
0.0
  0
LINE
  5
62E
  8
0
  6
CONTINUOUS
 62
     7
 10
-234.2654892652829
 20
118.9848826836636
 30
0.0
 11
-234.2654971573322
 21
119.0101635249237
 31
0.0
  0
LINE
  5
62F
  8
0
  6
CONTINUOUS
 62
     7
 10
-272.853079165932
 20
118.2448306568488
 30
0.0
 11
-272.853079165932
 21
103.9999976014985
 31
0.0
  0
LINE
  5
630
  8
0
  6
CONTINUOUS
 62
     7
 10
-272.8476250265955
 20
117.8000000000001
 30
0.0
 11
-272.8530791659321
 21
118.2448306568488
 31
0.0
  0
LINE
  5
631
  8
0
  6
CONTINUOUS
 62
     7
 10
-272.8476250265955
 20
117.8000000000001
 30
0.0
 11
-272.8094448269782
 21
117.8000000000001
 31
0.0
  0
LINE
  5
632
  8
0
  6
CONTINUOUS
 62
     7
 10
-272.8476250265955
 20
137.8000000000001
 30
0.0
 11
-272.8140293566008
 21
137.8000000000001
 31
0.0
  0
LINE
  5
633
  8
0
  6
CONTINUOUS
 62
     7
 10
-272.8530791659321
 20
137.3551693431514
 30
0.0
 11
-272.8476250265955
 21
137.8000000000001
 31
0.0
  0
LINE
  5
634
  8
0
  6
CONTINUOUS
 62
     7
 10
-272.853079165932
 20
160.0000000000001
 30
0.0
 11
-272.853079165932
 21
137.3551693431513
 31
0.0
  0
LINE
  5
635
  8
0
  6
CONTINUOUS
 62
     7
 10
-272.853079165932
 20
160.0000000000001
 30
0.0
 11
-272.6295098192636
 21
159.1053819299641
 31
0.0
  0
LINE
  5
636
  8
0
  6
CONTINUOUS
 62
     7
 10
-234.2654971573322
 20
136.5898364750765
 30
0.0
 11
-234.2654892652829
 21
136.6151173163366
 31
0.0
  0
LINE
  5
637
  8
0
  6
CONTINUOUS
 62
     7
 10
-232.1523749734045
 20
135.8000000000001
 30
0.0
 11
-233.8541141465548
 21
136.0974325985704
 31
0.0
  0
LINE
  5
638
  8
0
  6
CONTINUOUS
 62
     7
 10
-234.2654971573322
 20
136.5898364750765
 30
0.0
 11
-234.2648934706067
 21
136.5649135322462
 31
0.0
  0
LINE
  5
639
  8
0
  6
CONTINUOUS
 62
     7
 10
-234.2648934706067
 20
136.5649135322462
 30
0.0
 11
-234.2630526716125
 21
136.5400525517786
 31
0.0
  0
LINE
  5
63A
  8
0
  6
CONTINUOUS
 62
     7
 10
-234.2630526716125
 20
136.5400525517786
 30
0.0
 11
-234.259979336866
 21
136.5153153419884
 31
0.0
  0
LINE
  5
63B
  8
0
  6
CONTINUOUS
 62
     7
 10
-234.259979336866
 20
136.5153153419884
 30
0.0
 11
-234.2556811071615
 21
136.4907634034768
 31
0.0
  0
LINE
  5
63C
  8
0
  6
CONTINUOUS
 62
     7
 10
-234.2556811071615
 20
136.4907634034768
 30
0.0
 11
-234.2501686685754
 21
136.4664577762314
 31
0.0
  0
LINE
  5
63D
  8
0
  6
CONTINUOUS
 62
     7
 10
-234.2501686685754
 20
136.4664577762314
 30
0.0
 11
-234.2434557258986
 21
136.442458887871
 31
0.0
  0
LINE
  5
63E
  8
0
  6
CONTINUOUS
 62
     7
 10
-234.2434557258986
 20
136.442458887871
 30
0.0
 11
-234.2355589685642
 21
136.4188264034136
 31
0.0
  0
LINE
  5
63F
  8
0
  6
CONTINUOUS
 62
     7
 10
-234.2355589685642
 20
136.4188264034136
 30
0.0
 11
-234.2264980291552
 21
136.3956190769391
 31
0.0
  0
LINE
  5
640
  8
0
  6
CONTINUOUS
 62
     7
 10
-234.2264980291552
 20
136.3956190769391
 30
0.0
 11
-234.2162954345947
 21
136.3728946055177
 31
0.0
  0
LINE
  5
641
  8
0
  6
CONTINUOUS
 62
     7
 10
-234.2162954345947
 20
136.3728946055177
 30
0.0
 11
-234.2049765501402
 21
136.3507094857658
 31
0.0
  0
LINE
  5
642
  8
0
  6
CONTINUOUS
 62
     7
 10
-234.2049765501402
 20
136.3507094857658
 30
0.0
 11
-234.192569516322
 21
136.3291188733868
 31
0.0
  0
LINE
  5
643
  8
0
  6
CONTINUOUS
 62
     7
 10
-234.192569516322
 20
136.3291188733868
 30
0.0
 11
-234.179105178981
 21
136.3081764460447
 31
0.0
  0
LINE
  5
644
  8
0
  6
CONTINUOUS
 62
     7
 10
-234.179105178981
 20
136.3081764460447
 30
0.0
 11
-234.1646170125813
 21
136.2879342699138
 31
0.0
  0
LINE
  5
645
  8
0
  6
CONTINUOUS
 62
     7
 10
-234.1646170125813
 20
136.2879342699138
 30
0.0
 11
-234.1491410369873
 21
136.2684426702332
 31
0.0
  0
LINE
  5
646
  8
0
  6
CONTINUOUS
 62
     7
 10
-234.1491410369873
 20
136.2684426702332
 30
0.0
 11
-234.1327157279128
 21
136.249750106191
 31
0.0
  0
LINE
  5
647
  8
0
  6
CONTINUOUS
 62
     7
 10
-234.1327157279128
 20
136.249750106191
 30
0.0
 11
-234.1153819212642
 21
136.2319030504466
 31
0.0
  0
LINE
  5
648
  8
0
  6
CONTINUOUS
 62
     7
 10
-234.1153819212642
 20
136.2319030504466
 30
0.0
 11
-234.0971827116159
 21
136.2149458735926
 31
0.0
  0
LINE
  5
649
  8
0
  6
CONTINUOUS
 62
     7
 10
-234.0971827116159
 20
136.2149458735926
 30
0.0
 11
-234.0781633450707
 21
136.1989207338425
 31
0.0
  0
LINE
  5
64A
  8
0
  6
CONTINUOUS
 62
     7
 10
-234.0781633450707
 20
136.1989207338425
 30
0.0
 11
-234.0583711067706
 21
136.1838674722186
 31
0.0
  0
LINE
  5
64B
  8
0
  6
CONTINUOUS
 62
     7
 10
-234.0583711067706
 20
136.1838674722186
 30
0.0
 11
-234.0378552033383
 21
136.1698235135011
 31
0.0
  0
LINE
  5
64C
  8
0
  6
CONTINUOUS
 62
     7
 10
-234.0378552033383
 20
136.1698235135011
 30
0.0
 11
-234.0166666405424
 21
136.1568237731843
 31
0.0
  0
LINE
  5
64D
  8
0
  6
CONTINUOUS
 62
     7
 10
-234.0166666405424
 20
136.1568237731843
 30
0.0
 11
-233.9948580964886
 21
136.1449005706708
 31
0.0
  0
LINE
  5
64E
  8
0
  6
CONTINUOUS
 62
     7
 10
-233.9948580964886
 20
136.1449005706708
 30
0.0
 11
-233.9724837906534
 21
136.1340835489206
 31
0.0
  0
LINE
  5
64F
  8
0
  6
CONTINUOUS
 62
     7
 10
-233.9724837906534
 20
136.1340835489206
 30
0.0
 11
-233.9495993490867
 21
136.1243996007544
 31
0.0
  0
LINE
  5
650
  8
0
  6
CONTINUOUS
 62
     7
 10
-233.9495993490867
 20
136.1243996007544
 30
0.0
 11
-233.9262616661158
 21
136.1158728019929
 31
0.0
  0
LINE
  5
651
  8
0
  6
CONTINUOUS
 62
     7
 10
-233.9262616661158
 20
136.1158728019929
 30
0.0
 11
-233.9025287628978
 21
136.1085243516015
 31
0.0
  0
LINE
  5
652
  8
0
  6
CONTINUOUS
 62
     7
 10
-233.9025287628978
 20
136.1085243516015
 30
0.0
 11
-233.8784596431694
 21
136.1023725189856
 31
0.0
  0
LINE
  5
653
  8
0
  6
CONTINUOUS
 62
     7
 10
-233.8784596431694
 20
136.1023725189856
 30
0.0
 11
-233.8541141465548
 21
136.0974325985704
 31
0.0
  0
LINE
  5
654
  8
0
  6
CONTINUOUS
 62
     7
 10
-271.1458858534452
 20
136.0974325985704
 30
0.0
 11
-271.1215403568306
 21
136.1023725189856
 31
0.0
  0
LINE
  5
655
  8
0
  6
CONTINUOUS
 62
     7
 10
-271.1215403568306
 20
136.1023725189856
 30
0.0
 11
-271.0974712371021
 21
136.1085243516015
 31
0.0
  0
LINE
  5
656
  8
0
  6
CONTINUOUS
 62
     7
 10
-271.0974712371021
 20
136.1085243516015
 30
0.0
 11
-271.0737383338841
 21
136.1158728019929
 31
0.0
  0
LINE
  5
657
  8
0
  6
CONTINUOUS
 62
     7
 10
-271.0737383338841
 20
136.1158728019929
 30
0.0
 11
-271.0504006509133
 21
136.1243996007544
 31
0.0
  0
LINE
  5
658
  8
0
  6
CONTINUOUS
 62
     7
 10
-271.0504006509133
 20
136.1243996007544
 30
0.0
 11
-271.0275162093466
 21
136.1340835489206
 31
0.0
  0
LINE
  5
659
  8
0
  6
CONTINUOUS
 62
     7
 10
-271.0275162093466
 20
136.1340835489206
 30
0.0
 11
-271.0051419035115
 21
136.1449005706708
 31
0.0
  0
LINE
  5
65A
  8
0
  6
CONTINUOUS
 62
     7
 10
-271.0051419035115
 20
136.1449005706708
 30
0.0
 11
-270.9833333594576
 21
136.1568237731843
 31
0.0
  0
LINE
  5
65B
  8
0
  6
CONTINUOUS
 62
     7
 10
-270.9833333594576
 20
136.1568237731843
 30
0.0
 11
-270.9621447966617
 21
136.1698235135011
 31
0.0
  0
LINE
  5
65C
  8
0
  6
CONTINUOUS
 62
     7
 10
-270.9621447966617
 20
136.1698235135011
 30
0.0
 11
-270.9416288932294
 21
136.1838674722186
 31
0.0
  0
LINE
  5
65D
  8
0
  6
CONTINUOUS
 62
     7
 10
-270.9416288932294
 20
136.1838674722186
 30
0.0
 11
-270.9218366549292
 21
136.1989207338425
 31
0.0
  0
LINE
  5
65E
  8
0
  6
CONTINUOUS
 62
     7
 10
-270.9218366549292
 20
136.1989207338425
 30
0.0
 11
-270.902817288384
 21
136.2149458735926
 31
0.0
  0
LINE
  5
65F
  8
0
  6
CONTINUOUS
 62
     7
 10
-270.902817288384
 20
136.2149458735926
 30
0.0
 11
-270.8846180787358
 21
136.2319030504466
 31
0.0
  0
LINE
  5
660
  8
0
  6
CONTINUOUS
 62
     7
 10
-270.8846180787358
 20
136.2319030504466
 30
0.0
 11
-270.8672842720871
 21
136.249750106191
 31
0.0
  0
LINE
  5
661
  8
0
  6
CONTINUOUS
 62
     7
 10
-270.8672842720871
 20
136.249750106191
 30
0.0
 11
-270.8508589630127
 21
136.2684426702332
 31
0.0
  0
LINE
  5
662
  8
0
  6
CONTINUOUS
 62
     7
 10
-270.8508589630127
 20
136.2684426702332
 30
0.0
 11
-270.8353829874187
 21
136.2879342699138
 31
0.0
  0
LINE
  5
663
  8
0
  6
CONTINUOUS
 62
     7
 10
-270.8353829874187
 20
136.2879342699138
 30
0.0
 11
-270.820894821019
 21
136.3081764460447
 31
0.0
  0
LINE
  5
664
  8
0
  6
CONTINUOUS
 62
     7
 10
-270.820894821019
 20
136.3081764460447
 30
0.0
 11
-270.807430483678
 21
136.3291188733868
 31
0.0
  0
LINE
  5
665
  8
0
  6
CONTINUOUS
 62
     7
 10
-270.807430483678
 20
136.3291188733868
 30
0.0
 11
-270.7950234498597
 21
136.3507094857658
 31
0.0
  0
LINE
  5
666
  8
0
  6
CONTINUOUS
 62
     7
 10
-270.7950234498597
 20
136.3507094857658
 30
0.0
 11
-270.7837045654053
 21
136.3728946055177
 31
0.0
  0
LINE
  5
667
  8
0
  6
CONTINUOUS
 62
     7
 10
-270.7837045654053
 20
136.3728946055177
 30
0.0
 11
-270.7735019708447
 21
136.3956190769391
 31
0.0
  0
LINE
  5
668
  8
0
  6
CONTINUOUS
 62
     7
 10
-270.7735019708447
 20
136.3956190769391
 30
0.0
 11
-270.7644410314358
 21
136.4188264034136
 31
0.0
  0
LINE
  5
669
  8
0
  6
CONTINUOUS
 62
     7
 10
-270.7644410314358
 20
136.4188264034136
 30
0.0
 11
-270.7565442741014
 21
136.442458887871
 31
0.0
  0
LINE
  5
66A
  8
0
  6
CONTINUOUS
 62
     7
 10
-270.7565442741014
 20
136.442458887871
 30
0.0
 11
-270.7498313314246
 21
136.4664577762314
 31
0.0
  0
LINE
  5
66B
  8
0
  6
CONTINUOUS
 62
     7
 10
-270.7498313314246
 20
136.4664577762314
 30
0.0
 11
-270.7443188928385
 21
136.4907634034768
 31
0.0
  0
LINE
  5
66C
  8
0
  6
CONTINUOUS
 62
     7
 10
-270.7443188928385
 20
136.4907634034768
 30
0.0
 11
-270.740020663134
 21
136.5153153419884
 31
0.0
  0
LINE
  5
66D
  8
0
  6
CONTINUOUS
 62
     7
 10
-270.740020663134
 20
136.5153153419884
 30
0.0
 11
-270.7369473283875
 21
136.5400525517786
 31
0.0
  0
LINE
  5
66E
  8
0
  6
CONTINUOUS
 62
     7
 10
-270.7369473283875
 20
136.5400525517786
 30
0.0
 11
-270.7351065293933
 21
136.5649135322462
 31
0.0
  0
LINE
  5
66F
  8
0
  6
CONTINUOUS
 62
     7
 10
-270.7351065293933
 20
136.5649135322462
 30
0.0
 11
-270.7345028426677
 21
136.5898364750765
 31
0.0
  0
LINE
  5
670
  8
0
  6
CONTINUOUS
 62
     7
 10
-271.1458858534452
 20
136.0974325985704
 30
0.0
 11
-272.8476250265955
 21
135.8000000000001
 31
0.0
  0
LINE
  5
671
  8
0
  6
CONTINUOUS
 62
     7
 10
-272.8476250265955
 20
135.8000000000001
 30
0.0
 11
-272.8530791659321
 21
136.2448306568488
 31
0.0
  0
LINE
  5
672
  8
0
  6
CONTINUOUS
 62
     7
 10
-270.7345107347171
 20
136.6151173163366
 30
0.0
 11
-270.7345028426677
 21
136.5898364750765
 31
0.0
  0
LINE
  5
673
  8
0
  6
CONTINUOUS
 62
     7
 10
-272.8476250265955
 20
135.8000000000001
 30
0.0
 11
-272.8312619964551
 21
135.8000000000001
 31
0.0
  0
LINE
  5
674
  8
0
  6
CONTINUOUS
 62
     7
 10
-272.8312619964551
 20
135.8000000000001
 30
0.0
 11
-272.8312619964551
 21
119.8000000000001
 31
0.0
  0
LINE
  5
675
  8
0
  6
CONTINUOUS
 62
     7
 10
-272.8476250265955
 20
119.8000000000001
 30
0.0
 11
-272.8312619964551
 21
119.8000000000001
 31
0.0
  0
LINE
  5
676
  8
0
  6
CONTINUOUS
 62
     7
 10
-272.8530791659321
 20
119.3551693431514
 30
0.0
 11
-272.8476250265955
 21
119.8000000000001
 31
0.0
  0
LINE
  5
677
  8
0
  6
CONTINUOUS
 62
     7
 10
-272.853079165932
 20
136.2448306568488
 30
0.0
 11
-272.853079165932
 21
119.3551693431513
 31
0.0
  0
LINE
  5
678
  8
0
  6
CONTINUOUS
 62
     7
 10
-232.1523749734045
 20
117.8000000000001
 30
0.0
 11
-233.8541141465548
 21
118.0974325985704
 31
0.0
  0
LINE
  5
679
  8
0
  6
CONTINUOUS
 62
     7
 10
-233.8541141465548
 20
118.0974325985704
 30
0.0
 11
-233.8784596431694
 21
118.1023725189856
 31
0.0
  0
LINE
  5
67A
  8
0
  6
CONTINUOUS
 62
     7
 10
-233.8784596431694
 20
118.1023725189856
 30
0.0
 11
-233.9025287628978
 21
118.1085243516015
 31
0.0
  0
LINE
  5
67B
  8
0
  6
CONTINUOUS
 62
     7
 10
-233.9025287628978
 20
118.1085243516015
 30
0.0
 11
-233.9262616661158
 21
118.1158728019929
 31
0.0
  0
LINE
  5
67C
  8
0
  6
CONTINUOUS
 62
     7
 10
-233.9262616661158
 20
118.1158728019929
 30
0.0
 11
-233.9495993490867
 21
118.1243996007544
 31
0.0
  0
LINE
  5
67D
  8
0
  6
CONTINUOUS
 62
     7
 10
-233.9495993490867
 20
118.1243996007544
 30
0.0
 11
-233.9724837906535
 21
118.1340835489207
 31
0.0
  0
LINE
  5
67E
  8
0
  6
CONTINUOUS
 62
     7
 10
-233.9724837906535
 20
118.1340835489207
 30
0.0
 11
-233.9948580964886
 21
118.1449005706708
 31
0.0
  0
LINE
  5
67F
  8
0
  6
CONTINUOUS
 62
     7
 10
-233.9948580964886
 20
118.1449005706708
 30
0.0
 11
-234.0166666405424
 21
118.1568237731843
 31
0.0
  0
LINE
  5
680
  8
0
  6
CONTINUOUS
 62
     7
 10
-234.0166666405424
 20
118.1568237731843
 30
0.0
 11
-234.0378552033383
 21
118.1698235135011
 31
0.0
  0
LINE
  5
681
  8
0
  6
CONTINUOUS
 62
     7
 10
-234.0378552033383
 20
118.1698235135011
 30
0.0
 11
-234.0583711067706
 21
118.1838674722186
 31
0.0
  0
LINE
  5
682
  8
0
  6
CONTINUOUS
 62
     7
 10
-234.0583711067706
 20
118.1838674722186
 30
0.0
 11
-234.0781633450707
 21
118.1989207338425
 31
0.0
  0
LINE
  5
683
  8
0
  6
CONTINUOUS
 62
     7
 10
-234.0781633450707
 20
118.1989207338425
 30
0.0
 11
-234.0971827116159
 21
118.2149458735926
 31
0.0
  0
LINE
  5
684
  8
0
  6
CONTINUOUS
 62
     7
 10
-234.0971827116159
 20
118.2149458735926
 30
0.0
 11
-234.1153819212642
 21
118.2319030504466
 31
0.0
  0
LINE
  5
685
  8
0
  6
CONTINUOUS
 62
     7
 10
-234.1153819212642
 20
118.2319030504466
 30
0.0
 11
-234.1327157279128
 21
118.249750106191
 31
0.0
  0
LINE
  5
686
  8
0
  6
CONTINUOUS
 62
     7
 10
-234.1327157279128
 20
118.249750106191
 30
0.0
 11
-234.1491410369873
 21
118.2684426702332
 31
0.0
  0
LINE
  5
687
  8
0
  6
CONTINUOUS
 62
     7
 10
-234.1491410369873
 20
118.2684426702332
 30
0.0
 11
-234.1646170125813
 21
118.2879342699137
 31
0.0
  0
LINE
  5
688
  8
0
  6
CONTINUOUS
 62
     7
 10
-234.1646170125813
 20
118.2879342699137
 30
0.0
 11
-234.179105178981
 21
118.3081764460447
 31
0.0
  0
LINE
  5
689
  8
0
  6
CONTINUOUS
 62
     7
 10
-234.179105178981
 20
118.3081764460447
 30
0.0
 11
-234.192569516322
 21
118.3291188733867
 31
0.0
  0
LINE
  5
68A
  8
0
  6
CONTINUOUS
 62
     7
 10
-234.192569516322
 20
118.3291188733867
 30
0.0
 11
-234.2049765501402
 21
118.3507094857658
 31
0.0
  0
LINE
  5
68B
  8
0
  6
CONTINUOUS
 62
     7
 10
-234.2049765501402
 20
118.3507094857658
 30
0.0
 11
-234.2162954345947
 21
118.3728946055177
 31
0.0
  0
LINE
  5
68C
  8
0
  6
CONTINUOUS
 62
     7
 10
-234.2162954345947
 20
118.3728946055177
 30
0.0
 11
-234.2264980291553
 21
118.3956190769392
 31
0.0
  0
LINE
  5
68D
  8
0
  6
CONTINUOUS
 62
     7
 10
-234.2264980291553
 20
118.3956190769392
 30
0.0
 11
-234.2355589685642
 21
118.4188264034137
 31
0.0
  0
LINE
  5
68E
  8
0
  6
CONTINUOUS
 62
     7
 10
-234.2355589685642
 20
118.4188264034137
 30
0.0
 11
-234.2434557258986
 21
118.442458887871
 31
0.0
  0
LINE
  5
68F
  8
0
  6
CONTINUOUS
 62
     7
 10
-234.2434557258986
 20
118.442458887871
 30
0.0
 11
-234.2501686685754
 21
118.4664577762314
 31
0.0
  0
LINE
  5
690
  8
0
  6
CONTINUOUS
 62
     7
 10
-234.2501686685754
 20
118.4664577762314
 30
0.0
 11
-234.2556811071615
 21
118.4907634034768
 31
0.0
  0
LINE
  5
691
  8
0
  6
CONTINUOUS
 62
     7
 10
-234.2556811071615
 20
118.4907634034768
 30
0.0
 11
-234.259979336866
 21
118.5153153419884
 31
0.0
  0
LINE
  5
692
  8
0
  6
CONTINUOUS
 62
     7
 10
-234.259979336866
 20
118.5153153419884
 30
0.0
 11
-234.2630526716125
 21
118.5400525517786
 31
0.0
  0
LINE
  5
693
  8
0
  6
CONTINUOUS
 62
     7
 10
-234.2630526716125
 20
118.5400525517786
 30
0.0
 11
-234.2648934706067
 21
118.5649135322462
 31
0.0
  0
LINE
  5
694
  8
0
  6
CONTINUOUS
 62
     7
 10
-234.2648934706067
 20
118.5649135322462
 30
0.0
 11
-234.2654971573322
 21
118.5898364750765
 31
0.0
  0
LINE
  5
695
  8
0
  6
CONTINUOUS
 62
     7
 10
-234.2654971573322
 20
118.5898364750765
 30
0.0
 11
-234.2654892652829
 21
118.6151173163366
 31
0.0
  0
LINE
  5
696
  8
0
  6
CONTINUOUS
 62
     7
 10
-272.8476250265955
 20
137.8000000000001
 30
0.0
 11
-271.1458858534452
 21
137.5025674014298
 31
0.0
  0
LINE
  5
697
  8
0
  6
CONTINUOUS
 62
     7
 10
-271.1458858534452
 20
137.5025674014298
 30
0.0
 11
-271.1215403568306
 21
137.4976274810146
 31
0.0
  0
LINE
  5
698
  8
0
  6
CONTINUOUS
 62
     7
 10
-271.1215403568306
 20
137.4976274810146
 30
0.0
 11
-271.0974712371021
 21
137.4914756483987
 31
0.0
  0
LINE
  5
699
  8
0
  6
CONTINUOUS
 62
     7
 10
-271.0974712371021
 20
137.4914756483987
 30
0.0
 11
-271.0737383338841
 21
137.4841271980072
 31
0.0
  0
LINE
  5
69A
  8
0
  6
CONTINUOUS
 62
     7
 10
-271.0737383338841
 20
137.4841271980072
 30
0.0
 11
-271.0504006509133
 21
137.4756003992458
 31
0.0
  0
LINE
  5
69B
  8
0
  6
CONTINUOUS
 62
     7
 10
-271.0504006509133
 20
137.4756003992458
 30
0.0
 11
-271.0275162093466
 21
137.4659164510795
 31
0.0
  0
LINE
  5
69C
  8
0
  6
CONTINUOUS
 62
     7
 10
-271.0275162093466
 20
137.4659164510795
 30
0.0
 11
-271.0051419035115
 21
137.4550994293294
 31
0.0
  0
LINE
  5
69D
  8
0
  6
CONTINUOUS
 62
     7
 10
-271.0051419035115
 20
137.4550994293294
 30
0.0
 11
-270.9833333594576
 21
137.4431762268159
 31
0.0
  0
LINE
  5
69E
  8
0
  6
CONTINUOUS
 62
     7
 10
-270.9833333594576
 20
137.4431762268159
 30
0.0
 11
-270.9621447966617
 21
137.4301764864991
 31
0.0
  0
LINE
  5
69F
  8
0
  6
CONTINUOUS
 62
     7
 10
-270.9621447966617
 20
137.4301764864991
 30
0.0
 11
-270.9416288932294
 21
137.4161325277816
 31
0.0
  0
LINE
  5
6A0
  8
0
  6
CONTINUOUS
 62
     7
 10
-270.9416288932294
 20
137.4161325277816
 30
0.0
 11
-270.9218366549292
 21
137.4010792661577
 31
0.0
  0
LINE
  5
6A1
  8
0
  6
CONTINUOUS
 62
     7
 10
-270.9218366549292
 20
137.4010792661577
 30
0.0
 11
-270.902817288384
 21
137.3850541264075
 31
0.0
  0
LINE
  5
6A2
  8
0
  6
CONTINUOUS
 62
     7
 10
-270.902817288384
 20
137.3850541264075
 30
0.0
 11
-270.8846180787358
 21
137.3680969495535
 31
0.0
  0
LINE
  5
6A3
  8
0
  6
CONTINUOUS
 62
     7
 10
-270.8846180787358
 20
137.3680969495535
 30
0.0
 11
-270.8672842720871
 21
137.3502498938091
 31
0.0
  0
LINE
  5
6A4
  8
0
  6
CONTINUOUS
 62
     7
 10
-270.8672842720871
 20
137.3502498938091
 30
0.0
 11
-270.8508589630127
 21
137.3315573297669
 31
0.0
  0
LINE
  5
6A5
  8
0
  6
CONTINUOUS
 62
     7
 10
-270.8508589630127
 20
137.3315573297669
 30
0.0
 11
-270.8353829874187
 21
137.3120657300864
 31
0.0
  0
LINE
  5
6A6
  8
0
  6
CONTINUOUS
 62
     7
 10
-270.8353829874187
 20
137.3120657300864
 30
0.0
 11
-270.820894821019
 21
137.2918235539555
 31
0.0
  0
LINE
  5
6A7
  8
0
  6
CONTINUOUS
 62
     7
 10
-270.820894821019
 20
137.2918235539555
 30
0.0
 11
-270.807430483678
 21
137.2708811266134
 31
0.0
  0
LINE
  5
6A8
  8
0
  6
CONTINUOUS
 62
     7
 10
-270.807430483678
 20
137.2708811266134
 30
0.0
 11
-270.7950234498597
 21
137.2492905142343
 31
0.0
  0
LINE
  5
6A9
  8
0
  6
CONTINUOUS
 62
     7
 10
-270.7950234498597
 20
137.2492905142343
 30
0.0
 11
-270.7837045654053
 21
137.2271053944824
 31
0.0
  0
LINE
  5
6AA
  8
0
  6
CONTINUOUS
 62
     7
 10
-270.7837045654053
 20
137.2271053944824
 30
0.0
 11
-270.7735019708447
 21
137.204380923061
 31
0.0
  0
LINE
  5
6AB
  8
0
  6
CONTINUOUS
 62
     7
 10
-270.7735019708447
 20
137.204380923061
 30
0.0
 11
-270.7644410314358
 21
137.1811735965865
 31
0.0
  0
LINE
  5
6AC
  8
0
  6
CONTINUOUS
 62
     7
 10
-270.7644410314358
 20
137.1811735965865
 30
0.0
 11
-270.7565442741014
 21
137.1575411121291
 31
0.0
  0
LINE
  5
6AD
  8
0
  6
CONTINUOUS
 62
     7
 10
-270.7565442741014
 20
137.1575411121291
 30
0.0
 11
-270.7498313314246
 21
137.1335422237688
 31
0.0
  0
LINE
  5
6AE
  8
0
  6
CONTINUOUS
 62
     7
 10
-270.7498313314246
 20
137.1335422237688
 30
0.0
 11
-270.7443188928385
 21
137.1092365965233
 31
0.0
  0
LINE
  5
6AF
  8
0
  6
CONTINUOUS
 62
     7
 10
-270.7443188928385
 20
137.1092365965233
 30
0.0
 11
-270.740020663134
 21
137.0846846580117
 31
0.0
  0
LINE
  5
6B0
  8
0
  6
CONTINUOUS
 62
     7
 10
-270.740020663134
 20
137.0846846580117
 30
0.0
 11
-270.7369473283875
 21
137.0599474482215
 31
0.0
  0
LINE
  5
6B1
  8
0
  6
CONTINUOUS
 62
     7
 10
-270.7369473283875
 20
137.0599474482215
 30
0.0
 11
-270.7351065293933
 21
137.035086467754
 31
0.0
  0
LINE
  5
6B2
  8
0
  6
CONTINUOUS
 62
     7
 10
-270.7351065293933
 20
137.035086467754
 30
0.0
 11
-270.7345028426677
 21
137.0101635249237
 31
0.0
  0
LINE
  5
6B3
  8
0
  6
CONTINUOUS
 62
     7
 10
-270.7345028426677
 20
137.0101635249237
 30
0.0
 11
-270.7345107347171
 21
136.9848826836636
 31
0.0
  0
LINE
  5
6B4
  8
0
  6
CONTINUOUS
 62
     7
 10
-270.7345107347171
 20
118.6151173163366
 30
0.0
 11
-270.7345028426677
 21
118.5898364750765
 31
0.0
  0
LINE
  5
6B5
  8
0
  6
CONTINUOUS
 62
     7
 10
-270.7345028426677
 20
118.5898364750765
 30
0.0
 11
-270.7351065293933
 21
118.5649135322461
 31
0.0
  0
LINE
  5
6B6
  8
0
  6
CONTINUOUS
 62
     7
 10
-270.7351065293933
 20
118.5649135322461
 30
0.0
 11
-270.7369473283875
 21
118.5400525517786
 31
0.0
  0
LINE
  5
6B7
  8
0
  6
CONTINUOUS
 62
     7
 10
-270.7369473283875
 20
118.5400525517786
 30
0.0
 11
-270.740020663134
 21
118.5153153419884
 31
0.0
  0
LINE
  5
6B8
  8
0
  6
CONTINUOUS
 62
     7
 10
-270.740020663134
 20
118.5153153419884
 30
0.0
 11
-270.7443188928385
 21
118.4907634034768
 31
0.0
  0
LINE
  5
6B9
  8
0
  6
CONTINUOUS
 62
     7
 10
-270.7443188928385
 20
118.4907634034768
 30
0.0
 11
-270.7498313314246
 21
118.4664577762313
 31
0.0
  0
LINE
  5
6BA
  8
0
  6
CONTINUOUS
 62
     7
 10
-270.7498313314246
 20
118.4664577762313
 30
0.0
 11
-270.7565442741014
 21
118.442458887871
 31
0.0
  0
LINE
  5
6BB
  8
0
  6
CONTINUOUS
 62
     7
 10
-270.7565442741014
 20
118.442458887871
 30
0.0
 11
-270.7644410314358
 21
118.4188264034136
 31
0.0
  0
LINE
  5
6BC
  8
0
  6
CONTINUOUS
 62
     7
 10
-270.7644410314358
 20
118.4188264034136
 30
0.0
 11
-270.7735019708447
 21
118.3956190769391
 31
0.0
  0
LINE
  5
6BD
  8
0
  6
CONTINUOUS
 62
     7
 10
-270.7735019708447
 20
118.3956190769391
 30
0.0
 11
-270.7837045654053
 21
118.3728946055177
 31
0.0
  0
LINE
  5
6BE
  8
0
  6
CONTINUOUS
 62
     7
 10
-270.7837045654053
 20
118.3728946055177
 30
0.0
 11
-270.7950234498597
 21
118.3507094857658
 31
0.0
  0
LINE
  5
6BF
  8
0
  6
CONTINUOUS
 62
     7
 10
-270.7950234498597
 20
118.3507094857658
 30
0.0
 11
-270.807430483678
 21
118.3291188733867
 31
0.0
  0
LINE
  5
6C0
  8
0
  6
CONTINUOUS
 62
     7
 10
-270.807430483678
 20
118.3291188733867
 30
0.0
 11
-270.820894821019
 21
118.3081764460447
 31
0.0
  0
LINE
  5
6C1
  8
0
  6
CONTINUOUS
 62
     7
 10
-270.820894821019
 20
118.3081764460447
 30
0.0
 11
-270.8353829874187
 21
118.2879342699137
 31
0.0
  0
LINE
  5
6C2
  8
0
  6
CONTINUOUS
 62
     7
 10
-270.8353829874187
 20
118.2879342699137
 30
0.0
 11
-270.8508589630127
 21
118.2684426702332
 31
0.0
  0
LINE
  5
6C3
  8
0
  6
CONTINUOUS
 62
     7
 10
-270.8508589630127
 20
118.2684426702332
 30
0.0
 11
-270.8672842720871
 21
118.249750106191
 31
0.0
  0
LINE
  5
6C4
  8
0
  6
CONTINUOUS
 62
     7
 10
-270.8672842720871
 20
118.249750106191
 30
0.0
 11
-270.8846180787358
 21
118.2319030504466
 31
0.0
  0
LINE
  5
6C5
  8
0
  6
CONTINUOUS
 62
     7
 10
-270.8846180787358
 20
118.2319030504466
 30
0.0
 11
-270.902817288384
 21
118.2149458735926
 31
0.0
  0
LINE
  5
6C6
  8
0
  6
CONTINUOUS
 62
     7
 10
-270.902817288384
 20
118.2149458735926
 30
0.0
 11
-270.9218366549292
 21
118.1989207338425
 31
0.0
  0
LINE
  5
6C7
  8
0
  6
CONTINUOUS
 62
     7
 10
-270.9218366549292
 20
118.1989207338425
 30
0.0
 11
-270.9416288932294
 21
118.1838674722186
 31
0.0
  0
LINE
  5
6C8
  8
0
  6
CONTINUOUS
 62
     7
 10
-270.9416288932294
 20
118.1838674722186
 30
0.0
 11
-270.9621447966617
 21
118.1698235135011
 31
0.0
  0
LINE
  5
6C9
  8
0
  6
CONTINUOUS
 62
     7
 10
-270.9621447966617
 20
118.1698235135011
 30
0.0
 11
-270.9833333594576
 21
118.1568237731843
 31
0.0
  0
LINE
  5
6CA
  8
0
  6
CONTINUOUS
 62
     7
 10
-270.9833333594576
 20
118.1568237731843
 30
0.0
 11
-271.0051419035115
 21
118.1449005706708
 31
0.0
  0
LINE
  5
6CB
  8
0
  6
CONTINUOUS
 62
     7
 10
-271.0051419035115
 20
118.1449005706708
 30
0.0
 11
-271.0275162093466
 21
118.1340835489207
 31
0.0
  0
LINE
  5
6CC
  8
0
  6
CONTINUOUS
 62
     7
 10
-271.0275162093466
 20
118.1340835489207
 30
0.0
 11
-271.0504006509133
 21
118.1243996007544
 31
0.0
  0
LINE
  5
6CD
  8
0
  6
CONTINUOUS
 62
     7
 10
-271.0504006509133
 20
118.1243996007544
 30
0.0
 11
-271.0737383338841
 21
118.1158728019929
 31
0.0
  0
LINE
  5
6CE
  8
0
  6
CONTINUOUS
 62
     7
 10
-271.0737383338841
 20
118.1158728019929
 30
0.0
 11
-271.0974712371021
 21
118.1085243516015
 31
0.0
  0
LINE
  5
6CF
  8
0
  6
CONTINUOUS
 62
     7
 10
-271.0974712371021
 20
118.1085243516015
 30
0.0
 11
-271.1215403568306
 21
118.1023725189856
 31
0.0
  0
LINE
  5
6D0
  8
0
  6
CONTINUOUS
 62
     7
 10
-271.1215403568306
 20
118.1023725189856
 30
0.0
 11
-271.1458858534452
 21
118.0974325985704
 31
0.0
  0
LINE
  5
6D1
  8
0
  6
CONTINUOUS
 62
     7
 10
-271.1458858534452
 20
118.0974325985704
 30
0.0
 11
-272.8476250265955
 21
117.8000000000001
 31
0.0
  0
LINE
  5
6D2
  8
0
  6
CONTINUOUS
 62
     7
 10
-270.7345028426677
 20
119.0101635249237
 30
0.0
 11
-270.7345107347171
 21
118.9848826836636
 31
0.0
  0
LINE
  5
6D3
  8
0
  6
CONTINUOUS
 62
     7
 10
-272.8476250265955
 20
119.8000000000001
 30
0.0
 11
-271.1458858534452
 21
119.5025674014298
 31
0.0
  0
LINE
  5
6D4
  8
0
  6
CONTINUOUS
 62
     7
 10
-270.7345028426677
 20
119.0101635249237
 30
0.0
 11
-270.7351065293933
 21
119.035086467754
 31
0.0
  0
LINE
  5
6D5
  8
0
  6
CONTINUOUS
 62
     7
 10
-270.7351065293933
 20
119.035086467754
 30
0.0
 11
-270.7369473283875
 21
119.0599474482216
 31
0.0
  0
LINE
  5
6D6
  8
0
  6
CONTINUOUS
 62
     7
 10
-270.7369473283875
 20
119.0599474482216
 30
0.0
 11
-270.740020663134
 21
119.0846846580118
 31
0.0
  0
LINE
  5
6D7
  8
0
  6
CONTINUOUS
 62
     7
 10
-270.740020663134
 20
119.0846846580118
 30
0.0
 11
-270.7443188928385
 21
119.1092365965234
 31
0.0
  0
LINE
  5
6D8
  8
0
  6
CONTINUOUS
 62
     7
 10
-270.7443188928385
 20
119.1092365965234
 30
0.0
 11
-270.7498313314246
 21
119.1335422237688
 31
0.0
  0
LINE
  5
6D9
  8
0
  6
CONTINUOUS
 62
     7
 10
-270.7498313314246
 20
119.1335422237688
 30
0.0
 11
-270.7565442741014
 21
119.1575411121291
 31
0.0
  0
LINE
  5
6DA
  8
0
  6
CONTINUOUS
 62
     7
 10
-270.7565442741014
 20
119.1575411121291
 30
0.0
 11
-270.7644410314358
 21
119.1811735965865
 31
0.0
  0
LINE
  5
6DB
  8
0
  6
CONTINUOUS
 62
     7
 10
-270.7644410314358
 20
119.1811735965865
 30
0.0
 11
-270.7735019708447
 21
119.204380923061
 31
0.0
  0
LINE
  5
6DC
  8
0
  6
CONTINUOUS
 62
     7
 10
-270.7735019708447
 20
119.204380923061
 30
0.0
 11
-270.7837045654053
 21
119.2271053944825
 31
0.0
  0
LINE
  5
6DD
  8
0
  6
CONTINUOUS
 62
     7
 10
-270.7837045654053
 20
119.2271053944825
 30
0.0
 11
-270.7950234498597
 21
119.2492905142343
 31
0.0
  0
LINE
  5
6DE
  8
0
  6
CONTINUOUS
 62
     7
 10
-270.7950234498597
 20
119.2492905142343
 30
0.0
 11
-270.807430483678
 21
119.2708811266134
 31
0.0
  0
LINE
  5
6DF
  8
0
  6
CONTINUOUS
 62
     7
 10
-270.807430483678
 20
119.2708811266134
 30
0.0
 11
-270.820894821019
 21
119.2918235539555
 31
0.0
  0
LINE
  5
6E0
  8
0
  6
CONTINUOUS
 62
     7
 10
-270.820894821019
 20
119.2918235539555
 30
0.0
 11
-270.8353829874188
 21
119.3120657300864
 31
0.0
  0
LINE
  5
6E1
  8
0
  6
CONTINUOUS
 62
     7
 10
-270.8353829874188
 20
119.3120657300864
 30
0.0
 11
-270.8508589630127
 21
119.3315573297669
 31
0.0
  0
LINE
  5
6E2
  8
0
  6
CONTINUOUS
 62
     7
 10
-270.8508589630127
 20
119.3315573297669
 30
0.0
 11
-270.8672842720872
 21
119.3502498938091
 31
0.0
  0
LINE
  5
6E3
  8
0
  6
CONTINUOUS
 62
     7
 10
-270.8672842720872
 20
119.3502498938091
 30
0.0
 11
-270.8846180787358
 21
119.3680969495535
 31
0.0
  0
LINE
  5
6E4
  8
0
  6
CONTINUOUS
 62
     7
 10
-270.8846180787358
 20
119.3680969495535
 30
0.0
 11
-270.902817288384
 21
119.3850541264075
 31
0.0
  0
LINE
  5
6E5
  8
0
  6
CONTINUOUS
 62
     7
 10
-270.902817288384
 20
119.3850541264075
 30
0.0
 11
-270.9218366549292
 21
119.4010792661577
 31
0.0
  0
LINE
  5
6E6
  8
0
  6
CONTINUOUS
 62
     7
 10
-270.9218366549292
 20
119.4010792661577
 30
0.0
 11
-270.9416288932294
 21
119.4161325277816
 31
0.0
  0
LINE
  5
6E7
  8
0
  6
CONTINUOUS
 62
     7
 10
-270.9416288932294
 20
119.4161325277816
 30
0.0
 11
-270.9621447966617
 21
119.4301764864991
 31
0.0
  0
LINE
  5
6E8
  8
0
  6
CONTINUOUS
 62
     7
 10
-270.9621447966617
 20
119.4301764864991
 30
0.0
 11
-270.9833333594576
 21
119.4431762268159
 31
0.0
  0
LINE
  5
6E9
  8
0
  6
CONTINUOUS
 62
     7
 10
-270.9833333594576
 20
119.4431762268159
 30
0.0
 11
-271.0051419035115
 21
119.4550994293294
 31
0.0
  0
LINE
  5
6EA
  8
0
  6
CONTINUOUS
 62
     7
 10
-271.0051419035115
 20
119.4550994293294
 30
0.0
 11
-271.0275162093466
 21
119.4659164510795
 31
0.0
  0
LINE
  5
6EB
  8
0
  6
CONTINUOUS
 62
     7
 10
-271.0275162093466
 20
119.4659164510795
 30
0.0
 11
-271.0504006509133
 21
119.4756003992458
 31
0.0
  0
LINE
  5
6EC
  8
0
  6
CONTINUOUS
 62
     7
 10
-271.0504006509133
 20
119.4756003992458
 30
0.0
 11
-271.0737383338841
 21
119.4841271980072
 31
0.0
  0
LINE
  5
6ED
  8
0
  6
CONTINUOUS
 62
     7
 10
-271.0737383338841
 20
119.4841271980072
 30
0.0
 11
-271.0974712371021
 21
119.4914756483987
 31
0.0
  0
LINE
  5
6EE
  8
0
  6
CONTINUOUS
 62
     7
 10
-271.0974712371021
 20
119.4914756483987
 30
0.0
 11
-271.1215403568306
 21
119.4976274810146
 31
0.0
  0
LINE
  5
6EF
  8
0
  6
CONTINUOUS
 62
     7
 10
-271.1215403568306
 20
119.4976274810146
 30
0.0
 11
-271.1458858534452
 21
119.5025674014298
 31
0.0
  0
LINE
  5
6F0
  8
0
  6
CONTINUOUS
 62
     7
 10
-228.1389904962849
 20
102.1000000000001
 30
0.0
 11
-228.551387767255
 21
102.1429763561039
 31
0.0
  0
LINE
  5
6F1
  8
0
  6
CONTINUOUS
 62
     7
 10
-174.0
 20
102.1000000000001
 30
0.0
 11
-228.1389904962849
 21
102.1000000000001
 31
0.0
  0
ARC
  5
6F2
  8
0
  6
CONTINUOUS
 62
     7
 10
-174.0
 20
100.6000000000001
 30
0.0
 40
1.500000000000001
 50
0.0
 51
90.0
  0
LINE
  5
6F3
  8
0
  6
CONTINUOUS
 62
     7
 10
-172.5
 20
100.6000000000001
 30
0.0
 11
-172.5
 21
100.0000000000001
 31
0.0
  0
LINE
  5
6F4
  8
0
  6
CONTINUOUS
 62
     7
 10
-192.9453723040603
 20
100.0000000000001
 30
0.0
 11
-194.0546276959397
 21
100.0000000000001
 31
0.0
  0
LINE
  5
6F5
  8
0
  6
CONTINUOUS
 62
     7
 10
-210.9453723040603
 20
100.0000000000001
 30
0.0
 11
-212.0546276959397
 21
100.0000000000001
 31
0.0
  0
ARC
  5
6F6
  8
0
  6
CONTINUOUS
 62
     7
 10
-228.146874650488
 20
104.0000611393408
 30
0.0
 40
4.000046184084618
 50
180.0009101020424
 51
259.7567901528761
  0
LINE
  5
6F7
  8
0
  6
CONTINUOUS
 62
     7
 10
-232.146920834068
 20
119.3551693431513
 30
0.0
 11
-232.146920834068
 21
118.2448306568488
 31
0.0
  0
LINE
  5
6F8
  8
0
  6
CONTINUOUS
 62
     7
 10
-232.146920834068
 20
137.3551693431514
 30
0.0
 11
-232.146920834068
 21
136.2448306568488
 31
0.0
  0
LINE
  5
6F9
  8
0
  6
CONTINUOUS
 62
     7
 10
-231.6386669256944
 20
160.0000000000001
 30
0.0
 11
-232.146920834068
 21
160.0000000000001
 31
0.0
  0
POLYLINE
  5
6FA
  8
0
  6
CONTINUOUS
 62
     7
 66
     1
 10
0.0
 20
0.0
 30
0.0
  0
VERTEX
  5
817
  8
0
  6
CONTINUOUS
 62
     7
 10
-230.1390666530563
 20
158.4995427895538
 30
0.0
  0
VERTEX
  5
818
  8
0
  6
CONTINUOUS
 62
     7
 10
-230.1678786902623
 20
158.7922918129545
 30
0.0
  0
VERTEX
  5
819
  8
0
  6
CONTINUOUS
 62
     7
 10
-230.253207999375
 20
159.0737774440344
 30
0.0
  0
VERTEX
  5
81A
  8
0
  6
CONTINUOUS
 62
     7
 10
-230.3917766902392
 20
159.3331865285737
 30
0.0
  0
VERTEX
  5
81B
  8
0
  6
CONTINUOUS
 62
     7
 10
-230.5782617038461
 20
159.5605539737663
 30
0.0
  0
VERTEX
  5
81C
  8
0
  6
CONTINUOUS
 62
     7
 10
-230.8054992954456
 20
159.747145553144
 30
0.0
  0
VERTEX
  5
81D
  8
0
  6
CONTINUOUS
 62
     7
 10
-231.0647602268414
 20
159.8857934282764
 30
0.0
  0
VERTEX
  5
81E
  8
0
  6
CONTINUOUS
 62
     7
 10
-231.3460850964694
 20
159.9711714983239
 30
0.0
  0
VERTEX
  5
81F
  8
0
  6
CONTINUOUS
 62
     7
 10
-231.6386669256944
 20
160.0000000000001
 30
0.0
  0
SEQEND
  5
86B
  8
0
  6
CONTINUOUS
 62
     7
  0
LINE
  5
6FB
  8
0
  6
CONTINUOUS
 62
     7
 10
-230.1390666530563
 20
158.4995427895537
 30
0.0
 11
-230.1390666530563
 21
104.0999994006107
 31
0.0
  0
LINE
  5
6FC
  8
0
  6
CONTINUOUS
 62
     7
 10
-211.2980262654772
 20
98.00000000000011
 30
0.0
 11
-211.7019737345228
 21
98.00000000000011
 31
0.0
  0
LINE
  5
6FD
  8
0
  6
CONTINUOUS
 62
     7
 10
-193.2980262654772
 20
98.00000000000011
 30
0.0
 11
-193.7019737345227
 21
98.00000000000011
 31
0.0
  0
POLYLINE
  5
6FE
  8
0
  6
CONTINUOUS
 62
     7
 66
     1
 10
0.0
 20
0.0
 30
0.0
  0
VERTEX
  5
820
  8
0
  6
CONTINUOUS
 62
     7
 10
-273.3613330743055
 20
160.0000000000001
 30
0.0
  0
VERTEX
  5
821
  8
0
  6
CONTINUOUS
 62
     7
 10
-273.6539149035305
 20
159.9711714983239
 30
0.0
  0
VERTEX
  5
822
  8
0
  6
CONTINUOUS
 62
     7
 10
-273.9352397731585
 20
159.8857934282764
 30
0.0
  0
VERTEX
  5
823
  8
0
  6
CONTINUOUS
 62
     7
 10
-274.1945007045543
 20
159.747145553144
 30
0.0
  0
VERTEX
  5
824
  8
0
  6
CONTINUOUS
 62
     7
 10
-274.4217382961538
 20
159.5605539737663
 30
0.0
  0
VERTEX
  5
825
  8
0
  6
CONTINUOUS
 62
     7
 10
-274.6082233097607
 20
159.3331865285737
 30
0.0
  0
VERTEX
  5
826
  8
0
  6
CONTINUOUS
 62
     7
 10
-274.7467920006249
 20
159.0737774440344
 30
0.0
  0
VERTEX
  5
827
  8
0
  6
CONTINUOUS
 62
     7
 10
-274.8321213097376
 20
158.7922918129545
 30
0.0
  0
VERTEX
  5
828
  8
0
  6
CONTINUOUS
 62
     7
 10
-274.8609333469436
 20
158.4995427895538
 30
0.0
  0
SEQEND
  5
86C
  8
0
  6
CONTINUOUS
 62
     7
  0
LINE
  5
6FF
  8
0
  6
CONTINUOUS
 62
     7
 10
-273.3613330743056
 20
160.0000000000001
 30
0.0
 11
-272.853079165932
 21
160.0000000000001
 31
0.0
  0
LINE
  5
700
  8
0
  6
CONTINUOUS
 62
     7
 10
-272.853079165932
 20
137.3551693431513
 30
0.0
 11
-272.853079165932
 21
136.2448306568488
 31
0.0
  0
LINE
  5
701
  8
0
  6
CONTINUOUS
 62
     7
 10
-272.853079165932
 20
119.3551693431513
 30
0.0
 11
-272.853079165932
 21
118.2448306568488
 31
0.0
  0
ARC
  5
702
  8
0
  6
CONTINUOUS
 62
     7
 10
-276.8531253495121
 20
104.0000611393408
 30
0.0
 40
4.000046184084646
 50
280.2432098471247
 51
359.9990898979573
  0
LINE
  5
703
  8
0
  6
CONTINUOUS
 62
     7
 10
-294.0546276959397
 20
100.0000000000001
 30
0.0
 11
-292.9453723040603
 21
100.0000000000001
 31
0.0
  0
LINE
  5
704
  8
0
  6
CONTINUOUS
 62
     7
 10
-312.0546276959396
 20
100.0000000000001
 30
0.0
 11
-310.9453723040603
 21
100.0000000000001
 31
0.0
  0
LINE
  5
705
  8
0
  6
CONTINUOUS
 62
     7
 10
-332.5
 20
100.6000000000001
 30
0.0
 11
-332.5
 21
100.0000000000001
 31
0.0
  0
ARC
  5
706
  8
0
  6
CONTINUOUS
 62
     7
 10
-331.0
 20
100.6000000000001
 30
0.0
 40
1.500000000000001
 50
90.0
 51
180.0
  0
LINE
  5
707
  8
0
  6
CONTINUOUS
 62
     7
 10
-331.0
 20
102.1000000000001
 30
0.0
 11
-276.8610095037151
 21
102.1000000000001
 31
0.0
  0
LINE
  5
708
  8
0
  6
CONTINUOUS
 62
     7
 10
-276.8610095037151
 20
102.1000000000001
 30
0.0
 11
-276.4486122327449
 21
102.1429763561039
 31
0.0
  0
LINE
  5
709
  8
0
  6
CONTINUOUS
 62
     7
 10
-274.8609333469437
 20
158.4995427895537
 30
0.0
 11
-274.8609333469437
 21
104.0999994006107
 31
0.0
  0
LINE
  5
70A
  8
0
  6
CONTINUOUS
 62
     7
 10
-234.2654892652829
 20
136.9848826836636
 30
0.0
 11
-234.2654892652829
 21
136.6151173163366
 31
0.0
  0
LINE
  5
70B
  8
0
  6
CONTINUOUS
 62
     7
 10
-234.2654892652829
 20
118.9848826836636
 30
0.0
 11
-234.2654892652829
 21
118.6151173163366
 31
0.0
  0
LINE
  5
70C
  8
0
  6
CONTINUOUS
 62
     7
 10
-228.8581905634434
 20
100.0637685756731
 30
0.0
 11
-228.146768520525
 21
100.0000000000001
 31
0.0
  0
ARC
  5
70D
  8
0
  6
CONTINUOUS
 62
     7
 10
-228.1390461667125
 20
104.100029332176
 30
0.0
 40
2.000020486567818
 50
180.000857467402
 51
258.1020784875874
  0
LINE
  5
70E
  8
0
  6
CONTINUOUS
 62
     7
 10
-270.7345107347171
 20
136.9848826836636
 30
0.0
 11
-270.7345107347171
 21
136.6151173163366
 31
0.0
  0
LINE
  5
70F
  8
0
  6
CONTINUOUS
 62
     7
 10
-270.7345107347171
 20
118.9848826836636
 30
0.0
 11
-270.7345107347171
 21
118.6151173163366
 31
0.0
  0
LINE
  5
710
  8
0
  6
CONTINUOUS
 62
     7
 10
-293.7019737345228
 20
98.00000000000011
 30
0.0
 11
-293.2980262654772
 21
98.00000000000011
 31
0.0
  0
LINE
  5
711
  8
0
  6
CONTINUOUS
 62
     7
 10
-276.1418094365566
 20
100.0637685756731
 30
0.0
 11
-276.8532314794749
 21
100.0000000000001
 31
0.0
  0
ARC
  5
712
  8
0
  6
CONTINUOUS
 62
     7
 10
-276.8609538332876
 20
104.1000293321761
 30
0.0
 40
2.000020486567857
 50
281.8979215124141
 51
359.9991425325969
  0
LINE
  5
713
  8
0
  6
CONTINUOUS
 62
     7
 10
-311.7019737345227
 20
98.00000000000011
 30
0.0
 11
-311.2980262654772
 21
98.00000000000011
 31
0.0
  0
LINE
  5
714
  8
0
  6
CONTINUOUS
 62
     7
 10
-232.1905551730218
 20
137.8000000000001
 30
0.0
 11
-233.8689867837528
 21
137.5025674014298
 31
0.0
  0
LINE
  5
715
  8
0
  6
CONTINUOUS
 62
     7
 10
-232.1687380035449
 20
119.8000000000001
 30
0.0
 11
-233.8556263239167
 21
119.5025674014298
 31
0.0
  0
LINE
  5
716
  8
0
  6
CONTINUOUS
 62
     7
 10
-232.1687380035449
 20
135.8000000000001
 30
0.0
 11
-233.8556263239167
 21
136.0974325985704
 31
0.0
  0
LINE
  5
717
  8
0
  6
CONTINUOUS
 62
     7
 10
-272.8312619964551
 20
135.8000000000001
 30
0.0
 11
-271.1443736760833
 21
136.0974325985704
 31
0.0
  0
LINE
  5
718
  8
0
  6
CONTINUOUS
 62
     7
 10
-232.1905551730218
 20
117.8000000000001
 30
0.0
 11
-233.8689867837528
 21
118.0974325985704
 31
0.0
  0
LINE
  5
719
  8
0
  6
CONTINUOUS
 62
     7
 10
-271.1355977458697
 20
137.5025674014298
 30
0.0
 11
-272.8140293566008
 21
137.8000000000001
 31
0.0
  0
LINE
  5
71A
  8
0
  6
CONTINUOUS
 62
     7
 10
-272.8094448269782
 20
117.8000000000001
 30
0.0
 11
-271.1310132162472
 21
118.0974325985704
 31
0.0
  0
LINE
  5
71B
  8
0
  6
CONTINUOUS
 62
     7
 10
-272.8312619964551
 20
119.8000000000001
 30
0.0
 11
-271.1443736760833
 21
119.5025674014298
 31
0.0
  0
LINE
  5
71C
  8
0
  6
CONTINUOUS
 62
     7
 10
-234.2775624328241
 20
137.0101635249237
 30
0.0
 11
-234.2775624328241
 21
118.5898364750765
 31
0.0
  0
LINE
  5
71D
  8
0
  6
CONTINUOUS
 62
     7
 10
-234.2688179681549
 20
136.5898364750765
 30
0.0
 11
-234.2688179681549
 21
119.0101635249237
 31
0.0
  0
LINE
  5
71E
  8
0
  6
CONTINUOUS
 62
     7
 10
-270.7311820318451
 20
136.5898364750765
 30
0.0
 11
-270.7311820318451
 21
119.0101635249237
 31
0.0
  0
LINE
  5
71F
  8
0
  6
CONTINUOUS
 62
     7
 10
-270.7224375671759
 20
118.5898364750765
 30
0.0
 11
-270.7224375671759
 21
137.0101635249237
 31
0.0
  0
LINE
  5
720
  8
0
  6
CONTINUOUS
 62
     7
 10
-234.2775624328241
 20
137.0101635249237
 30
0.0
 11
-234.2772705068612
 21
137.0321548492528
 31
0.0
  0
LINE
  5
721
  8
0
  6
CONTINUOUS
 62
     7
 10
-234.2772705068612
 20
137.0321548492528
 30
0.0
 11
-234.276011477824
 21
137.0541036113565
 31
0.0
  0
LINE
  5
722
  8
0
  6
CONTINUOUS
 62
     7
 10
-234.276011477824
 20
137.0541036113565
 30
0.0
 11
-234.2737877824497
 21
137.0759673313847
 31
0.0
  0
LINE
  5
723
  8
0
  6
CONTINUOUS
 62
     7
 10
-234.2737877824497
 20
137.0759673313847
 30
0.0
 11
-234.2706037245002
 21
137.0977036940787
 31
0.0
  0
LINE
  5
724
  8
0
  6
CONTINUOUS
 62
     7
 10
-234.2706037245002
 20
137.0977036940787
 30
0.0
 11
-234.2664654664325
 21
137.1192706306683
 31
0.0
  0
LINE
  5
725
  8
0
  6
CONTINUOUS
 62
     7
 10
-234.2664654664325
 20
137.1192706306683
 30
0.0
 11
-234.2613810174722
 21
137.1406264002923
 31
0.0
  0
LINE
  5
726
  8
0
  6
CONTINUOUS
 62
     7
 10
-234.2613810174722
 20
137.1406264002923
 30
0.0
 11
-234.2553602181115
 21
137.161729670784
 31
0.0
  0
LINE
  5
727
  8
0
  6
CONTINUOUS
 62
     7
 10
-234.2553602181115
 20
137.161729670784
 30
0.0
 11
-234.2484147210649
 21
137.1825395986664
 31
0.0
  0
LINE
  5
728
  8
0
  6
CONTINUOUS
 62
     7
 10
-234.2484147210649
 20
137.1825395986664
 30
0.0
 11
-234.2405579687158
 21
137.2030159082001
 31
0.0
  0
LINE
  5
729
  8
0
  6
CONTINUOUS
 62
     7
 10
-234.2405579687158
 20
137.2030159082001
 30
0.0
 11
-234.2318051670997
 21
137.2231189693343
 31
0.0
  0
LINE
  5
72A
  8
0
  6
CONTINUOUS
 62
     7
 10
-234.2318051670997
 20
137.2231189693343
 30
0.0
 11
-234.2221732564751
 21
137.2428098744069
 31
0.0
  0
LINE
  5
72B
  8
0
  6
CONTINUOUS
 62
     7
 10
-234.2221732564751
 20
137.2428098744069
 30
0.0
 11
-234.2116808785366
 21
137.2620505134464
 31
0.0
  0
LINE
  5
72C
  8
0
  6
CONTINUOUS
 62
     7
 10
-234.2116808785366
 20
137.2620505134464
 30
0.0
 11
-234.2003483403355
 21
137.2808036479308
 31
0.0
  0
LINE
  5
72D
  8
0
  6
CONTINUOUS
 62
     7
 10
-234.2003483403355
 20
137.2808036479308
 30
0.0
 11
-234.1881975749779
 21
137.2990329828592
 31
0.0
  0
LINE
  5
72E
  8
0
  6
CONTINUOUS
 62
     7
 10
-234.1881975749779
 20
137.2990329828592
 30
0.0
 11
-234.1752520991745
 21
137.3167032369975
 31
0.0
  0
LINE
  5
72F
  8
0
  6
CONTINUOUS
 62
     7
 10
-234.1752520991745
 20
137.3167032369975
 30
0.0
 11
-234.1615369677264
 21
137.3337802111619
 31
0.0
  0
LINE
  5
730
  8
0
  6
CONTINUOUS
 62
     7
 10
-234.1615369677264
 20
137.3337802111619
 30
0.0
 11
-234.147078725034
 21
137.3502308544087
 31
0.0
  0
LINE
  5
731
  8
0
  6
CONTINUOUS
 62
     7
 10
-234.147078725034
 20
137.3502308544087
 30
0.0
 11
-234.1319053537225
 21
137.3660233280012
 31
0.0
  0
LINE
  5
732
  8
0
  6
CONTINUOUS
 62
     7
 10
-234.1319053537225
 20
137.3660233280012
 30
0.0
 11
-234.1160462204838
 21
137.3811270670307
 31
0.0
  0
LINE
  5
733
  8
0
  6
CONTINUOUS
 62
     7
 10
-234.1160462204838
 20
137.3811270670307
 30
0.0
 11
-234.0995320192405
 21
137.3955128395721
 31
0.0
  0
LINE
  5
734
  8
0
  6
CONTINUOUS
 62
     7
 10
-234.0995320192405
 20
137.3955128395721
 30
0.0
 11
-234.08239471174
 21
137.4091528032596
 31
0.0
  0
LINE
  5
735
  8
0
  6
CONTINUOUS
 62
     7
 10
-234.08239471174
 20
137.4091528032596
 30
0.0
 11
-234.0646674656958
 21
137.4220205591736
 31
0.0
  0
LINE
  5
736
  8
0
  6
CONTINUOUS
 62
     7
 10
-234.0646674656958
 20
137.4220205591736
 30
0.0
 11
-234.0463845905944
 21
137.4340912029324
 31
0.0
  0
LINE
  5
737
  8
0
  6
CONTINUOUS
 62
     7
 10
-234.0463845905944
 20
137.4340912029324
 30
0.0
 11
-234.027581471292
 21
137.4453413728936
 31
0.0
  0
LINE
  5
738
  8
0
  6
CONTINUOUS
 62
     7
 10
-234.027581471292
 20
137.4453413728936
 30
0.0
 11
-233.8689867837528
 21
137.5025674014298
 31
0.0
  0
POLYLINE
  5
739
  8
0
  6
CONTINUOUS
 62
     7
 66
     1
 10
0.0
 20
0.0
 30
0.0
  0
VERTEX
  5
829
  8
0
  6
CONTINUOUS
 62
     7
 10
-233.8556263239167
 20
119.5025674014298
 30
0.0
  0
VERTEX
  5
82A
  8
0
  6
CONTINUOUS
 62
     7
 10
-233.9514763969435
 20
119.4756003992458
 30
0.0
  0
VERTEX
  5
82B
  8
0
  6
CONTINUOUS
 62
     7
 10
-234.0400823905379
 20
119.4301764864991
 30
0.0
  0
VERTEX
  5
82C
  8
0
  6
CONTINUOUS
 62
     7
 10
-234.1179306318706
 20
119.3680969495536
 30
0.0
  0
VERTEX
  5
82D
  8
0
  6
CONTINUOUS
 62
     7
 10
-234.1819340470395
 20
119.2918235539555
 30
0.0
  0
VERTEX
  5
82E
  8
0
  6
CONTINUOUS
 62
     7
 10
-234.2295545790606
 20
119.204380923061
 30
0.0
  0
VERTEX
  5
82F
  8
0
  6
CONTINUOUS
 62
     7
 10
-234.2589038345794
 20
119.1092365965234
 30
0.0
  0
VERTEX
  5
830
  8
0
  6
CONTINUOUS
 62
     7
 10
-234.268817968155
 20
119.0101635249237
 30
0.0
  0
SEQEND
  5
86D
  8
0
  6
CONTINUOUS
 62
     7
  0
POLYLINE
  5
73A
  8
0
  6
CONTINUOUS
 62
     7
 66
     1
 10
0.0
 20
0.0
 30
0.0
  0
VERTEX
  5
831
  8
0
  6
CONTINUOUS
 62
     7
 10
-234.268817968155
 20
136.5898364750765
 30
0.0
  0
VERTEX
  5
832
  8
0
  6
CONTINUOUS
 62
     7
 10
-234.2589038345794
 20
136.4907634034768
 30
0.0
  0
VERTEX
  5
833
  8
0
  6
CONTINUOUS
 62
     7
 10
-234.2295545790606
 20
136.3956190769392
 30
0.0
  0
VERTEX
  5
834
  8
0
  6
CONTINUOUS
 62
     7
 10
-234.1819340470395
 20
136.3081764460447
 30
0.0
  0
VERTEX
  5
835
  8
0
  6
CONTINUOUS
 62
     7
 10
-234.1179306318706
 20
136.2319030504466
 30
0.0
  0
VERTEX
  5
836
  8
0
  6
CONTINUOUS
 62
     7
 10
-234.0400823905379
 20
136.1698235135011
 30
0.0
  0
VERTEX
  5
837
  8
0
  6
CONTINUOUS
 62
     7
 10
-233.9514763969435
 20
136.1243996007544
 30
0.0
  0
VERTEX
  5
838
  8
0
  6
CONTINUOUS
 62
     7
 10
-233.8556263239167
 20
136.0974325985704
 30
0.0
  0
SEQEND
  5
86E
  8
0
  6
CONTINUOUS
 62
     7
  0
POLYLINE
  5
73B
  8
0
  6
CONTINUOUS
 62
     7
 66
     1
 10
0.0
 20
0.0
 30
0.0
  0
VERTEX
  5
839
  8
0
  6
CONTINUOUS
 62
     7
 10
-271.1443736760833
 20
136.0974325985704
 30
0.0
  0
VERTEX
  5
83A
  8
0
  6
CONTINUOUS
 62
     7
 10
-271.0485236030565
 20
136.1243996007544
 30
0.0
  0
VERTEX
  5
83B
  8
0
  6
CONTINUOUS
 62
     7
 10
-270.9599176094621
 20
136.1698235135011
 30
0.0
  0
VERTEX
  5
83C
  8
0
  6
CONTINUOUS
 62
     7
 10
-270.8820693681295
 20
136.2319030504466
 30
0.0
  0
VERTEX
  5
83D
  8
0
  6
CONTINUOUS
 62
     7
 10
-270.8180659529606
 20
136.3081764460447
 30
0.0
  0
VERTEX
  5
83E
  8
0
  6
CONTINUOUS
 62
     7
 10
-270.7704454209394
 20
136.3956190769392
 30
0.0
  0
VERTEX
  5
83F
  8
0
  6
CONTINUOUS
 62
     7
 10
-270.7410961654206
 20
136.4907634034768
 30
0.0
  0
VERTEX
  5
840
  8
0
  6
CONTINUOUS
 62
     7
 10
-270.7311820318451
 20
136.5898364750765
 30
0.0
  0
SEQEND
  5
86F
  8
0
  6
CONTINUOUS
 62
     7
  0
LINE
  5
73C
  8
0
  6
CONTINUOUS
 62
     7
 10
-234.2775624328241
 20
118.5898364750765
 30
0.0
 11
-234.2772705068612
 21
118.5678451507474
 31
0.0
  0
LINE
  5
73D
  8
0
  6
CONTINUOUS
 62
     7
 10
-234.2772705068612
 20
118.5678451507474
 30
0.0
 11
-234.276011477824
 21
118.5458963886437
 31
0.0
  0
LINE
  5
73E
  8
0
  6
CONTINUOUS
 62
     7
 10
-234.276011477824
 20
118.5458963886437
 30
0.0
 11
-234.2737877824497
 21
118.5240326686154
 31
0.0
  0
LINE
  5
73F
  8
0
  6
CONTINUOUS
 62
     7
 10
-234.2737877824497
 20
118.5240326686154
 30
0.0
 11
-234.2706037245002
 21
118.5022963059214
 31
0.0
  0
LINE
  5
740
  8
0
  6
CONTINUOUS
 62
     7
 10
-234.2706037245002
 20
118.5022963059214
 30
0.0
 11
-234.2664654664325
 21
118.4807293693318
 31
0.0
  0
LINE
  5
741
  8
0
  6
CONTINUOUS
 62
     7
 10
-234.2664654664325
 20
118.4807293693318
 30
0.0
 11
-234.2613810174722
 21
118.4593735997079
 31
0.0
  0
LINE
  5
742
  8
0
  6
CONTINUOUS
 62
     7
 10
-234.2613810174722
 20
118.4593735997079
 30
0.0
 11
-234.2553602181115
 21
118.4382703292161
 31
0.0
  0
LINE
  5
743
  8
0
  6
CONTINUOUS
 62
     7
 10
-234.2553602181115
 20
118.4382703292161
 30
0.0
 11
-234.2484147210649
 21
118.4174604013338
 31
0.0
  0
LINE
  5
744
  8
0
  6
CONTINUOUS
 62
     7
 10
-234.2484147210649
 20
118.4174604013338
 30
0.0
 11
-234.2405579687158
 21
118.3969840918001
 31
0.0
  0
LINE
  5
745
  8
0
  6
CONTINUOUS
 62
     7
 10
-234.2405579687158
 20
118.3969840918001
 30
0.0
 11
-234.2318051670997
 21
118.3768810306658
 31
0.0
  0
LINE
  5
746
  8
0
  6
CONTINUOUS
 62
     7
 10
-234.2318051670997
 20
118.3768810306658
 30
0.0
 11
-234.2221732564751
 21
118.3571901255932
 31
0.0
  0
LINE
  5
747
  8
0
  6
CONTINUOUS
 62
     7
 10
-234.2221732564751
 20
118.3571901255932
 30
0.0
 11
-234.2116808785366
 21
118.3379494865537
 31
0.0
  0
LINE
  5
748
  8
0
  6
CONTINUOUS
 62
     7
 10
-234.2116808785366
 20
118.3379494865537
 30
0.0
 11
-234.2003483403356
 21
118.3191963520693
 31
0.0
  0
LINE
  5
749
  8
0
  6
CONTINUOUS
 62
     7
 10
-234.2003483403356
 20
118.3191963520693
 30
0.0
 11
-234.1881975749779
 21
118.3009670171409
 31
0.0
  0
LINE
  5
74A
  8
0
  6
CONTINUOUS
 62
     7
 10
-234.1881975749779
 20
118.3009670171409
 30
0.0
 11
-234.1752520991745
 21
118.2832967630027
 31
0.0
  0
LINE
  5
74B
  8
0
  6
CONTINUOUS
 62
     7
 10
-234.1752520991745
 20
118.2832967630027
 30
0.0
 11
-234.1615369677264
 21
118.2662197888383
 31
0.0
  0
LINE
  5
74C
  8
0
  6
CONTINUOUS
 62
     7
 10
-234.1615369677264
 20
118.2662197888383
 30
0.0
 11
-234.147078725034
 21
118.2497691455914
 31
0.0
  0
LINE
  5
74D
  8
0
  6
CONTINUOUS
 62
     7
 10
-234.147078725034
 20
118.2497691455914
 30
0.0
 11
-234.1319053537225
 21
118.2339766719989
 31
0.0
  0
LINE
  5
74E
  8
0
  6
CONTINUOUS
 62
     7
 10
-234.1319053537225
 20
118.2339766719989
 30
0.0
 11
-234.1160462204838
 21
118.2188729329694
 31
0.0
  0
LINE
  5
74F
  8
0
  6
CONTINUOUS
 62
     7
 10
-234.1160462204838
 20
118.2188729329694
 30
0.0
 11
-234.0995320192405
 21
118.2044871604281
 31
0.0
  0
LINE
  5
750
  8
0
  6
CONTINUOUS
 62
     7
 10
-234.0995320192405
 20
118.2044871604281
 30
0.0
 11
-234.08239471174
 21
118.1908471967405
 31
0.0
  0
LINE
  5
751
  8
0
  6
CONTINUOUS
 62
     7
 10
-234.08239471174
 20
118.1908471967405
 30
0.0
 11
-234.0646674656958
 21
118.1779794408266
 31
0.0
  0
LINE
  5
752
  8
0
  6
CONTINUOUS
 62
     7
 10
-234.0646674656958
 20
118.1779794408266
 30
0.0
 11
-234.0463845905944
 21
118.1659087970677
 31
0.0
  0
LINE
  5
753
  8
0
  6
CONTINUOUS
 62
     7
 10
-234.0463845905944
 20
118.1659087970677
 30
0.0
 11
-234.027581471292
 21
118.1546586271065
 31
0.0
  0
LINE
  5
754
  8
0
  6
CONTINUOUS
 62
     7
 10
-233.8689867837528
 20
118.0974325985704
 30
0.0
 11
-234.027581471292
 21
118.1546586271065
 31
0.0
  0
LINE
  5
755
  8
0
  6
CONTINUOUS
 62
     7
 10
-270.7224375671759
 20
118.5898364750765
 30
0.0
 11
-270.7227294931388
 21
118.5678451507474
 31
0.0
  0
LINE
  5
756
  8
0
  6
CONTINUOUS
 62
     7
 10
-270.7227294931388
 20
118.5678451507474
 30
0.0
 11
-270.723988522176
 21
118.5458963886436
 31
0.0
  0
LINE
  5
757
  8
0
  6
CONTINUOUS
 62
     7
 10
-270.723988522176
 20
118.5458963886436
 30
0.0
 11
-270.7262122175503
 21
118.5240326686154
 31
0.0
  0
LINE
  5
758
  8
0
  6
CONTINUOUS
 62
     7
 10
-270.7262122175503
 20
118.5240326686154
 30
0.0
 11
-270.7293962754998
 21
118.5022963059214
 31
0.0
  0
LINE
  5
759
  8
0
  6
CONTINUOUS
 62
     7
 10
-270.7293962754998
 20
118.5022963059214
 30
0.0
 11
-270.7335345335675
 21
118.4807293693318
 31
0.0
  0
LINE
  5
75A
  8
0
  6
CONTINUOUS
 62
     7
 10
-270.7335345335675
 20
118.4807293693318
 30
0.0
 11
-270.7386189825279
 21
118.4593735997079
 31
0.0
  0
LINE
  5
75B
  8
0
  6
CONTINUOUS
 62
     7
 10
-270.7386189825279
 20
118.4593735997079
 30
0.0
 11
-270.7446397818885
 21
118.4382703292161
 31
0.0
  0
LINE
  5
75C
  8
0
  6
CONTINUOUS
 62
     7
 10
-270.7446397818885
 20
118.4382703292161
 30
0.0
 11
-270.7515852789351
 21
118.4174604013338
 31
0.0
  0
LINE
  5
75D
  8
0
  6
CONTINUOUS
 62
     7
 10
-270.7515852789351
 20
118.4174604013338
 30
0.0
 11
-270.7594420312842
 21
118.3969840918001
 31
0.0
  0
LINE
  5
75E
  8
0
  6
CONTINUOUS
 62
     7
 10
-270.7594420312842
 20
118.3969840918001
 30
0.0
 11
-270.7681948329003
 21
118.3768810306658
 31
0.0
  0
LINE
  5
75F
  8
0
  6
CONTINUOUS
 62
     7
 10
-270.7681948329003
 20
118.3768810306658
 30
0.0
 11
-270.7778267435248
 21
118.3571901255932
 31
0.0
  0
LINE
  5
760
  8
0
  6
CONTINUOUS
 62
     7
 10
-270.7778267435248
 20
118.3571901255932
 30
0.0
 11
-270.7883191214634
 21
118.3379494865537
 31
0.0
  0
LINE
  5
761
  8
0
  6
CONTINUOUS
 62
     7
 10
-270.7883191214634
 20
118.3379494865537
 30
0.0
 11
-270.7996516596644
 21
118.3191963520693
 31
0.0
  0
LINE
  5
762
  8
0
  6
CONTINUOUS
 62
     7
 10
-270.7996516596644
 20
118.3191963520693
 30
0.0
 11
-270.8118024250221
 21
118.3009670171409
 31
0.0
  0
LINE
  5
763
  8
0
  6
CONTINUOUS
 62
     7
 10
-270.8118024250221
 20
118.3009670171409
 30
0.0
 11
-270.8247479008255
 21
118.2832967630027
 31
0.0
  0
LINE
  5
764
  8
0
  6
CONTINUOUS
 62
     7
 10
-270.8247479008255
 20
118.2832967630027
 30
0.0
 11
-270.8384630322736
 21
118.2662197888383
 31
0.0
  0
LINE
  5
765
  8
0
  6
CONTINUOUS
 62
     7
 10
-270.8384630322736
 20
118.2662197888383
 30
0.0
 11
-270.852921274966
 21
118.2497691455914
 31
0.0
  0
LINE
  5
766
  8
0
  6
CONTINUOUS
 62
     7
 10
-270.852921274966
 20
118.2497691455914
 30
0.0
 11
-270.8680946462775
 21
118.2339766719989
 31
0.0
  0
LINE
  5
767
  8
0
  6
CONTINUOUS
 62
     7
 10
-270.8680946462775
 20
118.2339766719989
 30
0.0
 11
-270.8839537795162
 21
118.2188729329694
 31
0.0
  0
LINE
  5
768
  8
0
  6
CONTINUOUS
 62
     7
 10
-270.8839537795162
 20
118.2188729329694
 30
0.0
 11
-270.9004679807596
 21
118.2044871604281
 31
0.0
  0
LINE
  5
769
  8
0
  6
CONTINUOUS
 62
     7
 10
-270.9004679807596
 20
118.2044871604281
 30
0.0
 11
-270.91760528826
 21
118.1908471967405
 31
0.0
  0
LINE
  5
76A
  8
0
  6
CONTINUOUS
 62
     7
 10
-270.91760528826
 20
118.1908471967405
 30
0.0
 11
-270.9353325343041
 21
118.1779794408266
 31
0.0
  0
LINE
  5
76B
  8
0
  6
CONTINUOUS
 62
     7
 10
-270.9353325343041
 20
118.1779794408266
 30
0.0
 11
-270.9536154094055
 21
118.1659087970677
 31
0.0
  0
LINE
  5
76C
  8
0
  6
CONTINUOUS
 62
     7
 10
-270.9536154094055
 20
118.1659087970677
 30
0.0
 11
-270.972418528708
 21
118.1546586271065
 31
0.0
  0
LINE
  5
76D
  8
0
  6
CONTINUOUS
 62
     7
 10
-270.972418528708
 20
118.1546586271065
 30
0.0
 11
-271.1310132162472
 21
118.0974325985704
 31
0.0
  0
POLYLINE
  5
76E
  8
0
  6
CONTINUOUS
 62
     7
 66
     1
 10
0.0
 20
0.0
 30
0.0
  0
VERTEX
  5
841
  8
0
  6
CONTINUOUS
 62
     7
 10
-270.7224375671759
 20
137.0101635249238
 30
0.0
  0
VERTEX
  5
842
  8
0
  6
CONTINUOUS
 62
     7
 10
-270.7323509457662
 20
137.1092365965235
 30
0.0
  0
VERTEX
  5
843
  8
0
  6
CONTINUOUS
 62
     7
 10
-270.7616979662681
 20
137.2043809230611
 30
0.0
  0
VERTEX
  5
844
  8
0
  6
CONTINUOUS
 62
     7
 10
-270.8093148718704
 20
137.2918235539556
 30
0.0
  0
VERTEX
  5
845
  8
0
  6
CONTINUOUS
 62
     7
 10
-270.8733134130242
 20
137.3680969495536
 30
0.0
  0
VERTEX
  5
846
  8
0
  6
CONTINUOUS
 62
     7
 10
-270.9511557260248
 20
137.4301764864991
 30
0.0
  0
VERTEX
  5
847
  8
0
  6
CONTINUOUS
 62
     7
 10
-271.0397549720582
 20
137.4756003992458
 30
0.0
  0
VERTEX
  5
848
  8
0
  6
CONTINUOUS
 62
     7
 10
-271.1355977458698
 20
137.5025674014298
 30
0.0
  0
SEQEND
  5
870
  8
0
  6
CONTINUOUS
 62
     7
  0
POLYLINE
  5
76F
  8
0
  6
CONTINUOUS
 62
     7
 66
     1
 10
0.0
 20
0.0
 30
0.0
  0
VERTEX
  5
849
  8
0
  6
CONTINUOUS
 62
     7
 10
-270.7311820318451
 20
119.0101635249237
 30
0.0
  0
VERTEX
  5
84A
  8
0
  6
CONTINUOUS
 62
     7
 10
-270.7410961654206
 20
119.1092365965234
 30
0.0
  0
VERTEX
  5
84B
  8
0
  6
CONTINUOUS
 62
     7
 10
-270.7704454209394
 20
119.2043809230611
 30
0.0
  0
VERTEX
  5
84C
  8
0
  6
CONTINUOUS
 62
     7
 10
-270.8180659529606
 20
119.2918235539555
 30
0.0
  0
VERTEX
  5
84D
  8
0
  6
CONTINUOUS
 62
     7
 10
-270.8820693681295
 20
119.3680969495536
 30
0.0
  0
VERTEX
  5
84E
  8
0
  6
CONTINUOUS
 62
     7
 10
-270.9599176094621
 20
119.4301764864991
 30
0.0
  0
VERTEX
  5
84F
  8
0
  6
CONTINUOUS
 62
     7
 10
-271.0485236030565
 20
119.4756003992458
 30
0.0
  0
VERTEX
  5
850
  8
0
  6
CONTINUOUS
 62
     7
 10
-271.1443736760833
 20
119.5025674014298
 30
0.0
  0
SEQEND
  5
871
  8
0
  6
CONTINUOUS
 62
     7
  0
LINE
  5
770
  8
0
  6
CONTINUOUS
 62
     7
 10
-193.7277962229944
 20
98.00000000000007
 30
0.0
 11
-211.2722037770056
 21
98.00000000000013
 31
0.0
  0
LINE
  5
771
  8
0
  6
CONTINUOUS
 62
     7
 10
-311.2722037770056
 20
98.00000000000013
 30
0.0
 11
-293.7277962229944
 21
98.00000000000007
 31
0.0
  0
LINE
  5
772
  8
0
  6
CONTINUOUS
 62
     7
 10
-172.5
 20
83.02465107997064
 30
0.0
 11
-192.5
 21
83.02465107997064
 31
0.0
  0
LINE
  5
773
  8
0
  6
CONTINUOUS
 62
     7
 10
-172.5
 20
83.02465107997064
 30
0.0
 11
-172.5
 21
98.90962707811553
 31
0.0
  0
LINE
  5
774
  8
0
  6
CONTINUOUS
 62
     7
 10
-332.5
 20
83.02465107997064
 30
0.0
 11
-312.5000000000001
 21
83.02465107997064
 31
0.0
  0
LINE
  5
775
  8
0
  6
CONTINUOUS
 62
     7
 10
-332.5
 20
83.02465107997064
 30
0.0
 11
-332.5
 21
98.90962707811553
 31
0.0
  0
POLYLINE
  5
776
  8
0
  6
CONTINUOUS
 62
     7
 66
     1
 10
0.0
 20
0.0
 30
0.0
  0
VERTEX
  5
851
  8
0
  6
CONTINUOUS
 62
     7
 10
-234.8459325432765
 20
158.905753673727
 30
0.0
  0
VERTEX
  5
852
  8
0
  6
CONTINUOUS
 62
     7
 10
-233.8066423196829
 20
158.9480982449399
 30
0.0
  0
VERTEX
  5
853
  8
0
  6
CONTINUOUS
 62
     7
 10
-233.0289193810496
 20
158.9968079667177
 30
0.0
  0
VERTEX
  5
854
  8
0
  6
CONTINUOUS
 62
     7
 10
-232.5437571816588
 20
159.0499416817924
 30
0.0
  0
VERTEX
  5
855
  8
0
  6
CONTINUOUS
 62
     7
 10
-232.3704901807364
 20
159.1053819299641
 30
0.0
  0
SEQEND
  5
872
  8
0
  6
CONTINUOUS
 62
     7
  0
POLYLINE
  5
777
  8
0
  6
CONTINUOUS
 62
     7
 66
     1
 10
0.0
 20
0.0
 30
0.0
  0
VERTEX
  5
856
  8
0
  6
CONTINUOUS
 62
     7
 10
-272.6295098192635
 20
159.1053819299641
 30
0.0
  0
VERTEX
  5
857
  8
0
  6
CONTINUOUS
 62
     7
 10
-272.4562428183413
 20
159.0499416817924
 30
0.0
  0
VERTEX
  5
858
  8
0
  6
CONTINUOUS
 62
     7
 10
-271.9710806189505
 20
158.9968079667177
 30
0.0
  0
VERTEX
  5
859
  8
0
  6
CONTINUOUS
 62
     7
 10
-271.1933576803172
 20
158.9480982449399
 30
0.0
  0
VERTEX
  5
85A
  8
0
  6
CONTINUOUS
 62
     7
 10
-270.1540674567236
 20
158.905753673727
 30
0.0
  0
SEQEND
  5
873
  8
0
  6
CONTINUOUS
 62
     7
  0
LINE
  5
778
  8
0
  6
CONTINUOUS
 62
     7
 10
-262.5
 20
158.6505776417077
 30
0.0
 11
-262.5
 21
140.0000000000001
 31
0.0
  0
LINE
  5
779
  8
0
  6
CONTINUOUS
 62
     7
 10
-270.1540674567236
 20
158.905753673727
 30
0.0
 11
-262.5
 21
158.6505776417077
 31
0.0
  0
LINE
  5
77A
  8
0
  6
CONTINUOUS
 62
     7
 10
-242.5
 20
158.6505776417077
 30
0.0
 11
-242.5
 21
140.0000000000001
 31
0.0
  0
LINE
  5
77B
  8
0
  6
CONTINUOUS
 62
     7
 10
-234.8459325432764
 20
158.905753673727
 30
0.0
 11
-242.5
 21
158.6505776417077
 31
0.0
  0
LINE
  5
77C
  8
0
  6
CONTINUOUS
 62
     7
 10
-262.5000000000001
 20
158.6505776417077
 30
0.0
 11
-242.5
 21
158.6505776417077
 31
0.0
  0
LINE
  5
77D
  8
0
  6
CONTINUOUS
 62
     7
 10
-252.1869558431497
 20
83.02465107997061
 30
0.0
 11
-252.8130441568503
 21
83.02465107997061
 31
0.0
  0
LINE
  5
77E
  8
0
  6
CONTINUOUS
 62
     7
 10
-332.5
 20
60.00000000000006
 30
0.0
 11
-327.4012667617063
 21
60.00000000000006
 31
0.0
  0
LINE
  5
77F
  8
0
  6
CONTINUOUS
 62
     7
 10
-172.5
 20
60.00000000000006
 30
0.0
 11
-177.5987332382938
 21
60.00000000000006
 31
0.0
  0
LINE
  5
780
  8
0
  6
CONTINUOUS
 62
     7
 10
-332.5
 20
60.00000000000005
 30
0.0
 11
-332.5
 21
83.02465107997064
 31
0.0
  0
LINE
  5
781
  8
0
  6
CONTINUOUS
 62
     7
 10
-172.5
 20
60.00000000000036
 30
0.0
 11
-172.5
 21
83.02465107997067
 31
0.0
  0
LINE
  5
782
  8
0
  6
CONTINUOUS
 62
     7
 10
-277.283677671299
 20
65.91925918652109
 30
0.0
 11
-292.7163223287011
 21
65.91925918652109
 31
0.0
  0
LINE
  5
783
  8
0
  6
CONTINUOUS
 62
     7
 10
-212.283677671299
 20
65.91925918652116
 30
0.0
 11
-227.716322328701
 21
65.91925918652116
 31
0.0
  0
ARC
  5
784
  8
0
  6
CONTINUOUS
 62
     7
 10
157.5000000000006
 20
199.0499999999997
 30
0.0
 40
250.0000000000007
 50
174.7213238966789
 51
176.5601872324847
  0
LINE
  5
785
  8
0
  6
CONTINUOUS
 62
     7
 10
-92.0495942693557
 20
214.05
 30
0.0
 11
-88.04225705568483
 21
214.0500000000001
 31
0.0
  0
ARC
  5
786
  8
0
  6
CONTINUOUS
 62
     7
 10
157.4999999999999
 20
199.0499999999992
 30
0.0
 40
246.0
 50
174.8707361111009
 51
176.5041863676099
  0
ARC
  5
787
  8
0
  6
CONTINUOUS
 62
     7
 10
-63.8107538546223
 20
210.3607538546223
 30
0.0
 40
26.00000000000007
 50
114.2589370559115
 51
155.7410629440882
  0
ARC
  5
788
  8
0
  6
CONTINUOUS
 62
     7
 10
-52.50000000000036
 20
-10.94999999999973
 30
0.0
 40
245.9999999999998
 50
91.86360596379602
 51
95.12926388889872
  0
LINE
  5
789
  8
0
  6
CONTINUOUS
 62
     7
 10
-60.50000000000025
 20
234.9198842884179
 30
0.0
 11
-60.50000000000008
 21
238.921967215212
 31
0.0
  0
ARC
  5
78A
  8
0
  6
CONTINUOUS
 62
     7
 10
-52.49999999999774
 20
-10.9499999999997
 30
0.0
 40
249.9999999999997
 50
91.83377800004719
 51
95.27867610332153
  0
ARC
  5
78B
  8
0
  6
CONTINUOUS
 62
     7
 10
-63.81075385462226
 20
210.3607538546222
 30
0.0
 40
30.00000000000008
 50
112.9321967018495
 51
157.067803298152
  0
LINE
  5
78C
  8
0
  6
________________
 62
     1
 10
-252.5
 20
220.05
 30
0.0
 11
-252.5
 21
228.05
 31
0.0
  0
LINE
  5
78E
  8
0
  6
________________
 62
     1
 10
-252.5
 20
35.00000000000001
 30
0.0
 11
-252.5
 21
165.0
 31
0.0
  0
LINE
  5
78F
  8
0
  6
________________
 62
     1
 10
-252.5
 20
245.0000000000001
 30
0.0
 11
-252.5
 21
190.0000000000001
 31
0.0
  0
LINE
  5
790
  8
0
  6
________________
 62
     1
 10
-337.5
 20
85.00000000000017
 30
0.0
 11
-167.5
 21
85.00000000000017
 31
0.0
  0
LINE
  5
791
  8
0
  6
________________
 62
     1
 10
-252.5
 20
275.0000000000001
 30
0.0
 11
-252.5
 21
395.0000000000001
 31
0.0
  0
LINE
  5
792
  8
0
  6
CONTINUOUS
 62
     7
 10
-272.6
 20
224.6271609965493
 30
0.0
 11
-272.6
 21
214.05
 31
0.0
  0
LINE
  5
793
  8
0
  6
CONTINUOUS
 62
     7
 10
-272.6
 20
214.05
 30
0.0
 11
-268.6
 21
214.05
 31
0.0
  0
LINE
  5
794
  8
0
  6
CONTINUOUS
 62
     7
 10
-268.6
 20
214.05
 30
0.0
 11
-268.6
 21
224.6271609965493
 31
0.0
  0
ARC
  5
795
  8
0
  6
CONTINUOUS
 62
     7
 10
-264.5999999999999
 20
224.6271609965493
 30
0.0
 40
4.000000000000115
 50
133.6722065547201
 51
180.0000000000004
  0
LINE
  5
796
  8
0
  6
CONTINUOUS
 62
     7
 10
-267.3621265109867
 20
227.5203697925585
 30
0.0
 11
-260.7873489986895
 21
233.7972646007054
 31
0.0
  0
ARC
  5
797
  8
0
  6
CONTINUOUS
 62
     7
 10
-252.4999999999999
 20
98.05000000000064
 30
0.0
 40
135.9999999999994
 50
86.50643769796432
 51
93.49356230203591
  0
LINE
  5
798
  8
0
  6
CONTINUOUS
 62
     7
 10
-244.2126510013104
 20
233.7972646007054
 30
0.0
 11
-237.6378734890133
 21
227.5203697925585
 31
0.0
  0
ARC
  5
799
  8
0
  6
CONTINUOUS
 62
     7
 10
-240.4000000000001
 20
224.6271609965494
 30
0.0
 40
4.000000000000037
 50
359.9999999999985
 51
46.32779344527932
  0
LINE
  5
79A
  8
0
  6
CONTINUOUS
 62
     7
 10
-236.4
 20
224.6271609965493
 30
0.0
 11
-236.4
 21
214.05
 31
0.0
  0
LINE
  5
79B
  8
0
  6
CONTINUOUS
 62
     7
 10
-236.4
 20
214.05
 30
0.0
 11
-232.4
 21
214.05
 31
0.0
  0
LINE
  5
79C
  8
0
  6
CONTINUOUS
 62
     7
 10
-232.4
 20
214.05
 30
0.0
 11
-232.4
 21
224.6271609965493
 31
0.0
  0
ARC
  5
79D
  8
0
  6
CONTINUOUS
 62
     7
 10
-240.4000000000001
 20
224.6271609965493
 30
0.0
 40
8.000000000000062
 50
0.0000000000001988
 51
46.32779344528062
  0
LINE
  5
79E
  8
0
  6
CONTINUOUS
 62
     7
 10
-234.8757469780267
 20
230.4135785885676
 30
0.0
 11
-242.5
 21
237.6924004376895
 31
0.0
  0
ARC
  5
79F
  8
0
  6
CONTINUOUS
 62
     7
 10
-252.4999999999999
 20
98.05000000000078
 30
0.0
 40
139.9999999999993
 50
85.90395624184767
 51
94.09604375815226
  0
LINE
  5
7A0
  8
0
  6
CONTINUOUS
 62
     7
 10
-262.4999999999999
 20
237.6924004376895
 30
0.0
 11
-270.1242530219733
 21
230.4135785885676
 31
0.0
  0
ARC
  5
7A1
  8
0
  6
CONTINUOUS
 62
     7
 10
-264.6
 20
224.6271609965492
 30
0.0
 40
8.000000000000059
 50
133.6722065547191
 51
179.9999999999996
  0
LINE
  5
7A2
  8
0
  6
________________
 62
     1
 10
-256.5
 20
224.05
 30
0.0
 11
-248.5
 21
224.05
 31
0.0
  0
LINE
  5
7A3
  8
0
  6
________________
 62
     1
 10
-95.47500000000004
 20
242.025
 30
0.0
 11
-50.47500000000001
 21
197.025
 31
0.0
  0
ENDSEC
  0
EOF
