  0
SECTION
  2
HEADER
  9
$ACADVER
  1
AC1006
  9
$DWGCODEPAGE
  3
ansi_932
  9
$INSBASE
 10
0.0
 20
0.0
 30
0.0
  9
$EXTMIN
 10
-220.05
 20
190.0
  9
$EXTMAX
 10
-68.05000000000001
 20
400.1448999798348
  9
$LIMMIN
 10
0.0
 20
0.0
  9
$LIMMAX
 10
12.0
 20
9.0
  9
$ORTHOMODE
 70
     0
  9
$REGENMODE
 70
     1
  9
$FILLMODE
 70
     1
  9
$QTEXTMODE
 70
     0
  9
$MIRRTEXT
 70
     1
  9
$DRAGMODE
 70
     2
  9
$LTSCALE
 40
1.0
  9
$OSMODE
 70
    37
  9
$ATTMODE
 70
     1
  9
$TEXTSIZE
 40
0.2
  9
$TRACEWID
 40
0.05
  9
$TEXTSTYLE
  7
STANDARD
  9
$CLAYER
  8
0
  9
$CELTYPE
  6
BYLAYER
  9
$CECOLOR
 62
   256
  9
$DIMSCALE
 40
1.0
  9
$DIMASZ
 40
3.0
  9
$DIMEXO
 40
0.0625
  9
$DIMDLI
 40
0.38
  9
$DIMRND
 40
0.0
  9
$DIMDLE
 40
0.0
  9
$DIMEXE
 40
1.5
  9
$DIMTP
 40
0.0
  9
$DIMTM
 40
0.0
  9
$DIMTXT
 40
3.0
  9
$DIMCEN
 40
0.09
  9
$DIMTSZ
 40
0.0
  9
$DIMTOL
 70
     0
  9
$DIMLIM
 70
     0
  9
$DIMTIH
 70
     1
  9
$DIMTOH
 70
     1
  9
$DIMSE1
 70
     0
  9
$DIMSE2
 70
     0
  9
$DIMTAD
 70
     1
  9
$DIMZIN
 70
     0
  9
$DIMBLK
  1

  9
$DIMASO
 70
     1
  9
$DIMSHO
 70
     1
  9
$DIMPOST
  1

  9
$DIMAPOST
  1

  9
$DIMALT
 70
     0
  9
$DIMALTD
 70
     2
  9
$DIMALTF
 40
25.4
  9
$DIMLFAC
 40
1.0
  9
$DIMTOFL
 70
     0
  9
$DIMTVP
 40
0.0
  9
$DIMTIX
 70
     0
  9
$DIMSOXD
 70
     0
  9
$DIMSAH
 70
     0
  9
$DIMBLK1
  1

  9
$DIMBLK2
  1

  9
$LUNITS
 70
     2
  9
$LUPREC
 70
     4
  9
$SKETCHINC
 40
0.1
  9
$FILLETRAD
 40
0.5
  9
$AUNITS
 70
     0
  9
$AUPREC
 70
     0
  9
$MENU
  1
.
  9
$ELEVATION
 40
0.0
  9
$THICKNESS
 40
0.0
  9
$LIMCHECK
 70
     0
  9
$CHAMFERA
 40
0.0
  9
$CHAMFERB
 40
0.0
  9
$SKPOLY
 70
     0
  9
$TDCREATE
 40
2460384.782958634
  9
$TDUPDATE
 40
2460384.782958854
  9
$TDINDWG
 40
0.0000000116
  9
$TDUSRTIMER
 40
0.0000000116
  9
$USRTIMER
 70
     1
  9
$ANGBASE
 50
0.0
  9
$ANGDIR
 70
     0
  9
$PDMODE
 70
     0
  9
$PDSIZE
 40
0.0
  9
$PLINEWID
 40
0.0
  9
$COORDS
 70
     1
  9
$SPLFRAME
 70
     0
  9
$SPLINETYPE
 70
     6
  9
$SPLINESEGS
 70
     8
  9
$ATTDIA
 70
     0
  9
$ATTREQ
 70
     1
  9
$HANDLING
 70
     1
  9
$HANDSEED
  5
202
  9
$SURFTAB1
 70
     6
  9
$SURFTAB2
 70
     6
  9
$SURFTYPE
 70
     6
  9
$SURFU
 70
     6
  9
$SURFV
 70
     6
  9
$UCSNAME
  2

  9
$UCSORG
 10
0.0
 20
0.0
 30
0.0
  9
$UCSXDIR
 10
1.0
 20
0.0
 30
0.0
  9
$UCSYDIR
 10
0.0
 20
1.0
 30
0.0
  9
$USERI1
 70
     0
  9
$USERI2
 70
     0
  9
$USERI3
 70
     0
  9
$USERI4
 70
     0
  9
$USERI5
 70
     0
  9
$USERR1
 40
0.0
  9
$USERR2
 40
0.0
  9
$USERR3
 40
0.0
  9
$USERR4
 40
0.0
  9
$USERR5
 40
0.0
  9
$WORLDVIEW
 70
     1
  0
ENDSEC
  0
SECTION
  2
TABLES
  0
TABLE
  2
VPORT
 70
     1
  0
VPORT
  2
*ACTIVE
 70
     0
 10
0.0
 20
0.0
 11
1.0
 21
1.0
 12
-144.05
 22
295.0724499899174
 13
0.0
 23
0.0
 14
0.5
 24
0.5
 15
0.5
 25
0.5
 16
0.0
 26
0.0
 36
1.0
 17
0.0
 27
0.0
 37
0.0
 40
210.1448999798348
 41
1.6
 42
50.0
 43
0.0
 44
0.0
 50
0.0
 51
0.0
 71
     0
 72
   100
 73
     1
 74
     3
 75
     0
 76
     0
 77
     0
 78
     0
  0
ENDTAB
  0
TABLE
  2
LTYPE
 70
     2
  0
LTYPE
  2
CONTINUOUS
 70
     0
  3
Solid line
 72
    65
 73
     0
 40
0.0
  0
LTYPE
  2
________________
 70
     0
  3

 72
    65
 73
     4
 40
6.0
 49
2.25
 49
-1.5
 49
0.7499999999999999
 49
-1.5
  0
ENDTAB
  0
TABLE
  2
LAYER
 70
     1
  0
LAYER
  2
0
 70
     0
 62
     7
  6
CONTINUOUS
  0
ENDTAB
  0
TABLE
  2
STYLE
 70
     2
  0
STYLE
  2
STANDARD
 70
     0
 40
0.0
 41
1.0
 50
0.0
 71
     0
 42
0.2
  3
txt
  4

  0
STYLE
  2
ＭＳ_ゴシック
 70
     0
 40
0.0
 41
1.0
 50
0.0
 71
     0
 42
0.2
  3
ＭＳ ゴシック.shx
  4

  0
ENDTAB
  0
TABLE
  2
VIEW
 70
     0
  0
ENDTAB
  0
TABLE
  2
UCS
 70
     0
  0
ENDTAB
  0
ENDSEC
  0
SECTION
  2
BLOCKS
  0
ENDSEC
  0
SECTION
  2
ENTITIES
  0
TEXT
  5
6F
  8
0
  6
CONTINUOUS
 62
     7
 10
-115.3893491309241
 20
253.1416187320245
 30
0.0
 40
3.0
  1
RMGW-20
  0
LINE
  5
70
  8
0
  6
CONTINUOUS
 62
     7
 10
-104.0500000000001
 20
399.8843362313102
 30
0.0
 11
-104.0500000000001
 21
397.8666795962492
 31
0.0
  0
LINE
  5
71
  8
0
  6
CONTINUOUS
 62
     7
 10
-104.0500000000001
 20
397.8666795962492
 30
0.0
 11
-104.2500000000001
 21
397.8642112497977
 31
0.0
  0
LINE
  5
72
  8
0
  6
CONTINUOUS
 62
     7
 10
-107.0500000000001
 20
399.8473110212341
 30
0.0
 11
-107.0500000000001
 21
399.7385733705844
 31
0.0
  0
LINE
  5
73
  8
0
  6
CONTINUOUS
 62
     7
 10
-107.0500000000001
 20
399.8473110212341
 30
0.0
 11
-104.0500000000001
 21
399.8843362313102
 31
0.0
  0
LINE
  5
74
  8
0
  6
CONTINUOUS
 62
     7
 10
-70.05000000000007
 20
398.0615730498518
 30
0.0
 11
-81.36370849898479
 21
398.0615730498516
 31
0.0
  0
LINE
  5
75
  8
0
  6
CONTINUOUS
 62
     7
 10
-70.05000000000008
 20
397.8666795962468
 30
0.0
 11
-70.05000000000007
 21
398.0615730498518
 31
0.0
  0
LINE
  5
76
  8
0
  6
CONTINUOUS
 62
     7
 10
-104.0500000000001
 20
397.8666795962492
 30
0.0
 11
-81.36370849898479
 21
398.0615730498516
 31
0.0
  0
LINE
  5
77
  8
0
  6
CONTINUOUS
 62
     7
 10
-72.17132034355969
 20
398.9385733705844
 30
0.0
 11
-72.1713203435596
 21
400.1448999798347
 31
0.0
  0
LINE
  5
78
  8
0
  6
CONTINUOUS
 62
     7
 10
-81.36370849898479
 20
398.9385733705844
 30
0.0
 11
-72.17132034355969
 21
398.9385733705844
 31
0.0
  0
LINE
  5
79
  8
0
  6
CONTINUOUS
 62
     7
 10
-81.36370849898479
 20
398.0615730498516
 30
0.0
 11
-81.36370849898479
 21
398.9385733705844
 31
0.0
  0
LINE
  5
7A
  8
0
  6
CONTINUOUS
 62
     7
 10
-72.1713203435596
 20
400.1448999798347
 30
0.0
 11
-104.0500000000001
 21
399.8843362313102
 31
0.0
  0
LINE
  5
7B
  8
0
  6
CONTINUOUS
 62
     7
 10
-70.05000000000007
 20
398.9385733705844
 30
0.0
 11
-70.05000000000004
 21
400.1448999798348
 31
0.0
  0
LINE
  5
7C
  8
0
  6
CONTINUOUS
 62
     7
 10
-72.17132034355969
 20
398.9385733705844
 30
0.0
 11
-70.05000000000007
 21
398.9385733705844
 31
0.0
  0
LINE
  5
7D
  8
0
  6
CONTINUOUS
 62
     7
 10
-72.1713203435596
 20
400.1448999798347
 30
0.0
 11
-70.05000000000004
 21
400.1448999798348
 31
0.0
  0
LINE
  5
7E
  8
0
  6
CONTINUOUS
 62
     7
 10
-110.1500000000002
 20
279.7385733705844
 30
0.0
 11
-109.0878996109743
 21
279.7385733705844
 31
0.0
  0
LINE
  5
7F
  8
0
  6
CONTINUOUS
 62
     7
 10
-110.1500000000001
 20
279.7385733705844
 30
0.0
 11
-110.1500000000001
 21
299.7385733705844
 31
0.0
  0
LINE
  5
80
  8
0
  6
CONTINUOUS
 62
     7
 10
-110.1500000000001
 20
314.7385733705844
 30
0.0
 11
-110.1500000000001
 21
324.5385733705844
 31
0.0
  0
LINE
  5
81
  8
0
  6
CONTINUOUS
 62
     7
 10
-110.1320065498517
 20
324.5385733705844
 30
0.0
 11
-110.1500000000001
 21
324.5385733705844
 31
0.0
  0
LINE
  5
82
  8
0
  6
CONTINUOUS
 62
     7
 10
-110.1320065498517
 20
324.5385733705844
 30
0.0
 11
-110.1320065498517
 21
324.7385733705844
 31
0.0
  0
LINE
  5
83
  8
0
  6
CONTINUOUS
 62
     7
 10
-109.0878996109741
 20
279.7385733705844
 30
0.0
 11
-109.0878996109741
 21
299.7385733705844
 31
0.0
  0
LINE
  5
84
  8
0
  6
CONTINUOUS
 62
     7
 10
-110.1500000000001
 20
314.7385733705844
 30
0.0
 11
-108.4273502691897
 21
314.7385733705844
 31
0.0
  0
LINE
  5
85
  8
0
  6
CONTINUOUS
 62
     7
 10
-108.4273502691897
 20
312.7385733705844
 30
0.0
 11
-110.1500000000001
 21
312.7385733705843
 31
0.0
  0
LINE
  5
86
  8
0
  6
CONTINUOUS
 62
     7
 10
-110.1500000000002
 20
301.7385733705844
 30
0.0
 11
-110.1500000000001
 21
312.7385733705843
 31
0.0
  0
LINE
  5
87
  8
0
  6
CONTINUOUS
 62
     7
 10
-108.4273502691897
 20
301.7385733705844
 30
0.0
 11
-110.1500000000002
 21
301.7385733705844
 31
0.0
  0
LINE
  5
88
  8
0
  6
CONTINUOUS
 62
     7
 10
-110.1500000000001
 20
299.7385733705844
 30
0.0
 11
-108.4273502691897
 21
299.7385733705844
 31
0.0
  0
LINE
  5
89
  8
0
  6
CONTINUOUS
 62
     7
 10
-110.1500000000001
 20
279.7385733705844
 30
0.0
 11
-110.65
 21
279.7385733705844
 31
0.0
  0
ARC
  5
8A
  8
0
  6
CONTINUOUS
 62
     7
 10
-110.65
 20
281.2385733705844
 30
0.0
 40
1.500000000000001
 50
180.0
 51
270.0
  0
LINE
  5
8B
  8
0
  6
CONTINUOUS
 62
     7
 10
-112.1500000000001
 20
324.5385733705844
 30
0.0
 11
-112.1500000000001
 21
281.2385733705844
 31
0.0
  0
LINE
  5
8C
  8
0
  6
CONTINUOUS
 62
     7
 10
-110.1462758667193
 20
312.7385733705844
 30
0.0
 11
-110.1462758667192
 21
301.7385733705844
 31
0.0
  0
LINE
  5
8D
  8
0
  6
CONTINUOUS
 62
     7
 10
-112.1321493085142
 20
324.7385733705844
 30
0.0
 11
-112.1321493085142
 21
324.5385733705844
 31
0.0
  0
LINE
  5
8E
  8
0
  6
CONTINUOUS
 62
     7
 10
-106.4273502691897
 20
314.7385733705844
 30
0.0
 11
-108.4273502691897
 21
314.7385733705844
 31
0.0
  0
LINE
  5
8F
  8
0
  6
CONTINUOUS
 62
     7
 10
-108.4273502691897
 20
312.7385733705844
 30
0.0
 11
-106.4273502691897
 21
312.7385733705844
 31
0.0
  0
LINE
  5
90
  8
0
  6
CONTINUOUS
 62
     7
 10
-106.4273502691897
 20
299.7385733705844
 30
0.0
 11
-108.4273502691897
 21
299.7385733705844
 31
0.0
  0
LINE
  5
91
  8
0
  6
CONTINUOUS
 62
     7
 10
-108.4273502691897
 20
301.7385733705844
 30
0.0
 11
-106.4273502691897
 21
301.7385733705844
 31
0.0
  0
LINE
  5
92
  8
0
  6
CONTINUOUS
 62
     7
 10
-70.05000000000007
 20
398.0615730498518
 30
0.0
 11
-70.05000000000007
 21
398.9385733705844
 31
0.0
  0
LINE
  5
93
  8
0
  6
CONTINUOUS
 62
     7
 10
-106.8500000000002
 20
312.7385733705844
 30
0.0
 11
-106.8500000000001
 21
301.7385733705844
 31
0.0
  0
LINE
  5
94
  8
0
  6
CONTINUOUS
 62
     7
 10
-107.1757382687937
 20
399.8462111993423
 30
0.0
 11
-108.1608519230216
 21
399.7394179421115
 31
0.0
  0
LINE
  5
95
  8
0
  6
CONTINUOUS
 62
     7
 10
-107.0500000000001
 20
399.8473110212341
 30
0.0
 11
-107.1757382687937
 21
399.8462111993423
 31
0.0
  0
LINE
  5
96
  8
0
  6
CONTINUOUS
 62
     7
 10
-93.07465107997066
 20
279.7385733705844
 30
0.0
 11
-93.07465107997066
 21
299.7385733705844
 31
0.0
  0
LINE
  5
97
  8
0
  6
CONTINUOUS
 62
     7
 10
-109.0878996109741
 20
279.7385733705844
 30
0.0
 11
-93.07465107997065
 21
279.7385733705844
 31
0.0
  0
LINE
  5
98
  8
0
  6
CONTINUOUS
 62
     7
 10
-70.05000000000005
 20
279.7385733705844
 30
0.0
 11
-70.05000000000007
 21
284.7385733705844
 31
0.0
  0
LINE
  5
99
  8
0
  6
CONTINUOUS
 62
     7
 10
-70.05000000000037
 20
279.7385733705844
 30
0.0
 11
-93.07465107997069
 21
279.7385733705844
 31
0.0
  0
LINE
  5
9A
  8
0
  6
CONTINUOUS
 62
     7
 10
-102.5500000000001
 20
325.7385733705844
 30
0.0
 11
-87.55000000000007
 21
325.7385733705844
 31
0.0
  0
LINE
  5
9B
  8
0
  6
CONTINUOUS
 62
     7
 10
-87.55000000000007
 20
325.7385733705844
 30
0.0
 11
-87.55000000000007
 21
335.7385733705844
 31
0.0
  0
LINE
  5
9C
  8
0
  6
CONTINUOUS
 62
     7
 10
-102.5500000000001
 20
335.7385733705844
 30
0.0
 11
-102.5500000000001
 21
325.7385733705844
 31
0.0
  0
LINE
  5
9D
  8
0
  6
CONTINUOUS
 62
     7
 10
-87.55000000000007
 20
335.7385733705844
 30
0.0
 11
-102.5500000000001
 21
335.7385733705844
 31
0.0
  0
LINE
  5
9E
  8
0
  6
CONTINUOUS
 62
     7
 10
-105.9040420656126
 20
299.7385733705844
 30
0.0
 11
-106.4273502691897
 21
299.7385733705844
 31
0.0
  0
LINE
  5
9F
  8
0
  6
CONTINUOUS
 62
     7
 10
-109.9079796604463
 20
321.7315762042701
 30
0.0
 11
-109.9079796604463
 21
314.7385733705844
 31
0.0
  0
LINE
  5
A0
  8
0
  6
CONTINUOUS
 62
     7
 10
-105.9040420656123
 20
299.7385733705844
 30
0.0
 11
-105.1629948480433
 21
299.7385733705844
 31
0.0
  0
LINE
  5
A1
  8
0
  6
CONTINUOUS
 62
     7
 10
-105.1629948480436
 20
299.7385733705844
 30
0.0
 11
-92.06885002953094
 21
299.7385733705844
 31
0.0
  0
LINE
  5
A2
  8
0
  6
CONTINUOUS
 62
     7
 10
-92.06885002953088
 20
299.7385733705844
 30
0.0
 11
-84.05000000000008
 21
299.7385733705844
 31
0.0
  0
LINE
  5
A3
  8
0
  6
CONTINUOUS
 62
     7
 10
-104.9500000000001
 20
324.8385733705844
 30
0.0
 11
-104.9500000000001
 21
336.6385733705844
 31
0.0
  0
LINE
  5
A4
  8
0
  6
CONTINUOUS
 62
     7
 10
-105.1500000000001
 20
336.6385733705844
 30
0.0
 11
-105.1500000000001
 21
324.8385733705844
 31
0.0
  0
ARC
  5
A5
  8
0
  6
CONTINUOUS
 62
     7
 10
-105.0500000000001
 20
336.6385733705844
 30
0.0
 40
0.1000000000000029
 50
90.0
 51
180.0
  0
ARC
  5
A6
  8
0
  6
CONTINUOUS
 62
     7
 10
-105.0500000000001
 20
336.6385733705844
 30
0.0
 40
0.099999999999989
 50
0.0
 51
90.0
  0
ARC
  5
A7
  8
0
  6
CONTINUOUS
 62
     7
 10
-105.0500000000001
 20
324.8385733705844
 30
0.0
 40
0.099999999999989
 50
180.0
 51
270.0
  0
ARC
  5
A8
  8
0
  6
CONTINUOUS
 62
     7
 10
-105.0500000000001
 20
324.8385733705844
 30
0.0
 40
0.1000000000000029
 50
270.0
 51
0.0
  0
LINE
  5
A9
  8
0
  6
CONTINUOUS
 62
     7
 10
-84.95000000000005
 20
324.8385733705844
 30
0.0
 11
-84.95000000000005
 21
336.6385733705844
 31
0.0
  0
LINE
  5
AA
  8
0
  6
CONTINUOUS
 62
     7
 10
-85.15000000000006
 20
336.6385733705844
 30
0.0
 11
-85.15000000000006
 21
324.8385733705844
 31
0.0
  0
ARC
  5
AB
  8
0
  6
CONTINUOUS
 62
     7
 10
-85.05000000000005
 20
336.6385733705844
 30
0.0
 40
0.099999999999989
 50
0.0
 51
90.0
  0
ARC
  5
AC
  8
0
  6
CONTINUOUS
 62
     7
 10
-85.05000000000005
 20
336.6385733705844
 30
0.0
 40
0.1000000000000029
 50
90.0
 51
180.0
  0
ARC
  5
AD
  8
0
  6
CONTINUOUS
 62
     7
 10
-85.05000000000005
 20
324.8385733705844
 30
0.0
 40
0.099999999999989
 50
180.0
 51
270.0
  0
ARC
  5
AE
  8
0
  6
CONTINUOUS
 62
     7
 10
-85.05000000000005
 20
324.8385733705844
 30
0.0
 40
0.1000000000000029
 50
270.0
 51
0.0
  0
POLYLINE
  5
AF
  8
0
  6
CONTINUOUS
 62
     7
 66
     1
 10
0.0
 20
0.0
 30
0.0
  0
VERTEX
  5
1A6
  8
0
  6
CONTINUOUS
 62
     7
 10
-104.5500000000001
 20
376.0385733705844
 30
0.0
  0
VERTEX
  5
1A7
  8
0
  6
CONTINUOUS
 62
     7
 10
-104.5554347434103
 20
376.0775914349877
 30
0.0
  0
VERTEX
  5
1A8
  8
0
  6
CONTINUOUS
 62
     7
 10
-104.5715301194994
 20
376.1151100570574
 30
0.0
  0
VERTEX
  5
1A9
  8
0
  6
CONTINUOUS
 62
     7
 10
-104.5976675919908
 20
376.1496874171883
 30
0.0
  0
VERTEX
  5
1AA
  8
0
  6
CONTINUOUS
 62
     7
 10
-104.6328427124747
 20
376.1799947268217
 30
0.0
  0
VERTEX
  5
1AB
  8
0
  6
CONTINUOUS
 62
     7
 10
-104.6757037207973
 20
376.2048672930449
 30
0.0
  0
VERTEX
  5
1AC
  8
0
  6
CONTINUOUS
 62
     7
 10
-104.7246034924454
 20
376.2233492770866
 30
0.0
  0
VERTEX
  5
1AD
  8
0
  6
CONTINUOUS
 62
     7
 10
-104.7776628366181
 20
376.2347304266651
 30
0.0
  0
VERTEX
  5
1AE
  8
0
  6
CONTINUOUS
 62
     7
 10
-104.8328427124747
 20
376.2385733705844
 30
0.0
  0
SEQEND
  5
1FA
  8
0
  6
CONTINUOUS
 62
     7
  0
LINE
  5
B0
  8
0
  6
CONTINUOUS
 62
     7
 10
-104.8328427124747
 20
376.2385733705844
 30
0.0
 11
-107.3500000000001
 21
376.2385733705844
 31
0.0
  0
ARC
  5
B1
  8
0
  6
CONTINUOUS
 62
     7
 10
-107.3500000000001
 20
376.0385733705844
 30
0.0
 40
0.1999999999999919
 50
90.0
 51
180.0
  0
LINE
  5
B2
  8
0
  6
CONTINUOUS
 62
     7
 10
-107.5500000000001
 20
376.0385733705844
 30
0.0
 11
-107.5500000000001
 21
373.4385733705844
 31
0.0
  0
ARC
  5
B3
  8
0
  6
CONTINUOUS
 62
     7
 10
-107.3500000000001
 20
373.4385733705844
 30
0.0
 40
0.199999999999978
 50
180.0
 51
270.0
  0
LINE
  5
B4
  8
0
  6
CONTINUOUS
 62
     7
 10
-107.3500000000001
 20
373.2385733705844
 30
0.0
 11
-104.8328427124747
 21
373.2385733705844
 31
0.0
  0
POLYLINE
  5
B5
  8
0
  6
CONTINUOUS
 62
     7
 66
     1
 10
0.0
 20
0.0
 30
0.0
  0
VERTEX
  5
1AF
  8
0
  6
CONTINUOUS
 62
     7
 10
-104.8328427124747
 20
373.2385733705844
 30
0.0
  0
VERTEX
  5
1B0
  8
0
  6
CONTINUOUS
 62
     7
 10
-104.7776628366181
 20
373.2424163145038
 30
0.0
  0
VERTEX
  5
1B1
  8
0
  6
CONTINUOUS
 62
     7
 10
-104.7246034924454
 20
373.2537974640821
 30
0.0
  0
VERTEX
  5
1B2
  8
0
  6
CONTINUOUS
 62
     7
 10
-104.6757037207973
 20
373.2722794481239
 30
0.0
  0
VERTEX
  5
1B3
  8
0
  6
CONTINUOUS
 62
     7
 10
-104.6328427124747
 20
373.2971520143471
 30
0.0
  0
VERTEX
  5
1B4
  8
0
  6
CONTINUOUS
 62
     7
 10
-104.5976675919908
 20
373.3274593239805
 30
0.0
  0
VERTEX
  5
1B5
  8
0
  6
CONTINUOUS
 62
     7
 10
-104.5715301194994
 20
373.3620366841114
 30
0.0
  0
VERTEX
  5
1B6
  8
0
  6
CONTINUOUS
 62
     7
 10
-104.5554347434103
 20
373.3995553061812
 30
0.0
  0
VERTEX
  5
1B7
  8
0
  6
CONTINUOUS
 62
     7
 10
-104.5500000000001
 20
373.4385733705844
 30
0.0
  0
SEQEND
  5
1FB
  8
0
  6
CONTINUOUS
 62
     7
  0
LINE
  5
B6
  8
0
  6
CONTINUOUS
 62
     7
 10
-104.5500000000001
 20
373.4385733705844
 30
0.0
 11
-104.5500000000001
 21
376.0385733705844
 31
0.0
  0
CIRCLE
  5
B7
  8
0
  6
CONTINUOUS
 62
     7
 10
-89.55000000000004
 20
389.7385733705844
 30
0.0
 40
2.000000000000002
  0
LINE
  5
B8
  8
0
  6
CONTINUOUS
 62
     7
 10
-101.1510302427729
 20
299.8606775176423
 30
0.0
 11
-84.0500000000001
 21
299.7551500117655
 31
0.0
  0
LINE
  5
B9
  8
0
  6
CONTINUOUS
 62
     7
 10
-101.1510302427729
 20
299.8606775176423
 30
0.0
 11
-101.1510302427729
 21
321.7385733705844
 31
0.0
  0
LINE
  5
BA
  8
0
  6
CONTINUOUS
 62
     7
 10
-109.9500000000001
 20
321.7385733705844
 30
0.0
 11
-101.1510302427729
 21
321.7385733705844
 31
0.0
  0
LINE
  5
BB
  8
0
  6
CONTINUOUS
 62
     7
 10
-109.9500000000001
 20
324.7385733705844
 30
0.0
 11
-109.9500000000001
 21
321.7385733705844
 31
0.0
  0
LINE
  5
BC
  8
0
  6
CONTINUOUS
 62
     7
 10
-109.9500000000001
 20
324.7385733705844
 30
0.0
 11
-115.0500000000001
 21
324.7385733705844
 31
0.0
  0
ARC
  5
BD
  8
0
  6
CONTINUOUS
 62
     7
 10
-115.0500000000001
 20
339.7385733705844
 30
0.0
 40
15.0
 50
180.0
 51
270.0
  0
LINE
  5
BE
  8
0
  6
CONTINUOUS
 62
     7
 10
-130.05
 20
339.7385733705844
 30
0.0
 11
-130.05
 21
384.7385733705843
 31
0.0
  0
ARC
  5
BF
  8
0
  6
CONTINUOUS
 62
     7
 10
-115.05
 20
384.7385733705844
 30
0.0
 40
14.99999999999996
 50
90.00000000000006
 51
180.0
  0
LINE
  5
C0
  8
0
  6
CONTINUOUS
 62
     7
 10
-104.2500000000001
 20
399.7385733705844
 30
0.0
 11
-115.0500000000001
 21
399.7385733705844
 31
0.0
  0
LINE
  5
C1
  8
0
  6
CONTINUOUS
 62
     7
 10
-104.2500000000001
 20
399.7385733705844
 30
0.0
 11
-104.2500000000001
 21
397.6385733705844
 31
0.0
  0
LINE
  5
C2
  8
0
  6
CONTINUOUS
 62
     7
 10
-81.36370849898478
 20
397.6385733705845
 30
0.0
 11
-81.3637084989848
 21
378.7385733705844
 31
0.0
  0
LINE
  5
C3
  8
0
  6
CONTINUOUS
 62
     7
 10
-89.05000000000004
 20
378.7385733705844
 30
0.0
 11
-81.3637084989848
 21
378.7385733705844
 31
0.0
  0
ARC
  5
C4
  8
0
  6
CONTINUOUS
 62
     7
 10
-89.05000000000004
 20
359.7385733705844
 30
0.0
 40
18.99999999999996
 50
90.0
 51
270.0000000000001
  0
LINE
  5
C5
  8
0
  6
CONTINUOUS
 62
     7
 10
-81.36370849898479
 20
340.7385733705844
 30
0.0
 11
-89.05000000000003
 21
340.7385733705844
 31
0.0
  0
LINE
  5
C6
  8
0
  6
CONTINUOUS
 62
     7
 10
-81.36370849898479
 20
340.7385733705844
 30
0.0
 11
-81.36370849898483
 21
284.7385733705844
 31
0.0
  0
LINE
  5
C7
  8
0
  6
CONTINUOUS
 62
     7
 10
-83.0500000000001
 20
284.7385733705844
 30
0.0
 11
-81.36370849898483
 21
284.7385733705844
 31
0.0
  0
ARC
  5
C8
  8
0
  6
CONTINUOUS
 62
     7
 10
-83.0500000000001
 20
285.7385733705844
 30
0.0
 40
1.000000000000001
 50
179.9999999999841
 51
270.0000000000001
  0
LINE
  5
C9
  8
0
  6
CONTINUOUS
 62
     7
 10
-84.0500000000001
 20
299.7551500117655
 30
0.0
 11
-84.0500000000001
 21
285.7385733705847
 31
0.0
  0
CIRCLE
  5
CA
  8
0
  6
CONTINUOUS
 62
     7
 10
-89.55000000000005
 20
314.7385733705844
 30
0.0
 40
2.199999999999994
  0
LINE
  5
CB
  8
0
  6
CONTINUOUS
 62
     7
 10
-109.6500000000001
 20
394.7385733705844
 30
0.0
 11
-109.6500000000001
 21
351.2385733705844
 31
0.0
  0
LINE
  5
CC
  8
0
  6
CONTINUOUS
 62
     7
 10
-109.6500000000001
 20
394.7385733705844
 30
0.0
 11
-112.0500000000001
 21
394.7385733705844
 31
0.0
  0
LINE
  5
CD
  8
0
  6
CONTINUOUS
 62
     7
 10
-112.0500000000001
 20
394.7385733705844
 30
0.0
 11
-112.0500000000001
 21
329.7385733705844
 31
0.0
  0
LINE
  5
CE
  8
0
  6
CONTINUOUS
 62
     7
 10
-109.6500000000001
 20
329.7385733705844
 30
0.0
 11
-112.0500000000001
 21
329.7385733705844
 31
0.0
  0
LINE
  5
CF
  8
0
  6
CONTINUOUS
 62
     7
 10
-109.6500000000001
 20
348.2385733705844
 30
0.0
 11
-109.6500000000001
 21
329.7385733705844
 31
0.0
  0
LINE
  5
D0
  8
0
  6
CONTINUOUS
 62
     7
 10
-109.6500000000001
 20
348.2385733705844
 30
0.0
 11
-107.8328427124747
 21
348.2385733705844
 31
0.0
  0
POLYLINE
  5
D1
  8
0
  6
CONTINUOUS
 62
     7
 66
     1
 10
0.0
 20
0.0
 30
0.0
  0
VERTEX
  5
1B8
  8
0
  6
CONTINUOUS
 62
     7
 10
-107.8328427124747
 20
348.2385733705844
 30
0.0
  0
VERTEX
  5
1B9
  8
0
  6
CONTINUOUS
 62
     7
 10
-107.7776628366181
 20
348.2424163145038
 30
0.0
  0
VERTEX
  5
1BA
  8
0
  6
CONTINUOUS
 62
     7
 10
-107.7246034924454
 20
348.2537974640821
 30
0.0
  0
VERTEX
  5
1BB
  8
0
  6
CONTINUOUS
 62
     7
 10
-107.6757037207973
 20
348.2722794481239
 30
0.0
  0
VERTEX
  5
1BC
  8
0
  6
CONTINUOUS
 62
     7
 10
-107.6328427124747
 20
348.2971520143471
 30
0.0
  0
VERTEX
  5
1BD
  8
0
  6
CONTINUOUS
 62
     7
 10
-107.5976675919908
 20
348.3274593239805
 30
0.0
  0
VERTEX
  5
1BE
  8
0
  6
CONTINUOUS
 62
     7
 10
-107.5715301194994
 20
348.3620366841114
 30
0.0
  0
VERTEX
  5
1BF
  8
0
  6
CONTINUOUS
 62
     7
 10
-107.5554347434103
 20
348.3995553061812
 30
0.0
  0
VERTEX
  5
1C0
  8
0
  6
CONTINUOUS
 62
     7
 10
-107.5500000000001
 20
348.4385733705844
 30
0.0
  0
SEQEND
  5
1FC
  8
0
  6
CONTINUOUS
 62
     7
  0
LINE
  5
D2
  8
0
  6
CONTINUOUS
 62
     7
 10
-107.5500000000001
 20
348.4385733705844
 30
0.0
 11
-107.5500000000001
 21
351.0385733705844
 31
0.0
  0
POLYLINE
  5
D3
  8
0
  6
CONTINUOUS
 62
     7
 66
     1
 10
0.0
 20
0.0
 30
0.0
  0
VERTEX
  5
1C1
  8
0
  6
CONTINUOUS
 62
     7
 10
-107.5500000000001
 20
351.0385733705844
 30
0.0
  0
VERTEX
  5
1C2
  8
0
  6
CONTINUOUS
 62
     7
 10
-107.5554347434103
 20
351.0775914349876
 30
0.0
  0
VERTEX
  5
1C3
  8
0
  6
CONTINUOUS
 62
     7
 10
-107.5715301194994
 20
351.1151100570574
 30
0.0
  0
VERTEX
  5
1C4
  8
0
  6
CONTINUOUS
 62
     7
 10
-107.5976675919908
 20
351.1496874171883
 30
0.0
  0
VERTEX
  5
1C5
  8
0
  6
CONTINUOUS
 62
     7
 10
-107.6328427124747
 20
351.1799947268217
 30
0.0
  0
VERTEX
  5
1C6
  8
0
  6
CONTINUOUS
 62
     7
 10
-107.6757037207973
 20
351.2048672930449
 30
0.0
  0
VERTEX
  5
1C7
  8
0
  6
CONTINUOUS
 62
     7
 10
-107.7246034924454
 20
351.2233492770866
 30
0.0
  0
VERTEX
  5
1C8
  8
0
  6
CONTINUOUS
 62
     7
 10
-107.7776628366181
 20
351.234730426665
 30
0.0
  0
VERTEX
  5
1C9
  8
0
  6
CONTINUOUS
 62
     7
 10
-107.8328427124747
 20
351.2385733705844
 30
0.0
  0
SEQEND
  5
1FD
  8
0
  6
CONTINUOUS
 62
     7
  0
LINE
  5
D4
  8
0
  6
CONTINUOUS
 62
     7
 10
-107.8328427124747
 20
351.2385733705844
 30
0.0
 11
-109.6500000000001
 21
351.2385733705844
 31
0.0
  0
LINE
  5
D5
  8
0
  6
CONTINUOUS
 62
     7
 10
-110.5500000000001
 20
351.0385733705844
 30
0.0
 11
-110.5215457220001
 21
351.1413939194231
 31
0.0
  0
LINE
  5
D6
  8
0
  6
CONTINUOUS
 62
     7
 10
-110.5215457220001
 20
351.1413939194231
 30
0.0
 11
-110.4442793473653
 21
351.214957623454
 31
0.0
  0
LINE
  5
D7
  8
0
  6
CONTINUOUS
 62
     7
 10
-110.4442793473653
 20
351.214957623454
 30
0.0
 11
-110.3500000000001
 21
351.2385733705844
 31
0.0
  0
LINE
  5
D8
  8
0
  6
CONTINUOUS
 62
     7
 10
-110.5500000000001
 20
351.0385733705844
 30
0.0
 11
-110.5500000000001
 21
348.4385733705844
 31
0.0
  0
LINE
  5
D9
  8
0
  6
CONTINUOUS
 62
     7
 10
-110.3500000000001
 20
348.2385733705844
 30
0.0
 11
-110.4528205488387
 21
348.2670276485844
 31
0.0
  0
LINE
  5
DA
  8
0
  6
CONTINUOUS
 62
     7
 10
-110.4528205488387
 20
348.2670276485844
 30
0.0
 11
-110.5263842528698
 21
348.3442940232192
 31
0.0
  0
LINE
  5
DB
  8
0
  6
CONTINUOUS
 62
     7
 10
-110.5263842528698
 20
348.3442940232192
 30
0.0
 11
-110.5500000000001
 21
348.4385733705844
 31
0.0
  0
LINE
  5
DC
  8
0
  6
CONTINUOUS
 62
     7
 10
-110.3500000000001
 20
348.2385733705844
 30
0.0
 11
-109.6500000000001
 21
348.2385733705844
 31
0.0
  0
LINE
  5
DD
  8
0
  6
CONTINUOUS
 62
     7
 10
-109.6500000000001
 20
351.2385733705844
 30
0.0
 11
-110.3500000000001
 21
351.2385733705844
 31
0.0
  0
POLYLINE
  5
DE
  8
0
  6
CONTINUOUS
 62
     7
 66
     1
 10
0.0
 20
0.0
 30
0.0
  0
VERTEX
  5
1CA
  8
0
  6
CONTINUOUS
 62
     7
 10
-78.53528137423862
 20
385.1885733705845
 30
0.0
  0
VERTEX
  5
1CB
  8
0
  6
CONTINUOUS
 62
     7
 10
-78.48093394013672
 20
384.40821208252
 30
0.0
  0
VERTEX
  5
1CC
  8
0
  6
CONTINUOUS
 62
     7
 10
-78.31998017924518
 20
383.6578396411242
 30
0.0
  0
VERTEX
  5
1CD
  8
0
  6
CONTINUOUS
 62
     7
 10
-78.05860545433114
 20
382.9662924385061
 30
0.0
  0
VERTEX
  5
1CE
  8
0
  6
CONTINUOUS
 62
     7
 10
-77.70685424949242
 20
382.3601462458383
 30
0.0
  0
VERTEX
  5
1CF
  8
0
  6
CONTINUOUS
 62
     7
 10
-77.27824416626663
 20
381.8626949213743
 30
0.0
  0
VERTEX
  5
1D0
  8
0
  6
CONTINUOUS
 62
     7
 10
-76.78924644978483
 20
381.4930552405393
 30
0.0
  0
VERTEX
  5
1D1
  8
0
  6
CONTINUOUS
 62
     7
 10
-76.25865300805832
 20
381.2654322489716
 30
0.0
  0
VERTEX
  5
1D2
  8
0
  6
CONTINUOUS
 62
     7
 10
-75.70685424949242
 20
381.1885733705845
 30
0.0
  0
SEQEND
  5
1FE
  8
0
  6
CONTINUOUS
 62
     7
  0
LINE
  5
DF
  8
0
  6
CONTINUOUS
 62
     7
 10
-71.67640972551067
 20
393.5386640623771
 30
0.0
 11
-71.67640972551065
 21
397.6385733705845
 31
0.0
  0
LINE
  5
E0
  8
0
  6
CONTINUOUS
 62
     7
 10
-70.05000000000008
 20
397.6385733705845
 30
0.0
 11
-71.67640972551065
 21
397.6385733705845
 31
0.0
  0
LINE
  5
E1
  8
0
  6
CONTINUOUS
 62
     7
 10
-70.05000000000008
 20
397.6385733705845
 30
0.0
 11
-70.05000000000005
 21
378.7385733705844
 31
0.0
  0
LINE
  5
E2
  8
0
  6
CONTINUOUS
 62
     7
 10
-81.3637084989848
 20
378.7385733705844
 30
0.0
 11
-70.05000000000005
 21
378.7385733705844
 31
0.0
  0
LINE
  5
E3
  8
0
  6
CONTINUOUS
 62
     7
 10
-81.36370849898478
 20
397.6385733705845
 30
0.0
 11
-79.7372987734742
 21
397.6385733705845
 31
0.0
  0
LINE
  5
E4
  8
0
  6
CONTINUOUS
 62
     7
 10
-79.7372987734742
 20
393.5386640623771
 30
0.0
 11
-79.7372987734742
 21
397.6385733705845
 31
0.0
  0
LINE
  5
E5
  8
0
  6
CONTINUOUS
 62
     7
 10
-71.67640972551067
 20
393.5386640623771
 30
0.0
 11
-79.7372987734742
 21
393.5386640623771
 31
0.0
  0
LINE
  5
E6
  8
0
  6
CONTINUOUS
 62
     7
 10
-80.05000000000008
 20
299.7385733705844
 30
0.0
 11
-80.05000000000008
 21
284.7385733705844
 31
0.0
  0
LINE
  5
E7
  8
0
  6
CONTINUOUS
 62
     7
 10
-81.36370849898483
 20
284.7385733705844
 30
0.0
 11
-80.05000000000008
 21
284.7385733705844
 31
0.0
  0
LINE
  5
E8
  8
0
  6
CONTINUOUS
 62
     7
 10
-70.05000000000005
 20
340.7385733705844
 30
0.0
 11
-70.05000000000007
 21
284.7385733705844
 31
0.0
  0
LINE
  5
E9
  8
0
  6
CONTINUOUS
 62
     7
 10
-70.05000000000007
 20
284.7385733705844
 30
0.0
 11
-71.36370849898482
 21
284.7385733705844
 31
0.0
  0
LINE
  5
EA
  8
0
  6
CONTINUOUS
 62
     7
 10
-71.36370849898482
 20
299.7385733705844
 30
0.0
 11
-71.36370849898482
 21
284.7385733705844
 31
0.0
  0
LINE
  5
EB
  8
0
  6
CONTINUOUS
 62
     7
 10
-70.05000000000005
 20
340.7385733705844
 30
0.0
 11
-81.36370849898479
 21
340.7385733705844
 31
0.0
  0
LINE
  5
EC
  8
0
  6
CONTINUOUS
 62
     7
 10
-80.05000000000008
 20
299.7385733705844
 30
0.0
 11
-71.36370849898482
 21
299.7385733705844
 31
0.0
  0
LINE
  5
ED
  8
0
  6
CONTINUOUS
 62
     7
 10
-106.9500000000001
 20
314.7385733705844
 30
0.0
 11
-106.9500000000001
 21
321.6897029109562
 31
0.0
  0
LINE
  5
EE
  8
0
  6
CONTINUOUS
 62
     7
 10
-71.67640972551067
 20
393.5386640623771
 30
0.0
 11
-73.98332155083868
 21
393.8011300529549
 31
0.0
  0
POLYLINE
  5
EF
  8
0
  6
CONTINUOUS
 62
     7
 66
     1
 10
0.0
 20
0.0
 30
0.0
  0
VERTEX
  5
1D3
  8
0
  6
CONTINUOUS
 62
     7
 10
-76.76751442153507
 20
381.4804741268863
 30
0.0
  0
VERTEX
  5
1D4
  8
0
  6
CONTINUOUS
 62
     7
 10
-76.27309295608788
 20
381.8473995940872
 30
0.0
  0
VERTEX
  5
1D5
  8
0
  6
CONTINUOUS
 62
     7
 10
-75.83927491432169
 20
382.3445346690384
 30
0.0
  0
VERTEX
  5
1D6
  8
0
  6
CONTINUOUS
 62
     7
 10
-75.4829667132121
 20
382.9525053929343
 30
0.0
  0
VERTEX
  5
1D7
  8
0
  6
CONTINUOUS
 62
     7
 10
-75.21805411692708
 20
383.6476184068604
 30
0.0
  0
VERTEX
  5
1D8
  8
0
  6
CONTINUOUS
 62
     7
 10
-75.05486109170062
 20
384.4027843108214
 30
0.0
  0
VERTEX
  5
1D9
  8
0
  6
CONTINUOUS
 62
     7
 10
-74.99974746830588
 20
385.1885733706225
 30
0.0
  0
VERTEX
  5
1DA
  8
0
  6
CONTINUOUS
 62
     7
 10
-75.05486109171117
 20
385.974362430422
 30
0.0
  0
VERTEX
  5
1DB
  8
0
  6
CONTINUOUS
 62
     7
 10
-75.21805411694778
 20
386.7295283343788
 30
0.0
  0
VERTEX
  5
1DC
  8
0
  6
CONTINUOUS
 62
     7
 10
-75.48296671324213
 20
387.4246413482978
 30
0.0
  0
VERTEX
  5
1DD
  8
0
  6
CONTINUOUS
 62
     7
 10
-75.8392749143599
 20
388.0326120721841
 30
0.0
  0
VERTEX
  5
1DE
  8
0
  6
CONTINUOUS
 62
     7
 10
-76.27309295613277
 20
388.5297471471236
 30
0.0
  0
VERTEX
  5
1DF
  8
0
  6
CONTINUOUS
 62
     7
 10
-76.76751442158489
 20
388.8966726143112
 30
0.0
  0
SEQEND
  5
1FF
  8
0
  6
CONTINUOUS
 62
     7
  0
POLYLINE
  5
F0
  8
0
  6
CONTINUOUS
 62
     7
 66
     1
 10
0.0
 20
0.0
 30
0.0
  0
VERTEX
  5
1E0
  8
0
  6
CONTINUOUS
 62
     7
 10
-75.70685424949242
 20
389.1885733705845
 30
0.0
  0
VERTEX
  5
1E1
  8
0
  6
CONTINUOUS
 62
     7
 10
-76.2586530080583
 20
389.1117144921974
 30
0.0
  0
VERTEX
  5
1E2
  8
0
  6
CONTINUOUS
 62
     7
 10
-76.78924644978481
 20
388.8840915006297
 30
0.0
  0
VERTEX
  5
1E3
  8
0
  6
CONTINUOUS
 62
     7
 10
-77.27824416626663
 20
388.5144518197947
 30
0.0
  0
VERTEX
  5
1E4
  8
0
  6
CONTINUOUS
 62
     7
 10
-77.70685424949242
 20
388.0170004953307
 30
0.0
  0
VERTEX
  5
1E5
  8
0
  6
CONTINUOUS
 62
     7
 10
-78.05860545433114
 20
387.4108543026629
 30
0.0
  0
VERTEX
  5
1E6
  8
0
  6
CONTINUOUS
 62
     7
 10
-78.31998017924518
 20
386.7193071000448
 30
0.0
  0
VERTEX
  5
1E7
  8
0
  6
CONTINUOUS
 62
     7
 10
-78.48093394013672
 20
385.968934658649
 30
0.0
  0
VERTEX
  5
1E8
  8
0
  6
CONTINUOUS
 62
     7
 10
-78.53528137423862
 20
385.1885733705845
 30
0.0
  0
SEQEND
  5
200
  8
0
  6
CONTINUOUS
 62
     7
  0
POLYLINE
  5
F1
  8
0
  6
CONTINUOUS
 62
     7
 66
     1
 10
0.0
 20
0.0
 30
0.0
  0
VERTEX
  5
1E9
  8
0
  6
CONTINUOUS
 62
     7
 10
-75.70685424949242
 20
381.1885733705845
 30
0.0
  0
VERTEX
  5
1EA
  8
0
  6
CONTINUOUS
 62
     7
 10
-75.15505549092654
 20
381.2654322489716
 30
0.0
  0
VERTEX
  5
1EB
  8
0
  6
CONTINUOUS
 62
     7
 10
-74.62446204920003
 20
381.4930552405393
 30
0.0
  0
VERTEX
  5
1EC
  8
0
  6
CONTINUOUS
 62
     7
 10
-74.13546433271821
 20
381.8626949213743
 30
0.0
  0
VERTEX
  5
1ED
  8
0
  6
CONTINUOUS
 62
     7
 10
-73.70685424949242
 20
382.3601462458383
 30
0.0
  0
VERTEX
  5
1EE
  8
0
  6
CONTINUOUS
 62
     7
 10
-73.3551030446537
 20
382.9662924385061
 30
0.0
  0
VERTEX
  5
1EF
  8
0
  6
CONTINUOUS
 62
     7
 10
-73.09372831973967
 20
383.6578396411242
 30
0.0
  0
VERTEX
  5
1F0
  8
0
  6
CONTINUOUS
 62
     7
 10
-72.93277455884812
 20
384.40821208252
 30
0.0
  0
VERTEX
  5
1F1
  8
0
  6
CONTINUOUS
 62
     7
 10
-72.87842712474622
 20
385.1885733705845
 30
0.0
  0
VERTEX
  5
1F2
  8
0
  6
CONTINUOUS
 62
     7
 10
-72.93277455884812
 20
385.968934658649
 30
0.0
  0
VERTEX
  5
1F3
  8
0
  6
CONTINUOUS
 62
     7
 10
-73.09372831973967
 20
386.7193071000449
 30
0.0
  0
VERTEX
  5
1F4
  8
0
  6
CONTINUOUS
 62
     7
 10
-73.3551030446537
 20
387.4108543026629
 30
0.0
  0
VERTEX
  5
1F5
  8
0
  6
CONTINUOUS
 62
     7
 10
-73.70685424949242
 20
388.0170004953307
 30
0.0
  0
VERTEX
  5
1F6
  8
0
  6
CONTINUOUS
 62
     7
 10
-74.13546433271823
 20
388.5144518197947
 30
0.0
  0
VERTEX
  5
1F7
  8
0
  6
CONTINUOUS
 62
     7
 10
-74.62446204920003
 20
388.8840915006297
 30
0.0
  0
VERTEX
  5
1F8
  8
0
  6
CONTINUOUS
 62
     7
 10
-75.15505549092654
 20
389.1117144921974
 30
0.0
  0
VERTEX
  5
1F9
  8
0
  6
CONTINUOUS
 62
     7
 10
-75.70685424949242
 20
389.1885733705845
 30
0.0
  0
SEQEND
  5
201
  8
0
  6
CONTINUOUS
 62
     7
  0
LINE
  5
F2
  8
0
  6
CONTINUOUS
 62
     7
 10
-73.98332155083868
 20
397.6385733705845
 30
0.0
 11
-71.67640972551065
 21
397.6385733705845
 31
0.0
  0
LINE
  5
F3
  8
0
  6
CONTINUOUS
 62
     7
 10
-73.98332155083868
 20
397.6385733705845
 30
0.0
 11
-73.98332155083868
 21
393.8011300529549
 31
0.0
  0
LINE
  5
F4
  8
0
  6
CONTINUOUS
 62
     7
 10
-71.36370849898482
 20
284.7385733705844
 30
0.0
 11
-71.55000000000005
 21
284.7385733705844
 31
0.0
  0
LINE
  5
F5
  8
0
  6
CONTINUOUS
 62
     7
 10
-71.90355339059334
 20
284.8850199799911
 30
0.0
 11
-71.55000000000007
 21
284.7385733705844
 31
0.0
  0
LINE
  5
F6
  8
0
  6
CONTINUOUS
 62
     7
 10
-72.05000000000005
 20
285.2385733705844
 30
0.0
 11
-72.05000000000005
 21
299.7385733705844
 31
0.0
  0
LINE
  5
F7
  8
0
  6
CONTINUOUS
 62
     7
 10
-72.05000000000005
 20
285.2385733705844
 30
0.0
 11
-71.90355339059334
 21
284.8850199799911
 31
0.0
  0
ARC
  5
F8
  8
0
  6
CONTINUOUS
 62
     7
 10
-70.05000000000005
 20
336.6385733705844
 30
0.0
 40
0.1000000000000029
 50
0.0
 51
90.00000000001593
  0
LINE
  5
F9
  8
0
  6
CONTINUOUS
 62
     7
 10
-69.95000000000005
 20
336.6385733705844
 30
0.0
 11
-69.95000000000005
 21
324.8385733705844
 31
0.0
  0
ARC
  5
FA
  8
0
  6
CONTINUOUS
 62
     7
 10
-70.05000000000005
 20
324.8385733705844
 30
0.0
 40
0.099999999999989
 50
269.999999999984
 51
0.0
  0
LINE
  5
FB
  8
0
  6
CONTINUOUS
 62
     7
 10
-70.05000000000004
 20
378.7385733705844
 30
0.0
 11
-70.05000000000004
 21
340.7385733705844
 31
0.0
  0
LINE
  5
FC
  8
0
  6
CONTINUOUS
 62
     7
 10
-70.05000000000005
 20
397.8558746118302
 30
0.0
 11
-70.05000000000005
 21
397.6385733705845
 31
0.0
  0
LINE
  5
FD
  8
0
  6
CONTINUOUS
 62
     7
 10
-106.4273502691897
 20
312.7385733705844
 30
0.0
 11
-106.4273502691897
 21
314.7385733705844
 31
0.0
  0
LINE
  5
FE
  8
0
  6
CONTINUOUS
 62
     7
 10
-106.4273502691897
 20
299.7385733705844
 30
0.0
 11
-106.4273502691897
 21
301.7385733705844
 31
0.0
  0
LINE
  5
FF
  8
0
  6
CONTINUOUS
 62
     7
 10
-183.5629433935305
 20
394.7850135366405
 30
0.0
 11
-183.5629433935305
 21
394.7818851278819
 31
0.0
  0
ARC
  5
100
  8
0
  6
CONTINUOUS
 62
     7
 10
-172.8105484874583
 20
395.3984300974594
 30
0.0
 40
10.7698812766217
 50
157.9941490207643
 51
183.2651437505597
  0
LINE
  5
101
  8
0
  6
CONTINUOUS
 62
     7
 10
-182.7957964753814
 20
399.433918337091
 30
0.0
 11
-182.682609559783
 21
399.5891016434078
 31
0.0
  0
LINE
  5
102
  8
0
  6
CONTINUOUS
 62
     7
 10
-182.682609559783
 20
399.5891016434078
 30
0.0
 11
-182.5711313376943
 21
399.6955728883913
 31
0.0
  0
LINE
  5
103
  8
0
  6
CONTINUOUS
 62
     7
 10
-182.5711313376943
 20
399.6955728883913
 30
0.0
 11
-182.4620632492011
 21
399.7588329354225
 31
0.0
  0
LINE
  5
104
  8
0
  6
CONTINUOUS
 62
     7
 10
-182.4620632492011
 20
399.7588329354225
 30
0.0
 11
-182.3515870072437
 21
399.7841101646664
 31
0.0
  0
LINE
  5
105
  8
0
  6
CONTINUOUS
 62
     7
 10
-182.3515870072437
 20
399.7841101646664
 30
0.0
 11
-182.3453212264295
 21
399.7843944444663
 31
0.0
  0
LINE
  5
106
  8
0
  6
CONTINUOUS
 62
     7
 10
-160.05
 20
324.5385733705844
 30
0.0
 11
-160.05
 21
281.2385733705844
 31
0.0
  0
LINE
  5
107
  8
0
  6
CONTINUOUS
 62
     7
 10
-183.5629433935305
 20
394.7818851278819
 30
0.0
 11
-183.5629433935305
 21
281.2385733705844
 31
0.0
  0
LINE
  5
108
  8
0
  6
CONTINUOUS
 62
     7
 10
-160.05
 20
279.7385733705844
 30
0.0
 11
-183.1975591737687
 21
279.7385733705844
 31
0.0
  0
LINE
  5
109
  8
0
  6
CONTINUOUS
 62
     7
 10
-183.197559173769
 20
279.7385733705844
 30
0.0
 11
-183.2967846048087
 21
279.794386910963
 31
0.0
  0
LINE
  5
10A
  8
0
  6
CONTINUOUS
 62
     7
 10
-183.2967846048087
 20
279.794386910963
 30
0.0
 11
-183.3539843755935
 21
279.881826817499
 31
0.0
  0
ARC
  5
10B
  8
0
  6
CONTINUOUS
 62
     7
 10
-179.8623693639021
 20
281.1140517900249
 30
0.0
 40
3.702668466496235
 50
178.0727665387068
 51
199.4384335379972
  0
LINE
  5
10C
  8
0
  6
CONTINUOUS
 62
     7
 10
-160.05
 20
281.2385733705844
 30
0.0
 11
-160.05
 21
279.7385733705844
 31
0.0
  0
LINE
  5
10D
  8
0
  6
CONTINUOUS
 62
     7
 10
-183.197559173769
 20
279.7385733705844
 30
0.0
 11
-199.5786566795422
 21
279.7385733705844
 31
0.0
  0
LINE
  5
10E
  8
0
  6
CONTINUOUS
 62
     7
 10
-197.05
 20
399.8473110212315
 30
0.0
 11
-197.1757382687943
 21
399.8462111993397
 31
0.0
  0
LINE
  5
10F
  8
0
  6
CONTINUOUS
 62
     7
 10
-194.05
 20
399.8843362313076
 30
0.0
 11
-197.05
 21
399.8473110212315
 31
0.0
  0
LINE
  5
110
  8
0
  6
CONTINUOUS
 62
     7
 10
-162.1713203435596
 20
400.1448999798348
 30
0.0
 11
-194.05
 21
399.8843362313076
 31
0.0
  0
LINE
  5
111
  8
0
  6
CONTINUOUS
 62
     7
 10
-160.05
 20
400.1448999798347
 30
0.0
 11
-162.1713203435596
 21
400.1448999798348
 31
0.0
  0
LINE
  5
112
  8
0
  6
CONTINUOUS
 62
     7
 10
-160.05
 20
400.1448999798347
 30
0.0
 11
-160.05
 21
399.8843362313102
 31
0.0
  0
LINE
  5
113
  8
0
  6
CONTINUOUS
 62
     7
 10
-163.05
 20
399.8473110212341
 30
0.0
 11
-160.05
 21
399.8843362313102
 31
0.0
  0
LINE
  5
114
  8
0
  6
CONTINUOUS
 62
     7
 10
-160.05
 20
399.8843362313102
 30
0.0
 11
-160.05
 21
399.7385733705844
 31
0.0
  0
ARC
  5
115
  8
0
  6
CONTINUOUS
 62
     7
 10
-197.1313925175262
 20
394.8456509507762
 30
0.0
 40
5.000756877230662
 50
90.50809462476633
 51
179.9893590320207
  0
ARC
  5
116
  8
0
  6
CONTINUOUS
 62
     7
 10
-200.65
 20
281.2385733705844
 30
0.0
 40
1.500000000000001
 50
180.0
 51
270.0
  0
LINE
  5
117
  8
0
  6
CONTINUOUS
 62
     7
 10
-199.5786566795423
 20
279.7385733705844
 30
0.0
 11
-200.65
 21
279.7385733705844
 31
0.0
  0
LINE
  5
118
  8
0
  6
CONTINUOUS
 62
     7
 10
-202.15
 20
324.5385733705844
 30
0.0
 11
-202.15
 21
281.2385733705844
 31
0.0
  0
LINE
  5
119
  8
0
  6
CONTINUOUS
 62
     7
 10
-202.1321493085146
 20
324.5385733705844
 30
0.0
 11
-202.1500000000005
 21
324.5385733705844
 31
0.0
  0
LINE
  5
11A
  8
0
  6
CONTINUOUS
 62
     7
 10
-202.1321493085141
 20
394.8465796909722
 30
0.0
 11
-202.1321493085141
 21
324.5385733705844
 31
0.0
  0
LINE
  5
11B
  8
0
  6
CONTINUOUS
 62
     7
 10
-160.05
 20
339.7385733705844
 30
0.0
 11
-160.05
 21
324.7385733705844
 31
0.0
  0
LINE
  5
11C
  8
0
  6
CONTINUOUS
 62
     7
 10
-160.05
 20
324.7385733705844
 30
0.0
 11
-161.05
 21
324.7385733705844
 31
0.0
  0
LINE
  5
11D
  8
0
  6
CONTINUOUS
 62
     7
 10
-160.05
 20
339.7385733705844
 30
0.0
 11
-160.05
 21
384.7385733705843
 31
0.0
  0
ARC
  5
11E
  8
0
  6
CONTINUOUS
 62
     7
 10
-161.05
 20
326.7385733705844
 30
0.0
 40
2.000000000000002
 50
180.0
 51
270.0
  0
LINE
  5
11F
  8
0
  6
CONTINUOUS
 62
     7
 10
-163.05
 20
326.7385733705844
 30
0.0
 11
-163.05
 21
339.7385733705844
 31
0.0
  0
LINE
  5
120
  8
0
  6
CONTINUOUS
 62
     7
 10
-163.05
 20
339.7385733705844
 30
0.0
 11
-163.05
 21
384.7385733705843
 31
0.0
  0
LINE
  5
121
  8
0
  6
CONTINUOUS
 62
     7
 10
-161.05
 20
399.7385733705844
 30
0.0
 11
-160.05
 21
399.7385733705844
 31
0.0
  0
LINE
  5
122
  8
0
  6
CONTINUOUS
 62
     7
 10
-160.05
 20
399.7385733705844
 30
0.0
 11
-160.05
 21
384.7385733705844
 31
0.0
  0
LINE
  5
123
  8
0
  6
CONTINUOUS
 62
     7
 10
-163.05
 20
384.7385733705844
 30
0.0
 11
-163.05
 21
397.7385733705844
 31
0.0
  0
ARC
  5
124
  8
0
  6
CONTINUOUS
 62
     7
 10
-161.05
 20
397.7385733705844
 30
0.0
 40
2.000000000000002
 50
89.99999999999999
 51
180.0
  0
LINE
  5
125
  8
0
  6
CONTINUOUS
 62
     7
 10
-160.05
 20
324.7385733705844
 30
0.0
 11
-160.05
 21
324.5385733705844
 31
0.0
  0
LINE
  5
126
  8
0
  6
CONTINUOUS
 62
     7
 10
-205.05
 20
324.7385733705844
 30
0.0
 11
-202.1321493085141
 21
324.7385733705844
 31
0.0
  0
LINE
  5
127
  8
0
  6
CONTINUOUS
 62
     7
 10
-198.1599191194127
 20
399.7385733705844
 30
0.0
 11
-205.05
 21
399.7385733705844
 31
0.0
  0
ARC
  5
128
  8
0
  6
CONTINUOUS
 62
     7
 10
-205.05
 20
339.7385733705844
 30
0.0
 40
14.99999999999999
 50
180.0
 51
270.0
  0
ARC
  5
129
  8
0
  6
CONTINUOUS
 62
     7
 10
-205.05
 20
384.7385733705844
 30
0.0
 40
14.99999999999996
 50
90.0
 51
180.0
  0
LINE
  5
12A
  8
0
  6
CONTINUOUS
 62
     7
 10
-220.05
 20
384.7385733705844
 30
0.0
 11
-220.05
 21
339.7385733705844
 31
0.0
  0
LINE
  5
12B
  8
0
  6
CONTINUOUS
 62
     7
 10
-201.0510985891747
 20
218.5629433935305
 30
0.0
 11
-199.5786566795422
 21
218.1975591737689
 31
0.0
  0
ARC
  5
12C
  8
0
  6
CONTINUOUS
 62
     7
 10
-171.3607538546223
 20
206.3607538546223
 30
0.0
 40
32.1
 50
112.3417673041952
 51
157.6582326958048
  0
LINE
  5
12D
  8
0
  6
CONTINUOUS
 62
     7
 10
-183.197559173769
 20
234.5786566795422
 30
0.0
 11
-183.5629433935305
 21
236.0510985891747
 31
0.0
  0
ARC
  5
12E
  8
0
  6
CONTINUOUS
 62
     7
 10
49.95
 20
195.05
 30
0.0
 40
252.1
 50
174.6483407141975
 51
180.0
  0
LINE
  5
12F
  8
0
  6
CONTINUOUS
 62
     7
 10
-200.65
 20
195.05
 30
0.0
 11
-202.15
 21
195.05
 31
0.0
  0
ARC
  5
130
  8
0
  6
CONTINUOUS
 62
     7
 10
-160.05
 20
-14.94999999999999
 30
0.0
 40
252.1
 50
90.0
 51
95.3516592858025
  0
LINE
  5
131
  8
0
  6
CONTINUOUS
 62
     7
 10
-160.05
 20
237.15
 30
0.0
 11
-160.05
 21
235.65
 31
0.0
  0
ARC
  5
132
  8
0
  6
CONTINUOUS
 62
     7
 10
-171.3607538546223
 20
206.3607538546223
 30
0.0
 40
30.09999999999996
 50
112.9026167295883
 51
157.0973832704116
  0
ARC
  5
133
  8
0
  6
CONTINUOUS
 62
     7
 10
49.94999999999997
 20
195.05
 30
0.0
 40
250.1
 50
174.7177690998624
 51
180.0
  0
LINE
  5
134
  8
0
  6
CONTINUOUS
 62
     7
 10
-200.15
 20
195.05
 30
0.0
 11
-200.65
 21
195.05
 31
0.0
  0
LINE
  5
135
  8
0
  6
CONTINUOUS
 62
     7
 10
-160.05
 20
235.15
 30
0.0
 11
-160.05
 21
235.65
 31
0.0
  0
ARC
  5
136
  8
0
  6
CONTINUOUS
 62
     7
 10
-160.05
 20
-14.94999999999996
 30
0.0
 40
250.1
 50
90.0
 51
95.28223090013775
  0
LINE
  5
137
  8
0
  6
CONTINUOUS
 62
     7
 10
-163.05
 20
231.6952994616207
 30
0.0
 11
-164.6169872981078
 21
232.6
 31
0.0
  0
ARC
  5
138
  8
0
  6
CONTINUOUS
 62
     7
 10
-164.3669872981078
 20
233.0330127018922
 30
0.0
 40
0.500000000000002
 50
149.9999999999999
 51
240.0
  0
LINE
  5
139
  8
0
  6
CONTINUOUS
 62
     7
 10
-164.8000000000001
 20
233.2830127018922
 30
0.0
 11
-163.7377926686624
 21
235.1228097679413
 31
0.0
  0
ARC
  5
13A
  8
0
  6
CONTINUOUS
 62
     7
 10
-162.05
 20
233.4273502691896
 30
0.0
 40
2.000000000000008
 50
240.0
 51
0.0
  0
LINE
  5
13B
  8
0
  6
CONTINUOUS
 62
     7
 10
-160.05
 20
235.15
 30
0.0
 11
-160.05
 21
233.4273502691896
 31
0.0
  0
ARC
  5
13C
  8
0
  6
CONTINUOUS
 62
     7
 10
-198.4273502691896
 20
197.05
 30
0.0
 40
2.000000000000008
 50
270.0
 51
30.0
  0
LINE
  5
13D
  8
0
  6
CONTINUOUS
 62
     7
 10
-198.2830127018922
 20
199.8000000000001
 30
0.0
 11
-200.1228097679413
 21
198.7377926686624
 31
0.0
  0
ARC
  5
13E
  8
0
  6
CONTINUOUS
 62
     7
 10
-198.0330127018922
 20
199.3669872981078
 30
0.0
 40
0.500000000000002
 50
29.99999999999937
 51
119.9999999999998
  0
LINE
  5
13F
  8
0
  6
CONTINUOUS
 62
     7
 10
-196.6952994616207
 20
198.05
 30
0.0
 11
-197.6
 21
199.6169872981078
 31
0.0
  0
LINE
  5
140
  8
0
  6
CONTINUOUS
 62
     7
 10
-200.15
 20
195.05
 30
0.0
 11
-198.4273502691896
 21
195.05
 31
0.0
  0
LINE
  5
141
  8
0
  6
CONTINUOUS
 62
     7
 10
-160.05
 20
197.1713203435597
 30
0.0
 11
-162.1713203435596
 21
195.05
 31
0.0
  0
LINE
  5
142
  8
0
  6
CONTINUOUS
 62
     7
 10
-160.05
 20
206.3637084989847
 30
0.0
 11
-160.05
 21
197.1713203435597
 31
0.0
  0
LINE
  5
143
  8
0
  6
CONTINUOUS
 62
     7
 10
-171.3637084989847
 20
195.05
 30
0.0
 11
-162.1713203435596
 21
195.05
 31
0.0
  0
LINE
  5
144
  8
0
  6
CONTINUOUS
 62
     7
 10
-159.95
 20
212.55
 30
0.0
 11
-160.05
 21
212.55
 31
0.0
  0
LINE
  5
145
  8
0
  6
CONTINUOUS
 62
     7
 10
-171.0500000000001
 20
230.9040420656125
 30
0.0
 11
-171.05
 21
234.9079796604463
 31
0.0
  0
ARC
  5
146
  8
0
  6
CONTINUOUS
 62
     7
 10
-160.05
 20
-14.94999999999996
 30
0.0
 40
246.1
 50
92.56181886170867
 51
95.13318348062279
  0
ARC
  5
147
  8
0
  6
CONTINUOUS
 62
     7
 10
-171.3607538546223
 20
206.3607538546223
 30
0.0
 40
26.09999999999998
 50
114.2219152779133
 51
155.7780847220872
  0
ARC
  5
148
  8
0
  6
CONTINUOUS
 62
     7
 10
49.94999999999997
 20
195.05
 30
0.0
 40
246.1
 50
174.8668165193772
 51
177.4381811382912
  0
LINE
  5
149
  8
0
  6
CONTINUOUS
 62
     7
 10
-199.9079796604463
 20
206.05
 30
0.0
 11
-195.9040420656126
 21
206.05
 31
0.0
  0
LINE
  5
14A
  8
0
  6
CONTINUOUS
 62
     7
 10
-173.55
 20
197.05
 30
0.0
 11
-173.05
 21
197.05
 31
0.0
  0
ARC
  5
14B
  8
0
  6
CONTINUOUS
 62
     7
 10
-173.55
 20
196.55
 30
0.0
 40
0.5000000000000004
 50
89.99999999999982
 51
180.0
  0
LINE
  5
14C
  8
0
  6
CONTINUOUS
 62
     7
 10
-174.05
 20
195.05
 30
0.0
 11
-174.05
 21
196.55
 31
0.0
  0
LINE
  5
14D
  8
0
  6
CONTINUOUS
 62
     7
 10
-173.05
 20
195.05
 30
0.0
 11
-174.05
 21
195.05
 31
0.0
  0
LINE
  5
14E
  8
0
  6
CONTINUOUS
 62
     7
 10
-173.05
 20
197.05
 30
0.0
 11
-170.9433982822019
 21
197.05
 31
0.0
  0
LINE
  5
14F
  8
0
  6
CONTINUOUS
 62
     7
 10
-170.9433982822019
 20
197.05
 30
0.0
 11
-170.5898448916086
 21
196.9035533905933
 31
0.0
  0
LINE
  5
150
  8
0
  6
CONTINUOUS
 62
     7
 10
-170.5898448916086
 20
196.9035533905933
 30
0.0
 11
-170.2362915010153
 21
196.55
 31
0.0
  0
LINE
  5
151
  8
0
  6
CONTINUOUS
 62
     7
 10
-171.3637084989848
 20
195.05
 30
0.0
 11
-170.05
 21
196.3637084989848
 31
0.0
  0
LINE
  5
152
  8
0
  6
CONTINUOUS
 62
     7
 10
-170.05
 20
196.3637084989848
 30
0.0
 11
-170.2362915010153
 21
196.55
 31
0.0
  0
LINE
  5
153
  8
0
  6
CONTINUOUS
 62
     7
 10
-173.05
 20
195.05
 30
0.0
 11
-171.3637084989848
 21
195.05
 31
0.0
  0
LINE
  5
154
  8
0
  6
CONTINUOUS
 62
     7
 10
-160.05
 20
209.05
 30
0.0
 11
-160.05
 21
208.05
 31
0.0
  0
LINE
  5
155
  8
0
  6
CONTINUOUS
 62
     7
 10
-161.55
 20
209.05
 30
0.0
 11
-160.05
 21
209.05
 31
0.0
  0
LINE
  5
156
  8
0
  6
CONTINUOUS
 62
     7
 10
-162.05
 20
208.05
 30
0.0
 11
-162.05
 21
208.55
 31
0.0
  0
ARC
  5
157
  8
0
  6
CONTINUOUS
 62
     7
 10
-161.55
 20
208.55
 30
0.0
 40
0.5000000000000004
 50
90.0
 51
180.0
  0
LINE
  5
158
  8
0
  6
CONTINUOUS
 62
     7
 10
-162.05
 20
205.9433982822019
 30
0.0
 11
-161.9035533905933
 21
205.5898448916086
 31
0.0
  0
LINE
  5
159
  8
0
  6
CONTINUOUS
 62
     7
 10
-162.05
 20
205.9433982822019
 30
0.0
 11
-162.05
 21
208.05
 31
0.0
  0
LINE
  5
15A
  8
0
  6
CONTINUOUS
 62
     7
 10
-161.55
 20
205.2362915010153
 30
0.0
 11
-161.9035533905933
 21
205.5898448916086
 31
0.0
  0
LINE
  5
15B
  8
0
  6
CONTINUOUS
 62
     7
 10
-160.05
 20
208.05
 30
0.0
 11
-160.05
 21
206.3637084989848
 31
0.0
  0
LINE
  5
15C
  8
0
  6
CONTINUOUS
 62
     7
 10
-161.3637084989848
 20
205.05
 30
0.0
 11
-161.55
 21
205.2362915010153
 31
0.0
  0
LINE
  5
15D
  8
0
  6
CONTINUOUS
 62
     7
 10
-160.05
 20
206.3637084989848
 30
0.0
 11
-161.3637084989848
 21
205.05
 31
0.0
  0
LINE
  5
15E
  8
0
  6
CONTINUOUS
 62
     7
 10
-165.65
 20
231.9500000000001
 30
0.0
 11
-164.03863592416
 21
234.7409644488462
 31
0.0
  0
LINE
  5
15F
  8
0
  6
CONTINUOUS
 62
     7
 10
-160.05
 20
226.1510302427729
 30
0.0
 11
-165.65
 21
231.9500000000001
 31
0.0
  0
LINE
  5
160
  8
0
  6
CONTINUOUS
 62
     7
 10
-191.1510302427729
 20
195.05
 30
0.0
 11
-196.9500000000001
 21
200.65
 31
0.0
  0
LINE
  5
161
  8
0
  6
CONTINUOUS
 62
     7
 10
-196.9500000000001
 20
200.65
 30
0.0
 11
-199.7409644488462
 21
199.03863592416
 31
0.0
  0
LINE
  5
162
  8
0
  6
CONTINUOUS
 62
     7
 10
-199.4546240634961
 20
204.5023359562429
 30
0.0
 11
-199.7409644488462
 21
199.03863592416
 31
0.0
  0
ARC
  5
163
  8
0
  6
CONTINUOUS
 62
     7
 10
-198.4559945287415
 20
204.45
 30
0.0
 40
1.0
 50
90.0
 51
177.0000000000006
  0
LINE
  5
164
  8
0
  6
CONTINUOUS
 62
     7
 10
-198.3215445355879
 20
205.45
 30
0.0
 11
-198.4559945287415
 21
205.45
 31
0.0
  0
LINE
  5
165
  8
0
  6
CONTINUOUS
 62
     7
 10
-170.45
 20
233.3215445355879
 30
0.0
 11
-170.45
 21
233.4559945287415
 31
0.0
  0
ARC
  5
166
  8
0
  6
CONTINUOUS
 62
     7
 10
-169.45
 20
233.4559945287415
 30
0.0
 40
1.0
 50
93.00000000000095
 51
180.0
  0
LINE
  5
167
  8
0
  6
CONTINUOUS
 62
     7
 10
-169.502335956243
 20
234.4546240634961
 30
0.0
 11
-164.03863592416
 21
234.7409644488462
 31
0.0
  0
LINE
  5
168
  8
0
  6
CONTINUOUS
 62
     7
 10
-160.05
 20
226.1510302427729
 30
0.0
 11
-160.05
 21
209.05
 31
0.0
  0
LINE
  5
169
  8
0
  6
CONTINUOUS
 62
     7
 10
-161.3637084989848
 20
205.05
 30
0.0
 11
-170.05
 21
196.3637084989848
 31
0.0
  0
LINE
  5
16A
  8
0
  6
CONTINUOUS
 62
     7
 10
-191.1510302427729
 20
195.05
 30
0.0
 11
-174.05
 21
195.05
 31
0.0
  0
LINE
  5
16B
  8
0
  6
CONTINUOUS
 62
     7
 10
-173.2307548258773
 20
199.5530852962136
 30
0.0
 11
-173.4347779441339
 21
200.0499983667164
 31
0.0
  0
LINE
  5
16C
  8
0
  6
CONTINUOUS
 62
     7
 10
-173.4347763108502
 20
200.05
 30
0.0
 11
-165.05
 21
208.4347763108502
 31
0.0
  0
LINE
  5
16D
  8
0
  6
CONTINUOUS
 62
     7
 10
-164.5530852962136
 20
208.2307548258773
 30
0.0
 11
-165.0499983667164
 21
208.4347779441339
 31
0.0
  0
LINE
  5
16E
  8
0
  6
CONTINUOUS
 62
     7
 10
-164.5530852962136
 20
227.2151106019797
 30
0.0
 11
-165.05
 21
227.0100252281112
 31
0.0
  0
LINE
  5
16F
  8
0
  6
CONTINUOUS
 62
     7
 10
-165.05
 20
208.4347763108502
 30
0.0
 11
-165.05
 21
227.0100252281112
 31
0.0
  0
LINE
  5
170
  8
0
  6
CONTINUOUS
 62
     7
 10
-192.2151106019797
 20
199.5530852962136
 30
0.0
 11
-192.0100252281112
 21
200.05
 31
0.0
  0
LINE
  5
171
  8
0
  6
CONTINUOUS
 62
     7
 10
-192.0100252281112
 20
200.05
 30
0.0
 11
-173.4347763108502
 21
200.05
 31
0.0
  0
LINE
  5
172
  8
0
  6
CONTINUOUS
 62
     7
 10
-170.45
 20
232.6018758873176
 30
0.0
 11
-170.45
 21
233.3215445355879
 31
0.0
  0
LINE
  5
173
  8
0
  6
CONTINUOUS
 62
     7
 10
-165.05
 20
227.0100121928485
 30
0.0
 11
-170.45
 21
232.6018758873176
 31
0.0
  0
LINE
  5
174
  8
0
  6
CONTINUOUS
 62
     7
 10
-198.3215445355879
 20
205.45
 30
0.0
 11
-197.6018758873176
 21
205.45
 31
0.0
  0
LINE
  5
175
  8
0
  6
CONTINUOUS
 62
     7
 10
-197.6018758873176
 20
205.45
 30
0.0
 11
-192.0100121928485
 21
200.05
 31
0.0
  0
LINE
  5
176
  8
0
  6
CONTINUOUS
 62
     7
 10
-164.03863592416
 20
234.7409644488462
 30
0.0
 11
-163.9557430223966
 21
234.745308681746
 31
0.0
  0
LINE
  5
177
  8
0
  6
CONTINUOUS
 62
     7
 10
-160.05
 20
233.4273502691897
 30
0.0
 11
-160.05
 21
226.1510302427729
 31
0.0
  0
LINE
  5
178
  8
0
  6
CONTINUOUS
 62
     7
 10
-199.7409644488462
 20
199.03863592416
 30
0.0
 11
-199.7453086817459
 21
198.9557430223967
 31
0.0
  0
LINE
  5
179
  8
0
  6
CONTINUOUS
 62
     7
 10
-198.4273502691897
 20
195.05
 30
0.0
 11
-191.1510302427729
 21
195.05
 31
0.0
  0
ARC
  5
17A
  8
0
  6
CONTINUOUS
 62
     7
 10
-160.05
 20
210.05
 30
0.0
 40
0.099999999999989
 50
0.0
 51
90.00000000001593
  0
ARC
  5
17B
  8
0
  6
CONTINUOUS
 62
     7
 10
-160.05
 20
210.05
 30
0.0
 40
0.099999999999989
 50
269.999999999984
 51
0.0
  0
ARC
  5
17C
  8
0
  6
CONTINUOUS
 62
     7
 10
-195.05
 20
195.05
 30
0.0
 40
0.099999999999989
 50
179.9999999999841
 51
270.0
  0
ARC
  5
17D
  8
0
  6
CONTINUOUS
 62
     7
 10
-195.05
 20
195.05
 30
0.0
 40
0.1000000000000167
 50
270.0
 51
0.000000000015973
  0
LINE
  5
17E
  8
0
  6
CONTINUOUS
 62
     7
 10
-161.05
 20
255.05
 30
0.0
 11
-160.05
 21
255.05
 31
0.0
  0
LINE
  5
17F
  8
0
  6
CONTINUOUS
 62
     7
 10
-160.05
 20
255.05
 30
0.0
 11
-160.05
 21
240.05
 31
0.0
  0
LINE
  5
180
  8
0
  6
CONTINUOUS
 62
     7
 10
-163.05
 20
237.1321493085141
 30
0.0
 11
-163.05
 21
240.05
 31
0.0
  0
LINE
  5
181
  8
0
  6
CONTINUOUS
 62
     7
 10
-163.05
 20
240.05
 30
0.0
 11
-163.05
 21
253.05
 31
0.0
  0
ARC
  5
182
  8
0
  6
CONTINUOUS
 62
     7
 10
-161.05
 20
253.05
 30
0.0
 40
2.000000000000002
 50
89.99999999999999
 51
180.0
  0
LINE
  5
183
  8
0
  6
CONTINUOUS
 62
     7
 10
-160.05
 20
237.15
 30
0.0
 11
-160.05
 21
240.05
 31
0.0
  0
LINE
  5
184
  8
0
  6
CONTINUOUS
 62
     7
 10
-202.1321493085141
 20
198.05
 30
0.0
 11
-205.05
 21
198.05
 31
0.0
  0
LINE
  5
185
  8
0
  6
CONTINUOUS
 62
     7
 10
-205.05
 20
198.05
 30
0.0
 11
-218.05
 21
198.05
 31
0.0
  0
ARC
  5
186
  8
0
  6
CONTINUOUS
 62
     7
 10
-218.05
 20
196.05
 30
0.0
 40
2.000000000000002
 50
90.0
 51
180.0000000000002
  0
LINE
  5
187
  8
0
  6
CONTINUOUS
 62
     7
 10
-220.05
 20
196.05
 30
0.0
 11
-220.05
 21
195.05
 31
0.0
  0
LINE
  5
188
  8
0
  6
CONTINUOUS
 62
     7
 10
-220.05
 20
195.05
 30
0.0
 11
-205.05
 21
195.05
 31
0.0
  0
LINE
  5
189
  8
0
  6
CONTINUOUS
 62
     7
 10
-202.15
 20
195.05
 30
0.0
 11
-205.05
 21
195.05
 31
0.0
  0
LINE
  5
18A
  8
0
  6
CONTINUOUS
 62
     7
 10
-173.3727370731163
 20
214.3281890805834
 30
0.0
 11
-165.8921437300822
 21
207.592632580768
 31
0.0
  0
LINE
  5
18B
  8
0
  6
CONTINUOUS
 62
     7
 10
-172.592632580768
 20
200.8921437300822
 30
0.0
 11
-179.3281890805834
 21
208.3727370731163
 31
0.0
  0
ARC
  5
18C
  8
0
  6
CONTINUOUS
 62
     7
 10
-174.0418676794752
 20
213.585044255106
 30
0.0
 40
1.000000000000001
 50
48.00000000000009
 51
134.9999999999998
  0
ARC
  5
18D
  8
0
  6
CONTINUOUS
 62
     7
 10
-178.585044255106
 20
209.0418676794752
 30
0.0
 40
1.000000000000016
 50
135.0000000000001
 51
222.0000000000005
  0
LINE
  5
18E
  8
0
  6
CONTINUOUS
 62
     7
 10
-179.2921510362926
 20
209.7489744606617
 30
0.0
 11
-174.7489744606617
 21
214.2921510362926
 31
0.0
  0
LINE
  5
18F
  8
0
  6
________________
 62
     1
 10
-89.05000000000003
 20
338.7385733705844
 30
0.0
 11
-89.05000000000003
 21
380.7385733705844
 31
0.0
  0
LINE
  5
191
  8
0
  6
________________
 62
     1
 10
-110.0500000000001
 20
359.7385733705844
 30
0.0
 11
-68.05000000000001
 21
359.7385733705844
 31
0.0
  0
LINE
  5
192
  8
0
  6
________________
 62
     1
 10
-200.0
 20
235.0
 30
0.0
 11
-155.0
 21
190.0
 31
0.0
  0
LINE
  5
193
  8
0
  6
________________
 62
     1
 10
-89.55000000000005
 20
385.7385733705844
 30
0.0
 11
-89.55000000000005
 21
393.7385733705844
 31
0.0
  0
LINE
  5
194
  8
0
  6
________________
 62
     1
 10
-89.55000000000005
 20
310.5385733705844
 30
0.0
 11
-89.55000000000005
 21
318.9385733705844
 31
0.0
  0
LINE
  5
195
  8
0
  6
________________
 62
     1
 10
-93.55000000000007
 20
389.7385733705844
 30
0.0
 11
-85.55000000000005
 21
389.7385733705844
 31
0.0
  0
ARC
  5
196
  8
0
  6
CONTINUOUS
 62
     7
 10
49.94999999999931
 20
195.0500000000006
 30
0.0
 40
250.0999999999994
 50
174.7177690998624
 51
177.479180523944
  0
LINE
  5
197
  8
0
  6
CONTINUOUS
 62
     7
 10
-199.9079796604464
 20
206.05
 30
0.0
 11
-195.9040420656125
 21
206.05
 31
0.0
  0
ARC
  5
198
  8
0
  6
CONTINUOUS
 62
     7
 10
49.95000000000073
 20
195.0500000000032
 30
0.0
 40
246.1000000000005
 50
174.8668165193781
 51
177.4381811382919
  0
ARC
  5
199
  8
0
  6
CONTINUOUS
 62
     7
 10
-171.3607538546222
 20
206.3607538546223
 30
0.0
 40
26.10000000000005
 50
114.2219152779136
 51
155.7780847220873
  0
ARC
  5
19A
  8
0
  6
CONTINUOUS
 62
     7
 10
-160.0500000000011
 20
-14.94999999999882
 30
0.0
 40
246.0999999999988
 50
92.56181886170901
 51
95.13318348062256
  0
LINE
  5
19B
  8
0
  6
CONTINUOUS
 62
     7
 10
-171.0500000000001
 20
230.9040420656126
 30
0.0
 11
-171.05
 21
234.9079796604463
 31
0.0
  0
ARC
  5
19C
  8
0
  6
CONTINUOUS
 62
     7
 10
-160.0499999999997
 20
-14.95000000000351
 30
0.0
 40
250.1000000000035
 50
92.52081947605632
 51
95.28223090013766
  0
ARC
  5
19D
  8
0
  6
CONTINUOUS
 62
     7
 10
-171.3607538546224
 20
206.3607538546223
 30
0.0
 40
30.09999999999993
 50
112.9026167295879
 51
157.0973832704116
  0
LINE
  5
19E
  8
0
  6
________________
 62
     1
 10
-93.75000000000007
 20
314.7385733705844
 30
0.0
 11
-85.35000000000005
 21
314.7385733705844
 31
0.0
  0
ENDSEC
  0
EOF
