  0
SECTION
  2
HEADER
  9
$ACADVER
  1
AC1006
  9
$DWGCODEPAGE
  3
ansi_932
  9
$INSBASE
 10
0.0
 20
0.0
 30
0.0
  9
$EXTMIN
 10
46.99999999999994
 20
353.6704545454545
  9
$EXTMAX
 10
146.8318181818181
 20
485.0
  9
$LIMMIN
 10
0.0
 20
0.0
  9
$LIMMAX
 10
12.0
 20
9.0
  9
$ORTHOMODE
 70
     0
  9
$REGENMODE
 70
     1
  9
$FILLMODE
 70
     1
  9
$QTEXTMODE
 70
     0
  9
$MIRRTEXT
 70
     1
  9
$DRAGMODE
 70
     2
  9
$LTSCALE
 40
1.0
  9
$OSMODE
 70
    37
  9
$ATTMODE
 70
     1
  9
$TEXTSIZE
 40
0.2
  9
$TRACEWID
 40
0.05
  9
$TEXTSTYLE
  7
STANDARD
  9
$CLAYER
  8
0
  9
$CELTYPE
  6
BYLAYER
  9
$CECOLOR
 62
   256
  9
$DIMSCALE
 40
1.0
  9
$DIMASZ
 40
3.0
  9
$DIMEXO
 40
0.0625
  9
$DIMDLI
 40
0.38
  9
$DIMRND
 40
0.0
  9
$DIMDLE
 40
0.0
  9
$DIMEXE
 40
1.5
  9
$DIMTP
 40
0.0
  9
$DIMTM
 40
0.0
  9
$DIMTXT
 40
3.0
  9
$DIMCEN
 40
0.09
  9
$DIMTSZ
 40
0.0
  9
$DIMTOL
 70
     0
  9
$DIMLIM
 70
     0
  9
$DIMTIH
 70
     1
  9
$DIMTOH
 70
     1
  9
$DIMSE1
 70
     0
  9
$DIMSE2
 70
     0
  9
$DIMTAD
 70
     1
  9
$DIMZIN
 70
     0
  9
$DIMBLK
  1

  9
$DIMASO
 70
     1
  9
$DIMSHO
 70
     1
  9
$DIMPOST
  1

  9
$DIMAPOST
  1

  9
$DIMALT
 70
     0
  9
$DIMALTD
 70
     2
  9
$DIMALTF
 40
25.4
  9
$DIMLFAC
 40
1.0
  9
$DIMTOFL
 70
     0
  9
$DIMTVP
 40
0.0
  9
$DIMTIX
 70
     0
  9
$DIMSOXD
 70
     0
  9
$DIMSAH
 70
     0
  9
$DIMBLK1
  1

  9
$DIMBLK2
  1

  9
$LUNITS
 70
     2
  9
$LUPREC
 70
     4
  9
$SKETCHINC
 40
0.1
  9
$FILLETRAD
 40
0.5
  9
$AUNITS
 70
     0
  9
$AUPREC
 70
     0
  9
$MENU
  1
.
  9
$ELEVATION
 40
0.0
  9
$THICKNESS
 40
0.0
  9
$LIMCHECK
 70
     0
  9
$CHAMFERA
 40
0.0
  9
$CHAMFERB
 40
0.0
  9
$SKPOLY
 70
     0
  9
$TDCREATE
 40
2460542.567776829
  9
$TDUPDATE
 40
2460542.567777326
  9
$TDINDWG
 40
0.0000000116
  9
$TDUSRTIMER
 40
0.0000000116
  9
$USRTIMER
 70
     1
  9
$ANGBASE
 50
0.0
  9
$ANGDIR
 70
     0
  9
$PDMODE
 70
     0
  9
$PDSIZE
 40
0.0
  9
$PLINEWID
 40
0.0
  9
$COORDS
 70
     1
  9
$SPLFRAME
 70
     0
  9
$SPLINETYPE
 70
     6
  9
$SPLINESEGS
 70
     8
  9
$ATTDIA
 70
     0
  9
$ATTREQ
 70
     1
  9
$HANDLING
 70
     1
  9
$HANDSEED
  5
45E
  9
$SURFTAB1
 70
     6
  9
$SURFTAB2
 70
     6
  9
$SURFTYPE
 70
     6
  9
$SURFU
 70
     6
  9
$SURFV
 70
     6
  9
$UCSNAME
  2

  9
$UCSORG
 10
0.0
 20
0.0
 30
0.0
  9
$UCSXDIR
 10
1.0
 20
0.0
 30
0.0
  9
$UCSYDIR
 10
0.0
 20
1.0
 30
0.0
  9
$USERI1
 70
     0
  9
$USERI2
 70
     0
  9
$USERI3
 70
     0
  9
$USERI4
 70
     0
  9
$USERI5
 70
     0
  9
$USERR1
 40
0.0
  9
$USERR2
 40
0.0
  9
$USERR3
 40
0.0
  9
$USERR4
 40
0.0
  9
$USERR5
 40
0.0
  9
$WORLDVIEW
 70
     1
  0
ENDSEC
  0
SECTION
  2
TABLES
  0
TABLE
  2
VPORT
 70
     1
  0
VPORT
  2
*ACTIVE
 70
     0
 10
0.0
 20
0.0
 11
1.0
 21
1.0
 12
96.91590909090903
 22
419.3352272727273
 13
0.0
 23
0.0
 14
0.5
 24
0.5
 15
0.5
 25
0.5
 16
0.0
 26
0.0
 36
1.0
 17
0.0
 27
0.0
 37
0.0
 40
131.3295454545455
 41
1.6
 42
50.0
 43
0.0
 44
0.0
 50
0.0
 51
0.0
 71
     0
 72
   100
 73
     1
 74
     3
 75
     0
 76
     0
 77
     0
 78
     0
  0
ENDTAB
  0
TABLE
  2
LTYPE
 70
     2
  0
LTYPE
  2
CONTINUOUS
 70
     0
  3
Solid line
 72
    65
 73
     0
 40
0.0
  0
LTYPE
  2
CENTER
 70
     0
  3

 72
    65
 73
     0
 40
0.0
  0
ENDTAB
  0
TABLE
  2
LAYER
 70
     1
  0
LAYER
  2
0
 70
     0
 62
     7
  6
CONTINUOUS
  0
ENDTAB
  0
TABLE
  2
STYLE
 70
     2
  0
STYLE
  2
STANDARD
 70
     0
 40
0.0
 41
1.0
 50
0.0
 71
     0
 42
0.2
  3
txt
  4

  0
STYLE
  2
ＭＳ_ゴシック
 70
     0
 40
0.0
 41
1.0
 50
0.0
 71
     0
 42
0.2
  3
ＭＳ ゴシック.shx
  4

  0
ENDTAB
  0
TABLE
  2
VIEW
 70
     0
  0
ENDTAB
  0
TABLE
  2
UCS
 70
     0
  0
ENDTAB
  0
ENDSEC
  0
SECTION
  2
BLOCKS
  0
BLOCK
  8
0
  2
D_FRAME_VIEW_1956
 70
     0
 10
0.0
 20
0.0
 30
0.0
  0
LINE
  5
70
  8
0
  6
CONTINUOUS
 62
     7
 10
137.4999999999999
 20
439.9563656610462
 30
0.0
 11
142.4999999999999
 21
440.0000000000001
 31
0.0
  0
LINE
  5
71
  8
0
  6
CONTINUOUS
 62
     7
 10
142.4999999999999
 20
440.0000000000001
 30
0.0
 11
142.4999999999999
 21
425.0005711540375
 31
0.0
  0
LINE
  5
72
  8
0
  6
CONTINUOUS
 62
     7
 10
137.4999999999999
 20
424.9569368150836
 30
0.0
 11
137.4999999999999
 21
439.9563656610462
 31
0.0
  0
LINE
  5
73
  8
0
  6
CONTINUOUS
 62
     7
 10
137.4999999999999
 20
424.9569368150836
 30
0.0
 11
137.4999999999999
 21
380.0430631849164
 31
0.0
  0
LINE
  5
74
  8
0
  6
CONTINUOUS
 62
     7
 10
142.4999999999999
 20
425.0005711540375
 30
0.0
 11
142.4999999999999
 21
379.9994288459626
 31
0.0
  0
LINE
  5
75
  8
0
  6
CONTINUOUS
 62
     7
 10
142.4999999999999
 20
365.0000000000001
 30
0.0
 11
137.4999999999999
 21
365.0436343389538
 31
0.0
  0
LINE
  5
76
  8
0
  6
CONTINUOUS
 62
     7
 10
137.4999999999999
 20
365.0436343389538
 30
0.0
 11
137.4999999999999
 21
380.0430631849164
 31
0.0
  0
LINE
  5
77
  8
0
  6
CONTINUOUS
 62
     7
 10
142.4999999999999
 20
379.9994288459626
 30
0.0
 11
142.4999999999999
 21
365.0000000000001
 31
0.0
  0
LINE
  5
78
  8
0
  6
CONTINUOUS
 62
     7
 10
137.4999999999999
 20
484.9563656610462
 30
0.0
 11
142.4999999999999
 21
485.0
 31
0.0
  0
LINE
  5
79
  8
0
  6
CONTINUOUS
 62
     7
 10
142.4999999999999
 20
485.0
 30
0.0
 11
142.4999999999999
 21
483.5000571154037
 31
0.0
  0
LINE
  5
7A
  8
0
  6
CONTINUOUS
 62
     7
 10
137.4999999999999
 20
483.4564227764499
 30
0.0
 11
137.4999999999999
 21
484.9563656610462
 31
0.0
  0
LINE
  5
7B
  8
0
  6
CONTINUOUS
 62
     7
 10
137.4999999999999
 20
483.4564227764499
 30
0.0
 11
137.4999999999999
 21
439.9563656610462
 31
0.0
  0
LINE
  5
7C
  8
0
  6
CONTINUOUS
 62
     7
 10
142.4999999999999
 20
483.5000571154038
 30
0.0
 11
142.4999999999999
 21
440.0000000000001
 31
0.0
  0
ARC
  5
7D
  8
0
  6
CONTINUOUS
 62
     7
 10
135.3999999999999
 20
396.3
 30
0.0
 40
0.2000000000000057
 50
90.0
 51
180.0
  0
LINE
  5
7E
  8
0
  6
CONTINUOUS
 62
     7
 10
135.3999999999999
 20
396.5
 30
0.0
 11
137.4999999999999
 21
396.5
 31
0.0
  0
ARC
  5
7F
  8
0
  6
CONTINUOUS
 62
     7
 10
135.3999999999999
 20
393.7
 30
0.0
 40
0.2000000000000057
 50
180.0
 51
270.0
  0
LINE
  5
80
  8
0
  6
CONTINUOUS
 62
     7
 10
135.2
 20
393.7
 30
0.0
 11
135.2
 21
396.3
 31
0.0
  0
LINE
  5
81
  8
0
  6
CONTINUOUS
 62
     7
 10
137.4999999999999
 20
393.5
 30
0.0
 11
135.3999999999999
 21
393.5
 31
0.0
  0
ARC
  5
82
  8
0
  6
CONTINUOUS
 62
     7
 10
144.5999999999999
 20
416.3
 30
0.0
 40
0.2000000000000057
 50
0.0
 51
90.00000000000274
  0
LINE
  5
83
  8
0
  6
CONTINUOUS
 62
     7
 10
142.4999999999999
 20
416.5
 30
0.0
 11
144.5999999999999
 21
416.5
 31
0.0
  0
LINE
  5
84
  8
0
  6
CONTINUOUS
 62
     7
 10
144.8
 20
416.3
 30
0.0
 11
144.8
 21
413.6999999999999
 31
0.0
  0
ARC
  5
85
  8
0
  6
CONTINUOUS
 62
     7
 10
144.5999999999999
 20
413.7
 30
0.0
 40
0.2000000000000057
 50
270.0
 51
0.0
  0
LINE
  5
86
  8
0
  6
CONTINUOUS
 62
     7
 10
144.5999999999999
 20
413.5
 30
0.0
 11
142.4999999999999
 21
413.5
 31
0.0
  0
ARC
  5
87
  8
0
  6
CONTINUOUS
 62
     7
 10
135.3999999999999
 20
421.3
 30
0.0
 40
0.2000000000000057
 50
90.0
 51
180.0
  0
ARC
  5
88
  8
0
  6
CONTINUOUS
 62
     7
 10
135.3999999999999
 20
418.7
 30
0.0
 40
0.2000000000000057
 50
180.0
 51
270.0
  0
LINE
  5
89
  8
0
  6
CONTINUOUS
 62
     7
 10
135.3999999999999
 20
421.5
 30
0.0
 11
137.4999999999999
 21
421.5
 31
0.0
  0
LINE
  5
8A
  8
0
  6
CONTINUOUS
 62
     7
 10
137.4999999999999
 20
418.5
 30
0.0
 11
135.3999999999999
 21
418.5
 31
0.0
  0
LINE
  5
8B
  8
0
  6
CONTINUOUS
 62
     7
 10
135.2
 20
418.7
 30
0.0
 11
135.2
 21
421.3
 31
0.0
  0
LINE
  5
8C
  8
0
  6
CONTINUOUS
 62
     7
 10
144.5999999999999
 20
388.5
 30
0.0
 11
142.4999999999999
 21
388.5
 31
0.0
  0
ARC
  5
8D
  8
0
  6
CONTINUOUS
 62
     7
 10
144.5999999999999
 20
391.3
 30
0.0
 40
0.2000000000000057
 50
0.0
 51
90.00000000000274
  0
LINE
  5
8E
  8
0
  6
CONTINUOUS
 62
     7
 10
144.8
 20
391.3
 30
0.0
 11
144.8
 21
388.7
 31
0.0
  0
ARC
  5
8F
  8
0
  6
CONTINUOUS
 62
     7
 10
144.5999999999999
 20
388.7
 30
0.0
 40
0.2000000000000057
 50
270.0
 51
0.0
  0
LINE
  5
90
  8
0
  6
CONTINUOUS
 62
     7
 10
142.4999999999999
 20
391.5
 30
0.0
 11
144.5999999999999
 21
391.5
 31
0.0
  0
ENDBLK
  8
0
  0
BLOCK
  8
0
  2
D_FRAME_VIEW_1481
 70
     0
 10
0.0
 20
0.0
 30
0.0
  0
LINE
  5
9C
  8
0
  6
CONTINUOUS
 62
     7
 10
88.98284271247459
 20
396.5
 30
0.0
 11
89.19999999999999
 21
396.5
 31
0.0
  0
ARC
  5
9D
  8
0
  6
CONTINUOUS
 62
     7
 10
89.19999999999999
 20
396.3
 30
0.0
 40
0.1999999999999919
 50
0.0
 51
90.0
  0
LINE
  5
9E
  8
0
  6
CONTINUOUS
 62
     7
 10
89.19999999999999
 20
393.5
 30
0.0
 11
88.98284271247462
 21
393.5
 31
0.0
  0
LINE
  5
9F
  8
0
  6
CONTINUOUS
 62
     7
 10
89.39999999999998
 20
396.3
 30
0.0
 11
89.39999999999998
 21
393.6999999999999
 31
0.0
  0
ARC
  5
A0
  8
0
  6
CONTINUOUS
 62
     7
 10
89.19999999999999
 20
393.7
 30
0.0
 40
0.1999999999999919
 50
270.0
 51
0.0
  0
ARC
  5
A1
  8
0
  6
CONTINUOUS
 62
     7
 10
86.19999999999999
 20
421.3
 30
0.0
 40
0.1999999999999919
 50
0.0
 51
90.0
  0
LINE
  5
A2
  8
0
  6
CONTINUOUS
 62
     7
 10
85.98284271247459
 20
421.5
 30
0.0
 11
86.19999999999999
 21
421.5
 31
0.0
  0
LINE
  5
A3
  8
0
  6
CONTINUOUS
 62
     7
 10
86.39999999999998
 20
421.3
 30
0.0
 11
86.39999999999998
 21
418.7
 31
0.0
  0
LINE
  5
A4
  8
0
  6
CONTINUOUS
 62
     7
 10
86.19999999999999
 20
418.5
 30
0.0
 11
85.98284271247462
 21
418.5
 31
0.0
  0
ARC
  5
A5
  8
0
  6
CONTINUOUS
 62
     7
 10
86.19999999999999
 20
418.7
 30
0.0
 40
0.2000000000000057
 50
270.0
 51
0.0
  0
LINE
  5
A6
  8
0
  6
CONTINUOUS
 62
     7
 10
85.98284271247462
 20
418.5
 30
0.0
 11
83.8828427124746
 21
418.5
 31
0.0
  0
POLYLINE
  5
A7
  8
0
  6
CONTINUOUS
 62
     7
 66
     1
 10
0.0
 20
0.0
 30
0.0
  0
VERTEX
  5
127
  8
0
  6
CONTINUOUS
 62
     7
 10
83.59999999999998
 20
418.7
 30
0.0
  0
VERTEX
  5
128
  8
0
  6
CONTINUOUS
 62
     7
 10
83.60543474341017
 20
418.6609819355967
 30
0.0
  0
VERTEX
  5
129
  8
0
  6
CONTINUOUS
 62
     7
 10
83.62153011949933
 20
418.6234633135269
 30
0.0
  0
VERTEX
  5
12A
  8
0
  6
CONTINUOUS
 62
     7
 10
83.64766759199074
 20
418.5888859533961
 30
0.0
  0
VERTEX
  5
12B
  8
0
  6
CONTINUOUS
 62
     7
 10
83.68284271247461
 20
418.5585786437627
 30
0.0
  0
VERTEX
  5
12C
  8
0
  6
CONTINUOUS
 62
     7
 10
83.72570372079718
 20
418.5337060775395
 30
0.0
  0
VERTEX
  5
12D
  8
0
  6
CONTINUOUS
 62
     7
 10
83.77460349244537
 20
418.5152240934977
 30
0.0
  0
VERTEX
  5
12E
  8
0
  6
CONTINUOUS
 62
     7
 10
83.82766283661802
 20
418.5038429439193
 30
0.0
  0
VERTEX
  5
12F
  8
0
  6
CONTINUOUS
 62
     7
 10
83.8828427124746
 20
418.5
 30
0.0
  0
SEQEND
  5
43A
  8
0
  6
CONTINUOUS
 62
     7
  0
LINE
  5
A8
  8
0
  6
CONTINUOUS
 62
     7
 10
88.98284271247462
 20
393.5
 30
0.0
 11
86.88284271247461
 21
393.5
 31
0.0
  0
POLYLINE
  5
A9
  8
0
  6
CONTINUOUS
 62
     7
 66
     1
 10
0.0
 20
0.0
 30
0.0
  0
VERTEX
  5
130
  8
0
  6
CONTINUOUS
 62
     7
 10
86.6
 20
393.7
 30
0.0
  0
VERTEX
  5
131
  8
0
  6
CONTINUOUS
 62
     7
 10
86.60543474341019
 20
393.6609819355967
 30
0.0
  0
VERTEX
  5
132
  8
0
  6
CONTINUOUS
 62
     7
 10
86.62153011949934
 20
393.6234633135269
 30
0.0
  0
VERTEX
  5
133
  8
0
  6
CONTINUOUS
 62
     7
 10
86.64766759199075
 20
393.5888859533961
 30
0.0
  0
VERTEX
  5
134
  8
0
  6
CONTINUOUS
 62
     7
 10
86.68284271247462
 20
393.5585786437627
 30
0.0
  0
VERTEX
  5
135
  8
0
  6
CONTINUOUS
 62
     7
 10
86.7257037207972
 20
393.5337060775395
 30
0.0
  0
VERTEX
  5
136
  8
0
  6
CONTINUOUS
 62
     7
 10
86.77460349244538
 20
393.5152240934977
 30
0.0
  0
VERTEX
  5
137
  8
0
  6
CONTINUOUS
 62
     7
 10
86.82766283661803
 20
393.5038429439193
 30
0.0
  0
VERTEX
  5
138
  8
0
  6
CONTINUOUS
 62
     7
 10
86.88284271247461
 20
393.5
 30
0.0
  0
SEQEND
  5
43B
  8
0
  6
CONTINUOUS
 62
     7
  0
LINE
  5
AA
  8
0
  6
CONTINUOUS
 62
     7
 10
83.8828427124746
 20
421.5
 30
0.0
 11
85.98284271247459
 21
421.5
 31
0.0
  0
POLYLINE
  5
AB
  8
0
  6
CONTINUOUS
 62
     7
 66
     1
 10
0.0
 20
0.0
 30
0.0
  0
VERTEX
  5
139
  8
0
  6
CONTINUOUS
 62
     7
 10
83.88284271247458
 20
421.5
 30
0.0
  0
VERTEX
  5
13A
  8
0
  6
CONTINUOUS
 62
     7
 10
83.827662836618
 20
421.4961570560806
 30
0.0
  0
VERTEX
  5
13B
  8
0
  6
CONTINUOUS
 62
     7
 10
83.77460349244535
 20
421.4847759065023
 30
0.0
  0
VERTEX
  5
13C
  8
0
  6
CONTINUOUS
 62
     7
 10
83.72570372079717
 20
421.4662939224605
 30
0.0
  0
VERTEX
  5
13D
  8
0
  6
CONTINUOUS
 62
     7
 10
83.6828427124746
 20
421.4414213562373
 30
0.0
  0
VERTEX
  5
13E
  8
0
  6
CONTINUOUS
 62
     7
 10
83.64766759199073
 20
421.4111140466039
 30
0.0
  0
VERTEX
  5
13F
  8
0
  6
CONTINUOUS
 62
     7
 10
83.62153011949933
 20
421.376536686473
 30
0.0
  0
VERTEX
  5
140
  8
0
  6
CONTINUOUS
 62
     7
 10
83.60543474341017
 20
421.3390180644032
 30
0.0
  0
VERTEX
  5
141
  8
0
  6
CONTINUOUS
 62
     7
 10
83.59999999999998
 20
421.3
 30
0.0
  0
SEQEND
  5
43C
  8
0
  6
CONTINUOUS
 62
     7
  0
POLYLINE
  5
AC
  8
0
  6
CONTINUOUS
 62
     7
 66
     1
 10
0.0
 20
0.0
 30
0.0
  0
VERTEX
  5
142
  8
0
  6
CONTINUOUS
 62
     7
 10
86.8828427124746
 20
396.4999999999999
 30
0.0
  0
VERTEX
  5
143
  8
0
  6
CONTINUOUS
 62
     7
 10
86.82766283661802
 20
396.4961570560806
 30
0.0
  0
VERTEX
  5
144
  8
0
  6
CONTINUOUS
 62
     7
 10
86.77460349244537
 20
396.4847759065022
 30
0.0
  0
VERTEX
  5
145
  8
0
  6
CONTINUOUS
 62
     7
 10
86.72570372079718
 20
396.4662939224605
 30
0.0
  0
VERTEX
  5
146
  8
0
  6
CONTINUOUS
 62
     7
 10
86.68284271247461
 20
396.4414213562372
 30
0.0
  0
VERTEX
  5
147
  8
0
  6
CONTINUOUS
 62
     7
 10
86.64766759199074
 20
396.4111140466039
 30
0.0
  0
VERTEX
  5
148
  8
0
  6
CONTINUOUS
 62
     7
 10
86.62153011949934
 20
396.3765366864729
 30
0.0
  0
VERTEX
  5
149
  8
0
  6
CONTINUOUS
 62
     7
 10
86.60543474341019
 20
396.3390180644031
 30
0.0
  0
VERTEX
  5
14A
  8
0
  6
CONTINUOUS
 62
     7
 10
86.6
 20
396.3
 30
0.0
  0
SEQEND
  5
43D
  8
0
  6
CONTINUOUS
 62
     7
  0
LINE
  5
AD
  8
0
  6
CONTINUOUS
 62
     7
 10
86.88284271247461
 20
396.5
 30
0.0
 11
88.98284271247459
 21
396.5
 31
0.0
  0
LINE
  5
AE
  8
0
  6
CONTINUOUS
 62
     7
 10
86.59999999999998
 20
396.3
 30
0.0
 11
86.59999999999998
 21
393.6999999999999
 31
0.0
  0
LINE
  5
AF
  8
0
  6
CONTINUOUS
 62
     7
 10
83.59999999999998
 20
421.3
 30
0.0
 11
83.59999999999998
 21
418.7
 31
0.0
  0
CIRCLE
  5
B0
  8
0
  6
CONTINUOUS
 62
     7
 10
68.49999999999996
 20
375.0
 30
0.0
 40
2.250000000000002
  0
CIRCLE
  5
B1
  8
0
  6
CONTINUOUS
 62
     7
 10
68.49999999999996
 20
450.0
 30
0.0
 40
2.250000000000002
  0
POLYLINE
  5
B2
  8
0
  6
CONTINUOUS
 62
     7
 66
     1
 10
0.0
 20
0.0
 30
0.0
  0
VERTEX
  5
14B
  8
0
  6
CONTINUOUS
 62
     7
 10
88.1
 20
423.3694454838314
 30
0.0
  0
VERTEX
  5
14C
  8
0
  6
CONTINUOUS
 62
     7
 10
88.098821498212
 20
423.3213991955143
 30
0.0
  0
VERTEX
  5
14D
  8
0
  6
CONTINUOUS
 62
     7
 10
88.09530460185881
 20
423.2733282369294
 30
0.0
  0
VERTEX
  5
14E
  8
0
  6
CONTINUOUS
 62
     7
 10
88.08947722445674
 20
423.225397005298
 30
0.0
  0
VERTEX
  5
14F
  8
0
  6
CONTINUOUS
 62
     7
 10
88.08136727952206
 20
423.177769897842
 30
0.0
  0
VERTEX
  5
150
  8
0
  6
CONTINUOUS
 62
     7
 10
88.07100268057104
 20
423.1306113117831
 30
0.0
  0
VERTEX
  5
151
  8
0
  6
CONTINUOUS
 62
     7
 10
88.05841134111995
 20
423.0840856443428
 30
0.0
  0
VERTEX
  5
152
  8
0
  6
CONTINUOUS
 62
     7
 10
88.04362117468511
 20
423.0383572927429
 30
0.0
  0
VERTEX
  5
153
  8
0
  6
CONTINUOUS
 62
     7
 10
88.02660615242333
 20
422.9934088346746
 30
0.0
  0
VERTEX
  5
154
  8
0
  6
CONTINUOUS
 62
     7
 10
88.00737574778678
 20
422.9492112672311
 30
0.0
  0
VERTEX
  5
155
  8
0
  6
CONTINUOUS
 62
     7
 10
87.9860107583663
 20
422.9059105636626
 30
0.0
  0
VERTEX
  5
156
  8
0
  6
CONTINUOUS
 62
     7
 10
87.96259198175264
 20
422.8636526972192
 30
0.0
  0
VERTEX
  5
157
  8
0
  6
CONTINUOUS
 62
     7
 10
87.93720021553659
 20
422.8225836411509
 30
0.0
  0
VERTEX
  5
158
  8
0
  6
CONTINUOUS
 62
     7
 10
87.90991625730892
 20
422.7828493687078
 30
0.0
  0
VERTEX
  5
159
  8
0
  6
CONTINUOUS
 62
     7
 10
87.88082090466044
 20
422.74459585314
 30
0.0
  0
VERTEX
  5
15A
  8
0
  6
CONTINUOUS
 62
     7
 10
87.84989024292119
 20
422.7078225324944
 30
0.0
  0
VERTEX
  5
15B
  8
0
  6
CONTINUOUS
 62
     7
 10
87.81711796869405
 20
422.6724910333794
 30
0.0
  0
VERTEX
  5
15C
  8
0
  6
CONTINUOUS
 62
     7
 10
87.78262865622727
 20
422.6387123097381
 30
0.0
  0
VERTEX
  5
15D
  8
0
  6
CONTINUOUS
 62
     7
 10
87.74654687976914
 20
422.6065973155141
 30
0.0
  0
VERTEX
  5
15E
  8
0
  6
CONTINUOUS
 62
     7
 10
87.70899721356783
 20
422.5762570046505
 30
0.0
  0
VERTEX
  5
15F
  8
0
  6
CONTINUOUS
 62
     7
 10
87.67010423187159
 20
422.5478023310906
 30
0.0
  0
VERTEX
  5
160
  8
0
  6
CONTINUOUS
 62
     7
 10
87.62999250892868
 20
422.5213442487777
 30
0.0
  0
VERTEX
  5
161
  8
0
  6
CONTINUOUS
 62
     7
 10
87.58864094070024
 20
422.4968910039157
 30
0.0
  0
VERTEX
  5
162
  8
0
  6
CONTINUOUS
 62
     7
 10
87.54602940353973
 20
422.4744073806065
 30
0.0
  0
VERTEX
  5
163
  8
0
  6
CONTINUOUS
 62
     7
 10
87.50231212159014
 20
422.4539567503702
 30
0.0
  0
VERTEX
  5
164
  8
0
  6
CONTINUOUS
 62
     7
 10
87.45764331899431
 20
422.4356024847277
 30
0.0
  0
VERTEX
  5
165
  8
0
  6
CONTINUOUS
 62
     7
 10
87.41217721989517
 20
422.4194079551992
 30
0.0
  0
VERTEX
  5
166
  8
0
  6
CONTINUOUS
 62
     7
 10
87.36606804843564
 20
422.4054365333053
 30
0.0
  0
VERTEX
  5
167
  8
0
  6
CONTINUOUS
 62
     7
 10
87.31947002875859
 20
422.3937515905665
 30
0.0
  0
VERTEX
  5
168
  8
0
  6
CONTINUOUS
 62
     7
 10
87.27235965505544
 20
422.3843667129446
 30
0.0
  0
VERTEX
  5
169
  8
0
  6
CONTINUOUS
 62
     7
 10
87.22471251571899
 20
422.3772569979091
 30
0.0
  0
VERTEX
  5
16A
  8
0
  6
CONTINUOUS
 62
     7
 10
87.17669504358369
 20
422.3724311347571
 30
0.0
  0
VERTEX
  5
16B
  8
0
  6
CONTINUOUS
 62
     7
 10
87.12847367148393
 20
422.3698978127859
 30
0.0
  0
VERTEX
  5
16C
  8
0
  6
CONTINUOUS
 62
     7
 10
87.08021483225413
 20
422.3696657212928
 30
0.0
  0
VERTEX
  5
16D
  8
0
  6
CONTINUOUS
 62
     7
 10
87.03208495872867
 20
422.3717435495751
 30
0.0
  0
VERTEX
  5
16E
  8
0
  6
CONTINUOUS
 62
     7
 10
86.98425048374199
 20
422.3761399869301
 30
0.0
  0
VERTEX
  5
16F
  8
0
  6
CONTINUOUS
 62
     7
 10
86.93668534449533
 20
422.3828769580282
 30
0.0
  0
VERTEX
  5
170
  8
0
  6
CONTINUOUS
 62
     7
 10
86.88936672960031
 20
422.3919384370269
 30
0.0
  0
VERTEX
  5
171
  8
0
  6
CONTINUOUS
 62
     7
 10
86.84245452612394
 20
422.4032775205199
 30
0.0
  0
VERTEX
  5
172
  8
0
  6
CONTINUOUS
 62
     7
 10
86.7961086211332
 20
422.416847305101
 30
0.0
  0
VERTEX
  5
173
  8
0
  6
CONTINUOUS
 62
     7
 10
86.75048890169496
 20
422.4326008873641
 30
0.0
  0
VERTEX
  5
174
  8
0
  6
CONTINUOUS
 62
     7
 10
86.7057552548763
 20
422.4504913639031
 30
0.0
  0
VERTEX
  5
175
  8
0
  6
CONTINUOUS
 62
     7
 10
86.66206756774409
 20
422.4704718313117
 30
0.0
  0
VERTEX
  5
176
  8
0
  6
CONTINUOUS
 62
     7
 10
86.61764861400312
 20
422.493543635141
 30
0.0
  0
VERTEX
  5
177
  8
0
  6
CONTINUOUS
 62
     7
 10
86.574317468549
 20
422.5189103378252
 30
0.0
  0
VERTEX
  5
178
  8
0
  6
CONTINUOUS
 62
     7
 10
86.53222640184181
 20
422.5464609943977
 30
0.0
  0
VERTEX
  5
179
  8
0
  6
CONTINUOUS
 62
     7
 10
86.4915276843416
 20
422.5760846598922
 30
0.0
  0
VERTEX
  5
17A
  8
0
  6
CONTINUOUS
 62
     7
 10
86.45237358650844
 20
422.6076703893422
 30
0.0
  0
VERTEX
  5
17B
  8
0
  6
CONTINUOUS
 62
     7
 10
86.41491637880232
 20
422.6411072377812
 30
0.0
  0
VERTEX
  5
17C
  8
0
  6
CONTINUOUS
 62
     7
 10
86.3793083316833
 20
422.6762842602431
 30
0.0
  0
SEQEND
  5
43E
  8
0
  6
CONTINUOUS
 62
     7
  0
LINE
  5
B3
  8
0
  6
CONTINUOUS
 62
     7
 10
88.1
 20
461.0000380769358
 30
0.0
 11
88.1
 21
423.3694454838314
 31
0.0
  0
POLYLINE
  5
B4
  8
0
  6
CONTINUOUS
 62
     7
 66
     1
 10
0.0
 20
0.0
 30
0.0
  0
VERTEX
  5
17D
  8
0
  6
CONTINUOUS
 62
     7
 10
88.10000000000001
 20
461.0000380769359
 30
0.0
  0
VERTEX
  5
17E
  8
0
  6
CONTINUOUS
 62
     7
 10
88.08078640583908
 20
461.195125027438
 30
0.0
  0
VERTEX
  5
17F
  8
0
  6
CONTINUOUS
 62
     7
 10
88.0238839196443
 20
461.3827126940798
 30
0.0
  0
VERTEX
  5
180
  8
0
  6
CONTINUOUS
 62
     7
 10
87.93147906070956
 20
461.5555928847446
 30
0.0
  0
VERTEX
  5
181
  8
0
  6
CONTINUOUS
 62
     7
 10
87.80712255274516
 20
461.7071225527451
 30
0.0
  0
VERTEX
  5
182
  8
0
  6
CONTINUOUS
 62
     7
 10
87.65559288474455
 20
461.8314790607096
 30
0.0
  0
VERTEX
  5
183
  8
0
  6
CONTINUOUS
 62
     7
 10
87.48271269407971
 20
461.9238839196443
 30
0.0
  0
VERTEX
  5
184
  8
0
  6
CONTINUOUS
 62
     7
 10
87.29512502743795
 20
461.9807864058391
 30
0.0
  0
VERTEX
  5
185
  8
0
  6
CONTINUOUS
 62
     7
 10
87.10003807693583
 20
462.0
 30
0.0
  0
SEQEND
  5
43F
  8
0
  6
CONTINUOUS
 62
     7
  0
LINE
  5
B5
  8
0
  6
CONTINUOUS
 62
     7
 10
64.99996192306418
 20
462.0
 30
0.0
 11
87.10003807693583
 21
462.0
 31
0.0
  0
POLYLINE
  5
B6
  8
0
  6
CONTINUOUS
 62
     7
 66
     1
 10
0.0
 20
0.0
 30
0.0
  0
VERTEX
  5
186
  8
0
  6
CONTINUOUS
 62
     7
 10
64.99996192306419
 20
462.0
 30
0.0
  0
VERTEX
  5
187
  8
0
  6
CONTINUOUS
 62
     7
 10
64.80487497256208
 20
461.9807864058391
 30
0.0
  0
VERTEX
  5
188
  8
0
  6
CONTINUOUS
 62
     7
 10
64.61728730592031
 20
461.9238839196443
 30
0.0
  0
VERTEX
  5
189
  8
0
  6
CONTINUOUS
 62
     7
 10
64.44440711525547
 20
461.8314790607095
 30
0.0
  0
VERTEX
  5
18A
  8
0
  6
CONTINUOUS
 62
     7
 10
64.29287744725487
 20
461.7071225527451
 30
0.0
  0
VERTEX
  5
18B
  8
0
  6
CONTINUOUS
 62
     7
 10
64.16852093929046
 20
461.5555928847446
 30
0.0
  0
VERTEX
  5
18C
  8
0
  6
CONTINUOUS
 62
     7
 10
64.07611608035572
 20
461.3827126940797
 30
0.0
  0
VERTEX
  5
18D
  8
0
  6
CONTINUOUS
 62
     7
 10
64.01921359416095
 20
461.195125027438
 30
0.0
  0
VERTEX
  5
18E
  8
0
  6
CONTINUOUS
 62
     7
 10
64.0
 20
461.0000380769359
 30
0.0
  0
SEQEND
  5
440
  8
0
  6
CONTINUOUS
 62
     7
  0
LINE
  5
B7
  8
0
  6
CONTINUOUS
 62
     7
 10
64.0
 20
454.8733229462267
 30
0.0
 11
64.0
 21
461.0000380769359
 31
0.0
  0
POLYLINE
  5
B8
  8
0
  6
CONTINUOUS
 62
     7
 66
     1
 10
0.0
 20
0.0
 30
0.0
  0
VERTEX
  5
18F
  8
0
  6
CONTINUOUS
 62
     7
 10
65.58328309261306
 20
454.0611282277421
 30
0.0
  0
VERTEX
  5
190
  8
0
  6
CONTINUOUS
 62
     7
 10
65.5435762408086
 20
454.0340614688038
 30
0.0
  0
VERTEX
  5
191
  8
0
  6
CONTINUOUS
 62
     7
 10
65.50248538469012
 20
454.0088794748568
 30
0.0
  0
VERTEX
  5
192
  8
0
  6
CONTINUOUS
 62
     7
 10
65.46016033272063
 20
453.9856554469378
 30
0.0
  0
VERTEX
  5
193
  8
0
  6
CONTINUOUS
 62
     7
 10
65.41675089336316
 20
453.9644625860832
 30
0.0
  0
VERTEX
  5
194
  8
0
  6
CONTINUOUS
 62
     7
 10
65.37240687508069
 20
453.9453740933296
 30
0.0
  0
VERTEX
  5
195
  8
0
  6
CONTINUOUS
 62
     7
 10
65.3272780863362
 20
453.9284631697137
 30
0.0
  0
VERTEX
  5
196
  8
0
  6
CONTINUOUS
 62
     7
 10
65.28151433559269
 20
453.9138030162719
 30
0.0
  0
VERTEX
  5
197
  8
0
  6
CONTINUOUS
 62
     7
 10
65.23508642931043
 20
453.9014046091423
 30
0.0
  0
VERTEX
  5
198
  8
0
  6
CONTINUOUS
 62
     7
 10
65.18797623091669
 20
453.8912432614664
 30
0.0
  0
VERTEX
  5
199
  8
0
  6
CONTINUOUS
 62
     7
 10
65.14034939647158
 20
453.8833384632229
 30
0.0
  0
VERTEX
  5
19A
  8
0
  6
CONTINUOUS
 62
     7
 10
65.09237158203513
 20
453.8777097043908
 30
0.0
  0
VERTEX
  5
19B
  8
0
  6
CONTINUOUS
 62
     7
 10
65.0442084436674
 20
453.8743764749486
 30
0.0
  0
VERTEX
  5
19C
  8
0
  6
CONTINUOUS
 62
     7
 10
64.99602563742847
 20
453.8733582648754
 30
0.0
  0
VERTEX
  5
19D
  8
0
  6
CONTINUOUS
 62
     7
 10
64.9479888193784
 20
453.8746745641499
 30
0.0
  0
VERTEX
  5
19E
  8
0
  6
CONTINUOUS
 62
     7
 10
64.90008057515125
 20
453.8783447280705
 30
0.0
  0
VERTEX
  5
19F
  8
0
  6
CONTINUOUS
 62
     7
 10
64.85226908885257
 20
453.8843514522902
 30
0.0
  0
VERTEX
  5
1A0
  8
0
  6
CONTINUOUS
 62
     7
 10
64.80471710192796
 20
453.8926582660264
 30
0.0
  0
VERTEX
  5
1A1
  8
0
  6
CONTINUOUS
 62
     7
 10
64.75758735582295
 20
453.9032286984968
 30
0.0
  0
VERTEX
  5
1A2
  8
0
  6
CONTINUOUS
 62
     7
 10
64.71104259198309
 20
453.916026278919
 30
0.0
  0
VERTEX
  5
1A3
  8
0
  6
CONTINUOUS
 62
     7
 10
64.66524555185393
 20
453.9310145365106
 30
0.0
  0
VERTEX
  5
1A4
  8
0
  6
CONTINUOUS
 62
     7
 10
64.62035897688104
 20
453.9481570004892
 30
0.0
  0
VERTEX
  5
1A5
  8
0
  6
CONTINUOUS
 62
     7
 10
64.57637310571998
 20
453.9674775287844
 30
0.0
  0
VERTEX
  5
1A6
  8
0
  6
CONTINUOUS
 62
     7
 10
64.53325189623368
 20
453.9889703846842
 30
0.0
  0
VERTEX
  5
1A7
  8
0
  6
CONTINUOUS
 62
     7
 10
64.49113677101532
 20
454.012547278264
 30
0.0
  0
VERTEX
  5
1A8
  8
0
  6
CONTINUOUS
 62
     7
 10
64.45016915265806
 20
454.0381199195992
 30
0.0
  0
VERTEX
  5
1A9
  8
0
  6
CONTINUOUS
 62
     7
 10
64.41049046375508
 20
454.0656000187651
 30
0.0
  0
VERTEX
  5
1AA
  8
0
  6
CONTINUOUS
 62
     7
 10
64.37224212689951
 20
454.0948992858372
 30
0.0
  0
VERTEX
  5
1AB
  8
0
  6
CONTINUOUS
 62
     7
 10
64.33556556468453
 20
454.1259294308909
 30
0.0
  0
VERTEX
  5
1AC
  8
0
  6
CONTINUOUS
 62
     7
 10
64.3004559188625
 20
454.1587195976368
 30
0.0
  0
VERTEX
  5
1AD
  8
0
  6
CONTINUOUS
 62
     7
 10
64.26688109294601
 20
454.1932731871677
 30
0.0
  0
VERTEX
  5
1AE
  8
0
  6
CONTINUOUS
 62
     7
 10
64.23494525819007
 20
454.2294600897541
 30
0.0
  0
VERTEX
  5
1AF
  8
0
  6
CONTINUOUS
 62
     7
 10
64.20475258584966
 20
454.2671501956656
 30
0.0
  0
VERTEX
  5
1B0
  8
0
  6
CONTINUOUS
 62
     7
 10
64.17640724717978
 20
454.3062133951725
 30
0.0
  0
VERTEX
  5
1B1
  8
0
  6
CONTINUOUS
 62
     7
 10
64.1500134134354
 20
454.3465195785447
 30
0.0
  0
VERTEX
  5
1B2
  8
0
  6
CONTINUOUS
 62
     7
 10
64.12567525587153
 20
454.3879386360524
 30
0.0
  0
VERTEX
  5
1B3
  8
0
  6
CONTINUOUS
 62
     7
 10
64.10339531037891
 20
454.4305047086278
 30
0.0
  0
VERTEX
  5
1B4
  8
0
  6
CONTINUOUS
 62
     7
 10
64.08314736969575
 20
454.474226836133
 30
0.0
  0
VERTEX
  5
1B5
  8
0
  6
CONTINUOUS
 62
     7
 10
64.06498665388423
 20
454.518947771908
 30
0.0
  0
VERTEX
  5
1B6
  8
0
  6
CONTINUOUS
 62
     7
 10
64.04896838300654
 20
454.5645102692929
 30
0.0
  0
VERTEX
  5
1B7
  8
0
  6
CONTINUOUS
 62
     7
 10
64.03514777712483
 20
454.6107570816277
 30
0.0
  0
VERTEX
  5
1B8
  8
0
  6
CONTINUOUS
 62
     7
 10
64.0235800563013
 20
454.6575309622524
 30
0.0
  0
VERTEX
  5
1B9
  8
0
  6
CONTINUOUS
 62
     7
 10
64.01432044059811
 20
454.704674664507
 30
0.0
  0
VERTEX
  5
1BA
  8
0
  6
CONTINUOUS
 62
     7
 10
64.00806963464309
 20
454.7465528512294
 30
0.0
  0
VERTEX
  5
1BB
  8
0
  6
CONTINUOUS
 62
     7
 10
64.00359289842211
 20
454.7886958889471
 30
0.0
  0
VERTEX
  5
1BC
  8
0
  6
CONTINUOUS
 62
     7
 10
64.00089982313959
 20
454.8309903848747
 30
0.0
  0
VERTEX
  5
1BD
  8
0
  6
CONTINUOUS
 62
     7
 10
64.0
 20
454.8733229462267
 30
0.0
  0
SEQEND
  5
441
  8
0
  6
CONTINUOUS
 62
     7
  0
ARC
  5
B9
  8
0
  6
CONTINUOUS
 62
     7
 10
68.49999999999996
 20
450.0
 30
0.0
 40
4.999999999999985
 50
234.3139564773128
 51
125.6860435226871
  0
POLYLINE
  5
BA
  8
0
  6
CONTINUOUS
 62
     7
 66
     1
 10
0.0
 20
0.0
 30
0.0
  0
VERTEX
  5
1BE
  8
0
  6
CONTINUOUS
 62
     7
 10
64.0
 20
445.1266770537733
 30
0.0
  0
VERTEX
  5
1BF
  8
0
  6
CONTINUOUS
 62
     7
 10
64.00117841345791
 20
445.1747171916834
 30
0.0
  0
VERTEX
  5
1C0
  8
0
  6
CONTINUOUS
 62
     7
 10
64.00469503115058
 20
445.2227819882056
 30
0.0
  0
VERTEX
  5
1C1
  8
0
  6
CONTINUOUS
 62
     7
 10
64.01052191905642
 20
445.2707070637239
 30
0.0
  0
VERTEX
  5
1C2
  8
0
  6
CONTINUOUS
 62
     7
 10
64.01863114315381
 20
445.3183280386227
 30
0.0
  0
VERTEX
  5
1C3
  8
0
  6
CONTINUOUS
 62
     7
 10
64.0289947694212
 20
445.3654805332864
 30
0.0
  0
VERTEX
  5
1C4
  8
0
  6
CONTINUOUS
 62
     7
 10
64.04158486383697
 20
445.4120001680989
 30
0.0
  0
VERTEX
  5
1C5
  8
0
  6
CONTINUOUS
 62
     7
 10
64.05637349237954
 20
445.4577225634449
 30
0.0
  0
VERTEX
  5
1C6
  8
0
  6
CONTINUOUS
 62
     7
 10
64.07338659999367
 20
445.5026650281907
 30
0.0
  0
VERTEX
  5
1C7
  8
0
  6
CONTINUOUS
 62
     7
 10
64.0926147152316
 20
445.5468566942641
 30
0.0
  0
VERTEX
  5
1C8
  8
0
  6
CONTINUOUS
 62
     7
 10
64.11397703398731
 20
445.5901516422188
 30
0.0
  0
VERTEX
  5
1C9
  8
0
  6
CONTINUOUS
 62
     7
 10
64.13739275215481
 20
445.6324039526086
 30
0.0
  0
VERTEX
  5
1CA
  8
0
  6
CONTINUOUS
 62
     7
 10
64.16278106562804
 20
445.6734677059873
 30
0.0
  0
VERTEX
  5
1CB
  8
0
  6
CONTINUOUS
 62
     7
 10
64.19006117030104
 20
445.7131969829086
 30
0.0
  0
VERTEX
  5
1CC
  8
0
  6
CONTINUOUS
 62
     7
 10
64.21915226206771
 20
445.7514458639261
 30
0.0
  0
VERTEX
  5
1CD
  8
0
  6
CONTINUOUS
 62
     7
 10
64.25008022063881
 20
445.7882172029751
 30
0.0
  0
VERTEX
  5
1CE
  8
0
  6
CONTINUOUS
 62
     7
 10
64.28284955031968
 20
445.8235469357661
 30
0.0
  0
VERTEX
  5
1CF
  8
0
  6
CONTINUOUS
 62
     7
 10
64.31733569446133
 20
445.8573241545106
 30
0.0
  0
VERTEX
  5
1D0
  8
0
  6
CONTINUOUS
 62
     7
 10
64.35341409641475
 20
445.8894379514203
 30
0.0
  0
VERTEX
  5
1D1
  8
0
  6
CONTINUOUS
 62
     7
 10
64.39096019953091
 20
445.9197774187064
 30
0.0
  0
VERTEX
  5
1D2
  8
0
  6
CONTINUOUS
 62
     7
 10
64.4298494471608
 20
445.9482316485805
 30
0.0
  0
VERTEX
  5
1D3
  8
0
  6
CONTINUOUS
 62
     7
 10
64.46995728265541
 20
445.9746897332541
 30
0.0
  0
VERTEX
  5
1D4
  8
0
  6
CONTINUOUS
 62
     7
 10
64.51130877828456
 20
445.999145683789
 30
0.0
  0
VERTEX
  5
1D5
  8
0
  6
CONTINUOUS
 62
     7
 10
64.55392029946118
 20
446.0216321209842
 30
0.0
  0
VERTEX
  5
1D6
  8
0
  6
CONTINUOUS
 62
     7
 10
64.59763763690783
 20
446.0420856811207
 30
0.0
  0
VERTEX
  5
1D7
  8
0
  6
CONTINUOUS
 62
     7
 10
64.64230658134711
 20
446.0604430004801
 30
0.0
  0
VERTEX
  5
1D8
  8
0
  6
CONTINUOUS
 62
     7
 10
64.68777292350163
 20
446.0766407153437
 30
0.0
  0
VERTEX
  5
1D9
  8
0
  6
CONTINUOUS
 62
     7
 10
64.73388245409392
 20
446.090615461993
 30
0.0
  0
VERTEX
  5
1DA
  8
0
  6
CONTINUOUS
 62
     7
 10
64.7804809638466
 20
446.1023038767094
 30
0.0
  0
VERTEX
  5
1DB
  8
0
  6
CONTINUOUS
 62
     7
 10
64.82759495762195
 20
446.1116929046158
 30
0.0
  0
VERTEX
  5
1DC
  8
0
  6
CONTINUOUS
 62
     7
 10
64.87524592157298
 20
446.1188066314137
 30
0.0
  0
VERTEX
  5
1DD
  8
0
  6
CONTINUOUS
 62
     7
 10
64.92326740962656
 20
446.1236363451886
 30
0.0
  0
VERTEX
  5
1DE
  8
0
  6
CONTINUOUS
 62
     7
 10
64.97149297570952
 20
446.1261733340257
 30
0.0
  0
VERTEX
  5
1DF
  8
0
  6
CONTINUOUS
 62
     7
 10
65.01975617374869
 20
446.1264088860105
 30
0.0
  0
VERTEX
  5
1E0
  8
0
  6
CONTINUOUS
 62
     7
 10
65.06789055767094
 20
446.1243342892283
 30
0.0
  0
VERTEX
  5
1E1
  8
0
  6
CONTINUOUS
 62
     7
 10
65.1157296814031
 20
446.1199408317643
 30
0.0
  0
VERTEX
  5
1E2
  8
0
  6
CONTINUOUS
 62
     7
 10
65.16329979550318
 20
446.1132065380658
 30
0.0
  0
VERTEX
  5
1E3
  8
0
  6
CONTINUOUS
 62
     7
 10
65.2106235305013
 20
446.104147420984
 30
0.0
  0
VERTEX
  5
1E4
  8
0
  6
CONTINUOUS
 62
     7
 10
65.25754095437468
 20
446.0928103581701
 30
0.0
  0
VERTEX
  5
1E5
  8
0
  6
CONTINUOUS
 62
     7
 10
65.30389213510058
 20
446.0792422272754
 30
0.0
  0
VERTEX
  5
1E6
  8
0
  6
CONTINUOUS
 62
     7
 10
65.34951714065626
 20
446.0634899059508
 30
0.0
  0
VERTEX
  5
1E7
  8
0
  6
CONTINUOUS
 62
     7
 10
65.39425603901896
 20
446.0456002718475
 30
0.0
  0
VERTEX
  5
1E8
  8
0
  6
CONTINUOUS
 62
     7
 10
65.4379488981659
 20
446.0256202026168
 30
0.0
  0
VERTEX
  5
1E9
  8
0
  6
CONTINUOUS
 62
     7
 10
65.47560980187477
 20
446.0062679043354
 30
0.0
  0
VERTEX
  5
1EA
  8
0
  6
CONTINUOUS
 62
     7
 10
65.5124509325134
 20
445.9853201620408
 30
0.0
  0
VERTEX
  5
1EB
  8
0
  6
CONTINUOUS
 62
     7
 10
65.54837459459007
 20
445.9628353324444
 30
0.0
  0
VERTEX
  5
1EC
  8
0
  6
CONTINUOUS
 62
     7
 10
65.58328309261306
 20
445.938871772258
 30
0.0
  0
SEQEND
  5
442
  8
0
  6
CONTINUOUS
 62
     7
  0
LINE
  5
BB
  8
0
  6
CONTINUOUS
 62
     7
 10
64.0
 20
427.803465087555
 30
0.0
 11
64.0
 21
445.1266770537733
 31
0.0
  0
POLYLINE
  5
BC
  8
0
  6
CONTINUOUS
 62
     7
 66
     1
 10
0.0
 20
0.0
 30
0.0
  0
VERTEX
  5
1ED
  8
0
  6
CONTINUOUS
 62
     7
 10
65.13039361050406
 20
426.812046194004
 30
0.0
  0
VERTEX
  5
1EE
  8
0
  6
CONTINUOUS
 62
     7
 10
64.98623923535456
 20
426.8036930786474
 30
0.0
  0
VERTEX
  5
1EF
  8
0
  6
CONTINUOUS
 62
     7
 10
64.84211915898544
 20
426.8160606672416
 30
0.0
  0
VERTEX
  5
1F0
  8
0
  6
CONTINUOUS
 62
     7
 10
64.70177634589973
 20
426.8490613569437
 30
0.0
  0
VERTEX
  5
1F1
  8
0
  6
CONTINUOUS
 62
     7
 10
64.5671117471887
 20
426.9021068733944
 30
0.0
  0
VERTEX
  5
1F2
  8
0
  6
CONTINUOUS
 62
     7
 10
64.44196712582975
 20
426.9736838834402
 30
0.0
  0
VERTEX
  5
1F3
  8
0
  6
CONTINUOUS
 62
     7
 10
64.32813575159754
 20
427.0629244543383
 30
0.0
  0
VERTEX
  5
1F4
  8
0
  6
CONTINUOUS
 62
     7
 10
64.22841105433533
 20
427.1673425332407
 30
0.0
  0
VERTEX
  5
1F5
  8
0
  6
CONTINUOUS
 62
     7
 10
64.14492514842654
 20
427.2851429356666
 30
0.0
  0
VERTEX
  5
1F6
  8
0
  6
CONTINUOUS
 62
     7
 10
64.07902641421579
 20
427.4138965561496
 30
0.0
  0
SEQEND
  5
443
  8
0
  6
CONTINUOUS
 62
     7
  0
ARC
  5
BD
  8
0
  6
CONTINUOUS
 62
     7
 10
65.00555459497077
 20
427.8046483621242
 30
0.0
 40
1.005555291172767
 50
180.0674221050412
 51
202.8669836748645
  0
ARC
  5
BE
  8
0
  6
CONTINUOUS
 62
     7
 10
67.99999999999996
 20
405.0
 30
0.0
 40
22.0
 50
57.49181555280373
 51
97.49482560460238
  0
POLYLINE
  5
BF
  8
0
  6
CONTINUOUS
 62
     7
 66
     1
 10
0.0
 20
0.0
 30
0.0
  0
VERTEX
  5
1F7
  8
0
  6
CONTINUOUS
 62
     7
 10
81.17976217453004
 20
423.8226510788903
 30
0.0
  0
VERTEX
  5
1F8
  8
0
  6
CONTINUOUS
 62
     7
 10
81.1512460350393
 20
423.7839801970148
 30
0.0
  0
VERTEX
  5
1F9
  8
0
  6
CONTINUOUS
 62
     7
 10
81.12080054378535
 20
423.7466301798418
 30
0.0
  0
VERTEX
  5
1FA
  8
0
  6
CONTINUOUS
 62
     7
 10
81.08854288487161
 20
423.7107196227863
 30
0.0
  0
VERTEX
  5
1FB
  8
0
  6
CONTINUOUS
 62
     7
 10
81.0545902424015
 20
423.6763671212633
 30
0.0
  0
VERTEX
  5
1FC
  8
0
  6
CONTINUOUS
 62
     7
 10
81.01905980047844
 20
423.643691270688
 30
0.0
  0
VERTEX
  5
1FD
  8
0
  6
CONTINUOUS
 62
     7
 10
80.98206874320583
 20
423.6128106664755
 30
0.0
  0
VERTEX
  5
1FE
  8
0
  6
CONTINUOUS
 62
     7
 10
80.9437342546871
 20
423.5838439040409
 30
0.0
  0
VERTEX
  5
1FF
  8
0
  6
CONTINUOUS
 62
     7
 10
80.90402535038653
 20
423.5567917512776
 30
0.0
  0
VERTEX
  5
200
  8
0
  6
CONTINUOUS
 62
     7
 10
80.86293296385145
 20
423.5316247571701
 30
0.0
  0
VERTEX
  5
201
  8
0
  6
CONTINUOUS
 62
     7
 10
80.82060695098335
 20
423.5084160413879
 30
0.0
  0
VERTEX
  5
202
  8
0
  6
CONTINUOUS
 62
     7
 10
80.7771971676836
 20
423.4872387236005
 30
0.0
  0
VERTEX
  5
203
  8
0
  6
CONTINUOUS
 62
     7
 10
80.73285346985355
 20
423.4681659234773
 30
0.0
  0
VERTEX
  5
204
  8
0
  6
CONTINUOUS
 62
     7
 10
80.68772571339464
 20
423.4512707606881
 30
0.0
  0
VERTEX
  5
205
  8
0
  6
CONTINUOUS
 62
     7
 10
80.64196375420822
 20
423.4366263549022
 30
0.0
  0
VERTEX
  5
206
  8
0
  6
CONTINUOUS
 62
     7
 10
80.59554051745216
 20
423.4242441309791
 30
0.0
  0
VERTEX
  5
207
  8
0
  6
CONTINUOUS
 62
     7
 10
80.54843585576162
 20
423.4140986386487
 30
0.0
  0
VERTEX
  5
208
  8
0
  6
CONTINUOUS
 62
     7
 10
80.50081536735364
 20
423.4062092537026
 30
0.0
  0
VERTEX
  5
209
  8
0
  6
CONTINUOUS
 62
     7
 10
80.4528446504452
 20
423.4005953519322
 30
0.0
  0
VERTEX
  5
20A
  8
0
  6
CONTINUOUS
 62
     7
 10
80.40468930325335
 20
423.3972763091292
 30
0.0
  0
VERTEX
  5
20B
  8
0
  6
CONTINUOUS
 62
     7
 10
80.3565149239951
 20
423.3962715010849
 30
0.0
  0
VERTEX
  5
20C
  8
0
  6
CONTINUOUS
 62
     7
 10
80.30848711088748
 20
423.3976003035909
 30
0.0
  0
VERTEX
  5
20D
  8
0
  6
CONTINUOUS
 62
     7
 10
80.26058291747522
 20
423.4012825575134
 30
0.0
  0
VERTEX
  5
20E
  8
0
  6
CONTINUOUS
 62
     7
 10
80.21277609540977
 20
423.40730089689
 30
0.0
  0
VERTEX
  5
20F
  8
0
  6
CONTINUOUS
 62
     7
 10
80.16522930051826
 20
423.4156187822532
 30
0.0
  0
VERTEX
  5
210
  8
0
  6
CONTINUOUS
 62
     7
 10
80.11810518862787
 20
423.4261996741348
 30
0.0
  0
VERTEX
  5
211
  8
0
  6
CONTINUOUS
 62
     7
 10
80.07156641556563
 20
423.4390070330668
 30
0.0
  0
VERTEX
  5
212
  8
0
  6
CONTINUOUS
 62
     7
 10
80.02577563715869
 20
423.4540043195815
 30
0.0
  0
VERTEX
  5
213
  8
0
  6
CONTINUOUS
 62
     7
 10
79.98089550923416
 20
423.471154994211
 30
0.0
  0
VERTEX
  5
214
  8
0
  6
CONTINUOUS
 62
     7
 10
79.94017904144707
 20
423.488941869002
 30
0.0
  0
VERTEX
  5
215
  8
0
  6
CONTINUOUS
 62
     7
 10
79.90025341008595
 20
423.5085392318968
 30
0.0
  0
VERTEX
  5
216
  8
0
  6
CONTINUOUS
 62
     7
 10
79.86123537768296
 20
423.5298865023203
 30
0.0
  0
VERTEX
  5
217
  8
0
  6
CONTINUOUS
 62
     7
 10
79.82324170677022
 20
423.5529230996975
 30
0.0
  0
SEQEND
  5
444
  8
0
  6
CONTINUOUS
 62
     7
  0
LINE
  5
C0
  8
0
  6
CONTINUOUS
 62
     7
 10
82.04093492006116
 20
425.0525332188812
 30
0.0
 11
81.17976217453004
 21
423.8226510788903
 31
0.0
  0
POLYLINE
  5
C1
  8
0
  6
CONTINUOUS
 62
     7
 66
     1
 10
0.0
 20
0.0
 30
0.0
  0
VERTEX
  5
218
  8
0
  6
CONTINUOUS
 62
     7
 10
83.4665646247406
 20
425.2740074654401
 30
0.0
  0
VERTEX
  5
219
  8
0
  6
CONTINUOUS
 62
     7
 10
83.42766017993837
 20
425.3022046650806
 30
0.0
  0
VERTEX
  5
21A
  8
0
  6
CONTINUOUS
 62
     7
 10
83.38731803911953
 20
425.3285579215499
 30
0.0
  0
VERTEX
  5
21B
  8
0
  6
CONTINUOUS
 62
     7
 10
83.34568584207263
 20
425.3529897778786
 30
0.0
  0
VERTEX
  5
21C
  8
0
  6
CONTINUOUS
 62
     7
 10
83.30291122858605
 20
425.3754227770977
 30
0.0
  0
VERTEX
  5
21D
  8
0
  6
CONTINUOUS
 62
     7
 10
83.25914183844833
 20
425.3957794622382
 30
0.0
  0
VERTEX
  5
21E
  8
0
  6
CONTINUOUS
 62
     7
 10
83.21452531144786
 20
425.413982376331
 30
0.0
  0
VERTEX
  5
21F
  8
0
  6
CONTINUOUS
 62
     7
 10
83.16920928737318
 20
425.4299540624069
 30
0.0
  0
VERTEX
  5
220
  8
0
  6
CONTINUOUS
 62
     7
 10
83.12316446023992
 20
425.4436843887539
 30
0.0
  0
VERTEX
  5
221
  8
0
  6
CONTINUOUS
 62
     7
 10
83.07637326753412
 20
425.4551986596973
 30
0.0
  0
VERTEX
  5
222
  8
0
  6
CONTINUOUS
 62
     7
 10
83.0290006884251
 20
425.4644726619968
 30
0.0
  0
VERTEX
  5
223
  8
0
  6
CONTINUOUS
 62
     7
 10
82.98121170208208
 20
425.471482182412
 30
0.0
  0
VERTEX
  5
224
  8
0
  6
CONTINUOUS
 62
     7
 10
82.93317128767431
 20
425.4762030077025
 30
0.0
  0
VERTEX
  5
225
  8
0
  6
CONTINUOUS
 62
     7
 10
82.88504442437107
 20
425.4786109246278
 30
0.0
  0
VERTEX
  5
226
  8
0
  6
CONTINUOUS
 62
     7
 10
82.8369960913416
 20
425.4786817199476
 30
0.0
  0
VERTEX
  5
227
  8
0
  6
CONTINUOUS
 62
     7
 10
82.78900426404546
 20
425.476396311683
 30
0.0
  0
VERTEX
  5
228
  8
0
  6
CONTINUOUS
 62
     7
 10
82.74104171447198
 20
425.471772844103
 30
0.0
  0
VERTEX
  5
229
  8
0
  6
CONTINUOUS
 62
     7
 10
82.6932721171821
 20
425.4648430932453
 30
0.0
  0
VERTEX
  5
22A
  8
0
  6
CONTINUOUS
 62
     7
 10
82.64585914673678
 20
425.4556388351476
 30
0.0
  0
VERTEX
  5
22B
  8
0
  6
CONTINUOUS
 62
     7
 10
82.5989664776969
 20
425.4441918458476
 30
0.0
  0
VERTEX
  5
22C
  8
0
  6
CONTINUOUS
 62
     7
 10
82.55275778462341
 20
425.4305339013828
 30
0.0
  0
VERTEX
  5
22D
  8
0
  6
CONTINUOUS
 62
     7
 10
82.50739674207725
 20
425.4146967777909
 30
0.0
  0
VERTEX
  5
22E
  8
0
  6
CONTINUOUS
 62
     7
 10
82.46286784070898
 20
425.3966547514978
 30
0.0
  0
VERTEX
  5
22F
  8
0
  6
CONTINUOUS
 62
     7
 10
82.41914045315502
 20
425.3764162945065
 30
0.0
  0
VERTEX
  5
230
  8
0
  6
CONTINUOUS
 62
     7
 10
82.37635848315091
 20
425.3540655715562
 30
0.0
  0
VERTEX
  5
231
  8
0
  6
CONTINUOUS
 62
     7
 10
82.33466583443204
 20
425.329686747386
 30
0.0
  0
VERTEX
  5
232
  8
0
  6
CONTINUOUS
 62
     7
 10
82.29420641073393
 20
425.303363986735
 30
0.0
  0
VERTEX
  5
233
  8
0
  6
CONTINUOUS
 62
     7
 10
82.25512411579204
 20
425.2751814543421
 30
0.0
  0
VERTEX
  5
234
  8
0
  6
CONTINUOUS
 62
     7
 10
82.21756285334185
 20
425.2452233149467
 30
0.0
  0
VERTEX
  5
235
  8
0
  6
CONTINUOUS
 62
     7
 10
82.18476739032322
 20
425.216467531843
 30
0.0
  0
VERTEX
  5
236
  8
0
  6
CONTINUOUS
 62
     7
 10
82.15320271267878
 20
425.1862456100942
 30
0.0
  0
VERTEX
  5
237
  8
0
  6
CONTINUOUS
 62
     7
 10
82.12295297361942
 20
425.1546493838119
 30
0.0
  0
VERTEX
  5
238
  8
0
  6
CONTINUOUS
 62
     7
 10
82.09410232635607
 20
425.1217706871078
 30
0.0
  0
VERTEX
  5
239
  8
0
  6
CONTINUOUS
 62
     7
 10
82.06673492409969
 20
425.0877013540937
 30
0.0
  0
VERTEX
  5
23A
  8
0
  6
CONTINUOUS
 62
     7
 10
82.04093492006116
 20
425.0525332188812
 30
0.0
  0
SEQEND
  5
445
  8
0
  6
CONTINUOUS
 62
     7
  0
ARC
  5
C2
  8
0
  6
CONTINUOUS
 62
     7
 10
67.99999999999996
 20
405.0
 30
0.0
 40
25.5
 50
43.88296916511303
 51
52.66083968439038
  0
POLYLINE
  5
C3
  8
0
  6
CONTINUOUS
 62
     7
 66
     1
 10
0.0
 20
0.0
 30
0.0
  0
VERTEX
  5
23B
  8
0
  6
CONTINUOUS
 62
     7
 10
79.82324170677026
 20
386.4470769003025
 30
0.0
  0
VERTEX
  5
23C
  8
0
  6
CONTINUOUS
 62
     7
 10
79.86438234512751
 20
386.4718973594434
 30
0.0
  0
VERTEX
  5
23D
  8
0
  6
CONTINUOUS
 62
     7
 10
79.90680027882311
 20
386.494759350202
 30
0.0
  0
VERTEX
  5
23E
  8
0
  6
CONTINUOUS
 62
     7
 10
79.950341868609
 20
386.515598127169
 30
0.0
  0
VERTEX
  5
23F
  8
0
  6
CONTINUOUS
 62
     7
 10
79.99485347523705
 20
386.5343489449351
 30
0.0
  0
VERTEX
  5
240
  8
0
  6
CONTINUOUS
 62
     7
 10
80.04018145945913
 20
386.5509470580913
 30
0.0
  0
VERTEX
  5
241
  8
0
  6
CONTINUOUS
 62
     7
 10
80.08617218202717
 20
386.5653277212285
 30
0.0
  0
VERTEX
  5
242
  8
0
  6
CONTINUOUS
 62
     7
 10
80.13267200369305
 20
386.5774261889374
 30
0.0
  0
VERTEX
  5
243
  8
0
  6
CONTINUOUS
 62
     7
 10
80.17970925837012
 20
386.5872298985557
 30
0.0
  0
VERTEX
  5
244
  8
0
  6
CONTINUOUS
 62
     7
 10
80.2273035893925
 20
386.5947625924988
 30
0.0
  0
VERTEX
  5
245
  8
0
  6
CONTINUOUS
 62
     7
 10
80.27528856773357
 20
386.6000140405975
 30
0.0
  0
VERTEX
  5
246
  8
0
  6
CONTINUOUS
 62
     7
 10
80.32349776436672
 20
386.6029740126828
 30
0.0
  0
VERTEX
  5
247
  8
0
  6
CONTINUOUS
 62
     7
 10
80.37176475026531
 20
386.6036322785856
 30
0.0
  0
VERTEX
  5
248
  8
0
  6
CONTINUOUS
 62
     7
 10
80.41992309640277
 20
386.6019786081367
 30
0.0
  0
VERTEX
  5
249
  8
0
  6
CONTINUOUS
 62
     7
 10
80.46780637375245
 20
386.598002771167
 30
0.0
  0
VERTEX
  5
24A
  8
0
  6
CONTINUOUS
 62
     7
 10
80.51543522708593
 20
386.5916838543386
 30
0.0
  0
VERTEX
  5
24B
  8
0
  6
CONTINUOUS
 62
     7
 10
80.5628380072844
 20
386.5830376646224
 30
0.0
  0
VERTEX
  5
24C
  8
0
  6
CONTINUOUS
 62
     7
 10
80.60985430025654
 20
386.5721096499011
 30
0.0
  0
VERTEX
  5
24D
  8
0
  6
CONTINUOUS
 62
     7
 10
80.65632369191104
 20
386.5589452580577
 30
0.0
  0
VERTEX
  5
24E
  8
0
  6
CONTINUOUS
 62
     7
 10
80.70208576815655
 20
386.5435899369753
 30
0.0
  0
VERTEX
  5
24F
  8
0
  6
CONTINUOUS
 62
     7
 10
80.74698011490175
 20
386.5260891345365
 30
0.0
  0
VERTEX
  5
250
  8
0
  6
CONTINUOUS
 62
     7
 10
80.79084631805529
 20
386.5064882986244
 30
0.0
  0
VERTEX
  5
251
  8
0
  6
CONTINUOUS
 62
     7
 10
80.83369798848516
 20
386.4847603193819
 30
0.0
  0
VERTEX
  5
252
  8
0
  6
CONTINUOUS
 62
     7
 10
80.8755660213061
 20
386.4609112004733
 30
0.0
  0
VERTEX
  5
253
  8
0
  6
CONTINUOUS
 62
     7
 10
80.91631411146531
 20
386.4350369261857
 30
0.0
  0
VERTEX
  5
254
  8
0
  6
CONTINUOUS
 62
     7
 10
80.95580595390993
 20
386.4072334808064
 30
0.0
  0
VERTEX
  5
255
  8
0
  6
CONTINUOUS
 62
     7
 10
80.99390524358708
 20
386.3775968486224
 30
0.0
  0
VERTEX
  5
256
  8
0
  6
CONTINUOUS
 62
     7
 10
81.03047567544395
 20
386.3462230139209
 30
0.0
  0
VERTEX
  5
257
  8
0
  6
CONTINUOUS
 62
     7
 10
81.0653809444277
 20
386.313207960989
 30
0.0
  0
VERTEX
  5
258
  8
0
  6
CONTINUOUS
 62
     7
 10
81.0961958861698
 20
386.2811979152224
 30
0.0
  0
VERTEX
  5
259
  8
0
  6
CONTINUOUS
 62
     7
 10
81.12558754223974
 20
386.2478176332263
 30
0.0
  0
VERTEX
  5
25A
  8
0
  6
CONTINUOUS
 62
     7
 10
81.15347120692924
 20
386.2131677551417
 30
0.0
  0
VERTEX
  5
25B
  8
0
  6
CONTINUOUS
 62
     7
 10
81.17976217453008
 20
386.1773489211097
 30
0.0
  0
SEQEND
  5
446
  8
0
  6
CONTINUOUS
 62
     7
  0
ARC
  5
C4
  8
0
  6
CONTINUOUS
 62
     7
 10
67.99999999999996
 20
404.9999999999999
 30
0.0
 40
21.99999999999999
 50
262.5051743953976
 51
302.5081844471964
  0
POLYLINE
  5
C5
  8
0
  6
CONTINUOUS
 62
     7
 66
     1
 10
0.0
 20
0.0
 30
0.0
  0
VERTEX
  5
25C
  8
0
  6
CONTINUOUS
 62
     7
 10
64.0
 20
382.196534912445
 30
0.0
  0
VERTEX
  5
25D
  8
0
  6
CONTINUOUS
 62
     7
 10
64.01052126263889
 20
382.3405472780382
 30
0.0
  0
VERTEX
  5
25E
  8
0
  6
CONTINUOUS
 62
     7
 10
64.04158173108779
 20
382.4818228985836
 30
0.0
  0
VERTEX
  5
25F
  8
0
  6
CONTINUOUS
 62
     7
 10
64.09260633115399
 20
382.6166622136728
 30
0.0
  0
VERTEX
  5
260
  8
0
  6
CONTINUOUS
 62
     7
 10
64.16276386061314
 20
382.7432572452557
 30
0.0
  0
VERTEX
  5
261
  8
0
  6
CONTINUOUS
 62
     7
 10
64.25005280855332
 20
382.8579964460221
 30
0.0
  0
VERTEX
  5
262
  8
0
  6
CONTINUOUS
 62
     7
 10
64.35337874919297
 20
382.9592150769838
 30
0.0
  0
VERTEX
  5
263
  8
0
  6
CONTINUOUS
 62
     7
 10
64.46991250326258
 20
383.0444678459539
 30
0.0
  0
VERTEX
  5
264
  8
0
  6
CONTINUOUS
 62
     7
 10
64.59759611728695
 20
383.1118750118004
 30
0.0
  0
VERTEX
  5
265
  8
0
  6
CONTINUOUS
 62
     7
 10
64.73384536031016
 20
383.1604165582773
 30
0.0
  0
SEQEND
  5
447
  8
0
  6
CONTINUOUS
 62
     7
  0
ARC
  5
C6
  8
0
  6
CONTINUOUS
 62
     7
 10
65.00040559906047
 20
382.1908356782771
 30
0.0
 40
1.005555291241941
 50
82.5725964993672
 51
105.3721580631102
  0
LINE
  5
C7
  8
0
  6
CONTINUOUS
 62
     7
 10
64.0
 20
382.196534912445
 30
0.0
 11
64.0
 21
379.8733229462267
 31
0.0
  0
POLYLINE
  5
C8
  8
0
  6
CONTINUOUS
 62
     7
 66
     1
 10
0.0
 20
0.0
 30
0.0
  0
VERTEX
  5
266
  8
0
  6
CONTINUOUS
 62
     7
 10
65.58328309261304
 20
379.0611282277421
 30
0.0
  0
VERTEX
  5
267
  8
0
  6
CONTINUOUS
 62
     7
 10
65.54357624080859
 20
379.0340614688038
 30
0.0
  0
VERTEX
  5
268
  8
0
  6
CONTINUOUS
 62
     7
 10
65.5024853846901
 20
379.0088794748568
 30
0.0
  0
VERTEX
  5
269
  8
0
  6
CONTINUOUS
 62
     7
 10
65.46016033272063
 20
378.9856554469378
 30
0.0
  0
VERTEX
  5
26A
  8
0
  6
CONTINUOUS
 62
     7
 10
65.41675089336316
 20
378.9644625860832
 30
0.0
  0
VERTEX
  5
26B
  8
0
  6
CONTINUOUS
 62
     7
 10
65.37240687508067
 20
378.9453740933296
 30
0.0
  0
VERTEX
  5
26C
  8
0
  6
CONTINUOUS
 62
     7
 10
65.32727808633618
 20
378.9284631697137
 30
0.0
  0
VERTEX
  5
26D
  8
0
  6
CONTINUOUS
 62
     7
 10
65.28151433559269
 20
378.9138030162719
 30
0.0
  0
VERTEX
  5
26E
  8
0
  6
CONTINUOUS
 62
     7
 10
65.23508642931043
 20
378.9014046091423
 30
0.0
  0
VERTEX
  5
26F
  8
0
  6
CONTINUOUS
 62
     7
 10
65.18797623091669
 20
378.8912432614664
 30
0.0
  0
VERTEX
  5
270
  8
0
  6
CONTINUOUS
 62
     7
 10
65.14034939647158
 20
378.883338463223
 30
0.0
  0
VERTEX
  5
271
  8
0
  6
CONTINUOUS
 62
     7
 10
65.09237158203513
 20
378.8777097043908
 30
0.0
  0
VERTEX
  5
272
  8
0
  6
CONTINUOUS
 62
     7
 10
65.0442084436674
 20
378.8743764749486
 30
0.0
  0
VERTEX
  5
273
  8
0
  6
CONTINUOUS
 62
     7
 10
64.99602563742847
 20
378.8733582648754
 30
0.0
  0
VERTEX
  5
274
  8
0
  6
CONTINUOUS
 62
     7
 10
64.9479888193784
 20
378.8746745641499
 30
0.0
  0
VERTEX
  5
275
  8
0
  6
CONTINUOUS
 62
     7
 10
64.90008057515125
 20
378.8783447280705
 30
0.0
  0
VERTEX
  5
276
  8
0
  6
CONTINUOUS
 62
     7
 10
64.85226908885257
 20
378.8843514522902
 30
0.0
  0
VERTEX
  5
277
  8
0
  6
CONTINUOUS
 62
     7
 10
64.80471710192795
 20
378.8926582660264
 30
0.0
  0
VERTEX
  5
278
  8
0
  6
CONTINUOUS
 62
     7
 10
64.75758735582295
 20
378.9032286984968
 30
0.0
  0
VERTEX
  5
279
  8
0
  6
CONTINUOUS
 62
     7
 10
64.71104259198309
 20
378.916026278919
 30
0.0
  0
VERTEX
  5
27A
  8
0
  6
CONTINUOUS
 62
     7
 10
64.66524555185391
 20
378.9310145365106
 30
0.0
  0
VERTEX
  5
27B
  8
0
  6
CONTINUOUS
 62
     7
 10
64.62035897688102
 20
378.9481570004892
 30
0.0
  0
VERTEX
  5
27C
  8
0
  6
CONTINUOUS
 62
     7
 10
64.57637310571997
 20
378.9674775287844
 30
0.0
  0
VERTEX
  5
27D
  8
0
  6
CONTINUOUS
 62
     7
 10
64.53325189623366
 20
378.9889703846842
 30
0.0
  0
VERTEX
  5
27E
  8
0
  6
CONTINUOUS
 62
     7
 10
64.4911367710153
 20
379.012547278264
 30
0.0
  0
VERTEX
  5
27F
  8
0
  6
CONTINUOUS
 62
     7
 10
64.45016915265805
 20
379.0381199195991
 30
0.0
  0
VERTEX
  5
280
  8
0
  6
CONTINUOUS
 62
     7
 10
64.41049046375507
 20
379.0656000187651
 30
0.0
  0
VERTEX
  5
281
  8
0
  6
CONTINUOUS
 62
     7
 10
64.3722421268995
 20
379.0948992858372
 30
0.0
  0
VERTEX
  5
282
  8
0
  6
CONTINUOUS
 62
     7
 10
64.33556556468452
 20
379.1259294308908
 30
0.0
  0
VERTEX
  5
283
  8
0
  6
CONTINUOUS
 62
     7
 10
64.30045591886248
 20
379.1587195976367
 30
0.0
  0
VERTEX
  5
284
  8
0
  6
CONTINUOUS
 62
     7
 10
64.266881092946
 20
379.1932731871677
 30
0.0
  0
VERTEX
  5
285
  8
0
  6
CONTINUOUS
 62
     7
 10
64.23494525819005
 20
379.229460089754
 30
0.0
  0
VERTEX
  5
286
  8
0
  6
CONTINUOUS
 62
     7
 10
64.20475258584965
 20
379.2671501956656
 30
0.0
  0
VERTEX
  5
287
  8
0
  6
CONTINUOUS
 62
     7
 10
64.17640724717975
 20
379.3062133951724
 30
0.0
  0
VERTEX
  5
288
  8
0
  6
CONTINUOUS
 62
     7
 10
64.15001341343539
 20
379.3465195785447
 30
0.0
  0
VERTEX
  5
289
  8
0
  6
CONTINUOUS
 62
     7
 10
64.12567525587151
 20
379.3879386360524
 30
0.0
  0
VERTEX
  5
28A
  8
0
  6
CONTINUOUS
 62
     7
 10
64.1033953103789
 20
379.4305047086277
 30
0.0
  0
VERTEX
  5
28B
  8
0
  6
CONTINUOUS
 62
     7
 10
64.08314736969574
 20
379.474226836133
 30
0.0
  0
VERTEX
  5
28C
  8
0
  6
CONTINUOUS
 62
     7
 10
64.06498665388423
 20
379.518947771908
 30
0.0
  0
VERTEX
  5
28D
  8
0
  6
CONTINUOUS
 62
     7
 10
64.04896838300652
 20
379.5645102692929
 30
0.0
  0
VERTEX
  5
28E
  8
0
  6
CONTINUOUS
 62
     7
 10
64.03514777712482
 20
379.6107570816276
 30
0.0
  0
VERTEX
  5
28F
  8
0
  6
CONTINUOUS
 62
     7
 10
64.0235800563013
 20
379.6575309622524
 30
0.0
  0
VERTEX
  5
290
  8
0
  6
CONTINUOUS
 62
     7
 10
64.0143204405981
 20
379.7046746645071
 30
0.0
  0
VERTEX
  5
291
  8
0
  6
CONTINUOUS
 62
     7
 10
64.00806963464309
 20
379.7465528512294
 30
0.0
  0
VERTEX
  5
292
  8
0
  6
CONTINUOUS
 62
     7
 10
64.0035928984221
 20
379.7886958889471
 30
0.0
  0
VERTEX
  5
293
  8
0
  6
CONTINUOUS
 62
     7
 10
64.00089982313959
 20
379.8309903848747
 30
0.0
  0
VERTEX
  5
294
  8
0
  6
CONTINUOUS
 62
     7
 10
64.0
 20
379.8733229462267
 30
0.0
  0
SEQEND
  5
448
  8
0
  6
CONTINUOUS
 62
     7
  0
ARC
  5
C9
  8
0
  6
CONTINUOUS
 62
     7
 10
68.49999999999996
 20
375.0
 30
0.0
 40
5.000000000000016
 50
234.3139564773128
 51
125.6860435226872
  0
POLYLINE
  5
CA
  8
0
  6
CONTINUOUS
 62
     7
 66
     1
 10
0.0
 20
0.0
 30
0.0
  0
VERTEX
  5
295
  8
0
  6
CONTINUOUS
 62
     7
 10
64.0
 20
370.1266770537733
 30
0.0
  0
VERTEX
  5
296
  8
0
  6
CONTINUOUS
 62
     7
 10
64.00117841345791
 20
370.1747171916834
 30
0.0
  0
VERTEX
  5
297
  8
0
  6
CONTINUOUS
 62
     7
 10
64.00469503115056
 20
370.2227819882056
 30
0.0
  0
VERTEX
  5
298
  8
0
  6
CONTINUOUS
 62
     7
 10
64.0105219190564
 20
370.2707070637239
 30
0.0
  0
VERTEX
  5
299
  8
0
  6
CONTINUOUS
 62
     7
 10
64.01863114315381
 20
370.3183280386227
 30
0.0
  0
VERTEX
  5
29A
  8
0
  6
CONTINUOUS
 62
     7
 10
64.0289947694212
 20
370.3654805332863
 30
0.0
  0
VERTEX
  5
29B
  8
0
  6
CONTINUOUS
 62
     7
 10
64.04158486383697
 20
370.4120001680989
 30
0.0
  0
VERTEX
  5
29C
  8
0
  6
CONTINUOUS
 62
     7
 10
64.05637349237954
 20
370.4577225634448
 30
0.0
  0
VERTEX
  5
29D
  8
0
  6
CONTINUOUS
 62
     7
 10
64.07338659999365
 20
370.5026650281907
 30
0.0
  0
VERTEX
  5
29E
  8
0
  6
CONTINUOUS
 62
     7
 10
64.0926147152316
 20
370.5468566942641
 30
0.0
  0
VERTEX
  5
29F
  8
0
  6
CONTINUOUS
 62
     7
 10
64.11397703398731
 20
370.5901516422188
 30
0.0
  0
VERTEX
  5
2A0
  8
0
  6
CONTINUOUS
 62
     7
 10
64.1373927521548
 20
370.6324039526086
 30
0.0
  0
VERTEX
  5
2A1
  8
0
  6
CONTINUOUS
 62
     7
 10
64.16278106562804
 20
370.6734677059873
 30
0.0
  0
VERTEX
  5
2A2
  8
0
  6
CONTINUOUS
 62
     7
 10
64.19006117030102
 20
370.7131969829085
 30
0.0
  0
VERTEX
  5
2A3
  8
0
  6
CONTINUOUS
 62
     7
 10
64.21915226206771
 20
370.7514458639262
 30
0.0
  0
VERTEX
  5
2A4
  8
0
  6
CONTINUOUS
 62
     7
 10
64.2500802206388
 20
370.788217202975
 30
0.0
  0
VERTEX
  5
2A5
  8
0
  6
CONTINUOUS
 62
     7
 10
64.28284955031968
 20
370.823546935766
 30
0.0
  0
VERTEX
  5
2A6
  8
0
  6
CONTINUOUS
 62
     7
 10
64.31733569446132
 20
370.8573241545106
 30
0.0
  0
VERTEX
  5
2A7
  8
0
  6
CONTINUOUS
 62
     7
 10
64.35341409641475
 20
370.8894379514202
 30
0.0
  0
VERTEX
  5
2A8
  8
0
  6
CONTINUOUS
 62
     7
 10
64.3909601995309
 20
370.9197774187064
 30
0.0
  0
VERTEX
  5
2A9
  8
0
  6
CONTINUOUS
 62
     7
 10
64.42984944716079
 20
370.9482316485805
 30
0.0
  0
VERTEX
  5
2AA
  8
0
  6
CONTINUOUS
 62
     7
 10
64.4699572826554
 20
370.9746897332541
 30
0.0
  0
VERTEX
  5
2AB
  8
0
  6
CONTINUOUS
 62
     7
 10
64.51130877828454
 20
370.999145683789
 30
0.0
  0
VERTEX
  5
2AC
  8
0
  6
CONTINUOUS
 62
     7
 10
64.55392029946117
 20
371.0216321209841
 30
0.0
  0
VERTEX
  5
2AD
  8
0
  6
CONTINUOUS
 62
     7
 10
64.59763763690782
 20
371.0420856811207
 30
0.0
  0
VERTEX
  5
2AE
  8
0
  6
CONTINUOUS
 62
     7
 10
64.6423065813471
 20
371.0604430004801
 30
0.0
  0
VERTEX
  5
2AF
  8
0
  6
CONTINUOUS
 62
     7
 10
64.68777292350161
 20
371.0766407153437
 30
0.0
  0
VERTEX
  5
2B0
  8
0
  6
CONTINUOUS
 62
     7
 10
64.7338824540939
 20
371.090615461993
 30
0.0
  0
VERTEX
  5
2B1
  8
0
  6
CONTINUOUS
 62
     7
 10
64.78048096384659
 20
371.1023038767094
 30
0.0
  0
VERTEX
  5
2B2
  8
0
  6
CONTINUOUS
 62
     7
 10
64.82759495762193
 20
371.1116929046158
 30
0.0
  0
VERTEX
  5
2B3
  8
0
  6
CONTINUOUS
 62
     7
 10
64.87524592157297
 20
371.1188066314137
 30
0.0
  0
VERTEX
  5
2B4
  8
0
  6
CONTINUOUS
 62
     7
 10
64.92326740962655
 20
371.1236363451886
 30
0.0
  0
VERTEX
  5
2B5
  8
0
  6
CONTINUOUS
 62
     7
 10
64.97149297570951
 20
371.1261733340257
 30
0.0
  0
VERTEX
  5
2B6
  8
0
  6
CONTINUOUS
 62
     7
 10
65.01975617374868
 20
371.1264088860106
 30
0.0
  0
VERTEX
  5
2B7
  8
0
  6
CONTINUOUS
 62
     7
 10
65.06789055767092
 20
371.1243342892283
 30
0.0
  0
VERTEX
  5
2B8
  8
0
  6
CONTINUOUS
 62
     7
 10
65.11572968140308
 20
371.1199408317643
 30
0.0
  0
VERTEX
  5
2B9
  8
0
  6
CONTINUOUS
 62
     7
 10
65.16329979550318
 20
371.1132065380657
 30
0.0
  0
VERTEX
  5
2BA
  8
0
  6
CONTINUOUS
 62
     7
 10
65.2106235305013
 20
371.104147420984
 30
0.0
  0
VERTEX
  5
2BB
  8
0
  6
CONTINUOUS
 62
     7
 10
65.25754095437468
 20
371.0928103581701
 30
0.0
  0
VERTEX
  5
2BC
  8
0
  6
CONTINUOUS
 62
     7
 10
65.30389213510058
 20
371.0792422272754
 30
0.0
  0
VERTEX
  5
2BD
  8
0
  6
CONTINUOUS
 62
     7
 10
65.34951714065625
 20
371.0634899059507
 30
0.0
  0
VERTEX
  5
2BE
  8
0
  6
CONTINUOUS
 62
     7
 10
65.39425603901894
 20
371.0456002718475
 30
0.0
  0
VERTEX
  5
2BF
  8
0
  6
CONTINUOUS
 62
     7
 10
65.43794889816589
 20
371.0256202026167
 30
0.0
  0
VERTEX
  5
2C0
  8
0
  6
CONTINUOUS
 62
     7
 10
65.47560980187477
 20
371.0062679043353
 30
0.0
  0
VERTEX
  5
2C1
  8
0
  6
CONTINUOUS
 62
     7
 10
65.51245093251339
 20
370.9853201620407
 30
0.0
  0
VERTEX
  5
2C2
  8
0
  6
CONTINUOUS
 62
     7
 10
65.54837459459004
 20
370.9628353324444
 30
0.0
  0
VERTEX
  5
2C3
  8
0
  6
CONTINUOUS
 62
     7
 10
65.58328309261304
 20
370.9388717722579
 30
0.0
  0
SEQEND
  5
449
  8
0
  6
CONTINUOUS
 62
     7
  0
LINE
  5
CB
  8
0
  6
CONTINUOUS
 62
     7
 10
64.0
 20
370.1266770537733
 30
0.0
 11
64.0
 21
368.9999619230642
 31
0.0
  0
POLYLINE
  5
CC
  8
0
  6
CONTINUOUS
 62
     7
 66
     1
 10
0.0
 20
0.0
 30
0.0
  0
VERTEX
  5
2C4
  8
0
  6
CONTINUOUS
 62
     7
 10
64.0
 20
368.9999619230642
 30
0.0
  0
VERTEX
  5
2C5
  8
0
  6
CONTINUOUS
 62
     7
 10
64.01921359416093
 20
368.8048749725621
 30
0.0
  0
VERTEX
  5
2C6
  8
0
  6
CONTINUOUS
 62
     7
 10
64.0761160803557
 20
368.6172873059203
 30
0.0
  0
VERTEX
  5
2C7
  8
0
  6
CONTINUOUS
 62
     7
 10
64.16852093929045
 20
368.4444071152555
 30
0.0
  0
VERTEX
  5
2C8
  8
0
  6
CONTINUOUS
 62
     7
 10
64.29287744725485
 20
368.2928774472549
 30
0.0
  0
VERTEX
  5
2C9
  8
0
  6
CONTINUOUS
 62
     7
 10
64.44440711525546
 20
368.1685209392905
 30
0.0
  0
VERTEX
  5
2CA
  8
0
  6
CONTINUOUS
 62
     7
 10
64.6172873059203
 20
368.0761160803557
 30
0.0
  0
VERTEX
  5
2CB
  8
0
  6
CONTINUOUS
 62
     7
 10
64.80487497256206
 20
368.0192135941609
 30
0.0
  0
VERTEX
  5
2CC
  8
0
  6
CONTINUOUS
 62
     7
 10
64.99996192306418
 20
368.0000000000001
 30
0.0
  0
SEQEND
  5
44A
  8
0
  6
CONTINUOUS
 62
     7
  0
LINE
  5
CD
  8
0
  6
CONTINUOUS
 62
     7
 10
64.99996192306416
 20
368.0
 30
0.0
 11
87.10003807693582
 21
368.0
 31
0.0
  0
POLYLINE
  5
CE
  8
0
  6
CONTINUOUS
 62
     7
 66
     1
 10
0.0
 20
0.0
 30
0.0
  0
VERTEX
  5
2CD
  8
0
  6
CONTINUOUS
 62
     7
 10
87.10003807693582
 20
368.0
 30
0.0
  0
VERTEX
  5
2CE
  8
0
  6
CONTINUOUS
 62
     7
 10
87.29512502743792
 20
368.0192135941609
 30
0.0
  0
VERTEX
  5
2CF
  8
0
  6
CONTINUOUS
 62
     7
 10
87.4827126940797
 20
368.0761160803557
 30
0.0
  0
VERTEX
  5
2D0
  8
0
  6
CONTINUOUS
 62
     7
 10
87.65559288474454
 20
368.1685209392905
 30
0.0
  0
VERTEX
  5
2D1
  8
0
  6
CONTINUOUS
 62
     7
 10
87.80712255274514
 20
368.2928774472549
 30
0.0
  0
VERTEX
  5
2D2
  8
0
  6
CONTINUOUS
 62
     7
 10
87.93147906070955
 20
368.4444071152554
 30
0.0
  0
VERTEX
  5
2D3
  8
0
  6
CONTINUOUS
 62
     7
 10
88.02388391964428
 20
368.6172873059203
 30
0.0
  0
VERTEX
  5
2D4
  8
0
  6
CONTINUOUS
 62
     7
 10
88.08078640583906
 20
368.804874972562
 30
0.0
  0
VERTEX
  5
2D5
  8
0
  6
CONTINUOUS
 62
     7
 10
88.09999999999998
 20
368.9999619230641
 30
0.0
  0
SEQEND
  5
44B
  8
0
  6
CONTINUOUS
 62
     7
  0
LINE
  5
CF
  8
0
  6
CONTINUOUS
 62
     7
 10
88.1
 20
368.9999619230642
 30
0.0
 11
88.1
 21
386.6305545161687
 31
0.0
  0
POLYLINE
  5
D0
  8
0
  6
CONTINUOUS
 62
     7
 66
     1
 10
0.0
 20
0.0
 30
0.0
  0
VERTEX
  5
2D6
  8
0
  6
CONTINUOUS
 62
     7
 10
86.37930833168329
 20
387.323715739757
 30
0.0
  0
VERTEX
  5
2D7
  8
0
  6
CONTINUOUS
 62
     7
 10
86.41346283754007
 20
387.3575285247169
 30
0.0
  0
VERTEX
  5
2D8
  8
0
  6
CONTINUOUS
 62
     7
 10
86.4493198592113
 20
387.3897381447971
 30
0.0
  0
VERTEX
  5
2D9
  8
0
  6
CONTINUOUS
 62
     7
 10
86.48674531971294
 20
387.4202454588201
 30
0.0
  0
VERTEX
  5
2DA
  8
0
  6
CONTINUOUS
 62
     7
 10
86.52560514206098
 20
387.4489513256079
 30
0.0
  0
VERTEX
  5
2DB
  8
0
  6
CONTINUOUS
 62
     7
 10
86.56576524927138
 20
387.4757566039831
 30
0.0
  0
VERTEX
  5
2DC
  8
0
  6
CONTINUOUS
 62
     7
 10
86.60709156436012
 20
387.5005621527679
 30
0.0
  0
VERTEX
  5
2DD
  8
0
  6
CONTINUOUS
 62
     7
 10
86.64945001034317
 20
387.5232688307847
 30
0.0
  0
VERTEX
  5
2DE
  8
0
  6
CONTINUOUS
 62
     7
 10
86.69287142463838
 20
387.5438711524178
 30
0.0
  0
VERTEX
  5
2DF
  8
0
  6
CONTINUOUS
 62
     7
 10
86.7373690836329
 20
387.5623965885916
 30
0.0
  0
VERTEX
  5
2E0
  8
0
  6
CONTINUOUS
 62
     7
 10
86.78278356503118
 20
387.5787959359236
 30
0.0
  0
VERTEX
  5
2E1
  8
0
  6
CONTINUOUS
 62
     7
 10
86.82895544653755
 20
387.5930199910316
 30
0.0
  0
VERTEX
  5
2E2
  8
0
  6
CONTINUOUS
 62
     7
 10
86.87572530585648
 20
387.6050195505331
 30
0.0
  0
VERTEX
  5
2E3
  8
0
  6
CONTINUOUS
 62
     7
 10
86.92293372069227
 20
387.614745411046
 30
0.0
  0
VERTEX
  5
2E4
  8
0
  6
CONTINUOUS
 62
     7
 10
86.9704212687494
 20
387.6221483691878
 30
0.0
  0
VERTEX
  5
2E5
  8
0
  6
CONTINUOUS
 62
     7
 10
87.01820557597362
 20
387.6272122526142
 30
0.0
  0
VERTEX
  5
2E6
  8
0
  6
CONTINUOUS
 62
     7
 10
87.06631778580314
 20
387.6299603498337
 30
0.0
  0
VERTEX
  5
2E7
  8
0
  6
CONTINUOUS
 62
     7
 10
87.11459119855323
 20
387.6303990433211
 30
0.0
  0
VERTEX
  5
2E8
  8
0
  6
CONTINUOUS
 62
     7
 10
87.16285911453917
 20
387.6285347155517
 30
0.0
  0
VERTEX
  5
2E9
  8
0
  6
CONTINUOUS
 62
     7
 10
87.21095483407625
 20
387.6243737490006
 30
0.0
  0
VERTEX
  5
2EA
  8
0
  6
CONTINUOUS
 62
     7
 10
87.25871165747971
 20
387.6179225261428
 30
0.0
  0
VERTEX
  5
2EB
  8
0
  6
CONTINUOUS
 62
     7
 10
87.30596288506486
 20
387.6091874294533
 30
0.0
  0
VERTEX
  5
2EC
  8
0
  6
CONTINUOUS
 62
     7
 10
87.35271801146523
 20
387.598147886388
 30
0.0
  0
VERTEX
  5
2ED
  8
0
  6
CONTINUOUS
 62
     7
 10
87.39901595225795
 20
387.5848153295845
 30
0.0
  0
VERTEX
  5
2EE
  8
0
  6
CONTINUOUS
 62
     7
 10
87.44470162093306
 20
387.5692509898311
 30
0.0
  0
VERTEX
  5
2EF
  8
0
  6
CONTINUOUS
 62
     7
 10
87.48961993098057
 20
387.5515160979162
 30
0.0
  0
VERTEX
  5
2F0
  8
0
  6
CONTINUOUS
 62
     7
 10
87.53361579589051
 20
387.5316718846286
 30
0.0
  0
VERTEX
  5
2F1
  8
0
  6
CONTINUOUS
 62
     7
 10
87.5765341291529
 20
387.5097795807564
 30
0.0
  0
VERTEX
  5
2F2
  8
0
  6
CONTINUOUS
 62
     7
 10
87.61821984425778
 20
387.4859004170882
 30
0.0
  0
VERTEX
  5
2F3
  8
0
  6
CONTINUOUS
 62
     7
 10
87.65868046575591
 20
387.4600083073836
 30
0.0
  0
VERTEX
  5
2F4
  8
0
  6
CONTINUOUS
 62
     7
 10
87.69795085041444
 20
387.4321042786066
 30
0.0
  0
VERTEX
  5
2F5
  8
0
  6
CONTINUOUS
 62
     7
 10
87.73590501726001
 20
387.4022974370633
 30
0.0
  0
VERTEX
  5
2F6
  8
0
  6
CONTINUOUS
 62
     7
 10
87.77241698531914
 20
387.3706968890596
 30
0.0
  0
VERTEX
  5
2F7
  8
0
  6
CONTINUOUS
 62
     7
 10
87.80736077361836
 20
387.3374117409013
 30
0.0
  0
VERTEX
  5
2F8
  8
0
  6
CONTINUOUS
 62
     7
 10
87.84061040118425
 20
387.3025510988945
 30
0.0
  0
VERTEX
  5
2F9
  8
0
  6
CONTINUOUS
 62
     7
 10
87.87203988704336
 20
387.2662240693452
 30
0.0
  0
VERTEX
  5
2FA
  8
0
  6
CONTINUOUS
 62
     7
 10
87.90165281838331
 20
387.2283967832815
 30
0.0
  0
VERTEX
  5
2FB
  8
0
  6
CONTINUOUS
 62
     7
 10
87.92947674542488
 20
387.1890649790545
 30
0.0
  0
VERTEX
  5
2FC
  8
0
  6
CONTINUOUS
 62
     7
 10
87.95542894127313
 20
387.1483732943665
 30
0.0
  0
VERTEX
  5
2FD
  8
0
  6
CONTINUOUS
 62
     7
 10
87.97942667903311
 20
387.1064663669198
 30
0.0
  0
VERTEX
  5
2FE
  8
0
  6
CONTINUOUS
 62
     7
 10
88.00138723180986
 20
387.0634888344171
 30
0.0
  0
VERTEX
  5
2FF
  8
0
  6
CONTINUOUS
 62
     7
 10
88.02122787270845
 20
387.0195853345607
 30
0.0
  0
VERTEX
  5
300
  8
0
  6
CONTINUOUS
 62
     7
 10
88.03886587483393
 20
386.9749005050531
 30
0.0
  0
VERTEX
  5
301
  8
0
  6
CONTINUOUS
 62
     7
 10
88.05488806639956
 20
386.9274806678782
 30
0.0
  0
VERTEX
  5
302
  8
0
  6
CONTINUOUS
 62
     7
 10
88.06853541685281
 20
386.8791608210859
 30
0.0
  0
VERTEX
  5
303
  8
0
  6
CONTINUOUS
 62
     7
 10
88.07977508183846
 20
386.830126481056
 30
0.0
  0
VERTEX
  5
304
  8
0
  6
CONTINUOUS
 62
     7
 10
88.08857421700127
 20
386.7805631641691
 30
0.0
  0
VERTEX
  5
305
  8
0
  6
CONTINUOUS
 62
     7
 10
88.09489997798593
 20
386.7306563868054
 30
0.0
  0
VERTEX
  5
306
  8
0
  6
CONTINUOUS
 62
     7
 10
88.09871952043726
 20
386.6805916653451
 30
0.0
  0
VERTEX
  5
307
  8
0
  6
CONTINUOUS
 62
     7
 10
88.09999999999998
 20
386.6305545161687
 30
0.0
  0
SEQEND
  5
44C
  8
0
  6
CONTINUOUS
 62
     7
  0
ARC
  5
D1
  8
0
  6
CONTINUOUS
 62
     7
 10
67.99999999999996
 20
404.9999999999999
 30
0.0
 40
25.49999999999998
 50
307.3391603156097
 51
316.1170308348869
  0
POLYLINE
  5
D2
  8
0
  6
CONTINUOUS
 62
     7
 66
     1
 10
0.0
 20
0.0
 30
0.0
  0
VERTEX
  5
308
  8
0
  6
CONTINUOUS
 62
     7
 10
82.04093492006119
 20
384.9474667811188
 30
0.0
  0
VERTEX
  5
309
  8
0
  6
CONTINUOUS
 62
     7
 10
82.06945124263022
 20
384.9087956389064
 30
0.0
  0
VERTEX
  5
30A
  8
0
  6
CONTINUOUS
 62
     7
 10
82.09989692017243
 20
384.8714453621831
 30
0.0
  0
VERTEX
  5
30B
  8
0
  6
CONTINUOUS
 62
     7
 10
82.13215477034173
 20
384.835534548533
 30
0.0
  0
VERTEX
  5
30C
  8
0
  6
CONTINUOUS
 62
     7
 10
82.16610761079205
 20
384.8011817955403
 30
0.0
  0
VERTEX
  5
30D
  8
0
  6
CONTINUOUS
 62
     7
 10
82.20163825917734
 20
384.7685057007891
 30
0.0
  0
VERTEX
  5
30E
  8
0
  6
CONTINUOUS
 62
     7
 10
82.23862953315148
 20
384.7376248618636
 30
0.0
  0
VERTEX
  5
30F
  8
0
  6
CONTINUOUS
 62
     7
 10
82.27696425036845
 20
384.7086578763478
 30
0.0
  0
VERTEX
  5
310
  8
0
  6
CONTINUOUS
 62
     7
 10
82.316673409372
 20
384.6816055075323
 30
0.0
  0
VERTEX
  5
311
  8
0
  6
CONTINUOUS
 62
     7
 10
82.35776606806444
 20
384.6564383155604
 30
0.0
  0
VERTEX
  5
312
  8
0
  6
CONTINUOUS
 62
     7
 10
82.40009236875821
 20
384.6332294241683
 30
0.0
  0
VERTEX
  5
313
  8
0
  6
CONTINUOUS
 62
     7
 10
82.44350245376573
 20
384.6120519570921
 30
0.0
  0
VERTEX
  5
314
  8
0
  6
CONTINUOUS
 62
     7
 10
82.48784646539949
 20
384.5929790380682
 30
0.0
  0
VERTEX
  5
315
  8
0
  6
CONTINUOUS
 62
     7
 10
82.5329745459719
 20
384.5760837908324
 30
0.0
  0
VERTEX
  5
316
  8
0
  6
CONTINUOUS
 62
     7
 10
82.57873683779539
 20
384.5614393391213
 30
0.0
  0
VERTEX
  5
317
  8
0
  6
CONTINUOUS
 62
     7
 10
82.62516011649357
 20
384.5490571837169
 30
0.0
  0
VERTEX
  5
318
  8
0
  6
CONTINUOUS
 62
     7
 10
82.67226482215877
 20
384.5389117750202
 30
0.0
  0
VERTEX
  5
319
  8
0
  6
CONTINUOUS
 62
     7
 10
82.7198853540926
 20
384.5310224905217
 30
0.0
  0
VERTEX
  5
31A
  8
0
  6
CONTINUOUS
 62
     7
 10
82.76785611159677
 20
384.5254087077126
 30
0.0
  0
VERTEX
  5
31B
  8
0
  6
CONTINUOUS
 62
     7
 10
82.81601149397298
 20
384.5220898040839
 30
0.0
  0
VERTEX
  5
31C
  8
0
  6
CONTINUOUS
 62
     7
 10
82.8641859005229
 20
384.5210851571262
 30
0.0
  0
VERTEX
  5
31D
  8
0
  6
CONTINUOUS
 62
     7
 10
82.91221373054817
 20
384.5224141443308
 30
0.0
  0
VERTEX
  5
31E
  8
0
  6
CONTINUOUS
 62
     7
 10
82.9601175665013
 20
384.5260965716407
 30
0.0
  0
VERTEX
  5
31F
  8
0
  6
CONTINUOUS
 62
     7
 10
83.00792402198991
 20
384.5321150745594
 30
0.0
  0
VERTEX
  5
320
  8
0
  6
CONTINUOUS
 62
     7
 10
83.05547044154133
 20
384.5404331128954
 30
0.0
  0
VERTEX
  5
321
  8
0
  6
CONTINUOUS
 62
     7
 10
83.10259416968294
 20
384.5510141464571
 30
0.0
  0
VERTEX
  5
322
  8
0
  6
CONTINUOUS
 62
     7
 10
83.1491325509421
 20
384.5638216350532
 30
0.0
  0
VERTEX
  5
323
  8
0
  6
CONTINUOUS
 62
     7
 10
83.19492292984613
 20
384.578819038492
 30
0.0
  0
VERTEX
  5
324
  8
0
  6
CONTINUOUS
 62
     7
 10
83.23980265092239
 20
384.595969816582
 30
0.0
  0
VERTEX
  5
325
  8
0
  6
CONTINUOUS
 62
     7
 10
83.27977641609087
 20
384.6134207637032
 30
0.0
  0
VERTEX
  5
326
  8
0
  6
CONTINUOUS
 62
     7
 10
83.31902220384029
 20
384.6326421469412
 30
0.0
  0
VERTEX
  5
327
  8
0
  6
CONTINUOUS
 62
     7
 10
83.35743196637533
 20
384.6535719909711
 30
0.0
  0
VERTEX
  5
328
  8
0
  6
CONTINUOUS
 62
     7
 10
83.39489765590062
 20
384.6761483204676
 30
0.0
  0
VERTEX
  5
329
  8
0
  6
CONTINUOUS
 62
     7
 10
83.43131122462084
 20
384.7003091601056
 30
0.0
  0
VERTEX
  5
32A
  8
0
  6
CONTINUOUS
 62
     7
 10
83.46656462474063
 20
384.7259925345599
 30
0.0
  0
SEQEND
  5
44D
  8
0
  6
CONTINUOUS
 62
     7
  0
LINE
  5
D3
  8
0
  6
CONTINUOUS
 62
     7
 10
82.04093492006119
 20
384.9474667811188
 30
0.0
 11
81.17976217453008
 21
386.1773489211097
 31
0.0
  0
ARC
  5
D4
  8
0
  6
CONTINUOUS
 62
     7
 10
86.69999999999999
 20
413.7
 30
0.0
 40
0.2000000000000057
 50
180.0
 51
270.0
  0
LINE
  5
D5
  8
0
  6
CONTINUOUS
 62
     7
 10
86.69999999999999
 20
413.4999999999999
 30
0.0
 11
89.29999999999997
 21
413.4999999999999
 31
0.0
  0
ARC
  5
D6
  8
0
  6
CONTINUOUS
 62
     7
 10
89.29999999999997
 20
413.7
 30
0.0
 40
0.2000000000000057
 50
270.0
 51
0.0
  0
LINE
  5
D7
  8
0
  6
CONTINUOUS
 62
     7
 10
89.49999999999999
 20
413.7
 30
0.0
 11
89.49999999999999
 21
416.3
 31
0.0
  0
ARC
  5
D8
  8
0
  6
CONTINUOUS
 62
     7
 10
89.29999999999997
 20
416.3
 30
0.0
 40
0.2000000000000057
 50
0.0
 51
90.0
  0
LINE
  5
D9
  8
0
  6
CONTINUOUS
 62
     7
 10
89.29999999999997
 20
416.5
 30
0.0
 11
86.69999999999999
 21
416.5
 31
0.0
  0
ARC
  5
DA
  8
0
  6
CONTINUOUS
 62
     7
 10
86.69999999999999
 20
416.3
 30
0.0
 40
0.2000000000000057
 50
90.0
 51
180.0
  0
LINE
  5
DB
  8
0
  6
CONTINUOUS
 62
     7
 10
86.49999999999997
 20
416.3
 30
0.0
 11
86.49999999999997
 21
413.7
 31
0.0
  0
ARC
  5
DC
  8
0
  6
CONTINUOUS
 62
     7
 10
83.69999999999997
 20
388.7
 30
0.0
 40
0.2000000000000057
 50
180.0
 51
270.0
  0
LINE
  5
DD
  8
0
  6
CONTINUOUS
 62
     7
 10
83.69999999999997
 20
388.5
 30
0.0
 11
86.29999999999997
 21
388.5
 31
0.0
  0
ARC
  5
DE
  8
0
  6
CONTINUOUS
 62
     7
 10
86.29999999999997
 20
388.7
 30
0.0
 40
0.2000000000000057
 50
270.0
 51
0.0
  0
LINE
  5
DF
  8
0
  6
CONTINUOUS
 62
     7
 10
86.49999999999997
 20
388.7
 30
0.0
 11
86.49999999999997
 21
391.3
 31
0.0
  0
ARC
  5
E0
  8
0
  6
CONTINUOUS
 62
     7
 10
86.29999999999997
 20
391.3
 30
0.0
 40
0.2000000000000057
 50
0.0
 51
90.0
  0
LINE
  5
E1
  8
0
  6
CONTINUOUS
 62
     7
 10
86.29999999999997
 20
391.5
 30
0.0
 11
83.69999999999997
 21
391.5
 31
0.0
  0
ARC
  5
E2
  8
0
  6
CONTINUOUS
 62
     7
 10
83.69999999999997
 20
391.3
 30
0.0
 40
0.2000000000000057
 50
90.0
 51
180.0
  0
LINE
  5
E3
  8
0
  6
CONTINUOUS
 62
     7
 10
83.49999999999997
 20
391.3
 30
0.0
 11
83.49999999999997
 21
388.7
 31
0.0
  0
LINE
  5
E4
  8
0
  6
CONTINUOUS
 62
     7
 10
89.14363433895379
 20
484.9563656610462
 30
0.0
 11
89.55642277644995
 21
484.9563656610462
 31
0.0
  0
LINE
  5
E5
  8
0
  6
CONTINUOUS
 62
     7
 10
91.0610688420103
 20
367.991612879278
 30
0.0
 11
91.60000000000001
 21
367.9869096983138
 31
0.0
  0
LINE
  5
E6
  8
0
  6
CONTINUOUS
 62
     7
 10
91.0610688420103
 20
367.991612879278
 30
0.0
 11
91.07562433268913
 21
368.0061683699568
 31
0.0
  0
LINE
  5
E7
  8
0
  6
CONTINUOUS
 62
     7
 10
93.59999999999987
 20
368.0
 30
0.0
 11
91.07562433268913
 21
368.0061683699568
 31
0.0
  0
LINE
  5
E8
  8
0
  6
CONTINUOUS
 62
     7
 10
94.00045692322995
 20
368.0
 30
0.0
 11
93.59999999999987
 21
368.0
 31
0.0
  0
LINE
  5
E9
  8
0
  6
CONTINUOUS
 62
     7
 10
91.60000000000001
 20
439.9563656610462
 30
0.0
 11
91.60000000000001
 21
437.0130903016861
 31
0.0
  0
LINE
  5
EA
  8
0
  6
CONTINUOUS
 62
     7
 10
91.60000000000001
 20
437.0130903016861
 30
0.0
 11
91.0610688420103
 21
437.008387120722
 31
0.0
  0
LINE
  5
EB
  8
0
  6
CONTINUOUS
 62
     7
 10
91.0610688420103
 20
437.008387120722
 30
0.0
 11
91.0610688420103
 21
439.9610688420103
 31
0.0
  0
LINE
  5
EC
  8
0
  6
CONTINUOUS
 62
     7
 10
91.0610688420103
 20
439.9610688420104
 30
0.0
 11
91.60000000000001
 21
439.9563656610462
 31
0.0
  0
LINE
  5
ED
  8
0
  6
CONTINUOUS
 62
     7
 10
91.0610688420103
 20
439.9610688420104
 30
0.0
 11
91.09559815175697
 21
439.995598151757
 31
0.0
  0
LINE
  5
EE
  8
0
  6
CONTINUOUS
 62
     7
 10
91.09559815175697
 20
439.995598151757
 30
0.0
 11
91.6
 21
440.0000000000001
 31
0.0
  0
LINE
  5
EF
  8
0
  6
CONTINUOUS
 62
     7
 10
91.6
 20
440.0000000000001
 30
0.0
 11
94.00057115403742
 21
440.0000000000001
 31
0.0
  0
LINE
  5
F0
  8
0
  6
CONTINUOUS
 62
     7
 10
91.07562433268915
 20
436.9938316300432
 30
0.0
 11
93.59999999999987
 21
437.0000000000001
 31
0.0
  0
LINE
  5
F1
  8
0
  6
CONTINUOUS
 62
     7
 10
91.0610688420103
 20
437.008387120722
 30
0.0
 11
91.07562433268915
 21
436.9938316300432
 31
0.0
  0
LINE
  5
F2
  8
0
  6
CONTINUOUS
 62
     7
 10
93.59999999999987
 20
437.0
 30
0.0
 11
94.00045692322993
 21
437.0
 31
0.0
  0
LINE
  5
F3
  8
0
  6
CONTINUOUS
 62
     7
 10
91.60000000000001
 20
367.9869096983139
 30
0.0
 11
91.60000000000001
 21
365.0436343389538
 31
0.0
  0
LINE
  5
F4
  8
0
  6
CONTINUOUS
 62
     7
 10
91.60000000000001
 20
365.0436343389538
 30
0.0
 11
91.0610688420103
 21
365.0389311579897
 31
0.0
  0
LINE
  5
F5
  8
0
  6
CONTINUOUS
 62
     7
 10
91.0610688420103
 20
365.0389311579897
 30
0.0
 11
91.0610688420103
 21
367.991612879278
 31
0.0
  0
LINE
  5
F6
  8
0
  6
CONTINUOUS
 62
     7
 10
91.0563656610462
 20
365.0436343389538
 30
0.0
 11
91.0610688420103
 21
365.0389311579897
 31
0.0
  0
LINE
  5
F7
  8
0
  6
CONTINUOUS
 62
     7
 10
94.00057115403742
 20
365.0000000000001
 30
0.0
 11
91.6
 21
365.0000000000001
 31
0.0
  0
LINE
  5
F8
  8
0
  6
CONTINUOUS
 62
     7
 10
91.6
 20
365.0000000000001
 30
0.0
 11
91.09559815175697
 21
365.004401848243
 31
0.0
  0
LINE
  5
F9
  8
0
  6
CONTINUOUS
 62
     7
 10
91.1
 20
365.0000000000001
 30
0.0
 11
91.09559815175697
 21
365.004401848243
 31
0.0
  0
LINE
  5
FA
  8
0
  6
CONTINUOUS
 62
     7
 10
91.1
 20
365.0000000000001
 30
0.0
 11
51.49998096153209
 21
365.0000000000001
 31
0.0
  0
LINE
  5
FB
  8
0
  6
CONTINUOUS
 62
     7
 10
61.4999809615321
 20
386.0
 30
0.0
 11
68.00000000000001
 21
386.0
 31
0.0
  0
POLYLINE
  5
FC
  8
0
  6
CONTINUOUS
 62
     7
 66
     1
 10
0.0
 20
0.0
 30
0.0
  0
VERTEX
  5
32B
  8
0
  6
CONTINUOUS
 62
     7
 10
51.49998096153209
 20
367.0
 30
0.0
  0
VERTEX
  5
32C
  8
0
  6
CONTINUOUS
 62
     7
 10
51.40243748628104
 20
366.9903932029195
 30
0.0
  0
VERTEX
  5
32D
  8
0
  6
CONTINUOUS
 62
     7
 10
51.30864365296015
 20
366.9619419598221
 30
0.0
  0
VERTEX
  5
32E
  8
0
  6
CONTINUOUS
 62
     7
 10
51.22220355762773
 20
366.9157395303548
 30
0.0
  0
VERTEX
  5
32F
  8
0
  6
CONTINUOUS
 62
     7
 10
51.14643872362743
 20
366.8535612763726
 30
0.0
  0
VERTEX
  5
330
  8
0
  6
CONTINUOUS
 62
     7
 10
51.08426046964522
 20
366.7777964423723
 30
0.0
  0
VERTEX
  5
331
  8
0
  6
CONTINUOUS
 62
     7
 10
51.03805804017786
 20
366.6913563470399
 30
0.0
  0
VERTEX
  5
332
  8
0
  6
CONTINUOUS
 62
     7
 10
51.00960679708047
 20
366.597562513719
 30
0.0
  0
VERTEX
  5
333
  8
0
  6
CONTINUOUS
 62
     7
 10
51.00000000000001
 20
366.5000190384679
 30
0.0
  0
SEQEND
  5
44E
  8
0
  6
CONTINUOUS
 62
     7
  0
ARC
  5
FD
  8
0
  6
CONTINUOUS
 62
     7
 10
67.99999999999996
 20
405.0
 30
0.0
 40
19.00000000000002
 50
270.0000000000002
 51
89.99999999999982
  0
LINE
  5
FE
  8
0
  6
CONTINUOUS
 62
     7
 10
68.00000000000001
 20
424.0000000000001
 30
0.0
 11
61.4999809615321
 21
424.0000000000001
 31
0.0
  0
LINE
  5
FF
  8
0
  6
CONTINUOUS
 62
     7
 10
89.14363433895379
 20
484.9563656610462
 30
0.0
 11
89.10000000000001
 21
485.0
 31
0.0
  0
LINE
  5
100
  8
0
  6
CONTINUOUS
 62
     7
 10
89.10000000000001
 20
485.0
 30
0.0
 11
89.60005711540377
 21
485.0
 31
0.0
  0
LINE
  5
101
  8
0
  6
CONTINUOUS
 62
     7
 10
106.0
 20
425.0004569232299
 30
0.0
 11
106.0
 21
379.9995430767701
 31
0.0
  0
POLYLINE
  5
102
  8
0
  6
CONTINUOUS
 62
     7
 66
     1
 10
0.0
 20
0.0
 30
0.0
  0
VERTEX
  5
334
  8
0
  6
CONTINUOUS
 62
     7
 10
60.50001903846791
 20
367.0
 30
0.0
  0
VERTEX
  5
335
  8
0
  6
CONTINUOUS
 62
     7
 10
60.59756251371897
 20
367.0096067970805
 30
0.0
  0
VERTEX
  5
336
  8
0
  6
CONTINUOUS
 62
     7
 10
60.69135634703985
 20
367.0380580401779
 30
0.0
  0
VERTEX
  5
337
  8
0
  6
CONTINUOUS
 62
     7
 10
60.77779644237227
 20
367.0842604696452
 30
0.0
  0
VERTEX
  5
338
  8
0
  6
CONTINUOUS
 62
     7
 10
60.85356127637257
 20
367.1464387236274
 30
0.0
  0
VERTEX
  5
339
  8
0
  6
CONTINUOUS
 62
     7
 10
60.91573953035478
 20
367.2222035576277
 30
0.0
  0
VERTEX
  5
33A
  8
0
  6
CONTINUOUS
 62
     7
 10
60.96194195982215
 20
367.3086436529601
 30
0.0
  0
VERTEX
  5
33B
  8
0
  6
CONTINUOUS
 62
     7
 10
60.99039320291954
 20
367.402437486281
 30
0.0
  0
VERTEX
  5
33C
  8
0
  6
CONTINUOUS
 62
     7
 10
61.0
 20
367.4999809615321
 30
0.0
  0
SEQEND
  5
44F
  8
0
  6
CONTINUOUS
 62
     7
  0
LINE
  5
103
  8
0
  6
CONTINUOUS
 62
     7
 10
89.10000000000001
 20
465.4999809615321
 30
0.0
 11
89.10000000000001
 21
485.0
 31
0.0
  0
LINE
  5
104
  8
0
  6
CONTINUOUS
 62
     7
 10
91.07562433268913
 20
368.0061683699568
 30
0.0
 11
91.07562433268915
 21
436.9938316300432
 31
0.0
  0
LINE
  5
105
  8
0
  6
CONTINUOUS
 62
     7
 10
91.10000000000001
 20
483.5000571154038
 30
0.0
 11
91.1
 21
439.9956365661046
 31
0.0
  0
LINE
  5
106
  8
0
  6
CONTINUOUS
 62
     7
 10
91.1
 20
365.0043634338954
 30
0.0
 11
91.1
 21
365.0000000000001
 31
0.0
  0
POLYLINE
  5
107
  8
0
  6
CONTINUOUS
 62
     7
 66
     1
 10
0.0
 20
0.0
 30
0.0
  0
VERTEX
  5
33D
  8
0
  6
CONTINUOUS
 62
     7
 10
106.0
 20
425.0004569232299
 30
0.0
  0
VERTEX
  5
33E
  8
0
  6
CONTINUOUS
 62
     7
 10
105.7694368700688
 20
427.3415003292552
 30
0.0
  0
VERTEX
  5
33F
  8
0
  6
CONTINUOUS
 62
     7
 10
105.0866070357315
 20
429.5925523289564
 30
0.0
  0
VERTEX
  5
340
  8
0
  6
CONTINUOUS
 62
     7
 10
103.9777487285146
 20
431.6671146169345
 30
0.0
  0
VERTEX
  5
341
  8
0
  6
CONTINUOUS
 62
     7
 10
102.4854706329418
 20
433.4854706329418
 30
0.0
  0
VERTEX
  5
342
  8
0
  6
CONTINUOUS
 62
     7
 10
100.6671146169345
 20
434.9777487285147
 30
0.0
  0
VERTEX
  5
343
  8
0
  6
CONTINUOUS
 62
     7
 10
98.59255232895642
 20
436.0866070357316
 30
0.0
  0
VERTEX
  5
344
  8
0
  6
CONTINUOUS
 62
     7
 10
96.34150032925523
 20
436.7694368700688
 30
0.0
  0
VERTEX
  5
345
  8
0
  6
CONTINUOUS
 62
     7
 10
94.00045692322995
 20
437.0
 30
0.0
  0
SEQEND
  5
450
  8
0
  6
CONTINUOUS
 62
     7
  0
POLYLINE
  5
108
  8
0
  6
CONTINUOUS
 62
     7
 66
     1
 10
0.0
 20
0.0
 30
0.0
  0
VERTEX
  5
346
  8
0
  6
CONTINUOUS
 62
     7
 10
94.00045692322993
 20
368.0000000000001
 30
0.0
  0
VERTEX
  5
347
  8
0
  6
CONTINUOUS
 62
     7
 10
96.34150032925524
 20
368.2305631299313
 30
0.0
  0
VERTEX
  5
348
  8
0
  6
CONTINUOUS
 62
     7
 10
98.59255232895642
 20
368.9133929642685
 30
0.0
  0
VERTEX
  5
349
  8
0
  6
CONTINUOUS
 62
     7
 10
100.6671146169345
 20
370.0222512714854
 30
0.0
  0
VERTEX
  5
34A
  8
0
  6
CONTINUOUS
 62
     7
 10
102.4854706329418
 20
371.5145293670582
 30
0.0
  0
VERTEX
  5
34B
  8
0
  6
CONTINUOUS
 62
     7
 10
103.9777487285146
 20
373.3328853830655
 30
0.0
  0
VERTEX
  5
34C
  8
0
  6
CONTINUOUS
 62
     7
 10
105.0866070357315
 20
375.4074476710436
 30
0.0
  0
VERTEX
  5
34D
  8
0
  6
CONTINUOUS
 62
     7
 10
105.7694368700688
 20
377.6584996707447
 30
0.0
  0
VERTEX
  5
34E
  8
0
  6
CONTINUOUS
 62
     7
 10
106.0
 20
379.9995430767701
 30
0.0
  0
SEQEND
  5
451
  8
0
  6
CONTINUOUS
 62
     7
  0
POLYLINE
  5
109
  8
0
  6
CONTINUOUS
 62
     7
 66
     1
 10
0.0
 20
0.0
 30
0.0
  0
VERTEX
  5
34F
  8
0
  6
CONTINUOUS
 62
     7
 10
64.01309030168613
 20
379.8987745682217
 30
0.0
  0
VERTEX
  5
350
  8
0
  6
CONTINUOUS
 62
     7
 10
64.01426871382262
 20
379.8507345296408
 30
0.0
  0
VERTEX
  5
351
  8
0
  6
CONTINUOUS
 62
     7
 10
64.01778532730128
 20
379.8026698326519
 30
0.0
  0
VERTEX
  5
352
  8
0
  6
CONTINUOUS
 62
     7
 10
64.023612207726
 20
379.7547448565904
 30
0.0
  0
VERTEX
  5
353
  8
0
  6
CONTINUOUS
 62
     7
 10
64.03172142070062
 20
379.7071239807917
 30
0.0
  0
VERTEX
  5
354
  8
0
  6
CONTINUOUS
 62
     7
 10
64.04208503182899
 20
379.6599715845907
 30
0.0
  0
VERTEX
  5
355
  8
0
  6
CONTINUOUS
 62
     7
 10
64.05467510671497
 20
379.6134520473229
 30
0.0
  0
VERTEX
  5
356
  8
0
  6
CONTINUOUS
 62
     7
 10
64.06946371096238
 20
379.5677297483235
 30
0.0
  0
VERTEX
  5
357
  8
0
  6
CONTINUOUS
 62
     7
 10
64.08647678804081
 20
379.5227873807166
 30
0.0
  0
VERTEX
  5
358
  8
0
  6
CONTINUOUS
 62
     7
 10
64.1057048665482
 20
379.4785958102939
 30
0.0
  0
VERTEX
  5
359
  8
0
  6
CONTINUOUS
 62
     7
 10
64.12706714225897
 20
379.4353009555906
 30
0.0
  0
VERTEX
  5
35A
  8
0
  6
CONTINUOUS
 62
     7
 10
64.1504828109476
 20
379.3930487351419
 30
0.0
  0
VERTEX
  5
35B
  8
0
  6
CONTINUOUS
 62
     7
 10
64.17587106838853
 20
379.351985067483
 30
0.0
  0
VERTEX
  5
35C
  8
0
  6
CONTINUOUS
 62
     7
 10
64.2031511103562
 20
379.3122558711493
 30
0.0
  0
VERTEX
  5
35D
  8
0
  6
CONTINUOUS
 62
     7
 10
64.23224213262512
 20
379.2740070646759
 30
0.0
  0
VERTEX
  5
35E
  8
0
  6
CONTINUOUS
 62
     7
 10
64.26317004931275
 20
379.2372357540297
 30
0.0
  0
VERTEX
  5
35F
  8
0
  6
CONTINUOUS
 62
     7
 10
64.29593933326912
 20
379.2019060461625
 30
0.0
  0
VERTEX
  5
360
  8
0
  6
CONTINUOUS
 62
     7
 10
64.33042542813332
 20
379.1681288481059
 30
0.0
  0
VERTEX
  5
361
  8
0
  6
CONTINUOUS
 62
     7
 10
64.36650377754457
 20
379.1360150668916
 30
0.0
  0
VERTEX
  5
362
  8
0
  6
CONTINUOUS
 62
     7
 10
64.40404982514195
 20
379.105675609551
 30
0.0
  0
VERTEX
  5
363
  8
0
  6
CONTINUOUS
 62
     7
 10
64.44293901456466
 20
379.0772213831158
 30
0.0
  0
VERTEX
  5
364
  8
0
  6
CONTINUOUS
 62
     7
 10
64.48304678945182
 20
379.0507632946175
 30
0.0
  0
VERTEX
  5
365
  8
0
  6
CONTINUOUS
 62
     7
 10
64.52439828919468
 20
379.0263072948327
 30
0.0
  0
VERTEX
  5
366
  8
0
  6
CONTINUOUS
 62
     7
 10
64.56700981567218
 20
379.0038208068662
 30
0.0
  0
VERTEX
  5
367
  8
0
  6
CONTINUOUS
 62
     7
 10
64.61072715982975
 20
378.9833671943426
 30
0.0
  0
VERTEX
  5
368
  8
0
  6
CONTINUOUS
 62
     7
 10
64.6553961126128
 20
378.9650098208865
 30
0.0
  0
VERTEX
  5
369
  8
0
  6
CONTINUOUS
 62
     7
 10
64.70086246496679
 20
378.9488120501225
 30
0.0
  0
VERTEX
  5
36A
  8
0
  6
CONTINUOUS
 62
     7
 10
64.74697200783707
 20
378.9348372456756
 30
0.0
  0
VERTEX
  5
36B
  8
0
  6
CONTINUOUS
 62
     7
 10
64.79357053216913
 20
378.9231487711703
 30
0.0
  0
VERTEX
  5
36C
  8
0
  6
CONTINUOUS
 62
     7
 10
64.84068459103327
 20
378.9137596729738
 30
0.0
  0
VERTEX
  5
36D
  8
0
  6
CONTINUOUS
 62
     7
 10
64.8883356235918
 20
378.9066458785443
 30
0.0
  0
VERTEX
  5
36E
  8
0
  6
CONTINUOUS
 62
     7
 10
64.936357183507
 20
378.9018161002056
 30
0.0
  0
VERTEX
  5
36F
  8
0
  6
CONTINUOUS
 62
     7
 10
64.98458282444113
 20
378.8992790502811
 30
0.0
  0
VERTEX
  5
370
  8
0
  6
CONTINUOUS
 62
     7
 10
65.03284610005647
 20
378.8990434410944
 30
0.0
  0
VERTEX
  5
371
  8
0
  6
CONTINUOUS
 62
     7
 10
65.08098056401532
 20
378.9011179849691
 30
0.0
  0
VERTEX
  5
372
  8
0
  6
CONTINUOUS
 62
     7
 10
65.1288197699799
 20
378.9055113942288
 30
0.0
  0
VERTEX
  5
373
  8
0
  6
CONTINUOUS
 62
     7
 10
65.17638996772023
 20
378.9122456446657
 30
0.0
  0
VERTEX
  5
374
  8
0
  6
CONTINUOUS
 62
     7
 10
65.2237137887149
 20
378.9213047239408
 30
0.0
  0
VERTEX
  5
375
  8
0
  6
CONTINUOUS
 62
     7
 10
65.27063130015324
 20
378.9326417548415
 30
0.0
  0
VERTEX
  5
376
  8
0
  6
CONTINUOUS
 62
     7
 10
65.31698256922462
 20
378.9462098601559
 30
0.0
  0
VERTEX
  5
377
  8
0
  6
CONTINUOUS
 62
     7
 10
65.36260766311835
 20
378.9619621626713
 30
0.0
  0
VERTEX
  5
378
  8
0
  6
CONTINUOUS
 62
     7
 10
65.40734664902381
 20
378.9798517851758
 30
0.0
  0
VERTEX
  5
379
  8
0
  6
CONTINUOUS
 62
     7
 10
65.45103959413032
 20
378.9998318504569
 30
0.0
  0
VERTEX
  5
37A
  8
0
  6
CONTINUOUS
 62
     7
 10
65.48776975551966
 20
379.0186810051743
 30
0.0
  0
VERTEX
  5
37B
  8
0
  6
CONTINUOUS
 62
     7
 10
65.52372142691458
 20
379.0390472506592
 30
0.0
  0
VERTEX
  5
37C
  8
0
  6
CONTINUOUS
 62
     7
 10
65.55880393757536
 20
379.0608766870039
 30
0.0
  0
VERTEX
  5
37D
  8
0
  6
CONTINUOUS
 62
     7
 10
65.59292661676221
 20
379.0841154143009
 30
0.0
  0
SEQEND
  5
452
  8
0
  6
CONTINUOUS
 62
     7
  0
POLYLINE
  5
10A
  8
0
  6
CONTINUOUS
 62
     7
 66
     1
 10
0.0
 20
0.0
 30
0.0
  0
VERTEX
  5
37E
  8
0
  6
CONTINUOUS
 62
     7
 10
64.01309030168615
 20
427.818385475029
 30
0.0
  0
VERTEX
  5
37F
  8
0
  6
CONTINUOUS
 62
     7
 10
64.01426865157983
 20
427.7703512131343
 30
0.0
  0
VERTEX
  5
380
  8
0
  6
CONTINUOUS
 62
     7
 10
64.0177850597829
 20
427.7222923069108
 30
0.0
  0
VERTEX
  5
381
  8
0
  6
CONTINUOUS
 62
     7
 10
64.02361156407838
 20
427.6743731199113
 30
0.0
  0
VERTEX
  5
382
  8
0
  6
CONTINUOUS
 62
     7
 10
64.0317202022493
 20
427.6267580156884
 30
0.0
  0
VERTEX
  5
383
  8
0
  6
CONTINUOUS
 62
     7
 10
64.0420830120787
 20
427.5796113577948
 30
0.0
  0
VERTEX
  5
384
  8
0
  6
CONTINUOUS
 62
     7
 10
64.05467203134964
 20
427.533097509783
 30
0.0
  0
VERTEX
  5
385
  8
0
  6
CONTINUOUS
 62
     7
 10
64.06945929784509
 20
427.4873808352059
 30
0.0
  0
VERTEX
  5
386
  8
0
  6
CONTINUOUS
 62
     7
 10
64.08647065252488
 20
427.4424441650526
 30
0.0
  0
VERTEX
  5
387
  8
0
  6
CONTINUOUS
 62
     7
 10
64.10569662850499
 20
427.3982582050504
 30
0.0
  0
VERTEX
  5
388
  8
0
  6
CONTINUOUS
 62
     7
 10
64.12705641262905
 20
427.3549688149092
 30
0.0
  0
VERTEX
  5
389
  8
0
  6
CONTINUOUS
 62
     7
 10
64.15046919174065
 20
427.3127218543389
 30
0.0
  0
VERTEX
  5
38A
  8
0
  6
CONTINUOUS
 62
     7
 10
64.17585415268343
 20
427.2716631830493
 30
0.0
  0
VERTEX
  5
38B
  8
0
  6
CONTINUOUS
 62
     7
 10
64.20313048230099
 20
427.2319386607505
 30
0.0
  0
VERTEX
  5
38C
  8
0
  6
CONTINUOUS
 62
     7
 10
64.23221736743693
 20
427.1936941471521
 30
0.0
  0
VERTEX
  5
38D
  8
0
  6
CONTINUOUS
 62
     7
 10
64.26314309467628
 20
427.1569239876899
 30
0.0
  0
VERTEX
  5
38E
  8
0
  6
CONTINUOUS
 62
     7
 10
64.29590997382067
 20
427.1215952284074
 30
0.0
  0
VERTEX
  5
38F
  8
0
  6
CONTINUOUS
 62
     7
 10
64.33039346581482
 20
427.0878187307296
 30
0.0
  0
VERTEX
  5
390
  8
0
  6
CONTINUOUS
 62
     7
 10
64.36646903160337
 20
427.0557053560816
 30
0.0
  0
VERTEX
  5
391
  8
0
  6
CONTINUOUS
 62
     7
 10
64.40401213213097
 20
427.0253659658883
 30
0.0
  0
VERTEX
  5
392
  8
0
  6
CONTINUOUS
 62
     7
 10
64.4428982283423
 20
426.9969114215749
 30
0.0
  0
VERTEX
  5
393
  8
0
  6
CONTINUOUS
 62
     7
 10
64.48300278118204
 20
426.9704525845662
 30
0.0
  0
VERTEX
  5
394
  8
0
  6
CONTINUOUS
 62
     7
 10
64.52435525330841
 20
426.9459929505697
 30
0.0
  0
VERTEX
  5
395
  8
0
  6
CONTINUOUS
 62
     7
 10
64.56696785909591
 20
426.9235027712653
 30
0.0
  0
VERTEX
  5
396
  8
0
  6
CONTINUOUS
 62
     7
 10
64.61068640005095
 20
426.9030454092792
 30
0.0
  0
VERTEX
  5
397
  8
0
  6
CONTINUOUS
 62
     7
 10
64.65535667767996
 20
426.8846842272379
 30
0.0
  0
VERTEX
  5
398
  8
0
  6
CONTINUOUS
 62
     7
 10
64.70082449348938
 20
426.8684825877673
 30
0.0
  0
VERTEX
  5
399
  8
0
  6
CONTINUOUS
 62
     7
 10
64.74693564898563
 20
426.854503853494
 30
0.0
  0
VERTEX
  5
39A
  8
0
  6
CONTINUOUS
 62
     7
 10
64.79353594567515
 20
426.8428113870442
 30
0.0
  0
VERTEX
  5
39B
  8
0
  6
CONTINUOUS
 62
     7
 10
64.84262508162378
 20
426.8330792791267
 30
0.0
  0
VERTEX
  5
39C
  8
0
  6
CONTINUOUS
 62
     7
 10
64.89229843894707
 20
426.8258184216177
 30
0.0
  0
VERTEX
  5
39D
  8
0
  6
CONTINUOUS
 62
     7
 10
64.9423677997782
 20
426.8210373662608
 30
0.0
  0
VERTEX
  5
39E
  8
0
  6
CONTINUOUS
 62
     7
 10
64.99264494625045
 20
426.8187446648002
 30
0.0
  0
VERTEX
  5
39F
  8
0
  6
CONTINUOUS
 62
     7
 10
65.04294166049701
 20
426.8189488689798
 30
0.0
  0
VERTEX
  5
3A0
  8
0
  6
CONTINUOUS
 62
     7
 10
65.0930697246511
 20
426.8216585305434
 30
0.0
  0
VERTEX
  5
3A1
  8
0
  6
CONTINUOUS
 62
     7
 10
65.14284092084594
 20
426.8268822012352
 30
0.0
  0
SEQEND
  5
453
  8
0
  6
CONTINUOUS
 62
     7
  0
POLYLINE
  5
10B
  8
0
  6
CONTINUOUS
 62
     7
 66
     1
 10
0.0
 20
0.0
 30
0.0
  0
VERTEX
  5
3A2
  8
0
  6
CONTINUOUS
 62
     7
 10
64.01309030168615
 20
454.8987745682218
 30
0.0
  0
VERTEX
  5
3A3
  8
0
  6
CONTINUOUS
 62
     7
 10
64.01426871382263
 20
454.8507345296408
 30
0.0
  0
VERTEX
  5
3A4
  8
0
  6
CONTINUOUS
 62
     7
 10
64.0177853273013
 20
454.8026698326519
 30
0.0
  0
VERTEX
  5
3A5
  8
0
  6
CONTINUOUS
 62
     7
 10
64.02361220772602
 20
454.7547448565905
 30
0.0
  0
VERTEX
  5
3A6
  8
0
  6
CONTINUOUS
 62
     7
 10
64.03172142070063
 20
454.7071239807917
 30
0.0
  0
VERTEX
  5
3A7
  8
0
  6
CONTINUOUS
 62
     7
 10
64.042085031829
 20
454.6599715845907
 30
0.0
  0
VERTEX
  5
3A8
  8
0
  6
CONTINUOUS
 62
     7
 10
64.05467510671497
 20
454.6134520473229
 30
0.0
  0
VERTEX
  5
3A9
  8
0
  6
CONTINUOUS
 62
     7
 10
64.0694637109624
 20
454.5677297483235
 30
0.0
  0
VERTEX
  5
3AA
  8
0
  6
CONTINUOUS
 62
     7
 10
64.08647678804081
 20
454.5227873807167
 30
0.0
  0
VERTEX
  5
3AB
  8
0
  6
CONTINUOUS
 62
     7
 10
64.1057048665482
 20
454.478595810294
 30
0.0
  0
VERTEX
  5
3AC
  8
0
  6
CONTINUOUS
 62
     7
 10
64.12706714225897
 20
454.4353009555907
 30
0.0
  0
VERTEX
  5
3AD
  8
0
  6
CONTINUOUS
 62
     7
 10
64.1504828109476
 20
454.393048735142
 30
0.0
  0
VERTEX
  5
3AE
  8
0
  6
CONTINUOUS
 62
     7
 10
64.17587106838853
 20
454.3519850674831
 30
0.0
  0
VERTEX
  5
3AF
  8
0
  6
CONTINUOUS
 62
     7
 10
64.20315111035622
 20
454.3122558711493
 30
0.0
  0
VERTEX
  5
3B0
  8
0
  6
CONTINUOUS
 62
     7
 10
64.23224213262513
 20
454.2740070646759
 30
0.0
  0
VERTEX
  5
3B1
  8
0
  6
CONTINUOUS
 62
     7
 10
64.26317004931276
 20
454.2372357540297
 30
0.0
  0
VERTEX
  5
3B2
  8
0
  6
CONTINUOUS
 62
     7
 10
64.29593933326912
 20
454.2019060461625
 30
0.0
  0
VERTEX
  5
3B3
  8
0
  6
CONTINUOUS
 62
     7
 10
64.33042542813334
 20
454.168128848106
 30
0.0
  0
VERTEX
  5
3B4
  8
0
  6
CONTINUOUS
 62
     7
 10
64.36650377754458
 20
454.1360150668916
 30
0.0
  0
VERTEX
  5
3B5
  8
0
  6
CONTINUOUS
 62
     7
 10
64.40404982514195
 20
454.105675609551
 30
0.0
  0
VERTEX
  5
3B6
  8
0
  6
CONTINUOUS
 62
     7
 10
64.44293901456467
 20
454.0772213831158
 30
0.0
  0
VERTEX
  5
3B7
  8
0
  6
CONTINUOUS
 62
     7
 10
64.48304678945182
 20
454.0507632946175
 30
0.0
  0
VERTEX
  5
3B8
  8
0
  6
CONTINUOUS
 62
     7
 10
64.52439828919469
 20
454.0263072948329
 30
0.0
  0
VERTEX
  5
3B9
  8
0
  6
CONTINUOUS
 62
     7
 10
64.5670098156722
 20
454.0038208068663
 30
0.0
  0
VERTEX
  5
3BA
  8
0
  6
CONTINUOUS
 62
     7
 10
64.61072715982975
 20
453.9833671943426
 30
0.0
  0
VERTEX
  5
3BB
  8
0
  6
CONTINUOUS
 62
     7
 10
64.65539611261282
 20
453.9650098208864
 30
0.0
  0
VERTEX
  5
3BC
  8
0
  6
CONTINUOUS
 62
     7
 10
64.7008624649668
 20
453.9488120501226
 30
0.0
  0
VERTEX
  5
3BD
  8
0
  6
CONTINUOUS
 62
     7
 10
64.74697200783709
 20
453.9348372456756
 30
0.0
  0
VERTEX
  5
3BE
  8
0
  6
CONTINUOUS
 62
     7
 10
64.79357053216914
 20
453.9231487711704
 30
0.0
  0
VERTEX
  5
3BF
  8
0
  6
CONTINUOUS
 62
     7
 10
64.84068459103328
 20
453.9137596729738
 30
0.0
  0
VERTEX
  5
3C0
  8
0
  6
CONTINUOUS
 62
     7
 10
64.88833562359181
 20
453.9066458785443
 30
0.0
  0
VERTEX
  5
3C1
  8
0
  6
CONTINUOUS
 62
     7
 10
64.93635718350701
 20
453.9018161002056
 30
0.0
  0
VERTEX
  5
3C2
  8
0
  6
CONTINUOUS
 62
     7
 10
64.98458282444115
 20
453.8992790502812
 30
0.0
  0
VERTEX
  5
3C3
  8
0
  6
CONTINUOUS
 62
     7
 10
65.03284610005647
 20
453.8990434410944
 30
0.0
  0
VERTEX
  5
3C4
  8
0
  6
CONTINUOUS
 62
     7
 10
65.08098056401532
 20
453.9011179849691
 30
0.0
  0
VERTEX
  5
3C5
  8
0
  6
CONTINUOUS
 62
     7
 10
65.12881976997991
 20
453.9055113942287
 30
0.0
  0
VERTEX
  5
3C6
  8
0
  6
CONTINUOUS
 62
     7
 10
65.17638996772024
 20
453.9122456446657
 30
0.0
  0
VERTEX
  5
3C7
  8
0
  6
CONTINUOUS
 62
     7
 10
65.2237137887149
 20
453.9213047239408
 30
0.0
  0
VERTEX
  5
3C8
  8
0
  6
CONTINUOUS
 62
     7
 10
65.27063130015324
 20
453.9326417548416
 30
0.0
  0
VERTEX
  5
3C9
  8
0
  6
CONTINUOUS
 62
     7
 10
65.31698256922462
 20
453.9462098601559
 30
0.0
  0
VERTEX
  5
3CA
  8
0
  6
CONTINUOUS
 62
     7
 10
65.36260766311837
 20
453.9619621626713
 30
0.0
  0
VERTEX
  5
3CB
  8
0
  6
CONTINUOUS
 62
     7
 10
65.40734664902381
 20
453.9798517851759
 30
0.0
  0
VERTEX
  5
3CC
  8
0
  6
CONTINUOUS
 62
     7
 10
65.45103959413034
 20
453.9998318504569
 30
0.0
  0
VERTEX
  5
3CD
  8
0
  6
CONTINUOUS
 62
     7
 10
65.48776975551966
 20
454.0186810051744
 30
0.0
  0
VERTEX
  5
3CE
  8
0
  6
CONTINUOUS
 62
     7
 10
65.52372142691459
 20
454.0390472506592
 30
0.0
  0
VERTEX
  5
3CF
  8
0
  6
CONTINUOUS
 62
     7
 10
65.55880393757536
 20
454.0608766870039
 30
0.0
  0
VERTEX
  5
3D0
  8
0
  6
CONTINUOUS
 62
     7
 10
65.59292661676223
 20
454.0841154143009
 30
0.0
  0
SEQEND
  5
454
  8
0
  6
CONTINUOUS
 62
     7
  0
POLYLINE
  5
10C
  8
0
  6
CONTINUOUS
 62
     7
 66
     1
 10
0.0
 20
0.0
 30
0.0
  0
VERTEX
  5
3D1
  8
0
  6
CONTINUOUS
 62
     7
 10
79.8201647917074
 20
423.5704024977131
 30
0.0
  0
VERTEX
  5
3D2
  8
0
  6
CONTINUOUS
 62
     7
 10
79.86131893993222
 20
423.5456044489088
 30
0.0
  0
VERTEX
  5
3D3
  8
0
  6
CONTINUOUS
 62
     7
 10
79.90374931668785
 20
423.5227655638191
 30
0.0
  0
VERTEX
  5
3D4
  8
0
  6
CONTINUOUS
 62
     7
 10
79.9473022474827
 20
423.5019505041539
 30
0.0
  0
VERTEX
  5
3D5
  8
0
  6
CONTINUOUS
 62
     7
 10
79.99182405782514
 20
423.4832239316224
 30
0.0
  0
VERTEX
  5
3D6
  8
0
  6
CONTINUOUS
 62
     7
 10
80.03716107322349
 20
423.4666505079344
 30
0.0
  0
VERTEX
  5
3D7
  8
0
  6
CONTINUOUS
 62
     7
 10
80.08315961918612
 20
423.4522948947996
 30
0.0
  0
VERTEX
  5
3D8
  8
0
  6
CONTINUOUS
 62
     7
 10
80.12966602122141
 20
423.4402217539273
 30
0.0
  0
VERTEX
  5
3D9
  8
0
  6
CONTINUOUS
 62
     7
 10
80.17670860630732
 20
423.4304436634025
 30
0.0
  0
VERTEX
  5
3DA
  8
0
  6
CONTINUOUS
 62
     7
 10
80.22430703077967
 20
423.4229368914683
 30
0.0
  0
VERTEX
  5
3DB
  8
0
  6
CONTINUOUS
 62
     7
 10
80.2722948600842
 20
423.4177115776347
 30
0.0
  0
VERTEX
  5
3DC
  8
0
  6
CONTINUOUS
 62
     7
 10
80.32050565966665
 20
423.4147778614114
 30
0.0
  0
VERTEX
  5
3DD
  8
0
  6
CONTINUOUS
 62
     7
 10
80.36877299497276
 20
423.4141458823085
 30
0.0
  0
VERTEX
  5
3DE
  8
0
  6
CONTINUOUS
 62
     7
 10
80.41693043144821
 20
423.4158257798358
 30
0.0
  0
VERTEX
  5
3DF
  8
0
  6
CONTINUOUS
 62
     7
 10
80.46481153453875
 20
423.4198276935031
 30
0.0
  0
VERTEX
  5
3E0
  8
0
  6
CONTINUOUS
 62
     7
 10
80.51243693947916
 20
423.4261725481593
 30
0.0
  0
VERTEX
  5
3E1
  8
0
  6
CONTINUOUS
 62
     7
 10
80.55983500388126
 20
423.4348445521525
 30
0.0
  0
VERTEX
  5
3E2
  8
0
  6
CONTINUOUS
 62
     7
 10
80.6068453384462
 20
423.4457981702398
 30
0.0
  0
VERTEX
  5
3E3
  8
0
  6
CONTINUOUS
 62
     7
 10
80.65330755387517
 20
423.4589878671776
 30
0.0
  0
VERTEX
  5
3E4
  8
0
  6
CONTINUOUS
 62
     7
 10
80.69906126086917
 20
423.474368107723
 30
0.0
  0
VERTEX
  5
3E5
  8
0
  6
CONTINUOUS
 62
     7
 10
80.7439460701294
 20
423.4918933566326
 30
0.0
  0
VERTEX
  5
3E6
  8
0
  6
CONTINUOUS
 62
     7
 10
80.78780159235697
 20
423.5115180786634
 30
0.0
  0
VERTEX
  5
3E7
  8
0
  6
CONTINUOUS
 62
     7
 10
80.83064142558501
 20
423.5332693921085
 30
0.0
  0
VERTEX
  5
3E8
  8
0
  6
CONTINUOUS
 62
     7
 10
80.87249646617815
 20
423.5571413092857
 30
0.0
  0
VERTEX
  5
3E9
  8
0
  6
CONTINUOUS
 62
     7
 10
80.91323046137354
 20
423.5830377716917
 30
0.0
  0
VERTEX
  5
3EA
  8
0
  6
CONTINUOUS
 62
     7
 10
80.95270715840836
 20
423.6108627208234
 30
0.0
  0
VERTEX
  5
3EB
  8
0
  6
CONTINUOUS
 62
     7
 10
80.99079030451973
 20
423.6405200981778
 30
0.0
  0
VERTEX
  5
3EC
  8
0
  6
CONTINUOUS
 62
     7
 10
81.02734364694487
 20
423.6719138452518
 30
0.0
  0
VERTEX
  5
3ED
  8
0
  6
CONTINUOUS
 62
     7
 10
81.06223093292093
 20
423.7049479035422
 30
0.0
  0
VERTEX
  5
3EE
  8
0
  6
CONTINUOUS
 62
     7
 10
81.09293643302999
 20
423.7368746466524
 30
0.0
  0
VERTEX
  5
3EF
  8
0
  6
CONTINUOUS
 62
     7
 10
81.1222266997781
 20
423.7701625763762
 30
0.0
  0
VERTEX
  5
3F0
  8
0
  6
CONTINUOUS
 62
     7
 10
81.15001782941529
 20
423.8047119502919
 30
0.0
  0
VERTEX
  5
3F1
  8
0
  6
CONTINUOUS
 62
     7
 10
81.17622591819158
 20
423.8404230259776
 30
0.0
  0
SEQEND
  5
455
  8
0
  6
CONTINUOUS
 62
     7
  0
LINE
  5
10D
  8
0
  6
CONTINUOUS
 62
     7
 10
60.50001903846793
 20
367.0
 30
0.0
 11
51.49998096153209
 21
367.0
 31
0.0
  0
LINE
  5
10E
  8
0
  6
CONTINUOUS
 62
     7
 10
61.00000000000001
 20
424.4999809615321
 30
0.0
 11
61.00000000000001
 21
464.5000190384679
 31
0.0
  0
LINE
  5
10F
  8
0
  6
CONTINUOUS
 62
     7
 10
61.4999809615321
 20
465.0
 30
0.0
 11
88.60001903846792
 21
465.0
 31
0.0
  0
LINE
  5
110
  8
0
  6
CONTINUOUS
 62
     7
 10
61.00000000000001
 20
367.4999809615321
 30
0.0
 11
61.00000000000001
 21
385.500019038468
 31
0.0
  0
POLYLINE
  5
111
  8
0
  6
CONTINUOUS
 62
     7
 66
     1
 10
0.0
 20
0.0
 30
0.0
  0
VERTEX
  5
3F2
  8
0
  6
CONTINUOUS
 62
     7
 10
109.0
 20
425.0005711540374
 30
0.0
  0
VERTEX
  5
3F3
  8
0
  6
CONTINUOUS
 62
     7
 10
108.711796087586
 20
427.926875411569
 30
0.0
  0
VERTEX
  5
3F4
  8
0
  6
CONTINUOUS
 62
     7
 10
107.8582587946644
 20
430.7406904111955
 30
0.0
  0
VERTEX
  5
3F5
  8
0
  6
CONTINUOUS
 62
     7
 10
106.4721859106433
 20
433.3338932711681
 30
0.0
  0
VERTEX
  5
3F6
  8
0
  6
CONTINUOUS
 62
     7
 10
104.6068382911773
 20
435.6068382911773
 30
0.0
  0
VERTEX
  5
3F7
  8
0
  6
CONTINUOUS
 62
     7
 10
102.3338932711681
 20
437.4721859106433
 30
0.0
  0
VERTEX
  5
3F8
  8
0
  6
CONTINUOUS
 62
     7
 10
99.74069041119549
 20
438.8582587946644
 30
0.0
  0
VERTEX
  5
3F9
  8
0
  6
CONTINUOUS
 62
     7
 10
96.92687541156899
 20
439.711796087586
 30
0.0
  0
VERTEX
  5
3FA
  8
0
  6
CONTINUOUS
 62
     7
 10
94.0005711540374
 20
440.0
 30
0.0
  0
SEQEND
  5
456
  8
0
  6
CONTINUOUS
 62
     7
  0
POLYLINE
  5
112
  8
0
  6
CONTINUOUS
 62
     7
 66
     1
 10
0.0
 20
0.0
 30
0.0
  0
VERTEX
  5
3FB
  8
0
  6
CONTINUOUS
 62
     7
 10
61.49998096153209
 20
386.0000000000001
 30
0.0
  0
VERTEX
  5
3FC
  8
0
  6
CONTINUOUS
 62
     7
 10
61.40243748628104
 20
385.9903932029196
 30
0.0
  0
VERTEX
  5
3FD
  8
0
  6
CONTINUOUS
 62
     7
 10
61.30864365296016
 20
385.9619419598222
 30
0.0
  0
VERTEX
  5
3FE
  8
0
  6
CONTINUOUS
 62
     7
 10
61.22220355762774
 20
385.9157395303549
 30
0.0
  0
VERTEX
  5
3FF
  8
0
  6
CONTINUOUS
 62
     7
 10
61.14643872362744
 20
385.8535612763726
 30
0.0
  0
VERTEX
  5
400
  8
0
  6
CONTINUOUS
 62
     7
 10
61.08426046964524
 20
385.7777964423723
 30
0.0
  0
VERTEX
  5
401
  8
0
  6
CONTINUOUS
 62
     7
 10
61.03805804017787
 20
385.6913563470399
 30
0.0
  0
VERTEX
  5
402
  8
0
  6
CONTINUOUS
 62
     7
 10
61.00960679708049
 20
385.597562513719
 30
0.0
  0
VERTEX
  5
403
  8
0
  6
CONTINUOUS
 62
     7
 10
61.00000000000001
 20
385.500019038468
 30
0.0
  0
SEQEND
  5
457
  8
0
  6
CONTINUOUS
 62
     7
  0
LINE
  5
113
  8
0
  6
CONTINUOUS
 62
     7
 10
51.0
 20
366.5000190384679
 30
0.0
 11
51.0
 21
365.4999809615321
 31
0.0
  0
POLYLINE
  5
114
  8
0
  6
CONTINUOUS
 62
     7
 66
     1
 10
0.0
 20
0.0
 30
0.0
  0
VERTEX
  5
404
  8
0
  6
CONTINUOUS
 62
     7
 10
94.0005711540374
 20
365.0
 30
0.0
  0
VERTEX
  5
405
  8
0
  6
CONTINUOUS
 62
     7
 10
96.92687541156903
 20
365.288203912414
 30
0.0
  0
VERTEX
  5
406
  8
0
  6
CONTINUOUS
 62
     7
 10
99.74069041119552
 20
366.1417412053356
 30
0.0
  0
VERTEX
  5
407
  8
0
  6
CONTINUOUS
 62
     7
 10
102.3338932711681
 20
367.5278140893567
 30
0.0
  0
VERTEX
  5
408
  8
0
  6
CONTINUOUS
 62
     7
 10
104.6068382911772
 20
369.3931617088227
 30
0.0
  0
VERTEX
  5
409
  8
0
  6
CONTINUOUS
 62
     7
 10
106.4721859106433
 20
371.6661067288319
 30
0.0
  0
VERTEX
  5
40A
  8
0
  6
CONTINUOUS
 62
     7
 10
107.8582587946644
 20
374.2593095888045
 30
0.0
  0
VERTEX
  5
40B
  8
0
  6
CONTINUOUS
 62
     7
 10
108.711796087586
 20
377.0731245884309
 30
0.0
  0
VERTEX
  5
40C
  8
0
  6
CONTINUOUS
 62
     7
 10
109.0
 20
379.9994288459626
 30
0.0
  0
SEQEND
  5
458
  8
0
  6
CONTINUOUS
 62
     7
  0
POLYLINE
  5
115
  8
0
  6
CONTINUOUS
 62
     7
 66
     1
 10
0.0
 20
0.0
 30
0.0
  0
VERTEX
  5
40D
  8
0
  6
CONTINUOUS
 62
     7
 10
91.10000000000002
 20
483.5000571154037
 30
0.0
  0
VERTEX
  5
40E
  8
0
  6
CONTINUOUS
 62
     7
 10
91.07117960875863
 20
483.7926875411569
 30
0.0
  0
VERTEX
  5
40F
  8
0
  6
CONTINUOUS
 62
     7
 10
90.98582587946647
 20
484.0740690411195
 30
0.0
  0
VERTEX
  5
410
  8
0
  6
CONTINUOUS
 62
     7
 10
90.84721859106436
 20
484.3333893271168
 30
0.0
  0
VERTEX
  5
411
  8
0
  6
CONTINUOUS
 62
     7
 10
90.66068382911776
 20
484.5606838291177
 30
0.0
  0
VERTEX
  5
412
  8
0
  6
CONTINUOUS
 62
     7
 10
90.43338932711684
 20
484.7472185910643
 30
0.0
  0
VERTEX
  5
413
  8
0
  6
CONTINUOUS
 62
     7
 10
90.17406904111958
 20
484.8858258794664
 30
0.0
  0
VERTEX
  5
414
  8
0
  6
CONTINUOUS
 62
     7
 10
89.89268754115693
 20
484.9711796087586
 30
0.0
  0
VERTEX
  5
415
  8
0
  6
CONTINUOUS
 62
     7
 10
89.60005711540377
 20
485.0
 30
0.0
  0
SEQEND
  5
459
  8
0
  6
CONTINUOUS
 62
     7
  0
POLYLINE
  5
116
  8
0
  6
CONTINUOUS
 62
     7
 66
     1
 10
0.0
 20
0.0
 30
0.0
  0
VERTEX
  5
416
  8
0
  6
CONTINUOUS
 62
     7
 10
61.00000000000001
 20
424.4999809615321
 30
0.0
  0
VERTEX
  5
417
  8
0
  6
CONTINUOUS
 62
     7
 10
61.00960679708049
 20
424.402437486281
 30
0.0
  0
VERTEX
  5
418
  8
0
  6
CONTINUOUS
 62
     7
 10
61.03805804017787
 20
424.3086436529601
 30
0.0
  0
VERTEX
  5
419
  8
0
  6
CONTINUOUS
 62
     7
 10
61.08426046964524
 20
424.2222035576277
 30
0.0
  0
VERTEX
  5
41A
  8
0
  6
CONTINUOUS
 62
     7
 10
61.14643872362744
 20
424.1464387236275
 30
0.0
  0
VERTEX
  5
41B
  8
0
  6
CONTINUOUS
 62
     7
 10
61.22220355762774
 20
424.0842604696452
 30
0.0
  0
VERTEX
  5
41C
  8
0
  6
CONTINUOUS
 62
     7
 10
61.30864365296016
 20
424.0380580401779
 30
0.0
  0
VERTEX
  5
41D
  8
0
  6
CONTINUOUS
 62
     7
 10
61.40243748628104
 20
424.0096067970805
 30
0.0
  0
VERTEX
  5
41E
  8
0
  6
CONTINUOUS
 62
     7
 10
61.49998096153209
 20
424.0
 30
0.0
  0
SEQEND
  5
45A
  8
0
  6
CONTINUOUS
 62
     7
  0
POLYLINE
  5
117
  8
0
  6
CONTINUOUS
 62
     7
 66
     1
 10
0.0
 20
0.0
 30
0.0
  0
VERTEX
  5
41F
  8
0
  6
CONTINUOUS
 62
     7
 10
88.6000190384679
 20
465.0000000000001
 30
0.0
  0
VERTEX
  5
420
  8
0
  6
CONTINUOUS
 62
     7
 10
88.69756251371896
 20
465.0096067970806
 30
0.0
  0
VERTEX
  5
421
  8
0
  6
CONTINUOUS
 62
     7
 10
88.79135634703987
 20
465.0380580401779
 30
0.0
  0
VERTEX
  5
422
  8
0
  6
CONTINUOUS
 62
     7
 10
88.87779644237229
 20
465.0842604696452
 30
0.0
  0
VERTEX
  5
423
  8
0
  6
CONTINUOUS
 62
     7
 10
88.95356127637258
 20
465.1464387236275
 30
0.0
  0
VERTEX
  5
424
  8
0
  6
CONTINUOUS
 62
     7
 10
89.0157395303548
 20
465.2222035576278
 30
0.0
  0
VERTEX
  5
425
  8
0
  6
CONTINUOUS
 62
     7
 10
89.06194195982216
 20
465.3086436529602
 30
0.0
  0
VERTEX
  5
426
  8
0
  6
CONTINUOUS
 62
     7
 10
89.09039320291954
 20
465.4024374862811
 30
0.0
  0
VERTEX
  5
427
  8
0
  6
CONTINUOUS
 62
     7
 10
89.10000000000001
 20
465.4999809615321
 30
0.0
  0
SEQEND
  5
45B
  8
0
  6
CONTINUOUS
 62
     7
  0
POLYLINE
  5
118
  8
0
  6
CONTINUOUS
 62
     7
 66
     1
 10
0.0
 20
0.0
 30
0.0
  0
VERTEX
  5
428
  8
0
  6
CONTINUOUS
 62
     7
 10
51.00000000000001
 20
365.4999809615321
 30
0.0
  0
VERTEX
  5
429
  8
0
  6
CONTINUOUS
 62
     7
 10
51.00960679708047
 20
365.4024374862811
 30
0.0
  0
VERTEX
  5
42A
  8
0
  6
CONTINUOUS
 62
     7
 10
51.03805804017786
 20
365.3086436529602
 30
0.0
  0
VERTEX
  5
42B
  8
0
  6
CONTINUOUS
 62
     7
 10
51.08426046964522
 20
365.2222035576278
 30
0.0
  0
VERTEX
  5
42C
  8
0
  6
CONTINUOUS
 62
     7
 10
51.14643872362743
 20
365.1464387236275
 30
0.0
  0
VERTEX
  5
42D
  8
0
  6
CONTINUOUS
 62
     7
 10
51.22220355762773
 20
365.0842604696452
 30
0.0
  0
VERTEX
  5
42E
  8
0
  6
CONTINUOUS
 62
     7
 10
51.30864365296015
 20
365.0380580401779
 30
0.0
  0
VERTEX
  5
42F
  8
0
  6
CONTINUOUS
 62
     7
 10
51.40243748628103
 20
365.0096067970806
 30
0.0
  0
VERTEX
  5
430
  8
0
  6
CONTINUOUS
 62
     7
 10
51.49998096153209
 20
365.0000000000001
 30
0.0
  0
SEQEND
  5
45C
  8
0
  6
CONTINUOUS
 62
     7
  0
LINE
  5
119
  8
0
  6
CONTINUOUS
 62
     7
 10
109.0
 20
425.0005711540375
 30
0.0
 11
109.0
 21
379.9994288459626
 31
0.0
  0
POLYLINE
  5
11A
  8
0
  6
CONTINUOUS
 62
     7
 66
     1
 10
0.0
 20
0.0
 30
0.0
  0
VERTEX
  5
431
  8
0
  6
CONTINUOUS
 62
     7
 10
61.49998096153209
 20
465.0
 30
0.0
  0
VERTEX
  5
432
  8
0
  6
CONTINUOUS
 62
     7
 10
61.40243748628103
 20
464.9903932029195
 30
0.0
  0
VERTEX
  5
433
  8
0
  6
CONTINUOUS
 62
     7
 10
61.30864365296015
 20
464.9619419598221
 30
0.0
  0
VERTEX
  5
434
  8
0
  6
CONTINUOUS
 62
     7
 10
61.22220355762773
 20
464.9157395303548
 30
0.0
  0
VERTEX
  5
435
  8
0
  6
CONTINUOUS
 62
     7
 10
61.14643872362743
 20
464.8535612763726
 30
0.0
  0
VERTEX
  5
436
  8
0
  6
CONTINUOUS
 62
     7
 10
61.08426046964522
 20
464.7777964423723
 30
0.0
  0
VERTEX
  5
437
  8
0
  6
CONTINUOUS
 62
     7
 10
61.03805804017785
 20
464.6913563470399
 30
0.0
  0
VERTEX
  5
438
  8
0
  6
CONTINUOUS
 62
     7
 10
61.00960679708046
 20
464.597562513719
 30
0.0
  0
VERTEX
  5
439
  8
0
  6
CONTINUOUS
 62
     7
 10
61.0
 20
464.5000190384679
 30
0.0
  0
SEQEND
  5
45D
  8
0
  6
CONTINUOUS
 62
     7
  0
LINE
  5
11B
  8
0
  6
CONTINUOUS
 62
     7
 10
93.59999999999987
 20
437.0
 30
0.0
 11
93.59999999999987
 21
368.0
 31
0.0
  0
ENDBLK
  8
0
  0
ENDSEC
  0
SECTION
  2
ENTITIES
  0
INSERT
  5
91
  8
0
  6
CONTINUOUS
 62
     7
  2
D_FRAME_VIEW_1956
 10
0.0
 20
0.0
 30
0.0
  0
LINE
  5
92
  8
0
  6
CENTER
 62
     1
 10
61.49999999999998
 20
450.0
 30
0.0
 11
75.49999999999996
 21
450.0
 31
0.0
  0
LINE
  5
94
  8
0
  6
CENTER
 62
     1
 10
68.49999999999996
 20
443.0
 30
0.0
 11
68.49999999999996
 21
457.0
 31
0.0
  0
LINE
  5
95
  8
0
  6
CENTER
 62
     1
 10
46.99999999999994
 20
405.0
 30
0.0
 11
88.99999999999999
 21
405.0
 31
0.0
  0
LINE
  5
96
  8
0
  6
CENTER
 62
     1
 10
68.49999999999996
 20
368.0
 30
0.0
 11
68.49999999999996
 21
382.0
 31
0.0
  0
LINE
  5
97
  8
0
  6
CENTER
 62
     1
 10
67.99999999999996
 20
384.0
 30
0.0
 11
67.99999999999996
 21
426.0000000000001
 31
0.0
  0
LINE
  5
98
  8
0
  6
CENTER
 62
     1
 10
61.49999999999995
 20
375.0
 30
0.0
 11
75.49999999999999
 21
375.0
 31
0.0
  0
INSERT
  5
11C
  8
0
  6
CONTINUOUS
 62
     7
  2
D_FRAME_VIEW_1481
 10
0.0
 20
0.0
 30
0.0
  0
TEXT
  5
11D
  8
0
  6
CONTINUOUS
 62
     3
 10
133.0263505064399
 20
353.3284200325122
 30
0.0
 40
3.0
  1
RMGWS-20
  0
ENDSEC
  0
EOF
