  0
SECTION
  2
HEADER
  9
$ACADVER
  1
AC1015
  9
$ACADMAINTVER
 70
     6
  9
$DWGCODEPAGE
  3
DOS932
  9
$INSBASE
 10
0.0
 20
0.0
 30
0.0
  9
$EXTMIN
 10
67.0
 20
50.027273
 30
0.0
  9
$EXTMAX
 10
274.0
 20
274.0
 30
0.0
  9
$LIMMIN
 10
67.0
 20
50.027273
  9
$LIMMAX
 10
274.0
 20
274.0
  9
$ORTHOMODE
 70
     0
  9
$REGENMODE
 70
     1
  9
$FILLMODE
 70
     1
  9
$QTEXTMODE
 70
     0
  9
$MIRRTEXT
 70
     1
  9
$LTSCALE
 40
10.0
  9
$ATTMODE
 70
     1
  9
$TEXTSIZE
 40
0.2
  9
$TRACEWID
 40
0.05
  9
$TEXTSTYLE
  7
Standard
  9
$CLAYER
  8
0
  9
$CELTYPE
  6
Continuous
  9
$CECOLOR
 62
   256
  9
$CELTSCALE
 40
1.0
  9
$DISPSILH
 70
     0
  9
$DIMSCALE
 40
1.0
  9
$DIMASZ
 40
0.9
  9
$DIMEXO
 40
0.9
  9
$DIMDLI
 40
0.38
  9
$DIMRND
 40
0.0
  9
$DIMDLE
 40
0.0
  9
$DIMEXE
 40
0.9
  9
$DIMTP
 40
0.0
  9
$DIMTM
 40
0.0
  9
$DIMTXT
 40
3.0
  9
$DIMCEN
 40
0.09
  9
$DIMTSZ
 40
0.0
  9
$DIMTOL
 70
     0
  9
$DIMLIM
 70
     0
  9
$DIMTIH
 70
     0
  9
$DIMTOH
 70
     0
  9
$DIMSE1
 70
     0
  9
$DIMSE2
 70
     0
  9
$DIMTAD
 70
     1
  9
$DIMZIN
 70
     0
  9
$DIMBLK
  1

  9
$DIMASO
 70
     1
  9
$DIMSHO
 70
     1
  9
$DIMPOST
  1

  9
$DIMAPOST
  1

  9
$DIMALT
 70
     0
  9
$DIMALTD
 70
     2
  9
$DIMALTF
 40
25.4
  9
$DIMLFAC
 40
1.0
  9
$DIMTOFL
 70
     0
  9
$DIMTVP
 40
0.0
  9
$DIMTIX
 70
     0
  9
$DIMSOXD
 70
     0
  9
$DIMSAH
 70
     0
  9
$DIMBLK1
  1

  9
$DIMBLK2
  1

  9
$DIMSTYLE
  2
Standard
  9
$DIMCLRD
 70
     7
  9
$DIMCLRE
 70
     7
  9
$DIMCLRT
 70
     7
  9
$DIMTFAC
 40
0.5
  9
$DIMGAP
 40
1.5
  9
$DIMJUST
 70
     0
  9
$DIMSD1
 70
     0
  9
$DIMSD2
 70
     0
  9
$DIMTOLJ
 70
     1
  9
$DIMTZIN
 70
     0
  9
$DIMALTZ
 70
     0
  9
$DIMALTTZ
 70
     0
  9
$DIMUPT
 70
     0
  9
$DIMDEC
 70
     2
  9
$DIMTDEC
 70
     4
  9
$DIMALTU
 70
     2
  9
$DIMALTTD
 70
     2
  9
$DIMTXSTY
  7
Standard
  9
$DIMAUNIT
 70
     0
  9
$DIMADEC
 70
     0
  9
$DIMALTRND
 40
0.0
  9
$DIMAZIN
 70
     0
  9
$DIMDSEP
 70
     0
  9
$DIMATFIT
 70
     3
  9
$DIMFRAC
 70
     0
  9
$DIMLDRBLK
  1

  9
$DIMLUNIT
 70
     2
  9
$DIMLWD
 70
     0
  9
$DIMLWE
 70
     0
  9
$DIMTMOVE
 70
     0
  9
$LUNITS
 70
     2
  9
$LUPREC
 70
     4
  9
$SKETCHINC
 40
0.1
  9
$FILLETRAD
 40
0.0
  9
$AUNITS
 70
     0
  9
$AUPREC
 70
     0
  9
$MENU
  1
acad
  9
$ELEVATION
 40
0.0
  9
$PELEVATION
 40
0.0
  9
$THICKNESS
 40
0.0
  9
$LIMCHECK
 70
     0
  9
$CHAMFERA
 40
0.0
  9
$CHAMFERB
 40
0.0
  9
$CHAMFERC
 40
0.0
  9
$CHAMFERD
 40
0.0
  9
$SKPOLY
 70
     0
  9
$TDCREATE
 40
2453998.715706019
  9
$TDUCREATE
 40
0.000000000
  9
$TDUPDATE
 40
2453998.340439815
  9
$TDUUPDATE
 40
0.000000000
  9
$TDINDWG
 40
0.0000000000
  9
$TDUSRTIMER
 40
0.0000000000
  9
$USRTIMER
 70
     1
  9
$ANGBASE
 50
0.0
  9
$ANGDIR
 70
     0
  9
$PDMODE
 70
     0
  9
$PDSIZE
 40
0.0
  9
$PLINEWID
 40
0.0
  9
$SPLFRAME
 70
     0
  9
$SPLINETYPE
 70
     6
  9
$SPLINESEGS
 70
     8
  9
$HANDSEED
  5
CE
  9
$SURFTAB1
 70
     6
  9
$SURFTAB2
 70
     6
  9
$SURFTYPE
 70
     6
  9
$SURFU
 70
     6
  9
$SURFV
 70
     6
  9
$UCSBASE
  2

  9
$UCSNAME
  2

  9
$UCSORG
 10
0.0
 20
0.0
 30
0.0
  9
$UCSXDIR
 10
1.0
 20
0.0
 30
0.0
  9
$UCSYDIR
 10
0.0
 20
1.0
 30
0.0
  9
$UCSORTHOREF
  2

  9
$UCSORTHOVIEW
 70
     0
  9
$UCSORGTOP
 10
0.0
 20
0.0
 30
0.0
  9
$UCSORGBOTTOM
 10
0.0
 20
0.0
 30
0.0
  9
$UCSORGLEFT
 10
0.0
 20
0.0
 30
0.0
  9
$UCSORGRIGHT
 10
0.0
 20
0.0
 30
0.0
  9
$UCSORGFRONT
 10
0.0
 20
0.0
 30
0.0
  9
$UCSORGBACK
 10
0.0
 20
0.0
 30
0.0
  9
$PUCSBASE
  2

  9
$PUCSNAME
  2

  9
$PUCSORG
 10
0.0
 20
0.0
 30
0.0
  9
$PUCSXDIR
 10
1.0
 20
0.0
 30
0.0
  9
$PUCSYDIR
 10
0.0
 20
1.0
 30
0.0
  9
$PUCSORTHOREF
  2

  9
$PUCSORTHOVIEW
 70
     0
  9
$PUCSORGTOP
 10
0.0
 20
0.0
 30
0.0
  9
$PUCSORGBOTTOM
 10
0.0
 20
0.0
 30
0.0
  9
$PUCSORGLEFT
 10
0.0
 20
0.0
 30
0.0
  9
$PUCSORGRIGHT
 10
0.0
 20
0.0
 30
0.0
  9
$PUCSORGFRONT
 10
0.0
 20
0.0
 30
0.0
  9
$PUCSORGBACK
 10
0.0
 20
0.0
 30
0.0
  9
$USERI1
 70
     0
  9
$USERI2
 70
     0
  9
$USERI3
 70
     0
  9
$USERI4
 70
     0
  9
$USERI5
 70
     0
  9
$USERR1
 40
0.0
  9
$USERR2
 40
0.0
  9
$USERR3
 40
0.0
  9
$USERR4
 40
0.0
  9
$USERR5
 40
0.0
  9
$WORLDVIEW
 70
     1
  9
$SHADEDGE
 70
     3
  9
$SHADEDIF
 70
    70
  9
$TILEMODE
 70
     1
  9
$MAXACTVP
 70
    16
  9
$PINSBASE
 10
0.0
 20
0.0
 30
0.0
  9
$PLIMCHECK
 70
     0
  9
$PEXTMIN
 10
1.000000E+20
 20
1.000000E+20
 30
1.000000E+20
  9
$PEXTMAX
 10
-1.000000E+20
 20
-1.000000E+20
 30
-1.000000E+20
  9
$PLIMMIN
 10
0.0
 20
0.0
  9
$PLIMMAX
 10
12.0
 20
9.0
  9
$UNITMODE
 70
     0
  9
$VISRETAIN
 70
     0
  9
$PLINEGEN
 70
     1
  9
$PSLTSCALE
 70
     0
  9
$TREEDEPTH
 70
  3020
  9
$CMLSTYLE
  2
Standard
  9
$CMLJUST
 70
     0
  9
$CMLSCALE
 40
1.0
  9
$PROXYGRAPHICS
 70
     0
  9
$MEASUREMENT
 70
     0
  9
$CELWEIGHT
370
     0
  9
$ENDCAPS
280
     0
  9
$JOINSTYLE
280
     0
  9
$LWDISPLAY
290
     0
  9
$INSUNITS
 70
     0
  9
$HYPERLINKBASE
  1

  9
$STYLESHEET
  1

  9
$XEDIT
290
     1
  9
$CEPSNTYPE
380
     0
  9
$PSTYLEMODE
290
     1
  9
$FINGERPRINTGUID
  2

  9
$VERSIONGUID
  2

  9
$EXTNAMES
290
     1
  9
$PSVPSCALE
 40
0.0
  0
ENDSEC
  0
SECTION
  2
CLASSES
  0
CLASS
  1
LWPOLYLINE
  2
AcDbPolyline
  3
AutoCAD 2000
 90
        0
280
     0
281
     1
  0
CLASS
  1
IMAGE
  2
AcDbRasterImage
  3
ISM
 90
      127
280
     0
281
     1
  0
CLASS
  1
OLE2FRAME
  2
AcDbOle2Frame
  3
AutoCAD 2000
 90
        0
280
     0
281
     1
  0
CLASS
  1
HATCH
  2
AcDbHatch
  3
AutoCAD 2000
 90
        0
280
     0
281
     1
  0
CLASS
  1
DICTIONARYVAR
  2
AcDbDictionaryVar
  3
AutoCAD 2000
 90
        0
280
     0
281
     0
  0
CLASS
  1
RASTERVARIABLES
  2
AcDbRasterVariables
  3
ISM
 90
        0
280
     0
281
     0
  0
CLASS
  1
IMAGEDEF
  2
AcDbRasterImageDef
  3
ISM
 90
        0
280
     0
281
     0
  0
CLASS
  1
IMAGEDEF_REACTOR
  2
AcDbRasterImageDefReactor
  3
ISM
 90
        1
280
     0
281
     0
  0
CLASS
  1
IDBUFFER
  2
AcDbIdBuffer
  3
AutoCAD 2000
 90
        0
280
     0
281
     0
  0
CLASS
  1
SPATIAL_FILTER
  2
AcDbSpatialFilter
  3
AutoCAD 2000
 90
        0
280
     0
281
     0
  0
CLASS
  1
XRECORD
  2
AcDbXrecord
  3
AutoCAD 2000
 90
        0
280
     0
281
     0
  0
CLASS
  1
SORTENTSTABLE
  2
AcDbSortentsTable
  3
AutoCAD 2000
 90
        0
280
     0
281
     0
  0
CLASS
  1
LAYER_INDEX
  2
AcDbLayerIndex
  3
AutoCAD 2000
 90
        0
280
     0
281
     0
  0
CLASS
  1
SPATIAL_INDEX
  2
AcDbSpatialIndex
  3
AutoCAD 2000
 90
        0
280
     0
281
     0
  0
CLASS
  1
OBJECT_PTR
  2
CAseDLPNTableRecord
  3
"ASE-LPNTableRecord"
 90
        1
280
     0
281
     0
  0
CLASS
  1
LAYOUT
  2
AcDbLayout
  3
AutoCAD 2000
 90
        0
280
     0
281
     0
  0
CLASS
  1
PLOTSETTINGS
  2
AcDbPlotSettings
  3
AutoCAD 2000
 90
        0
280
     0
281
     0
  0
CLASS
  1
ACDBDICTIONARYWDFLT
  2
AcDbDictionaryWithDefault
  3
AutoCAD 2000
 90
        0
280
     0
281
     0
  0
CLASS
  1
ACDBPLACEHOLDER
  2
AcDbPlaceHolder
  3
AutoCAD 2000
 90
        0
280
     0
281
     0
  0
CLASS
  1
VBA_PROJECT
  2
AcDbVbaProject
  3
acadvba
 90
        0
280
     0
281
     0
  0
CLASS
  1
WIPEOUT
  2
AcDbWipeout
  3
WipeOut|AutoCAD Express Tool|expresstools@autodesk.com
 90
      127
280
     0
281
     1
  0
CLASS
  1
WIPEOUTVARIABLES
  2
AcDbWipeoutVariables
  3
WipeOut|AutoCAD Express Tool|expresstools@autodesk.com
 90
        0
280
     0
281
     0
  0
CLASS
  1
RTEXT
  2
RText
  3
RText|AutoCAD Express Tool|expresstools@autodesk.com
 90
        0
280
     0
281
     1
  0
CLASS
  1
ARCALIGNEDTEXT
  2
AcDbArcAlignedText
  3
ATEXT|AutoCAD Express Tool|expresstools@autodesk.com
 90
        0
280
     0
281
     1
  0
ENDSEC
  0
SECTION
  2
TABLES
  0
TABLE
  2
VPORT
  5
7
100
AcDbSymbolTable
 70
     1
  0
VPORT
  5
15
100
AcDbSymbolTableRecord
100
AcDbViewportTableRecord
  2
*ACTIVE
 70
     0
 10
0.0
 20
0.0
 11
1.0
 21
1.0
 12
6.591288
 22
4.579184
 13
0.0
 23
0.0
 14
1.0
 24
1.0
 15
0.0
 25
0.0
 16
0.0
 26
0.0
 36
1.0
 17
0.0
 27
0.0
 37
0.0
 40
9.158369
 41
0.688564
 42
50.0
 43
0.0
 44
0.0
 50
0.0
 51
0.0
 71
     0
 72
   100
 73
     1
 74
     1
 75
     0
 76
     0
 77
     0
 78
     0
281
     0
 65
     0
110
0.0
120
0.0
130
0.0
111
1.0
121
0.0
131
0.0
112
0.0
122
1.0
132
0.0
345
0
346
0
 79
     0
146
0.0
  0
ENDTAB
  0
TABLE
  2
LTYPE
  5
4
100
AcDbSymbolTable
 70
     3
  0
LTYPE
  5
11
100
AcDbSymbolTableRecord
100
AcDbLinetypeTableRecord
  2
ByBlock
 70
    64
  3

 72
    65
 73
     0
 40
0.0
  0
LTYPE
  5
12
100
AcDbSymbolTableRecord
100
AcDbLinetypeTableRecord
  2
ByLayer
 70
    64
  3

 72
    65
 73
     0
 40
0.0
  0
LTYPE
  5
13
100
AcDbSymbolTableRecord
100
AcDbLinetypeTableRecord
  2
Continuous
 70
    64
  3
Solid line
 72
    65
 73
     0
 40
0.0
  0
ENDTAB
  0
TABLE
  2
LAYER
  5
2
100
AcDbSymbolTable
 70
     2
  0
LAYER
  5
14
100
AcDbSymbolTableRecord
100
AcDbLayerTableRecord
  2
0
 70
     0
 62
     7
  6
Continuous
290
     1
370
    -3
390
1D
  0
LAYER
  5
28
100
AcDbSymbolTableRecord
100
AcDbLayerTableRecord
  2
2
 70
     0
 62
     7
  6
Continuous
290
     1
370
    -3
390
1D
  0
ENDTAB
  0
TABLE
  2
STYLE
  5
3
100
AcDbSymbolTable
 70
     1
  0
STYLE
  5
17
100
AcDbSymbolTableRecord
100
AcDbTextStyleTableRecord
  2
Standard
 70
     0
 40
0.0
 41
1.0
 50
0.0
 71
     0
 42
0.0
  3
ＭＳ ゴシック
  4

1001
ACAD
1000
ＭＳ ゴシック
1071
        1
  0
ENDTAB
  0
TABLE
  2
VIEW
  5
5
100
AcDbSymbolTable
 70
     0
  0
ENDTAB
  0
TABLE
  2
UCS
  5
6
100
AcDbSymbolTable
 70
     0
  0
ENDTAB
  0
TABLE
  2
APPID
  5
8
100
AcDbSymbolTable
 70
     2
  0
APPID
  5
16
100
AcDbSymbolTableRecord
100
AcDbRegAppTableRecord
  2
ACAD
 70
     0
  0
APPID
  5
26
100
AcDbSymbolTableRecord
100
AcDbRegAppTableRecord
  2
TOPsolid_Draft
 70
     0
  0
ENDTAB
  0
TABLE
  2
DIMSTYLE
  5
9
100
AcDbSymbolTable
 70
     1
100
AcDbDimStyleTable
 71
     0
  0
DIMSTYLE
105
18
100
AcDbSymbolTableRecord
100
AcDbDimStyleTableRecord
  2
Standard
 70
     0
  3

  4

 40
1.0
 41
0.9
 42
0.9
 43
0.38
 44
0.9
 45
0.0
 46
0.0
 47
0.0
 48
0.0
 71
     0
 72
     0
 73
     0
 74
     0
 75
     0
 76
     0
 77
     1
 78
     0
 79
     0
140
3.0
141
0.09
142
0.0
143
25.4
144
1.0
145
0.0
146
0.5
147
1.5
148
0.0
170
     0
171
     2
172
     0
173
     0
174
     0
175
     0
176
     7
177
     7
178
     7
179
     0
271
     2
272
     4
273
     2
274
     2
275
     0
276
     0
277
     2
278
    46
279
     0
280
     0
281
     0
282
     0
283
     1
284
     0
285
     0
286
     0
288
     0
289
     3
340
17
341
0
342
0
343
0
344
0
371
    -2
372
    -2
  0
ENDTAB
  0
TABLE
  2
BLOCK_RECORD
  5
1
100
AcDbSymbolTable
 70
     0
  0
BLOCK_RECORD
  5
A
100
AcDbSymbolTableRecord
100
AcDbBlockTableRecord
  2
*MODEL_SPACE
340
20
  0
BLOCK_RECORD
  5
B
100
AcDbSymbolTableRecord
100
AcDbBlockTableRecord
  2
*PAPER_SPACE
340
21
  0
ENDTAB
  0
ENDSEC
  0
SECTION
  2
BLOCKS
  0
BLOCK
  5
D
100
AcDbEntity
  8
0
390
0
100
AcDbBlockBegin
  2
*MODEL_SPACE
 70
     0
 10
0.0
 20
0.0
 30
0.0
  3
*MODEL_SPACE
  1

  0
ENDBLK
  5
E
100
AcDbEntity
  8
0
390
0
100
AcDbBlockEnd
  0
BLOCK
  5
F
100
AcDbEntity
 67
     1
  8
0
390
0
100
AcDbBlockBegin
  2
*PAPER_SPACE
 70
     0
 10
0.0
 20
0.0
 30
0.0
  3
*PAPER_SPACE
  1

  0
ENDBLK
  5
10
100
AcDbEntity
 67
     1
  8
0
390
0
100
AcDbBlockEnd
  0
ENDSEC
  0
SECTION
  2
ENTITIES
  0
MTEXT
  5
27
100
AcDbEntity
  8
0
390
0
 62
     7
100
AcDbMText
 10
120.0
 20
51.5
 30
0.0
 40
3.0
 41
23.836364
 71
     5
 72
     1
  1
RMH-25M
210
0.0
220
0.0
230
1.0
 73
     1
 44
1.0
  0
ARC
  5
29
100
AcDbEntity
  8
2
390
0
  6
Continuous
 62
     7
100
AcDbCircle
 10
106.855976
 20
76.503599
 30
0.0
 40
1.0
210
0.0
220
0.0
230
1.0
100
AcDbArc
 50
300.0
 51
360.0
  0
LINE
  5
2A
100
AcDbEntity
  8
2
390
0
  6
Continuous
 62
     7
100
AcDbLine
 10
104.75
 20
74.133013
 30
0.0
 11
107.355976
 21
75.637574
 31
0.0
  0
ARC
  5
2B
100
AcDbEntity
  8
2
390
0
  6
Continuous
 62
     7
100
AcDbCircle
 10
105.5
 20
72.833975
 30
0.0
 40
1.5
210
0.0
220
0.0
230
1.0
100
AcDbArc
 50
120.0
 51
180.0
  0
LINE
  5
2C
100
AcDbEntity
  8
2
390
0
  6
Continuous
 62
     7
100
AcDbLine
 10
104.0
 20
68.5
 30
0.0
 11
104.0
 21
72.833975
 31
0.0
  0
ARC
  5
2D
100
AcDbEntity
  8
2
390
0
  6
Continuous
 62
     7
100
AcDbCircle
 10
105.0
 20
68.5
 30
0.0
 40
1.0
210
0.0
220
0.0
230
0.9999999999999999
100
AcDbArc
 50
180.0
 51
270.0
  0
LINE
  5
2E
100
AcDbEntity
  8
2
390
0
  6
Continuous
 62
     7
100
AcDbLine
 10
105.992893
 20
67.5
 30
0.0
 11
105.0
 21
67.5
 31
0.0
  0
ARC
  5
2F
100
AcDbEntity
  8
2
390
0
  6
Continuous
 62
     7
100
AcDbCircle
 10
105.992893
 20
67.0
 30
0.0
 40
0.5
210
0.0
220
0.0
230
1.0
100
AcDbArc
 50
45.0
 51
90.0
  0
LINE
  5
30
100
AcDbEntity
  8
2
390
0
  6
Continuous
 62
     7
100
AcDbLine
 10
107.853553
 20
65.846447
 30
0.0
 11
106.346447
 21
67.353553
 31
0.0
  0
ARC
  5
31
100
AcDbEntity
  8
2
390
0
  6
Continuous
 62
     7
100
AcDbCircle
 10
108.207107
 20
66.2
 30
0.0
 40
0.5
210
0.0
220
0.0
230
1.0
100
AcDbArc
 50
225.0
 51
270.0
  0
LINE
  5
32
100
AcDbEntity
  8
2
390
0
  6
Continuous
 62
     7
100
AcDbLine
 10
112.3
 20
65.7
 30
0.0
 11
109.040282
 21
65.7
 31
0.0
  0
LINE
  5
33
100
AcDbEntity
  8
2
390
0
  6
Continuous
 62
     7
100
AcDbLine
 10
109.040282
 20
65.7
 30
0.0
 11
108.207107
 21
65.7
 31
0.0
  0
ARC
  5
34
100
AcDbEntity
  8
2
390
0
  6
Continuous
 62
     7
100
AcDbCircle
 10
112.3
 20
65.2
 30
0.0
 40
0.5
210
0.0
220
0.0
230
1.0
100
AcDbArc
 50
0.0
 51
90.0
  0
LINE
  5
35
100
AcDbEntity
  8
2
390
0
  6
Continuous
 62
     7
100
AcDbLine
 10
112.8
 20
63.5
 30
0.0
 11
112.8
 21
65.2
 31
0.0
  0
LINE
  5
36
100
AcDbEntity
  8
2
390
0
  6
Continuous
 62
     7
100
AcDbLine
 10
105.3
 20
63.5
 30
0.0
 11
112.8
 21
63.5
 31
0.0
  0
LINE
  5
37
100
AcDbEntity
  8
2
390
0
  6
Continuous
 62
     7
100
AcDbLine
 10
105.3
 20
65.0
 30
0.0
 11
105.3
 21
63.5
 31
0.0
  0
ARC
  5
38
100
AcDbEntity
  8
2
390
0
  6
Continuous
 62
     7
100
AcDbCircle
 10
104.8
 20
65.0
 30
0.0
 40
0.5
210
0.0
220
0.0
230
1.0
100
AcDbArc
 50
0.0
 51
90.0
  0
LINE
  5
39
100
AcDbEntity
  8
2
390
0
  6
Continuous
 62
     7
100
AcDbLine
 10
104.0
 20
65.5
 30
0.0
 11
104.8
 21
65.5
 31
0.0
  0
ARC
  5
3A
100
AcDbEntity
  8
2
390
0
  6
Continuous
 62
     7
100
AcDbCircle
 10
104.0
 20
65.0
 30
0.0
 40
0.5
210
0.0
220
0.0
230
1.0
100
AcDbArc
 50
90.0
 51
180.0
  0
LINE
  5
3B
100
AcDbEntity
  8
2
390
0
  6
Continuous
 62
     7
100
AcDbLine
 10
103.5
 20
63.5
 30
0.0
 11
103.5
 21
65.0
 31
0.0
  0
LINE
  5
3C
100
AcDbEntity
  8
2
390
0
  6
Continuous
 62
     7
100
AcDbLine
 10
102.0
 20
63.5
 30
0.0
 11
103.5
 21
63.5
 31
0.0
  0
ARC
  5
3D
100
AcDbEntity
  8
2
390
0
  6
Continuous
 62
     7
100
AcDbCircle
 10
101.5
 20
65.0
 30
0.0
 40
0.5
210
0.0
220
0.0
230
0.9999999999999999
100
AcDbArc
 50
360.0
 51
90.0
  0
LINE
  5
3E
100
AcDbEntity
  8
2
390
0
  6
Continuous
 62
     7
100
AcDbLine
 10
80.5
 20
65.5
 30
0.0
 11
101.5
 21
65.5
 31
0.0
  0
ARC
  5
3F
100
AcDbEntity
  8
2
390
0
  6
Continuous
 62
     7
100
AcDbCircle
 10
80.5
 20
65.0
 30
0.0
 40
0.5
210
0.0
220
0.0
230
1.0
100
AcDbArc
 50
90.0
 51
180.0
  0
LINE
  5
40
100
AcDbEntity
  8
2
390
0
  6
Continuous
 62
     7
100
AcDbLine
 10
80.0
 20
63.5
 30
0.0
 11
80.0
 21
65.0
 31
0.0
  0
LINE
  5
41
100
AcDbEntity
  8
2
390
0
  6
Continuous
 62
     7
100
AcDbLine
 10
78.5
 20
63.5
 30
0.0
 11
80.0
 21
63.5
 31
0.0
  0
LINE
  5
42
100
AcDbEntity
  8
2
390
0
  6
Continuous
 62
     7
100
AcDbLine
 10
78.5
 20
65.0
 30
0.0
 11
78.5
 21
63.5
 31
0.0
  0
ARC
  5
43
100
AcDbEntity
  8
2
390
0
  6
Continuous
 62
     7
100
AcDbCircle
 10
78.0
 20
65.0
 30
0.0
 40
0.5
210
0.0
220
0.0
230
1.0
100
AcDbArc
 50
0.0
 51
90.0
  0
LINE
  5
44
100
AcDbEntity
  8
2
390
0
  6
Continuous
 62
     7
100
AcDbLine
 10
77.2
 20
65.5
 30
0.0
 11
78.0
 21
65.5
 31
0.0
  0
ARC
  5
45
100
AcDbEntity
  8
2
390
0
  6
Continuous
 62
     7
100
AcDbCircle
 10
77.2
 20
65.0
 30
0.0
 40
0.5
210
0.0
220
0.0
230
1.0
100
AcDbArc
 50
90.0
 51
180.0
  0
LINE
  5
46
100
AcDbEntity
  8
2
390
0
  6
Continuous
 62
     7
100
AcDbLine
 10
76.7
 20
63.5
 30
0.0
 11
76.7
 21
65.0
 31
0.0
  0
LINE
  5
47
100
AcDbEntity
  8
2
390
0
  6
Continuous
 62
     7
100
AcDbLine
 10
69.2
 20
63.5
 30
0.0
 11
76.7
 21
63.5
 31
0.0
  0
LINE
  5
48
100
AcDbEntity
  8
2
390
0
  6
Continuous
 62
     7
100
AcDbLine
 10
69.2
 20
65.2
 30
0.0
 11
69.2
 21
63.5
 31
0.0
  0
ARC
  5
49
100
AcDbEntity
  8
2
390
0
  6
Continuous
 62
     7
100
AcDbCircle
 10
91.0
 20
87.102351
 30
0.0
 40
19.737164
210
0.0
220
0.0
230
1.0
100
AcDbArc
 50
328.65188
 51
1.154428
  0
LINE
  5
4A
100
AcDbEntity
  8
2
390
0
  6
Continuous
 62
     7
100
AcDbLine
 10
107.855976
 20
76.503599
 30
0.0
 11
107.855976
 21
76.834357
 31
0.0
  0
ARC
  5
4B
100
AcDbEntity
  8
2
390
0
  6
Continuous
 62
     7
100
AcDbCircle
 10
77.0
 20
68.5
 30
0.0
 40
1.0
210
0.0
220
0.0
230
1.0
100
AcDbArc
 50
270.0
 51
360.0
  0
LINE
  5
4C
100
AcDbEntity
  8
2
390
0
  6
Continuous
 62
     7
100
AcDbLine
 10
78.0
 20
72.833975
 30
0.0
 11
78.0
 21
68.5
 31
0.0
  0
ARC
  5
4D
100
AcDbEntity
  8
2
390
0
  6
Continuous
 62
     7
100
AcDbCircle
 10
76.5
 20
72.833975
 30
0.0
 40
1.5
210
0.0
220
0.0
230
1.0
100
AcDbArc
 50
360.0
 51
60.0
  0
LINE
  5
4E
100
AcDbEntity
  8
2
390
0
  6
Continuous
 62
     7
100
AcDbLine
 10
74.644024
 20
75.637574
 30
0.0
 11
77.25
 21
74.133013
 31
0.0
  0
ARC
  5
4F
100
AcDbEntity
  8
2
390
0
  6
Continuous
 62
     7
100
AcDbCircle
 10
75.144024
 20
76.503599
 30
0.0
 40
1.0
210
0.0
220
0.0
230
1.0
100
AcDbArc
 50
180.0
 51
240.0
  0
LINE
  5
50
100
AcDbEntity
  8
2
390
0
  6
Continuous
 62
     7
100
AcDbLine
 10
74.144024
 20
76.834357
 30
0.0
 11
74.144024
 21
76.503599
 31
0.0
  0
ARC
  5
51
100
AcDbEntity
  8
2
390
0
  6
Continuous
 62
     7
100
AcDbCircle
 10
91.0
 20
87.102351
 30
0.0
 40
19.737164
210
0.0
220
0.0
230
1.0
100
AcDbArc
 50
178.845572
 51
211.34812
  0
ARC
  5
52
100
AcDbEntity
  8
2
390
0
  6
Continuous
 62
     7
100
AcDbCircle
 10
75.466088
 20
93.333742
 30
0.0
 40
3.0
210
0.0
220
0.0
230
1.0
100
AcDbArc
 50
34.83667
 51
136.762799
  0
ARC
  5
53
100
AcDbEntity
  8
2
390
0
  6
Continuous
 62
     7
100
AcDbCircle
 10
91.0
 20
89.5
 30
0.0
 40
14.2
210
0.0
220
0.0
230
1.0
100
AcDbArc
 50
152.528576
 51
157.004046
  0
ARC
  5
54
100
AcDbEntity
  8
2
390
0
  6
Continuous
 62
     7
100
AcDbCircle
 10
78.933522
 20
95.773764
 30
0.0
 40
0.6
210
0.0
220
0.0
230
1.0
100
AcDbArc
 50
332.528576
 51
152.528576
  0
ARC
  5
55
100
AcDbEntity
  8
2
390
0
  6
Continuous
 62
     7
100
AcDbCircle
 10
91.0
 20
89.5
 30
0.0
 40
13.0
210
0.0
220
0.0
230
1.0
100
AcDbArc
 50
152.528576
 51
180.0
  0
ARC
  5
56
100
AcDbEntity
  8
2
390
0
  6
Continuous
 62
     7
100
AcDbCircle
 10
91.000009
 20
89.500003
 30
0.0
 40
13.000009
210
0.0
220
0.0
230
1.0
100
AcDbArc
 50
180.000015
 51
218.572665
  0
ARC
  5
57
100
AcDbEntity
  8
2
390
0
  6
Continuous
 62
     7
100
AcDbCircle
 10
80.367277
 20
81.020306
 30
0.0
 40
0.6
210
0.0
220
0.0
230
1.0
100
AcDbArc
 50
218.57268
 51
38.57268
  0
ARC
  5
58
100
AcDbEntity
  8
2
390
0
  6
Continuous
 62
     7
100
AcDbCircle
 10
91.0
 20
89.5
 30
0.0
 40
14.2
210
0.0
220
0.0
230
1.0
100
AcDbArc
 50
166.136543
 51
167.157905
  0
ARC
  5
59
100
AcDbEntity
  8
2
390
0
  6
Continuous
 62
     7
100
AcDbCircle
 10
91.0
 20
89.5
 30
0.0
 40
14.2
210
0.0
220
0.0
230
1.0
100
AcDbArc
 50
217.882963
 51
218.57268
  0
ARC
  5
5A
100
AcDbEntity
  8
2
390
0
  6
Continuous
 62
     7
100
AcDbCircle
 10
75.466088
 20
93.333742
 30
0.0
 40
1.8
210
0.0
220
0.0
230
1.0
100
AcDbArc
 50
346.136543
 51
158.141933
  0
ARC
  5
5B
100
AcDbEntity
  8
2
390
0
  6
Continuous
 62
     7
100
AcDbCircle
 10
91.0
 20
87.102351
 30
0.0
 40
18.537164
210
0.0
220
0.0
230
1.0
100
AcDbArc
 50
168.228143
 51
210.330034
  0
LINE
  5
5C
100
AcDbEntity
  8
2
390
0
  6
Continuous
 62
     7
100
AcDbLine
 10
78.5
 20
75.720726
 30
0.0
 11
75.0
 21
77.741452
 31
0.0
  0
ARC
  5
5D
100
AcDbEntity
  8
2
390
0
  6
Continuous
 62
     7
100
AcDbCircle
 10
77.0
 20
73.12265
 30
0.0
 40
3.0
210
0.0
220
0.0
230
1.0
100
AcDbArc
 50
0.0
 51
45.761851
  0
ARC
  5
5E
100
AcDbEntity
  8
2
390
0
  6
Continuous
 62
     7
100
AcDbCircle
 10
77.0
 20
73.12265
 30
0.0
 40
3.0
210
0.0
220
0.0
230
1.0
100
AcDbArc
 50
45.761851
 51
60.0
  0
LINE
  5
5F
100
AcDbEntity
  8
2
390
0
  6
Continuous
 62
     7
100
AcDbLine
 10
80.0
 20
70.5
 30
0.0
 11
80.0
 21
73.12265
 31
0.0
  0
LINE
  5
60
100
AcDbEntity
  8
2
390
0
  6
Continuous
 62
     7
100
AcDbLine
 10
102.0
 20
65.0
 30
0.0
 11
102.0
 21
63.5
 31
0.0
  0
LINE
  5
61
100
AcDbEntity
  8
2
390
0
  6
Continuous
 62
     7
100
AcDbLine
 10
90.5
 20
69.0
 30
0.0
 11
81.5
 21
69.0
 31
0.0
  0
LINE
  5
62
100
AcDbEntity
  8
2
390
0
  6
Continuous
 62
     7
100
AcDbLine
 10
91.0
 20
68.5
 30
0.0
 11
90.5
 21
69.0
 31
0.0
  0
LINE
  5
63
100
AcDbEntity
  8
2
390
0
  6
Continuous
 62
     7
100
AcDbLine
 10
91.5
 20
69.0
 30
0.0
 11
91.0
 21
68.5
 31
0.0
  0
LINE
  5
64
100
AcDbEntity
  8
2
390
0
  6
Continuous
 62
     7
100
AcDbLine
 10
100.5
 20
69.0
 30
0.0
 11
91.5
 21
69.0
 31
0.0
  0
ARC
  5
65
100
AcDbEntity
  8
2
390
0
  6
Continuous
 62
     7
100
AcDbCircle
 10
100.5
 20
70.5
 30
0.0
 40
1.5
210
0.0
220
0.0
230
1.0
100
AcDbArc
 50
270.0
 51
360.0
  0
LINE
  5
66
100
AcDbEntity
  8
2
390
0
  6
Continuous
 62
     7
100
AcDbLine
 10
102.0
 20
73.12265
 30
0.0
 11
102.0
 21
70.5
 31
0.0
  0
ARC
  5
67
100
AcDbEntity
  8
2
390
0
  6
Continuous
 62
     7
100
AcDbCircle
 10
105.0
 20
73.12265
 30
0.0
 40
3.0
210
0.0
220
0.0
230
1.0
100
AcDbArc
 50
120.0
 51
134.238149
  0
ARC
  5
68
100
AcDbEntity
  8
2
390
0
  6
Continuous
 62
     7
100
AcDbCircle
 10
105.0
 20
73.12265
 30
0.0
 40
3.0
210
0.0
220
0.0
230
1.0
100
AcDbArc
 50
134.238149
 51
180.0
  0
LINE
  5
69
100
AcDbEntity
  8
2
390
0
  6
Continuous
 62
     7
100
AcDbLine
 10
107.0
 20
77.741452
 30
0.0
 11
103.5
 21
75.720726
 31
0.0
  0
ARC
  5
6A
100
AcDbEntity
  8
2
390
0
  6
Continuous
 62
     7
100
AcDbCircle
 10
91.0
 20
87.102351
 30
0.0
 40
18.537164
210
0.0
220
0.0
230
1.0
100
AcDbArc
 50
21.077418
 51
21.858067
  0
ARC
  5
6B
100
AcDbEntity
  8
2
390
0
  6
Continuous
 62
     7
100
AcDbCircle
 10
91.0
 20
87.102351
 30
0.0
 40
18.537164
210
0.0
220
0.0
230
1.0
100
AcDbArc
 50
329.669966
 51
11.771857
  0
ARC
  5
6C
100
AcDbEntity
  8
2
390
0
  6
Continuous
 62
     7
100
AcDbCircle
 10
106.533912
 20
93.333742
 30
0.0
 40
1.8
210
0.0
220
0.0
230
1.0
100
AcDbArc
 50
21.858067
 51
193.863457
  0
ARC
  5
6D
100
AcDbEntity
  8
2
390
0
  6
Continuous
 62
     7
100
AcDbCircle
 10
91.0
 20
89.5
 30
0.0
 40
14.2
210
0.0
220
0.0
230
1.0
100
AcDbArc
 50
321.42732
 51
322.117037
  0
ARC
  5
6E
100
AcDbEntity
  8
2
390
0
  6
Continuous
 62
     7
100
AcDbCircle
 10
101.632723
 20
81.020306
 30
0.0
 40
0.6
210
0.0
220
0.0
230
1.0
100
AcDbArc
 50
141.42732
 51
321.42732
  0
ARC
  5
6F
100
AcDbEntity
  8
2
390
0
  6
Continuous
 62
     7
100
AcDbCircle
 10
69.7
 20
65.2
 30
0.0
 40
0.5
210
0.0
220
0.0
230
1.0
100
AcDbArc
 50
90.0
 51
180.0
  0
LINE
  5
70
100
AcDbEntity
  8
2
390
0
  6
Continuous
 62
     7
100
AcDbLine
 10
73.792893
 20
65.7
 30
0.0
 11
72.959718
 21
65.7
 31
0.0
  0
LINE
  5
71
100
AcDbEntity
  8
2
390
0
  6
Continuous
 62
     7
100
AcDbLine
 10
72.959718
 20
65.7
 30
0.0
 11
69.7
 21
65.7
 31
0.0
  0
ARC
  5
72
100
AcDbEntity
  8
2
390
0
  6
Continuous
 62
     7
100
AcDbCircle
 10
73.792893
 20
66.2
 30
0.0
 40
0.5
210
0.0
220
0.0
230
1.0
100
AcDbArc
 50
270.0
 51
315.0
  0
LINE
  5
73
100
AcDbEntity
  8
2
390
0
  6
Continuous
 62
     7
100
AcDbLine
 10
75.653553
 20
67.353553
 30
0.0
 11
74.146447
 21
65.846447
 31
0.0
  0
ARC
  5
74
100
AcDbEntity
  8
2
390
0
  6
Continuous
 62
     7
100
AcDbCircle
 10
76.007107
 20
67.0
 30
0.0
 40
0.5
210
0.0
220
0.0
230
1.0
100
AcDbArc
 50
90.0
 51
135.0
  0
LINE
  5
75
100
AcDbEntity
  8
2
390
0
  6
Continuous
 62
     7
100
AcDbLine
 10
77.0
 20
67.5
 30
0.0
 11
76.007107
 21
67.5
 31
0.0
  0
ARC
  5
76
100
AcDbEntity
  8
2
390
0
  6
Continuous
 62
     7
100
AcDbCircle
 10
81.5
 20
70.5
 30
0.0
 40
1.5
210
0.0
220
0.0
230
1.0
100
AcDbArc
 50
180.0
 51
270.0
  0
ARC
  5
77
100
AcDbEntity
  8
2
390
0
  6
Continuous
 62
     7
100
AcDbCircle
 10
91.0
 20
89.5
 30
0.0
 40
13.0
210
0.0
220
0.0
230
1.0
100
AcDbArc
 50
360.0
 51
27.471424
  0
ARC
  5
78
100
AcDbEntity
  8
2
390
0
  6
Continuous
 62
     7
100
AcDbCircle
 10
103.066478
 20
95.773764
 30
0.0
 40
0.6
210
0.0
220
0.0
230
1.0
100
AcDbArc
 50
27.471424
 51
207.471424
  0
ARC
  5
79
100
AcDbEntity
  8
2
390
0
  6
Continuous
 62
     7
100
AcDbCircle
 10
91.0
 20
89.5
 30
0.0
 40
14.2
210
0.0
220
0.0
230
1.0
100
AcDbArc
 50
22.995954
 51
27.471424
  0
ARC
  5
7A
100
AcDbEntity
  8
2
390
0
  6
Continuous
 62
     7
100
AcDbCircle
 10
90.999991
 20
89.500003
 30
0.0
 40
13.000009
210
0.0
220
0.0
230
1.0
100
AcDbArc
 50
321.427335
 51
359.999985
  0
ARC
  5
7B
100
AcDbEntity
  8
2
390
0
  6
Continuous
 62
     7
100
AcDbCircle
 10
106.533912
 20
93.333742
 30
0.0
 40
3.0
210
0.0
220
0.0
230
1.0
100
AcDbArc
 50
43.237201
 51
145.16333
  0
LINE
  5
7C
100
AcDbEntity
  8
2
390
0
  6
Continuous
 62
     7
100
AcDbLine
 10
112.8
 20
76.001111
 30
0.0
 11
112.8
 21
67.9
 31
0.0
  0
LINE
  5
7D
100
AcDbEntity
  8
2
390
0
  6
Continuous
 62
     7
100
AcDbLine
 10
74.0
 20
70.73611
 30
0.0
 11
71.862838
 21
67.9
 31
0.0
  0
ARC
  5
7E
100
AcDbEntity
  8
2
390
0
  6
Continuous
 62
     7
100
AcDbCircle
 10
69.7
 20
65.2
 30
0.0
 40
0.5
210
0.0
220
0.0
230
1.0
100
AcDbArc
 50
90.0
 51
180.0
  0
LINE
  5
7F
100
AcDbEntity
  8
2
390
0
  6
Continuous
 62
     7
100
AcDbLine
 10
71.862838
 20
67.9
 30
0.0
 11
69.2
 21
67.9
 31
0.0
  0
LINE
  5
80
100
AcDbEntity
  8
2
390
0
  6
Continuous
 62
     7
100
AcDbLine
 10
69.2
 20
67.9
 30
0.0
 11
69.2
 21
76.001111
 31
0.0
  0
LINE
  5
81
100
AcDbEntity
  8
2
390
0
  6
Continuous
 62
     7
100
AcDbLine
 10
69.2
 20
76.001111
 30
0.0
 11
74.0
 21
73.229829
 31
0.0
  0
LINE
  5
82
100
AcDbEntity
  8
2
390
0
  6
Continuous
 62
     7
100
AcDbLine
 10
74.0
 20
73.229829
 30
0.0
 11
74.0
 21
70.73611
 31
0.0
  0
LINE
  5
83
100
AcDbEntity
  8
2
390
0
  6
Continuous
 62
     7
100
AcDbLine
 10
72.959718
 20
65.7
 30
0.0
 11
69.7
 21
65.7
 31
0.0
  0
LINE
  5
84
100
AcDbEntity
  8
2
390
0
  6
Continuous
 62
     7
100
AcDbLine
 10
76.2
 20
70.0
 30
0.0
 11
72.959718
 21
65.7
 31
0.0
  0
LINE
  5
85
100
AcDbEntity
  8
2
390
0
  6
Continuous
 62
     7
100
AcDbLine
 10
76.2
 20
74.5
 30
0.0
 11
76.2
 21
70.0
 31
0.0
  0
LINE
  5
86
100
AcDbEntity
  8
2
390
0
  6
Continuous
 62
     7
100
AcDbLine
 10
69.95
 20
78.108439
 30
0.0
 11
76.2
 21
74.5
 31
0.0
  0
ARC
  5
87
100
AcDbEntity
  8
2
390
0
  6
Continuous
 62
     7
100
AcDbCircle
 10
70.7
 20
79.407477
 30
0.0
 40
1.5
210
0.0
220
0.0
230
1.0
100
AcDbArc
 50
180.0
 51
240.0
  0
LINE
  5
88
100
AcDbEntity
  8
2
390
0
  6
Continuous
 62
     7
100
AcDbLine
 10
69.2
 20
87.5
 30
0.0
 11
69.2
 21
79.407477
 31
0.0
  0
LINE
  5
89
100
AcDbEntity
  8
2
390
0
  6
Continuous
 62
     7
100
AcDbLine
 10
112.8
 20
79.407477
 30
0.0
 11
112.8
 21
87.5
 31
0.0
  0
ARC
  5
8A
100
AcDbEntity
  8
2
390
0
  6
Continuous
 62
     7
100
AcDbCircle
 10
111.3
 20
79.407477
 30
0.0
 40
1.5
210
0.0
220
0.0
230
1.0
100
AcDbArc
 50
300.0
 51
360.0
  0
LINE
  5
8B
100
AcDbEntity
  8
2
390
0
  6
Continuous
 62
     7
100
AcDbLine
 10
105.8
 20
74.5
 30
0.0
 11
112.05
 21
78.108439
 31
0.0
  0
LINE
  5
8C
100
AcDbEntity
  8
2
390
0
  6
Continuous
 62
     7
100
AcDbLine
 10
105.8
 20
70.0
 30
0.0
 11
105.8
 21
74.5
 31
0.0
  0
LINE
  5
8D
100
AcDbEntity
  8
2
390
0
  6
Continuous
 62
     7
100
AcDbLine
 10
109.040282
 20
65.7
 30
0.0
 11
105.8
 21
70.0
 31
0.0
  0
LINE
  5
8E
100
AcDbEntity
  8
2
390
0
  6
Continuous
 62
     7
100
AcDbLine
 10
112.3
 20
65.7
 30
0.0
 11
109.040282
 21
65.7
 31
0.0
  0
ARC
  5
8F
100
AcDbEntity
  8
2
390
0
  6
Continuous
 62
     7
100
AcDbCircle
 10
112.3
 20
65.2
 30
0.0
 40
0.5
210
0.0
220
0.0
230
1.0
100
AcDbArc
 50
0.0
 51
90.0
  0
LINE
  5
90
100
AcDbEntity
  8
2
390
0
  6
Continuous
 62
     7
100
AcDbLine
 10
112.8
 20
63.5
 30
0.0
 11
112.8
 21
65.2
 31
0.0
  0
LINE
  5
91
100
AcDbEntity
  8
2
390
0
  6
Continuous
 62
     7
100
AcDbLine
 10
115.0
 20
63.5
 30
0.0
 11
112.8
 21
63.5
 31
0.0
  0
LINE
  5
92
100
AcDbEntity
  8
2
390
0
  6
Continuous
 62
     7
100
AcDbLine
 10
115.0
 20
94.610704
 30
0.0
 11
115.0
 21
63.5
 31
0.0
  0
ARC
  5
93
100
AcDbEntity
  8
2
390
0
  6
Continuous
 62
     7
100
AcDbCircle
 10
105.0
 20
94.610704
 30
0.0
 40
10.0
210
0.0
220
0.0
230
1.0
100
AcDbArc
 50
360.0
 51
42.505068
  0
LINE
  5
94
100
AcDbEntity
  8
2
390
0
  6
Continuous
 62
     7
100
AcDbLine
 10
103.5
 20
111.047819
 30
0.0
 11
112.372176
 21
101.367258
 31
0.0
  0
ARC
  5
95
100
AcDbEntity
  8
2
390
0
  6
Continuous
 62
     7
100
AcDbCircle
 10
91.0
 20
-61.5
 30
0.0
 40
173.0
210
0.0
220
0.0
230
0.9999999999999999
100
AcDbArc
 50
85.856521
 51
94.143479
  0
LINE
  5
96
100
AcDbEntity
  8
2
390
0
  6
Continuous
 62
     7
100
AcDbLine
 10
69.627824
 20
101.367258
 30
0.0
 11
78.5
 21
111.047819
 31
0.0
  0
ARC
  5
97
100
AcDbEntity
  8
2
390
0
  6
Continuous
 62
     7
100
AcDbCircle
 10
77.0
 20
94.610704
 30
0.0
 40
10.0
210
0.0
220
0.0
230
1.0
100
AcDbArc
 50
137.494932
 51
180.0
  0
LINE
  5
98
100
AcDbEntity
  8
2
390
0
  6
Continuous
 62
     7
100
AcDbLine
 10
67.0
 20
63.5
 30
0.0
 11
67.0
 21
94.610704
 31
0.0
  0
LINE
  5
99
100
AcDbEntity
  8
2
390
0
  6
Continuous
 62
     7
100
AcDbLine
 10
69.2
 20
63.5
 30
0.0
 11
67.0
 21
63.5
 31
0.0
  0
LINE
  5
9A
100
AcDbEntity
  8
2
390
0
  6
Continuous
 62
     7
100
AcDbLine
 10
69.2
 20
65.2
 30
0.0
 11
69.2
 21
63.5
 31
0.0
  0
LINE
  5
9B
100
AcDbEntity
  8
2
390
0
  6
Continuous
 62
     7
100
AcDbLine
 10
112.8
 20
67.9
 30
0.0
 11
110.137162
 21
67.9
 31
0.0
  0
LINE
  5
9C
100
AcDbEntity
  8
2
390
0
  6
Continuous
 62
     7
100
AcDbLine
 10
110.137162
 20
67.9
 30
0.0
 11
108.0
 21
70.728776
 31
0.0
  0
LINE
  5
9D
100
AcDbEntity
  8
2
390
0
  6
Continuous
 62
     7
100
AcDbLine
 10
108.0
 20
70.728776
 30
0.0
 11
108.0
 21
73.229829
 31
0.0
  0
LINE
  5
9E
100
AcDbEntity
  8
2
390
0
  6
Continuous
 62
     7
100
AcDbLine
 10
108.0
 20
73.229829
 30
0.0
 11
112.8
 21
76.001111
 31
0.0
  0
ARC
  5
9F
100
AcDbEntity
  8
2
390
0
  6
Continuous
 62
     7
100
AcDbCircle
 10
91.0
 20
87.102351
 30
0.0
 40
18.537164
210
0.0
220
0.0
230
1.0
100
AcDbArc
 50
158.141933
 51
168.228143
  0
ARC
  5
A0
100
AcDbEntity
  8
2
390
0
  6
Continuous
 62
     7
100
AcDbCircle
 10
91.0
 20
89.5
 30
0.0
 40
14.2
210
0.0
220
0.0
230
1.0
100
AcDbArc
 50
167.157905
 51
217.882963
  0
ARC
  5
A1
100
AcDbEntity
  8
2
390
0
  6
Continuous
 62
     7
100
AcDbCircle
 10
91.0
 20
89.5
 30
0.0
 40
14.2
210
0.0
220
0.0
230
1.0
100
AcDbArc
 50
322.117037
 51
13.863457
  0
ARC
  5
A2
100
AcDbEntity
  8
2
390
0
  6
Continuous
 62
     7
100
AcDbCircle
 10
91.0
 20
87.102351
 30
0.0
 40
18.537164
210
0.0
220
0.0
230
1.0
100
AcDbArc
 50
11.771857
 51
21.077418
  0
LINE
  5
A3
100
AcDbEntity
  8
2
390
0
  6
Continuous
 62
     7
100
AcDbLine
 10
112.8
 20
94.610704
 30
0.0
 11
112.8
 21
87.5
 31
0.0
  0
LINE
  5
A4
100
AcDbEntity
  8
2
390
0
  6
Continuous
 62
     7
100
AcDbLine
 10
112.8
 20
87.5
 30
0.0
 11
110.733158
 21
87.5
 31
0.0
  0
ARC
  5
A5
100
AcDbEntity
  8
2
390
0
  6
Continuous
 62
     7
100
AcDbCircle
 10
91.0
 20
87.102351
 30
0.0
 40
19.737164
210
0.0
220
0.0
230
1.0
100
AcDbArc
 50
1.154428
 51
21.858067
  0
ARC
  5
A6
100
AcDbEntity
  8
2
390
0
  6
Continuous
 62
     7
100
AcDbCircle
 10
106.533912
 20
93.333742
 30
0.0
 40
3.0
210
0.0
220
0.0
230
1.0
100
AcDbArc
 50
21.858067
 51
43.237201
  0
ARC
  5
A7
100
AcDbEntity
  8
2
390
0
  6
Continuous
 62
     7
100
AcDbCircle
 10
105.0
 20
94.610704
 30
0.0
 40
3.8
210
0.0
220
0.0
230
0.9999999999999999
100
AcDbArc
 50
11.815623
 51
42.505068
  0
LINE
  5
A8
100
AcDbEntity
  8
2
390
0
  6
Continuous
 62
     7
100
AcDbLine
 10
107.801427
 20
97.178194
 30
0.0
 11
100.611868
 21
105.022827
 31
0.0
  0
ARC
  5
A9
100
AcDbEntity
  8
2
390
0
  6
Continuous
 62
     7
100
AcDbCircle
 10
91.0
 20
-61.5
 30
0.0
 40
166.8
210
0.0
220
0.0
230
1.0
100
AcDbArc
 50
86.696494
 51
93.303506
  0
LINE
  5
AA
100
AcDbEntity
  8
2
390
0
  6
Continuous
 62
     7
100
AcDbLine
 10
81.388132
 20
105.022827
 30
0.0
 11
74.198573
 21
97.178194
 31
0.0
  0
ARC
  5
AB
100
AcDbEntity
  8
2
390
0
  6
Continuous
 62
     7
100
AcDbCircle
 10
77.0
 20
94.610704
 30
0.0
 40
3.8
210
0.0
220
0.0
230
0.9999999999999999
100
AcDbArc
 50
137.494932
 51
168.184377
  0
ARC
  5
AC
100
AcDbEntity
  8
2
390
0
  6
Continuous
 62
     7
100
AcDbCircle
 10
75.466088
 20
93.333742
 30
0.0
 40
3.0
210
0.0
220
0.0
230
1.0
100
AcDbArc
 50
136.762799
 51
158.141933
  0
ARC
  5
AD
100
AcDbEntity
  8
2
390
0
  6
Continuous
 62
     7
100
AcDbCircle
 10
91.0
 20
87.102351
 30
0.0
 40
19.737164
210
0.0
220
0.0
230
1.0
100
AcDbArc
 50
158.141933
 51
178.845572
  0
LINE
  5
AE
100
AcDbEntity
  8
2
390
0
  6
Continuous
 62
     7
100
AcDbLine
 10
71.266842
 20
87.5
 30
0.0
 11
69.2
 21
87.5
 31
0.0
  0
LINE
  5
AF
100
AcDbEntity
  8
2
390
0
  6
Continuous
 62
     7
100
AcDbLine
 10
69.2
 20
87.5
 30
0.0
 11
69.2
 21
94.610704
 31
0.0
  0
LINE
  5
B0
100
AcDbEntity
  8
2
390
0
  6
Continuous
 62
     7
100
AcDbLine
 10
102.47111
 20
108.914359
 30
0.0
 11
110.750297
 21
99.880816
 31
0.0
  0
ARC
  5
B1
100
AcDbEntity
  8
2
390
0
  6
Continuous
 62
     7
100
AcDbCircle
 10
91.0
 20
-61.5
 30
0.0
 40
170.8
210
0.0
220
0.0
230
0.9999999999999999
100
AcDbArc
 50
86.149056
 51
93.850944
  0
LINE
  5
B2
100
AcDbEntity
  8
2
390
0
  6
Continuous
 62
     7
100
AcDbLine
 10
71.249703
 20
99.880816
 30
0.0
 11
79.52889
 21
108.914359
 31
0.0
  0
ARC
  5
B3
100
AcDbEntity
  8
2
390
0
  6
Continuous
 62
     7
100
AcDbCircle
 10
105.0
 20
94.610704
 30
0.0
 40
7.8
210
0.0
220
0.0
230
0.9999999999999999
100
AcDbArc
 50
360.0
 51
42.505068
  0
ARC
  5
B4
100
AcDbEntity
  8
2
390
0
  6
Continuous
 62
     7
100
AcDbCircle
 10
77.0
 20
94.610704
 30
0.0
 40
7.8
210
0.0
220
0.0
230
0.9999999999999999
100
AcDbArc
 50
137.494932
 51
180.0
  0
LINE
  5
B5
100
AcDbEntity
  8
2
390
0
  6
Continuous
 62
     7
100
AcDbLine
 10
78.5
 20
274.0
 30
0.0
 11
78.5
 21
124.0
 31
0.0
  0
LINE
  5
B6
100
AcDbEntity
  8
2
390
0
  6
Continuous
 62
     7
100
AcDbLine
 10
78.5
 20
274.0
 30
0.0
 11
103.5
 21
274.0
 31
0.0
  0
LINE
  5
B7
100
AcDbEntity
  8
2
390
0
  6
Continuous
 62
     7
100
AcDbLine
 10
103.5
 20
274.0
 30
0.0
 11
103.5
 21
124.0
 31
0.0
  0
LINE
  5
B8
100
AcDbEntity
  8
2
390
0
  6
Continuous
 62
     7
100
AcDbLine
 10
78.5
 20
124.0
 30
0.0
 11
103.5
 21
124.0
 31
0.0
  0
LINE
  5
B9
100
AcDbEntity
  8
2
390
0
  6
Continuous
 62
     7
100
AcDbLine
 10
69.627824
 20
274.0
 30
0.0
 11
78.5
 21
274.0
 31
0.0
  0
LINE
  5
BA
100
AcDbEntity
  8
2
390
0
  6
Continuous
 62
     7
100
AcDbLine
 10
69.627824
 20
124.0
 30
0.0
 11
78.5
 21
124.0
 31
0.0
  0
LINE
  5
BB
100
AcDbEntity
  8
2
390
0
  6
Continuous
 62
     7
100
AcDbLine
 10
103.5
 20
274.0
 30
0.0
 11
112.372176
 21
274.0
 31
0.0
  0
LINE
  5
BC
100
AcDbEntity
  8
2
390
0
  6
Continuous
 62
     7
100
AcDbLine
 10
103.5
 20
124.0
 30
0.0
 11
112.372176
 21
124.0
 31
0.0
  0
LINE
  5
BD
100
AcDbEntity
  8
2
390
0
  6
Continuous
 62
     7
100
AcDbLine
 10
67.0
 20
274.0
 30
0.0
 11
67.0
 21
124.0
 31
0.0
  0
LINE
  5
BE
100
AcDbEntity
  8
2
390
0
  6
Continuous
 62
     7
100
AcDbLine
 10
67.0
 20
274.0
 30
0.0
 11
69.627824
 21
274.0
 31
0.0
  0
LINE
  5
BF
100
AcDbEntity
  8
2
390
0
  6
Continuous
 62
     7
100
AcDbLine
 10
67.0
 20
124.0
 30
0.0
 11
69.627824
 21
124.0
 31
0.0
  0
LINE
  5
C0
100
AcDbEntity
  8
2
390
0
  6
Continuous
 62
     7
100
AcDbLine
 10
115.0
 20
274.0
 30
0.0
 11
115.0
 21
124.0
 31
0.0
  0
LINE
  5
C1
100
AcDbEntity
  8
2
390
0
  6
Continuous
 62
     7
100
AcDbLine
 10
112.372176
 20
274.0
 30
0.0
 11
115.0
 21
274.0
 31
0.0
  0
LINE
  5
C2
100
AcDbEntity
  8
2
390
0
  6
Continuous
 62
     7
100
AcDbLine
 10
112.372176
 20
124.0
 30
0.0
 11
115.0
 21
124.0
 31
0.0
  0
LINE
  5
C3
100
AcDbEntity
  8
2
390
0
  6
Continuous
 62
     7
100
AcDbLine
 10
274.0
 20
101.367258
 30
0.0
 11
274.0
 21
94.610704
 31
0.0
  0
LINE
  5
C4
100
AcDbEntity
  8
2
390
0
  6
Continuous
 62
     7
100
AcDbLine
 10
124.0
 20
101.367258
 30
0.0
 11
124.0
 21
94.610704
 31
0.0
  0
LINE
  5
C5
100
AcDbEntity
  8
2
390
0
  6
Continuous
 62
     7
100
AcDbLine
 10
274.0
 20
94.610704
 30
0.0
 11
274.0
 21
63.5
 31
0.0
  0
LINE
  5
C6
100
AcDbEntity
  8
2
390
0
  6
Continuous
 62
     7
100
AcDbLine
 10
274.0
 20
63.5
 30
0.0
 11
124.0
 21
63.5
 31
0.0
  0
LINE
  5
C7
100
AcDbEntity
  8
2
390
0
  6
Continuous
 62
     7
100
AcDbLine
 10
124.0
 20
94.610704
 30
0.0
 11
124.0
 21
63.5
 31
0.0
  0
LINE
  5
C8
100
AcDbEntity
  8
2
390
0
  6
Continuous
 62
     7
100
AcDbLine
 10
274.0
 20
111.047819
 30
0.0
 11
124.0
 21
111.047819
 31
0.0
  0
LINE
  5
C9
100
AcDbEntity
  8
2
390
0
  6
Continuous
 62
     7
100
AcDbLine
 10
274.0
 20
111.047819
 30
0.0
 11
274.0
 21
101.367258
 31
0.0
  0
LINE
  5
CA
100
AcDbEntity
  8
2
390
0
  6
Continuous
 62
     7
100
AcDbLine
 10
124.0
 20
111.047819
 30
0.0
 11
124.0
 21
101.367258
 31
0.0
  0
LINE
  5
CB
100
AcDbEntity
  8
2
390
0
  6
Continuous
 62
     7
100
AcDbLine
 10
274.0
 20
111.5
 30
0.0
 11
274.0
 21
111.047819
 31
0.0
  0
LINE
  5
CC
100
AcDbEntity
  8
2
390
0
  6
Continuous
 62
     7
100
AcDbLine
 10
124.0
 20
111.5
 30
0.0
 11
124.0
 21
111.047819
 31
0.0
  0
LINE
  5
CD
100
AcDbEntity
  8
2
390
0
  6
Continuous
 62
     7
100
AcDbLine
 10
274.0
 20
111.5
 30
0.0
 11
124.0
 21
111.5
 31
0.0
  0
ENDSEC
  0
SECTION
  2
OBJECTS
  0
DICTIONARY
  5
19
100
AcDbDictionary
280
     0
281
     1
  3
ACAD_GROUP
350
1A
  3
ACAD_MLINESTYLE
350
1B
  3
ACAD_LAYOUT
350
1E
  3
ACAD_PLOTSETTINGS
350
22
  3
ACAD_PLOTSTYLENAME
350
1F
  3
ACAD_WIPEOUT_VARS
350
23
  0
DICTIONARY
  5
1A
102
{ACAD_REACTORS
330
19
102
}
100
AcDbDictionary
280
     0
281
     1
  0
DICTIONARY
  5
1B
102
{ACAD_REACTORS
330
19
102
}
100
AcDbDictionary
280
     0
281
     1
  3
Standard
350
1C
  0
MLINESTYLE
  5
1C
102
{ACAD_REACTORS
330
1B
102
}
100
AcDbMlineStyle
  2
Standard
 70
     0
  3

 62
     0
 51
90.0
 52
90.0
 71
     2
 49
0.5
 62
   256
  6
ByLayer
 49
-0.5
 62
   256
  6
ByLayer
  0
ACDBDICTIONARYWDFLT
  5
1F
102
{ACAD_REACTORS
330
19
102
}
100
AcDbDictionary
281
     1
  3
Normal
350
1D
100
AcDbDictionaryWithDefault
340
1D
  0
ACDBPLACEHOLDER
  5
1D
102
{ACAD_REACTORS
330
1F
102
}
  0
LAYOUT
  5
20
102
{ACAD_REACTORS
330
1E
102
}
100
AcDbPlotSettings
  1

  2

  4

  6

 40
0.0
 41
0.0
 42
0.0
 43
0.0
 44
0.0
 45
0.0
 46
0.0
 47
0.0
 48
0.0
 49
0.0
140
0.0
141
0.0
142
1.0
143
1.0
 70
  1024
 72
     0
 73
     0
 74
     0
  7

 75
     0
147
1.0
148
0.0
149
0.0
100
AcDbLayout
  1
Model
 70
     0
 71
     1
 10
0.0
 20
0.0
 11
0.0
 21
0.0
 12
0.0
 22
0.0
 32
0.0
 14
0.0
 24
0.0
 34
0.0
 15
0.0
 25
0.0
 35
0.0
146
0.0
 13
0.0
 23
0.0
 33
0.0
 16
0.0
 26
0.0
 36
0.0
 17
0.0
 27
0.0
 37
0.0
 76
     0
330
A
331
0
345
0
346
0
  0
LAYOUT
  5
21
102
{ACAD_REACTORS
330
1E
102
}
100
AcDbPlotSettings
  1

  2

  4

  6

 40
0.0
 41
0.0
 42
0.0
 43
0.0
 44
0.0
 45
0.0
 46
0.0
 47
0.0
 48
0.0
 49
0.0
140
0.0
141
0.0
142
1.0
143
1.0
 70
     0
 72
     0
 73
     0
 74
     0
  7

 75
     0
147
1.0
148
0.0
149
0.0
100
AcDbLayout
  1
Layout1
 70
     0
 71
     2
 10
0.0
 20
0.0
 11
0.0
 21
0.0
 12
0.0
 22
0.0
 32
0.0
 14
0.0
 24
0.0
 34
0.0
 15
0.0
 25
0.0
 35
0.0
146
0.0
 13
0.0
 23
0.0
 33
0.0
 16
0.0
 26
0.0
 36
0.0
 17
0.0
 27
0.0
 37
0.0
 76
     0
330
B
331
0
345
0
346
0
  0
DICTIONARY
  5
1E
102
{ACAD_REACTORS
330
19
102
}
100
AcDbDictionary
280
     0
281
     1
  3
Layout1
350
21
  3
Model
350
20
  0
DICTIONARY
  5
22
102
{ACAD_REACTORS
330
19
102
}
100
AcDbDictionary
280
     0
281
     1
  0
WIPEOUTVARIABLES
  5
23
100
AcDbWipeoutVariables
 70
     1
  0
ENDSEC
  0
EOF
