  0
SECTION
  2
HEADER
  9
$ACADVER
  1
AC1006
  9
$DWGCODEPAGE
  3
ansi_932
  9
$INSBASE
 10
0.0
 20
0.0
 30
0.0
  9
$EXTMIN
 10
-556.7067384522
 20
462.3604067272727
  9
$EXTMAX
 10
-395.208268
 20
580.208268
  9
$LIMMIN
 10
0.0
 20
0.0
  9
$LIMMAX
 10
12.0
 20
9.0
  9
$ORTHOMODE
 70
     0
  9
$REGENMODE
 70
     1
  9
$FILLMODE
 70
     1
  9
$QTEXTMODE
 70
     0
  9
$MIRRTEXT
 70
     1
  9
$DRAGMODE
 70
     2
  9
$LTSCALE
 40
1.0
  9
$OSMODE
 70
    37
  9
$ATTMODE
 70
     1
  9
$TEXTSIZE
 40
0.2
  9
$TRACEWID
 40
0.05
  9
$TEXTSTYLE
  7
STANDARD
  9
$CLAYER
  8
0
  9
$CELTYPE
  6
BYLAYER
  9
$CECOLOR
 62
   256
  9
$DIMSCALE
 40
1.0
  9
$DIMASZ
 40
0.9
  9
$DIMEXO
 40
0.0625
  9
$DIMDLI
 40
0.38
  9
$DIMRND
 40
0.0
  9
$DIMDLE
 40
0.0
  9
$DIMEXE
 40
0.45
  9
$DIMTP
 40
0.0
  9
$DIMTM
 40
0.0
  9
$DIMTXT
 40
3.0
  9
$DIMCEN
 40
0.09
  9
$DIMTSZ
 40
0.0
  9
$DIMTOL
 70
     0
  9
$DIMLIM
 70
     0
  9
$DIMTIH
 70
     1
  9
$DIMTOH
 70
     1
  9
$DIMSE1
 70
     0
  9
$DIMSE2
 70
     0
  9
$DIMTAD
 70
     1
  9
$DIMZIN
 70
     0
  9
$DIMBLK
  1

  9
$DIMASO
 70
     1
  9
$DIMSHO
 70
     1
  9
$DIMPOST
  1

  9
$DIMAPOST
  1

  9
$DIMALT
 70
     0
  9
$DIMALTD
 70
     2
  9
$DIMALTF
 40
25.4
  9
$DIMLFAC
 40
1.0
  9
$DIMTOFL
 70
     0
  9
$DIMTVP
 40
0.0
  9
$DIMTIX
 70
     0
  9
$DIMSOXD
 70
     0
  9
$DIMSAH
 70
     0
  9
$DIMBLK1
  1

  9
$DIMBLK2
  1

  9
$LUNITS
 70
     2
  9
$LUPREC
 70
     4
  9
$SKETCHINC
 40
0.1
  9
$FILLETRAD
 40
0.5
  9
$AUNITS
 70
     0
  9
$AUPREC
 70
     0
  9
$MENU
  1
.
  9
$ELEVATION
 40
0.0
  9
$THICKNESS
 40
0.0
  9
$LIMCHECK
 70
     0
  9
$CHAMFERA
 40
0.0
  9
$CHAMFERB
 40
0.0
  9
$SKPOLY
 70
     0
  9
$TDCREATE
 40
2460445.565521586
  9
$TDUPDATE
 40
2460445.565521782
  9
$TDINDWG
 40
0.0000000116
  9
$TDUSRTIMER
 40
0.0000000116
  9
$USRTIMER
 70
     1
  9
$ANGBASE
 50
0.0
  9
$ANGDIR
 70
     0
  9
$PDMODE
 70
     0
  9
$PDSIZE
 40
0.0
  9
$PLINEWID
 40
0.0
  9
$COORDS
 70
     1
  9
$SPLFRAME
 70
     0
  9
$SPLINETYPE
 70
     6
  9
$SPLINESEGS
 70
     8
  9
$ATTDIA
 70
     0
  9
$ATTREQ
 70
     1
  9
$HANDLING
 70
     1
  9
$HANDSEED
  5
BD
  9
$SURFTAB1
 70
     6
  9
$SURFTAB2
 70
     6
  9
$SURFTYPE
 70
     6
  9
$SURFU
 70
     6
  9
$SURFV
 70
     6
  9
$UCSNAME
  2

  9
$UCSORG
 10
0.0
 20
0.0
 30
0.0
  9
$UCSXDIR
 10
1.0
 20
0.0
 30
0.0
  9
$UCSYDIR
 10
0.0
 20
1.0
 30
0.0
  9
$USERI1
 70
     0
  9
$USERI2
 70
     0
  9
$USERI3
 70
     0
  9
$USERI4
 70
     0
  9
$USERI5
 70
     0
  9
$USERR1
 40
0.0
  9
$USERR2
 40
0.0
  9
$USERR3
 40
0.0
  9
$USERR4
 40
0.0
  9
$USERR5
 40
0.0
  9
$WORLDVIEW
 70
     1
  0
ENDSEC
  0
SECTION
  2
TABLES
  0
TABLE
  2
VPORT
 70
     1
  0
VPORT
  2
*ACTIVE
 70
     0
 10
0.0
 20
0.0
 11
1.0
 21
1.0
 12
-475.9575032261
 22
521.2843373636363
 13
0.0
 23
0.0
 14
0.5
 24
0.5
 15
0.5
 25
0.5
 16
0.0
 26
0.0
 36
1.0
 17
0.0
 27
0.0
 37
0.0
 40
117.8478612727273
 41
1.6
 42
50.0
 43
0.0
 44
0.0
 50
0.0
 51
0.0
 71
     0
 72
   100
 73
     1
 74
     3
 75
     0
 76
     0
 77
     0
 78
     0
  0
ENDTAB
  0
TABLE
  2
LTYPE
 70
     1
  0
LTYPE
  2
CONTINUOUS
 70
     0
  3
Solid line
 72
    65
 73
     0
 40
0.0
  0
ENDTAB
  0
TABLE
  2
LAYER
 70
     2
  0
LAYER
  2
0
 70
     0
 62
     7
  6
CONTINUOUS
  0
LAYER
  2
1
 70
     0
 62
     7
  6
CONTINUOUS
  0
ENDTAB
  0
TABLE
  2
STYLE
 70
     2
  0
STYLE
  2
STANDARD
 70
     0
 40
0.0
 41
1.0
 50
0.0
 71
     0
 42
0.2
  3
txt
  4

  0
STYLE
  2
ＭＳ_ゴシック
 70
     0
 40
0.0
 41
1.0
 50
0.0
 71
     0
 42
0.2
  3
ＭＳ ゴシック.shx
  4

  0
ENDTAB
  0
TABLE
  2
VIEW
 70
     0
  0
ENDTAB
  0
TABLE
  2
UCS
 70
     0
  0
ENDTAB
  0
ENDSEC
  0
SECTION
  2
BLOCKS
  0
ENDSEC
  0
SECTION
  2
ENTITIES
  0
TEXT
  5
70
  8
1
  6
CONTINUOUS
 62
     7
 10
-432.4165051099006
 20
462.0183722143303
 30
0.0
 40
3.0
  1
RMI-20
 41
1.283459
  0
LINE
  5
71
  8
1
  6
CONTINUOUS
 62
     7
 10
-520.2862304522
 20
482.208268
 30
0.0
 11
-548.9272464522
 21
482.208268
 31
0.0
  0
LINE
  5
72
  8
1
  6
CONTINUOUS
 62
     7
 10
-516.6067384522
 20
482.308268
 30
0.0
 11
-514.5067384522
 21
480.208268
 31
0.0
  0
LINE
  5
73
  8
1
  6
CONTINUOUS
 62
     7
 10
-512.5067384522
 20
580.208268
 30
0.0
 11
-512.5067384522
 21
480.208268
 31
0.0
  0
LINE
  5
74
  8
1
  6
CONTINUOUS
 62
     7
 10
-553.5487774522
 20
492.208268
 30
0.0
 11
-554.7067384522
 21
485.64114
 31
0.0
  0
LINE
  5
75
  8
1
  6
CONTINUOUS
 62
     7
 10
-526.1067384522
 20
480.208268
 30
0.0
 11
-526.1067384522
 21
482.208268
 31
0.0
  0
LINE
  5
76
  8
1
  6
CONTINUOUS
 62
     7
 10
-516.9824854522
 20
511.571847
 30
0.0
 11
-524.6067384522
 21
518.850668
 31
0.0
  0
LINE
  5
77
  8
1
  6
CONTINUOUS
 62
     7
 10
-552.2309914522
 20
511.571847
 30
0.0
 11
-544.6067384522
 21
518.850668
 31
0.0
  0
LINE
  5
78
  8
1
  6
CONTINUOUS
 62
     7
 10
-495.208268
 20
480.208268
 30
0.0
 11
-495.208268
 21
519.333669
 31
0.0
  0
LINE
  5
79
  8
1
  6
CONTINUOUS
 62
     7
 10
-515.6053194522
 20
513.063273
 30
0.0
 11
-523.7067384522
 21
520.789305
 31
0.0
  0
LINE
  5
7A
  8
1
  6
CONTINUOUS
 62
     7
 10
-461.208268
 20
521.208268
 30
0.0
 11
-493.708268
 21
521.208268
 31
0.0
  0
ARC
  5
7B
  8
1
  6
CONTINUOUS
 62
     7
 10
-522.5067384522
 20
505.826532
 30
0.0
 40
10.0
 50
0.0
 51
46.35865700000001
  0
LINE
  5
7C
  8
1
  6
CONTINUOUS
 62
     7
 10
-556.7067384522
 20
480.208268
 30
0.0
 11
-554.7067384522
 21
480.208268
 31
0.0
  0
LINE
  5
7D
  8
1
  6
CONTINUOUS
 62
     7
 10
-553.5487774522
 20
492.208268
 30
0.0
 11
-553.5487774522
 21
497.208268
 31
0.0
  0
LINE
  5
7E
  8
1
  6
CONTINUOUS
 62
     7
 10
-553.6081574522
 20
513.063273
 30
0.0
 11
-545.5067384522
 21
520.789305
 31
0.0
  0
LINE
  5
7F
  8
1
  6
CONTINUOUS
 62
     7
 10
-543.3206304522
 20
515.930863
 30
0.0
 11
-550.1593974522
 21
509.40194
 31
0.0
  0
LINE
  5
80
  8
1
  6
CONTINUOUS
 62
     7
 10
-434.333669
 20
580.208268
 30
0.0
 11
-395.208268
 21
580.208268
 31
0.0
  0
LINE
  5
81
  8
1
  6
CONTINUOUS
 62
     7
 10
-551.7067384522
 20
505.785429
 30
0.0
 11
-551.7067384522
 21
497.208268
 31
0.0
  0
LINE
  5
82
  8
1
  6
CONTINUOUS
 62
     7
 10
-515.6647004522
 20
497.208268
 30
0.0
 11
-515.6647004522
 21
492.208268
 31
0.0
  0
LINE
  5
83
  8
1
  6
CONTINUOUS
 62
     7
 10
-548.9272464522
 20
482.208268
 30
0.0
 11
-548.9272464522
 21
510.578265
 31
0.0
  0
LINE
  5
84
  8
1
  6
CONTINUOUS
 62
     7
 10
-520.2862304522
 20
510.578265
 30
0.0
 11
-520.2862304522
 21
482.208268
 31
0.0
  0
LINE
  5
85
  8
1
  6
CONTINUOUS
 62
     7
 10
-514.5067384522
 20
497.208268
 30
0.0
 11
-517.5067384522
 21
497.208268
 31
0.0
  0
LINE
  5
86
  8
1
  6
CONTINUOUS
 62
     7
 10
-551.7067384522
 20
497.208268
 30
0.0
 11
-554.7067384522
 21
497.208268
 31
0.0
  0
LINE
  5
87
  8
1
  6
CONTINUOUS
 62
     7
 10
-520.2862304522
 20
483.036695
 30
0.0
 11
-548.9272464522
 21
483.036695
 31
0.0
  0
LINE
  5
88
  8
1
  6
CONTINUOUS
 62
     7
 10
-554.7067384522
 20
505.785429
 30
0.0
 11
-554.7067384522
 21
480.208268
 31
0.0
  0
LINE
  5
89
  8
1
  6
CONTINUOUS
 62
     7
 10
-517.5067384522
 20
497.208268
 30
0.0
 11
-517.5067384522
 21
505.785429
 31
0.0
  0
LINE
  5
8A
  8
1
  6
CONTINUOUS
 62
     7
 10
-514.5067384522
 20
485.208268
 30
0.0
 11
-516.6067384522
 21
485.208268
 31
0.0
  0
LINE
  5
8B
  8
1
  6
CONTINUOUS
 62
     7
 10
-543.1067384522
 20
482.208268
 30
0.0
 11
-543.1067384522
 21
480.208268
 31
0.0
  0
LINE
  5
8C
  8
1
  6
CONTINUOUS
 62
     7
 10
-552.6067384522
 20
480.208268
 30
0.0
 11
-552.6067384522
 21
485.208268
 31
0.0
  0
LINE
  5
8D
  8
1
  6
CONTINUOUS
 62
     7
 10
-515.6647004522
 20
492.208268
 30
0.0
 11
-517.6067384522
 21
492.208268
 31
0.0
  0
ARC
  5
8E
  8
1
  6
CONTINUOUS
 62
     7
 10
-534.6067384522
 20
379.208268
 30
0.0
 40
140.0
 50
85.903956
 51
94.09604400000002
  0
ARC
  5
8F
  8
1
  6
CONTINUOUS
 62
     7
 10
-534.6067384522
 20
379.208268
 30
0.0
 40
142.0
 50
85.597613
 51
94.402387
  0
ARC
  5
90
  8
1
  6
CONTINUOUS
 62
     7
 10
-461.208268
 20
546.208268
 30
0.0
 40
25.0
 50
270.0
 51
0.0
  0
LINE
  5
91
  8
1
  6
CONTINUOUS
 62
     7
 10
-548.9272464522
 20
482.208268
 30
0.0
 11
-551.6067384522
 21
492.208268
 31
0.0
  0
ARC
  5
92
  8
1
  6
CONTINUOUS
 62
     7
 10
-522.5067384522
 20
505.785429
 30
0.0
 40
8.0
 50
0.0
 51
46.32779299999999
  0
LINE
  5
93
  8
1
  6
CONTINUOUS
 62
     7
 10
-515.6647004522
 20
492.208268
 30
0.0
 11
-514.5067384522
 21
485.64114
 31
0.0
  0
ARC
  5
94
  8
1
  6
CONTINUOUS
 62
     7
 10
-546.7067384522
 20
505.785429
 30
0.0
 40
8.0
 50
133.672207
 51
180.0
  0
LINE
  5
95
  8
1
  6
CONTINUOUS
 62
     7
 10
-514.5067384522
 20
480.208268
 30
0.0
 11
-512.5067384522
 21
480.208268
 31
0.0
  0
LINE
  5
96
  8
1
  6
CONTINUOUS
 62
     7
 10
-545.5067384522
 20
580.208268
 30
0.0
 11
-545.5067384522
 21
520.789305
 31
0.0
  0
LINE
  5
97
  8
1
  6
CONTINUOUS
 62
     7
 10
-523.7067384522
 20
520.789305
 30
0.0
 11
-523.7067384522
 21
580.208268
 31
0.0
  0
LINE
  5
98
  8
1
  6
CONTINUOUS
 62
     7
 10
-395.208268
 20
482.208268
 30
0.0
 11
-395.208268
 21
580.208268
 31
0.0
  0
ARC
  5
99
  8
1
  6
CONTINUOUS
 62
     7
 10
-546.7067384522
 20
505.826532
 30
0.0
 40
10.0
 50
133.641343
 51
180.0
  0
LINE
  5
9A
  8
1
  6
CONTINUOUS
 62
     7
 10
-514.5067384522
 20
505.785429
 30
0.0
 11
-514.5067384522
 21
480.208268
 31
0.0
  0
LINE
  5
9B
  8
1
  6
CONTINUOUS
 62
     7
 10
-556.7067384522
 20
580.208268
 30
0.0
 11
-556.7067384522
 21
480.208268
 31
0.0
  0
LINE
  5
9C
  8
1
  6
CONTINUOUS
 62
     7
 10
-556.7067384522
 20
580.208268
 30
0.0
 11
-512.5067384522
 21
580.208268
 31
0.0
  0
LINE
  5
9D
  8
1
  6
CONTINUOUS
 62
     7
 10
-519.0540804522
 20
509.40194
 30
0.0
 11
-525.8928474522
 21
515.930863
 31
0.0
  0
LINE
  5
9E
  8
1
  6
CONTINUOUS
 62
     7
 10
-436.208268
 20
578.708268
 30
0.0
 11
-436.208268
 21
546.208268
 31
0.0
  0
LINE
  5
9F
  8
1
  6
CONTINUOUS
 62
     7
 10
-520.2862304522
 20
482.208268
 30
0.0
 11
-517.6067384522
 21
492.208268
 31
0.0
  0
ARC
  5
A0
  8
1
  6
CONTINUOUS
 62
     7
 10
-534.6067384522
 20
379.208268
 30
0.0
 40
137.0
 50
86.35323799999999
 51
93.64676199999997
  0
ARC
  5
A1
  8
1
  6
CONTINUOUS
 62
     7
 10
-546.7067384522
 20
505.785429
 30
0.0
 40
5.0
 50
133.672207
 51
180.0
  0
LINE
  5
A2
  8
1
  6
CONTINUOUS
 62
     7
 10
-516.6067384522
 20
485.208268
 30
0.0
 11
-516.6067384522
 21
480.208268
 31
0.0
  0
LINE
  5
A3
  8
1
  6
CONTINUOUS
 62
     7
 10
-517.6067384522
 20
492.208268
 30
0.0
 11
-517.6067384522
 21
506.780416
 31
0.0
  0
ARC
  5
A4
  8
1
  6
CONTINUOUS
 62
     7
 10
-434.708268
 20
578.708268
 30
0.0
 40
1.5
 50
90.0
 51
180.0
  0
ARC
  5
A5
  8
1
  6
CONTINUOUS
 62
     7
 10
-522.5067384522
 20
505.785429
 30
0.0
 40
5.0
 50
0.0
 51
46.32779299999999
  0
LINE
  5
A6
  8
1
  6
CONTINUOUS
 62
     7
 10
-554.7067384522
 20
480.208268
 30
0.0
 11
-552.6067384522
 21
482.308268
 31
0.0
  0
LINE
  5
A7
  8
1
  6
CONTINUOUS
 62
     7
 10
-551.6067384522
 20
506.780416
 30
0.0
 11
-551.6067384522
 21
492.208268
 31
0.0
  0
LINE
  5
A8
  8
1
  6
CONTINUOUS
 62
     7
 10
-397.208268
 20
480.208268
 30
0.0
 11
-395.208268
 21
482.208268
 31
0.0
  0
LINE
  5
A9
  8
1
  6
CONTINUOUS
 62
     7
 10
-495.208268
 20
480.208268
 30
0.0
 11
-397.208268
 21
480.208268
 31
0.0
  0
ARC
  5
AA
  8
1
  6
CONTINUOUS
 62
     7
 10
-493.708268
 20
519.708268
 30
0.0
 40
1.5
 50
90.0
 51
180.0
  0
LINE
  5
AB
  8
1
  6
CONTINUOUS
 62
     7
 10
-551.6067384522
 20
492.208268
 30
0.0
 11
-553.5487774522
 21
492.208268
 31
0.0
  0
LINE
  5
AC
  8
1
  6
CONTINUOUS
 62
     7
 10
-524.1067384522
 20
480.208268
 30
0.0
 11
-545.1067384522
 21
480.208268
 31
0.0
  0
LINE
  5
AD
  8
1
  6
CONTINUOUS
 62
     7
 10
-545.1067384522
 20
480.908268
 30
0.0
 11
-545.1067384522
 21
480.208268
 31
0.0
  0
LINE
  5
AE
  8
1
  6
CONTINUOUS
 62
     7
 10
-554.7067384522
 20
485.208268
 30
0.0
 11
-552.6067384522
 21
485.208268
 31
0.0
  0
ARC
  5
AF
  8
1
  6
CONTINUOUS
 62
     7
 10
-546.1067384522
 20
480.908268
 30
0.0
 40
1.0
 50
0.0
 51
180.0
  0
LINE
  5
B0
  8
1
  6
CONTINUOUS
 62
     7
 10
-522.1067384522
 20
480.208268
 30
0.0
 11
-522.1067384522
 21
480.908268
 31
0.0
  0
ARC
  5
B1
  8
1
  6
CONTINUOUS
 62
     7
 10
-523.1067384522
 20
480.908268
 30
0.0
 40
1.0
 50
0.0
 51
180.0
  0
LINE
  5
B2
  8
1
  6
CONTINUOUS
 62
     7
 10
-524.1067384522
 20
480.908268
 30
0.0
 11
-524.1067384522
 21
480.208268
 31
0.0
  0
LINE
  5
B3
  8
1
  6
CONTINUOUS
 62
     7
 10
-547.1067384522
 20
480.208268
 30
0.0
 11
-552.6067384522
 21
480.208268
 31
0.0
  0
LINE
  5
B4
  8
1
  6
CONTINUOUS
 62
     7
 10
-547.1067384522
 20
480.208268
 30
0.0
 11
-547.1067384522
 21
480.908268
 31
0.0
  0
LINE
  5
B5
  8
1
  6
CONTINUOUS
 62
     7
 10
-516.6067384522
 20
480.208268
 30
0.0
 11
-522.1067384522
 21
480.208268
 31
0.0
  0
ENDSEC
  0
EOF
