  0
SECTION
  2
HEADER
  9
$ACADVER
  1
AC1015
  9
$ACADMAINTVER
 70
     6
  9
$DWGCODEPAGE
  3
DOS932
  9
$INSBASE
 10
0.0
 20
0.0
 30
0.0
  9
$EXTMIN
 10
304.936177
 20
598.942664
 30
0.0
  9
$EXTMAX
 10
469.136177
 20
774.728119
 30
0.0
  9
$LIMMIN
 10
304.936177
 20
598.942664
  9
$LIMMAX
 10
469.136177
 20
774.728119
  9
$ORTHOMODE
 70
     0
  9
$REGENMODE
 70
     1
  9
$FILLMODE
 70
     1
  9
$QTEXTMODE
 70
     0
  9
$MIRRTEXT
 70
     1
  9
$LTSCALE
 40
10.0
  9
$ATTMODE
 70
     1
  9
$TEXTSIZE
 40
0.2
  9
$TRACEWID
 40
0.05
  9
$TEXTSTYLE
  7
Standard
  9
$CLAYER
  8
0
  9
$CELTYPE
  6
Continuous
  9
$CECOLOR
 62
   256
  9
$CELTSCALE
 40
1.0
  9
$DISPSILH
 70
     0
  9
$DIMSCALE
 40
1.0
  9
$DIMASZ
 40
1.4
  9
$DIMEXO
 40
1.4
  9
$DIMDLI
 40
0.38
  9
$DIMRND
 40
0.0
  9
$DIMDLE
 40
0.0
  9
$DIMEXE
 40
1.05
  9
$DIMTP
 40
0.0
  9
$DIMTM
 40
0.0
  9
$DIMTXT
 40
3.5
  9
$DIMCEN
 40
0.09
  9
$DIMTSZ
 40
0.0
  9
$DIMTOL
 70
     0
  9
$DIMLIM
 70
     0
  9
$DIMTIH
 70
     0
  9
$DIMTOH
 70
     0
  9
$DIMSE1
 70
     0
  9
$DIMSE2
 70
     0
  9
$DIMTAD
 70
     1
  9
$DIMZIN
 70
     0
  9
$DIMBLK
  1

  9
$DIMASO
 70
     1
  9
$DIMSHO
 70
     1
  9
$DIMPOST
  1

  9
$DIMAPOST
  1

  9
$DIMALT
 70
     0
  9
$DIMALTD
 70
     2
  9
$DIMALTF
 40
25.4
  9
$DIMLFAC
 40
1.0
  9
$DIMTOFL
 70
     0
  9
$DIMTVP
 40
0.0
  9
$DIMTIX
 70
     0
  9
$DIMSOXD
 70
     0
  9
$DIMSAH
 70
     0
  9
$DIMBLK1
  1

  9
$DIMBLK2
  1

  9
$DIMSTYLE
  2
Standard
  9
$DIMCLRD
 70
     7
  9
$DIMCLRE
 70
     7
  9
$DIMCLRT
 70
     7
  9
$DIMTFAC
 40
0.5
  9
$DIMGAP
 40
1.75
  9
$DIMJUST
 70
     0
  9
$DIMSD1
 70
     0
  9
$DIMSD2
 70
     0
  9
$DIMTOLJ
 70
     1
  9
$DIMTZIN
 70
     0
  9
$DIMALTZ
 70
     0
  9
$DIMALTTZ
 70
     0
  9
$DIMUPT
 70
     0
  9
$DIMDEC
 70
     2
  9
$DIMTDEC
 70
     4
  9
$DIMALTU
 70
     2
  9
$DIMALTTD
 70
     2
  9
$DIMTXSTY
  7
Standard
  9
$DIMAUNIT
 70
     0
  9
$DIMADEC
 70
     0
  9
$DIMALTRND
 40
0.0
  9
$DIMAZIN
 70
     0
  9
$DIMDSEP
 70
     0
  9
$DIMATFIT
 70
     3
  9
$DIMFRAC
 70
     0
  9
$DIMLDRBLK
  1

  9
$DIMLUNIT
 70
     2
  9
$DIMLWD
 70
     0
  9
$DIMLWE
 70
     0
  9
$DIMTMOVE
 70
     0
  9
$LUNITS
 70
     2
  9
$LUPREC
 70
     4
  9
$SKETCHINC
 40
0.1
  9
$FILLETRAD
 40
0.0
  9
$AUNITS
 70
     0
  9
$AUPREC
 70
     0
  9
$MENU
  1
acad
  9
$ELEVATION
 40
0.0
  9
$PELEVATION
 40
0.0
  9
$THICKNESS
 40
0.0
  9
$LIMCHECK
 70
     0
  9
$CHAMFERA
 40
0.0
  9
$CHAMFERB
 40
0.0
  9
$CHAMFERC
 40
0.0
  9
$CHAMFERD
 40
0.0
  9
$SKPOLY
 70
     0
  9
$TDCREATE
 40
2454160.435891204
  9
$TDUCREATE
 40
0.000000000
  9
$TDUPDATE
 40
2454160.060729167
  9
$TDUUPDATE
 40
0.000000000
  9
$TDINDWG
 40
0.0000000000
  9
$TDUSRTIMER
 40
0.0000000000
  9
$USRTIMER
 70
     1
  9
$ANGBASE
 50
0.0
  9
$ANGDIR
 70
     0
  9
$PDMODE
 70
     0
  9
$PDSIZE
 40
0.0
  9
$PLINEWID
 40
0.0
  9
$SPLFRAME
 70
     0
  9
$SPLINETYPE
 70
     6
  9
$SPLINESEGS
 70
     8
  9
$HANDSEED
  5
B4
  9
$SURFTAB1
 70
     6
  9
$SURFTAB2
 70
     6
  9
$SURFTYPE
 70
     6
  9
$SURFU
 70
     6
  9
$SURFV
 70
     6
  9
$UCSBASE
  2

  9
$UCSNAME
  2

  9
$UCSORG
 10
0.0
 20
0.0
 30
0.0
  9
$UCSXDIR
 10
1.0
 20
0.0
 30
0.0
  9
$UCSYDIR
 10
0.0
 20
1.0
 30
0.0
  9
$UCSORTHOREF
  2

  9
$UCSORTHOVIEW
 70
     0
  9
$UCSORGTOP
 10
0.0
 20
0.0
 30
0.0
  9
$UCSORGBOTTOM
 10
0.0
 20
0.0
 30
0.0
  9
$UCSORGLEFT
 10
0.0
 20
0.0
 30
0.0
  9
$UCSORGRIGHT
 10
0.0
 20
0.0
 30
0.0
  9
$UCSORGFRONT
 10
0.0
 20
0.0
 30
0.0
  9
$UCSORGBACK
 10
0.0
 20
0.0
 30
0.0
  9
$PUCSBASE
  2

  9
$PUCSNAME
  2

  9
$PUCSORG
 10
0.0
 20
0.0
 30
0.0
  9
$PUCSXDIR
 10
1.0
 20
0.0
 30
0.0
  9
$PUCSYDIR
 10
0.0
 20
1.0
 30
0.0
  9
$PUCSORTHOREF
  2

  9
$PUCSORTHOVIEW
 70
     0
  9
$PUCSORGTOP
 10
0.0
 20
0.0
 30
0.0
  9
$PUCSORGBOTTOM
 10
0.0
 20
0.0
 30
0.0
  9
$PUCSORGLEFT
 10
0.0
 20
0.0
 30
0.0
  9
$PUCSORGRIGHT
 10
0.0
 20
0.0
 30
0.0
  9
$PUCSORGFRONT
 10
0.0
 20
0.0
 30
0.0
  9
$PUCSORGBACK
 10
0.0
 20
0.0
 30
0.0
  9
$USERI1
 70
     0
  9
$USERI2
 70
     0
  9
$USERI3
 70
     0
  9
$USERI4
 70
     0
  9
$USERI5
 70
     0
  9
$USERR1
 40
0.0
  9
$USERR2
 40
0.0
  9
$USERR3
 40
0.0
  9
$USERR4
 40
0.0
  9
$USERR5
 40
0.0
  9
$WORLDVIEW
 70
     1
  9
$SHADEDGE
 70
     3
  9
$SHADEDIF
 70
    70
  9
$TILEMODE
 70
     1
  9
$MAXACTVP
 70
    16
  9
$PINSBASE
 10
0.0
 20
0.0
 30
0.0
  9
$PLIMCHECK
 70
     0
  9
$PEXTMIN
 10
1.000000E+20
 20
1.000000E+20
 30
1.000000E+20
  9
$PEXTMAX
 10
-1.000000E+20
 20
-1.000000E+20
 30
-1.000000E+20
  9
$PLIMMIN
 10
0.0
 20
0.0
  9
$PLIMMAX
 10
12.0
 20
9.0
  9
$UNITMODE
 70
     0
  9
$VISRETAIN
 70
     0
  9
$PLINEGEN
 70
     1
  9
$PSLTSCALE
 70
     0
  9
$TREEDEPTH
 70
  3020
  9
$CMLSTYLE
  2
Standard
  9
$CMLJUST
 70
     0
  9
$CMLSCALE
 40
1.0
  9
$PROXYGRAPHICS
 70
     0
  9
$MEASUREMENT
 70
     0
  9
$CELWEIGHT
370
     0
  9
$ENDCAPS
280
     0
  9
$JOINSTYLE
280
     0
  9
$LWDISPLAY
290
     0
  9
$INSUNITS
 70
     0
  9
$HYPERLINKBASE
  1

  9
$STYLESHEET
  1

  9
$XEDIT
290
     1
  9
$CEPSNTYPE
380
     0
  9
$PSTYLEMODE
290
     1
  9
$FINGERPRINTGUID
  2

  9
$VERSIONGUID
  2

  9
$EXTNAMES
290
     1
  9
$PSVPSCALE
 40
0.0
  0
ENDSEC
  0
SECTION
  2
CLASSES
  0
CLASS
  1
LWPOLYLINE
  2
AcDbPolyline
  3
AutoCAD 2000
 90
        0
280
     0
281
     1
  0
CLASS
  1
IMAGE
  2
AcDbRasterImage
  3
ISM
 90
      127
280
     0
281
     1
  0
CLASS
  1
OLE2FRAME
  2
AcDbOle2Frame
  3
AutoCAD 2000
 90
        0
280
     0
281
     1
  0
CLASS
  1
HATCH
  2
AcDbHatch
  3
AutoCAD 2000
 90
        0
280
     0
281
     1
  0
CLASS
  1
DICTIONARYVAR
  2
AcDbDictionaryVar
  3
AutoCAD 2000
 90
        0
280
     0
281
     0
  0
CLASS
  1
RASTERVARIABLES
  2
AcDbRasterVariables
  3
ISM
 90
        0
280
     0
281
     0
  0
CLASS
  1
IMAGEDEF
  2
AcDbRasterImageDef
  3
ISM
 90
        0
280
     0
281
     0
  0
CLASS
  1
IMAGEDEF_REACTOR
  2
AcDbRasterImageDefReactor
  3
ISM
 90
        1
280
     0
281
     0
  0
CLASS
  1
IDBUFFER
  2
AcDbIdBuffer
  3
AutoCAD 2000
 90
        0
280
     0
281
     0
  0
CLASS
  1
SPATIAL_FILTER
  2
AcDbSpatialFilter
  3
AutoCAD 2000
 90
        0
280
     0
281
     0
  0
CLASS
  1
XRECORD
  2
AcDbXrecord
  3
AutoCAD 2000
 90
        0
280
     0
281
     0
  0
CLASS
  1
SORTENTSTABLE
  2
AcDbSortentsTable
  3
AutoCAD 2000
 90
        0
280
     0
281
     0
  0
CLASS
  1
LAYER_INDEX
  2
AcDbLayerIndex
  3
AutoCAD 2000
 90
        0
280
     0
281
     0
  0
CLASS
  1
SPATIAL_INDEX
  2
AcDbSpatialIndex
  3
AutoCAD 2000
 90
        0
280
     0
281
     0
  0
CLASS
  1
OBJECT_PTR
  2
CAseDLPNTableRecord
  3
"ASE-LPNTableRecord"
 90
        1
280
     0
281
     0
  0
CLASS
  1
LAYOUT
  2
AcDbLayout
  3
AutoCAD 2000
 90
        0
280
     0
281
     0
  0
CLASS
  1
PLOTSETTINGS
  2
AcDbPlotSettings
  3
AutoCAD 2000
 90
        0
280
     0
281
     0
  0
CLASS
  1
ACDBDICTIONARYWDFLT
  2
AcDbDictionaryWithDefault
  3
AutoCAD 2000
 90
        0
280
     0
281
     0
  0
CLASS
  1
ACDBPLACEHOLDER
  2
AcDbPlaceHolder
  3
AutoCAD 2000
 90
        0
280
     0
281
     0
  0
CLASS
  1
VBA_PROJECT
  2
AcDbVbaProject
  3
acadvba
 90
        0
280
     0
281
     0
  0
CLASS
  1
WIPEOUT
  2
AcDbWipeout
  3
WipeOut|AutoCAD Express Tool|expresstools@autodesk.com
 90
      127
280
     0
281
     1
  0
CLASS
  1
WIPEOUTVARIABLES
  2
AcDbWipeoutVariables
  3
WipeOut|AutoCAD Express Tool|expresstools@autodesk.com
 90
        0
280
     0
281
     0
  0
CLASS
  1
RTEXT
  2
RText
  3
RText|AutoCAD Express Tool|expresstools@autodesk.com
 90
        0
280
     0
281
     1
  0
CLASS
  1
ARCALIGNEDTEXT
  2
AcDbArcAlignedText
  3
ATEXT|AutoCAD Express Tool|expresstools@autodesk.com
 90
        0
280
     0
281
     1
  0
ENDSEC
  0
SECTION
  2
TABLES
  0
TABLE
  2
VPORT
  5
7
100
AcDbSymbolTable
 70
     1
  0
VPORT
  5
15
100
AcDbSymbolTableRecord
100
AcDbViewportTableRecord
  2
*ACTIVE
 70
     0
 10
0.0
 20
0.0
 11
1.0
 21
1.0
 12
6.591288
 22
4.579184
 13
0.0
 23
0.0
 14
1.0
 24
1.0
 15
0.0
 25
0.0
 16
0.0
 26
0.0
 36
1.0
 17
0.0
 27
0.0
 37
0.0
 40
9.158369
 41
0.688564
 42
50.0
 43
0.0
 44
0.0
 50
0.0
 51
0.0
 71
     0
 72
   100
 73
     1
 74
     1
 75
     0
 76
     0
 77
     0
 78
     0
281
     0
 65
     0
110
0.0
120
0.0
130
0.0
111
1.0
121
0.0
131
0.0
112
0.0
122
1.0
132
0.0
345
0
346
0
 79
     0
146
0.0
  0
ENDTAB
  0
TABLE
  2
LTYPE
  5
4
100
AcDbSymbolTable
 70
     3
  0
LTYPE
  5
11
100
AcDbSymbolTableRecord
100
AcDbLinetypeTableRecord
  2
ByBlock
 70
    64
  3

 72
    65
 73
     0
 40
0.0
  0
LTYPE
  5
12
100
AcDbSymbolTableRecord
100
AcDbLinetypeTableRecord
  2
ByLayer
 70
    64
  3

 72
    65
 73
     0
 40
0.0
  0
LTYPE
  5
13
100
AcDbSymbolTableRecord
100
AcDbLinetypeTableRecord
  2
Continuous
 70
    64
  3
Solid line
 72
    65
 73
     0
 40
0.0
  0
ENDTAB
  0
TABLE
  2
LAYER
  5
2
100
AcDbSymbolTable
 70
     4
  0
LAYER
  5
14
100
AcDbSymbolTableRecord
100
AcDbLayerTableRecord
  2
0
 70
     0
 62
     7
  6
Continuous
290
     1
370
    -3
390
1D
  0
LAYER
  5
27
100
AcDbSymbolTableRecord
100
AcDbLayerTableRecord
  2
1
 70
     0
 62
     7
  6
Continuous
290
     1
370
    -3
390
1D
  0
LAYER
  5
48
100
AcDbSymbolTableRecord
100
AcDbLayerTableRecord
  2
5
 70
     0
 62
     7
  6
Continuous
290
     1
370
    -3
390
1D
  0
LAYER
  5
99
100
AcDbSymbolTableRecord
100
AcDbLayerTableRecord
  2
257
 70
     0
 62
     7
  6
Continuous
290
     1
370
    -3
390
1D
  0
ENDTAB
  0
TABLE
  2
STYLE
  5
3
100
AcDbSymbolTable
 70
     1
  0
STYLE
  5
17
100
AcDbSymbolTableRecord
100
AcDbTextStyleTableRecord
  2
Standard
 70
     0
 40
0.0
 41
1.0
 50
0.0
 71
     0
 42
0.0
  3
ＭＳ ゴシック
  4

1001
ACAD
1000
ＭＳ ゴシック
1071
        1
  0
ENDTAB
  0
TABLE
  2
VIEW
  5
5
100
AcDbSymbolTable
 70
     0
  0
ENDTAB
  0
TABLE
  2
UCS
  5
6
100
AcDbSymbolTable
 70
     0
  0
ENDTAB
  0
TABLE
  2
APPID
  5
8
100
AcDbSymbolTable
 70
     2
  0
APPID
  5
16
100
AcDbSymbolTableRecord
100
AcDbRegAppTableRecord
  2
ACAD
 70
     0
  0
APPID
  5
26
100
AcDbSymbolTableRecord
100
AcDbRegAppTableRecord
  2
TOPsolid_Design
 70
     0
  0
ENDTAB
  0
TABLE
  2
DIMSTYLE
  5
9
100
AcDbSymbolTable
 70
     1
100
AcDbDimStyleTable
 71
     0
  0
DIMSTYLE
105
18
100
AcDbSymbolTableRecord
100
AcDbDimStyleTableRecord
  2
Standard
 70
     0
  3

  4

 40
1.0
 41
1.4
 42
1.4
 43
0.38
 44
1.05
 45
0.0
 46
0.0
 47
0.0
 48
0.0
 71
     0
 72
     0
 73
     0
 74
     0
 75
     0
 76
     0
 77
     1
 78
     0
 79
     0
140
3.5
141
0.09
142
0.0
143
25.4
144
1.0
145
0.0
146
0.5
147
1.75
148
0.0
170
     0
171
     2
172
     0
173
     0
174
     0
175
     0
176
     7
177
     7
178
     7
179
     0
271
     2
272
     4
273
     2
274
     2
275
     0
276
     0
277
     2
278
    46
279
     0
280
     0
281
     0
282
     0
283
     1
284
     0
285
     0
286
     0
288
     0
289
     3
340
17
341
0
342
0
343
0
344
0
371
    -2
372
    -2
  0
ENDTAB
  0
TABLE
  2
BLOCK_RECORD
  5
1
100
AcDbSymbolTable
 70
     0
  0
BLOCK_RECORD
  5
A
100
AcDbSymbolTableRecord
100
AcDbBlockTableRecord
  2
*MODEL_SPACE
340
20
  0
BLOCK_RECORD
  5
B
100
AcDbSymbolTableRecord
100
AcDbBlockTableRecord
  2
*PAPER_SPACE
340
21
  0
ENDTAB
  0
ENDSEC
  0
SECTION
  2
BLOCKS
  0
BLOCK
  5
D
100
AcDbEntity
  8
0
390
0
100
AcDbBlockBegin
  2
*MODEL_SPACE
 70
     0
 10
0.0
 20
0.0
 30
0.0
  3
*MODEL_SPACE
  1

  0
ENDBLK
  5
E
100
AcDbEntity
  8
0
390
0
100
AcDbBlockEnd
  0
BLOCK
  5
F
100
AcDbEntity
 67
     1
  8
0
390
0
100
AcDbBlockBegin
  2
*PAPER_SPACE
 70
     0
 10
0.0
 20
0.0
 30
0.0
  3
*PAPER_SPACE
  1

  0
ENDBLK
  5
10
100
AcDbEntity
 67
     1
  8
0
390
0
100
AcDbBlockEnd
  0
ENDSEC
  0
SECTION
  2
ENTITIES
  0
LINE
  5
28
100
AcDbEntity
  8
1
390
0
  6
Continuous
 62
     7
100
AcDbLine
 10
428.094138
 20
622.528119
 30
0.0
 11
426.936177
 21
615.960991
 31
0.0
  0
LINE
  5
29
100
AcDbEntity
  8
1
390
0
  6
Continuous
 62
     7
100
AcDbLine
 10
465.978215
 20
622.528119
 30
0.0
 11
467.136177
 21
615.960991
 31
0.0
  0
LINE
  5
2A
100
AcDbEntity
  8
1
390
0
  6
Continuous
 62
     7
100
AcDbLine
 10
461.356685
 20
612.528119
 30
0.0
 11
464.036177
 21
622.528119
 31
0.0
  0
LINE
  5
2B
100
AcDbEntity
  8
1
390
0
  6
Continuous
 62
     7
100
AcDbLine
 10
432.715669
 20
612.528119
 30
0.0
 11
430.036177
 21
622.528119
 31
0.0
  0
LINE
  5
2C
100
AcDbEntity
  8
1
390
0
  6
Continuous
 62
     7
100
AcDbLine
 10
465.978215
 20
622.528119
 30
0.0
 11
464.036177
 21
622.528119
 31
0.0
  0
LINE
  5
2D
100
AcDbEntity
  8
1
390
0
  6
Continuous
 62
     7
100
AcDbLine
 10
430.036177
 20
622.528119
 30
0.0
 11
428.094138
 21
622.528119
 31
0.0
  0
LINE
  5
2E
100
AcDbEntity
  8
1
390
0
  6
Continuous
 62
     7
100
AcDbLine
 10
429.036177
 20
610.528119
 30
0.0
 11
429.036177
 21
615.528119
 31
0.0
  0
LINE
  5
2F
100
AcDbEntity
  8
1
390
0
  6
Continuous
 62
     7
100
AcDbLine
 10
465.036177
 20
615.528119
 30
0.0
 11
465.036177
 21
610.528119
 31
0.0
  0
LINE
  5
30
100
AcDbEntity
  8
1
390
0
  6
Continuous
 62
     7
100
AcDbLine
 10
438.536177
 20
612.528119
 30
0.0
 11
438.536177
 21
610.528119
 31
0.0
  0
LINE
  5
31
100
AcDbEntity
  8
1
390
0
  6
Continuous
 62
     7
100
AcDbLine
 10
455.536177
 20
610.528119
 30
0.0
 11
455.536177
 21
612.528119
 31
0.0
  0
LINE
  5
32
100
AcDbEntity
  8
1
390
0
  6
Continuous
 62
     7
100
AcDbLine
 10
461.356685
 20
612.528119
 30
0.0
 11
432.715669
 21
612.528119
 31
0.0
  0
ARC
  5
33
100
AcDbEntity
  8
1
390
0
  6
Continuous
 62
     7
100
AcDbCircle
 10
447.036177
 20
509.528119
 30
0.0
 40
140.0
210
0.0
220
0.0
230
0.9999999999999999
100
AcDbArc
 50
85.903956
 51
94.096044
  0
ARC
  5
34
100
AcDbEntity
  8
1
390
0
  6
Continuous
 62
     7
100
AcDbCircle
 10
447.036177
 20
509.528119
 30
0.0
 40
142.0
210
0.0
220
0.0
230
1.0
100
AcDbArc
 50
85.597613
 51
94.402387
  0
LINE
  5
35
100
AcDbEntity
  8
1
390
0
  6
Continuous
 62
     7
100
AcDbLine
 10
464.66043
 20
641.891698
 30
0.0
 11
457.036177
 21
649.170519
 31
0.0
  0
ARC
  5
36
100
AcDbEntity
  8
1
390
0
  6
Continuous
 62
     7
100
AcDbCircle
 10
459.136177
 20
636.10528
 30
0.0
 40
8.0
210
0.0
220
0.0
230
1.0
100
AcDbArc
 50
0.0
 51
46.327793
  0
LINE
  5
37
100
AcDbEntity
  8
1
390
0
  6
Continuous
 62
     7
100
AcDbLine
 10
429.411924
 20
641.891698
 30
0.0
 11
437.036177
 21
649.170519
 31
0.0
  0
ARC
  5
38
100
AcDbEntity
  8
1
390
0
  6
Continuous
 62
     7
100
AcDbCircle
 10
434.936177
 20
636.10528
 30
0.0
 40
8.0
210
0.0
220
0.0
230
1.0
100
AcDbArc
 50
133.672207
 51
180.0
  0
LINE
  5
39
100
AcDbEntity
  8
1
390
0
  6
Continuous
 62
     7
100
AcDbLine
 10
428.034758
 20
643.383124
 30
0.0
 11
436.136177
 21
651.109156
 31
0.0
  0
ARC
  5
3A
100
AcDbEntity
  8
1
390
0
  6
Continuous
 62
     7
100
AcDbCircle
 10
434.936177
 20
636.146383
 30
0.0
 40
10.0
210
0.0
220
0.0
230
1.0
100
AcDbArc
 50
133.641343
 51
180.0
  0
LINE
  5
3B
100
AcDbEntity
  8
1
390
0
  6
Continuous
 62
     7
100
AcDbLine
 10
466.037596
 20
643.383124
 30
0.0
 11
457.936177
 21
651.109156
 31
0.0
  0
ARC
  5
3C
100
AcDbEntity
  8
1
390
0
  6
Continuous
 62
     7
100
AcDbCircle
 10
459.136177
 20
636.146383
 30
0.0
 40
10.0
210
0.0
220
0.0
230
1.0
100
AcDbArc
 50
0.0
 51
46.358657
  0
LINE
  5
3D
100
AcDbEntity
  8
1
390
0
  6
Continuous
 62
     7
100
AcDbLine
 10
426.936177
 20
610.528119
 30
0.0
 11
429.036177
 21
612.628119
 31
0.0
  0
LINE
  5
3E
100
AcDbEntity
  8
1
390
0
  6
Continuous
 62
     7
100
AcDbLine
 10
465.036177
 20
612.628119
 30
0.0
 11
467.136177
 21
610.528119
 31
0.0
  0
LINE
  5
3F
100
AcDbEntity
  8
1
390
0
  6
Continuous
 62
     7
100
AcDbLine
 10
424.936177
 20
610.528119
 30
0.0
 11
426.936177
 21
610.528119
 31
0.0
  0
LINE
  5
40
100
AcDbEntity
  8
1
390
0
  6
Continuous
 62
     7
100
AcDbLine
 10
467.136177
 20
610.528119
 30
0.0
 11
469.136177
 21
610.528119
 31
0.0
  0
LINE
  5
41
100
AcDbEntity
  8
1
390
0
  6
Continuous
 62
     7
100
AcDbLine
 10
426.936177
 20
636.10528
 30
0.0
 11
426.936177
 21
610.528119
 31
0.0
  0
LINE
  5
42
100
AcDbEntity
  8
1
390
0
  6
Continuous
 62
     7
100
AcDbLine
 10
467.136177
 20
636.10528
 30
0.0
 11
467.136177
 21
610.528119
 31
0.0
  0
LINE
  5
43
100
AcDbEntity
  8
1
390
0
  6
Continuous
 62
     7
100
AcDbLine
 10
436.136177
 20
710.528119
 30
0.0
 11
436.136177
 21
651.109156
 31
0.0
  0
LINE
  5
44
100
AcDbEntity
  8
1
390
0
  6
Continuous
 62
     7
100
AcDbLine
 10
457.936177
 20
651.109156
 30
0.0
 11
457.936177
 21
710.528119
 31
0.0
  0
LINE
  5
45
100
AcDbEntity
  8
1
390
0
  6
Continuous
 62
     7
100
AcDbLine
 10
469.136177
 20
710.528119
 30
0.0
 11
469.136177
 21
610.528119
 31
0.0
  0
LINE
  5
46
100
AcDbEntity
  8
1
390
0
  6
Continuous
 62
     7
100
AcDbLine
 10
424.936177
 20
710.528119
 30
0.0
 11
424.936177
 21
610.528119
 31
0.0
  0
LINE
  5
47
100
AcDbEntity
  8
1
390
0
  6
Continuous
 62
     7
100
AcDbLine
 10
424.936177
 20
710.528119
 30
0.0
 11
469.136177
 21
710.528119
 31
0.0
  0
ARC
  5
49
100
AcDbEntity
  8
5
390
0
  6
Continuous
 62
     7
100
AcDbCircle
 10
459.136177
 20
636.10528
 30
0.0
 40
5.0
210
0.0
220
0.0
230
1.0
100
AcDbArc
 50
0.0
 51
46.327793
  0
LINE
  5
4A
100
AcDbEntity
  8
5
390
0
  6
Continuous
 62
     7
100
AcDbLine
 10
462.588835
 20
639.721791
 30
0.0
 11
455.750068
 21
646.250714
 31
0.0
  0
ARC
  5
4B
100
AcDbEntity
  8
5
390
0
  6
Continuous
 62
     7
100
AcDbCircle
 10
447.036177
 20
509.528119
 30
0.0
 40
137.0
210
0.0
220
0.0
230
1.0
100
AcDbArc
 50
86.353238
 51
93.646762
  0
LINE
  5
4C
100
AcDbEntity
  8
5
390
0
  6
Continuous
 62
     7
100
AcDbLine
 10
438.322285
 20
646.250714
 30
0.0
 11
431.483518
 21
639.721791
 31
0.0
  0
ARC
  5
4D
100
AcDbEntity
  8
5
390
0
  6
Continuous
 62
     7
100
AcDbCircle
 10
434.936177
 20
636.10528
 30
0.0
 40
5.0
210
0.0
220
0.0
230
1.0
100
AcDbArc
 50
133.672207
 51
180.0
  0
LINE
  5
4E
100
AcDbEntity
  8
1
390
0
  6
Continuous
 62
     7
100
AcDbLine
 10
464.036177
 20
622.528119
 30
0.0
 11
464.036177
 21
637.100267
 31
0.0
  0
LINE
  5
4F
100
AcDbEntity
  8
1
390
0
  6
Continuous
 62
     7
100
AcDbLine
 10
430.036177
 20
637.100267
 30
0.0
 11
430.036177
 21
622.528119
 31
0.0
  0
LINE
  5
50
100
AcDbEntity
  8
1
390
0
  6
Continuous
 62
     7
100
AcDbLine
 10
428.094138
 20
622.528119
 30
0.0
 11
428.094138
 21
627.528119
 31
0.0
  0
LINE
  5
51
100
AcDbEntity
  8
5
390
0
  6
Continuous
 62
     7
100
AcDbLine
 10
429.936177
 20
636.10528
 30
0.0
 11
429.936177
 21
627.528119
 31
0.0
  0
LINE
  5
52
100
AcDbEntity
  8
5
390
0
  6
Continuous
 62
     7
100
AcDbLine
 10
464.136177
 20
627.528119
 30
0.0
 11
464.136177
 21
636.10528
 31
0.0
  0
LINE
  5
53
100
AcDbEntity
  8
1
390
0
  6
Continuous
 62
     7
100
AcDbLine
 10
465.978215
 20
627.528119
 30
0.0
 11
465.978215
 21
622.528119
 31
0.0
  0
LINE
  5
54
100
AcDbEntity
  8
1
390
0
  6
Continuous
 62
     7
100
AcDbLine
 10
432.715669
 20
612.528119
 30
0.0
 11
432.715669
 21
640.898116
 31
0.0
  0
LINE
  5
55
100
AcDbEntity
  8
1
390
0
  6
Continuous
 62
     7
100
AcDbLine
 10
461.356685
 20
640.898116
 30
0.0
 11
461.356685
 21
612.528119
 31
0.0
  0
LINE
  5
56
100
AcDbEntity
  8
1
390
0
  6
Continuous
 62
     7
100
AcDbLine
 10
467.136177
 20
627.528119
 30
0.0
 11
464.136177
 21
627.528119
 31
0.0
  0
LINE
  5
57
100
AcDbEntity
  8
1
390
0
  6
Continuous
 62
     7
100
AcDbLine
 10
429.936177
 20
627.528119
 30
0.0
 11
426.936177
 21
627.528119
 31
0.0
  0
LINE
  5
58
100
AcDbEntity
  8
1
390
0
  6
Continuous
 62
     7
100
AcDbLine
 10
404.936177
 20
651.528119
 30
0.0
 11
404.936177
 21
610.528119
 31
0.0
  0
LINE
  5
59
100
AcDbEntity
  8
1
390
0
  6
Continuous
 62
     7
100
AcDbLine
 10
345.936177
 20
710.528119
 30
0.0
 11
304.936177
 21
710.528119
 31
0.0
  0
LINE
  5
5A
100
AcDbEntity
  8
1
390
0
  6
Continuous
 62
     7
100
AcDbLine
 10
380.936177
 20
651.528119
 30
0.0
 11
404.936177
 21
651.528119
 31
0.0
  0
LINE
  5
5B
100
AcDbEntity
  8
1
390
0
  6
Continuous
 62
     7
100
AcDbLine
 10
345.936177
 20
686.528119
 30
0.0
 11
345.936177
 21
710.528119
 31
0.0
  0
LINE
  5
5C
100
AcDbEntity
  8
1
390
0
  6
Continuous
 62
     7
100
AcDbLine
 10
380.936177
 20
640.428119
 30
0.0
 11
404.936177
 21
640.428119
 31
0.0
  0
LINE
  5
5D
100
AcDbEntity
  8
1
390
0
  6
Continuous
 62
     7
100
AcDbLine
 10
334.836177
 20
686.528119
 30
0.0
 11
334.836177
 21
710.528119
 31
0.0
  0
LINE
  5
5E
100
AcDbEntity
  8
1
390
0
  6
Continuous
 62
     7
100
AcDbLine
 10
306.936177
 20
610.528119
 30
0.0
 11
404.936177
 21
610.528119
 31
0.0
  0
LINE
  5
5F
100
AcDbEntity
  8
1
390
0
  6
Continuous
 62
     7
100
AcDbLine
 10
304.936177
 20
612.528119
 30
0.0
 11
304.936177
 21
710.528119
 31
0.0
  0
LINE
  5
60
100
AcDbEntity
  8
1
390
0
  6
Continuous
 62
     7
100
AcDbLine
 10
306.936177
 20
610.528119
 30
0.0
 11
304.936177
 21
612.528119
 31
0.0
  0
LINE
  5
61
100
AcDbEntity
  8
1
390
0
  6
Continuous
 62
     7
100
AcDbLine
 10
461.356685
 20
613.356546
 30
0.0
 11
432.715669
 21
613.356546
 31
0.0
  0
ARC
  5
62
100
AcDbEntity
  8
1
390
0
  6
Continuous
 62
     7
100
AcDbCircle
 10
380.936177
 20
686.528119
 30
0.0
 40
35.0
210
0.0
220
0.0
230
1.0
100
AcDbArc
 50
180.0
 51
270.0
  0
ARC
  5
63
100
AcDbEntity
  8
1
390
0
  6
Continuous
 62
     7
100
AcDbCircle
 10
380.936177
 20
686.528119
 30
0.0
 40
46.1
210
0.0
220
0.0
230
1.0
100
AcDbArc
 50
180.0
 51
270.0
  0
LINE
  5
64
100
AcDbEntity
  8
1
390
0
  6
Continuous
 62
     7
100
AcDbLine
 10
467.136177
 20
615.528119
 30
0.0
 11
465.036177
 21
615.528119
 31
0.0
  0
LINE
  5
65
100
AcDbEntity
  8
1
390
0
  6
Continuous
 62
     7
100
AcDbLine
 10
426.936177
 20
615.528119
 30
0.0
 11
429.036177
 21
615.528119
 31
0.0
  0
LINE
  5
66
100
AcDbEntity
  8
1
390
0
  6
Continuous
 62
     7
100
AcDbLine
 10
316.936177
 20
733.686081
 30
0.0
 11
310.369048
 21
732.528119
 31
0.0
  0
LINE
  5
67
100
AcDbEntity
  8
1
390
0
  6
Continuous
 62
     7
100
AcDbLine
 10
316.936177
 20
771.570157
 30
0.0
 11
310.369048
 21
772.728119
 31
0.0
  0
LINE
  5
68
100
AcDbEntity
  8
1
390
0
  6
Continuous
 62
     7
100
AcDbLine
 10
306.936177
 20
766.948627
 30
0.0
 11
316.936177
 21
769.628119
 31
0.0
  0
LINE
  5
69
100
AcDbEntity
  8
1
390
0
  6
Continuous
 62
     7
100
AcDbLine
 10
306.936177
 20
738.307611
 30
0.0
 11
316.936177
 21
735.628119
 31
0.0
  0
LINE
  5
6A
100
AcDbEntity
  8
1
390
0
  6
Continuous
 62
     7
100
AcDbLine
 10
316.936177
 20
771.570157
 30
0.0
 11
316.936177
 21
769.628119
 31
0.0
  0
LINE
  5
6B
100
AcDbEntity
  8
1
390
0
  6
Continuous
 62
     7
100
AcDbLine
 10
316.936177
 20
735.628119
 30
0.0
 11
316.936177
 21
733.686081
 31
0.0
  0
LINE
  5
6C
100
AcDbEntity
  8
1
390
0
  6
Continuous
 62
     7
100
AcDbLine
 10
304.936177
 20
734.628119
 30
0.0
 11
309.936177
 21
734.628119
 31
0.0
  0
LINE
  5
6D
100
AcDbEntity
  8
1
390
0
  6
Continuous
 62
     7
100
AcDbLine
 10
309.936177
 20
770.628119
 30
0.0
 11
304.936177
 21
770.628119
 31
0.0
  0
LINE
  5
6E
100
AcDbEntity
  8
1
390
0
  6
Continuous
 62
     7
100
AcDbLine
 10
306.936177
 20
744.128119
 30
0.0
 11
304.936177
 21
744.128119
 31
0.0
  0
LINE
  5
6F
100
AcDbEntity
  8
1
390
0
  6
Continuous
 62
     7
100
AcDbLine
 10
304.936177
 20
761.128119
 30
0.0
 11
306.936177
 21
761.128119
 31
0.0
  0
LINE
  5
70
100
AcDbEntity
  8
1
390
0
  6
Continuous
 62
     7
100
AcDbLine
 10
306.936177
 20
766.948627
 30
0.0
 11
306.936177
 21
738.307611
 31
0.0
  0
ARC
  5
71
100
AcDbEntity
  8
1
390
0
  6
Continuous
 62
     7
100
AcDbCircle
 10
203.936177
 20
752.628119
 30
0.0
 40
140.0
210
0.0
220
0.0
230
1.0
100
AcDbArc
 50
355.903956
 51
4.096044
  0
ARC
  5
72
100
AcDbEntity
  8
1
390
0
  6
Continuous
 62
     7
100
AcDbCircle
 10
203.936177
 20
752.628119
 30
0.0
 40
142.0
210
0.0
220
0.0
230
0.9999999999999999
100
AcDbArc
 50
355.597613
 51
4.402387
  0
LINE
  5
73
100
AcDbEntity
  8
1
390
0
  6
Continuous
 62
     7
100
AcDbLine
 10
336.299755
 20
770.252372
 30
0.0
 11
343.578577
 21
762.628119
 31
0.0
  0
ARC
  5
74
100
AcDbEntity
  8
1
390
0
  6
Continuous
 62
     7
100
AcDbCircle
 10
330.513338
 20
764.728119
 30
0.0
 40
8.0
210
0.0
220
0.0
230
1.0
100
AcDbArc
 50
43.672207
 51
90.0
  0
LINE
  5
75
100
AcDbEntity
  8
1
390
0
  6
Continuous
 62
     7
100
AcDbLine
 10
336.299755
 20
735.003866
 30
0.0
 11
343.578577
 21
742.628119
 31
0.0
  0
ARC
  5
76
100
AcDbEntity
  8
1
390
0
  6
Continuous
 62
     7
100
AcDbCircle
 10
330.513338
 20
740.528119
 30
0.0
 40
8.0
210
0.0
220
0.0
230
1.0
100
AcDbArc
 50
270.0
 51
316.327793
  0
LINE
  5
77
100
AcDbEntity
  8
1
390
0
  6
Continuous
 62
     7
100
AcDbLine
 10
337.791182
 20
733.6267
 30
0.0
 11
345.517213
 21
741.728119
 31
0.0
  0
ARC
  5
78
100
AcDbEntity
  8
1
390
0
  6
Continuous
 62
     7
100
AcDbCircle
 10
330.554441
 20
740.528119
 30
0.0
 40
10.0
210
0.0
220
0.0
230
1.0
100
AcDbArc
 50
270.0
 51
316.358657
  0
LINE
  5
79
100
AcDbEntity
  8
1
390
0
  6
Continuous
 62
     7
100
AcDbLine
 10
337.791182
 20
771.629538
 30
0.0
 11
345.517213
 21
763.528119
 31
0.0
  0
ARC
  5
7A
100
AcDbEntity
  8
1
390
0
  6
Continuous
 62
     7
100
AcDbCircle
 10
330.554441
 20
764.728119
 30
0.0
 40
10.0
210
0.0
220
0.0
230
1.0
100
AcDbArc
 50
43.641343
 51
90.0
  0
LINE
  5
7B
100
AcDbEntity
  8
1
390
0
  6
Continuous
 62
     7
100
AcDbLine
 10
304.936177
 20
732.528119
 30
0.0
 11
307.036177
 21
734.628119
 31
0.0
  0
LINE
  5
7C
100
AcDbEntity
  8
1
390
0
  6
Continuous
 62
     7
100
AcDbLine
 10
307.036177
 20
770.628119
 30
0.0
 11
304.936177
 21
772.728119
 31
0.0
  0
LINE
  5
7D
100
AcDbEntity
  8
1
390
0
  6
Continuous
 62
     7
100
AcDbLine
 10
304.936177
 20
730.528119
 30
0.0
 11
304.936177
 21
732.528119
 31
0.0
  0
LINE
  5
7E
100
AcDbEntity
  8
1
390
0
  6
Continuous
 62
     7
100
AcDbLine
 10
304.936177
 20
772.728119
 30
0.0
 11
304.936177
 21
774.728119
 31
0.0
  0
LINE
  5
7F
100
AcDbEntity
  8
1
390
0
  6
Continuous
 62
     7
100
AcDbLine
 10
330.513338
 20
732.528119
 30
0.0
 11
304.936177
 21
732.528119
 31
0.0
  0
LINE
  5
80
100
AcDbEntity
  8
1
390
0
  6
Continuous
 62
     7
100
AcDbLine
 10
330.513338
 20
772.728119
 30
0.0
 11
304.936177
 21
772.728119
 31
0.0
  0
LINE
  5
81
100
AcDbEntity
  8
1
390
0
  6
Continuous
 62
     7
100
AcDbLine
 10
404.936177
 20
741.728119
 30
0.0
 11
345.517213
 21
741.728119
 31
0.0
  0
LINE
  5
82
100
AcDbEntity
  8
1
390
0
  6
Continuous
 62
     7
100
AcDbLine
 10
345.517213
 20
763.528119
 30
0.0
 11
404.936177
 21
763.528119
 31
0.0
  0
LINE
  5
83
100
AcDbEntity
  8
1
390
0
  6
Continuous
 62
     7
100
AcDbLine
 10
404.936177
 20
774.728119
 30
0.0
 11
304.936177
 21
774.728119
 31
0.0
  0
LINE
  5
84
100
AcDbEntity
  8
1
390
0
  6
Continuous
 62
     7
100
AcDbLine
 10
404.936177
 20
730.528119
 30
0.0
 11
304.936177
 21
730.528119
 31
0.0
  0
LINE
  5
85
100
AcDbEntity
  8
1
390
0
  6
Continuous
 62
     7
100
AcDbLine
 10
404.936177
 20
730.528119
 30
0.0
 11
404.936177
 21
774.728119
 31
0.0
  0
ARC
  5
86
100
AcDbEntity
  8
5
390
0
  6
Continuous
 62
     7
100
AcDbCircle
 10
330.513338
 20
764.728119
 30
0.0
 40
5.0
210
0.0
220
0.0
230
1.0
100
AcDbArc
 50
43.672207
 51
90.0
  0
LINE
  5
87
100
AcDbEntity
  8
5
390
0
  6
Continuous
 62
     7
100
AcDbLine
 10
334.129849
 20
768.180777
 30
0.0
 11
340.658772
 21
761.34201
 31
0.0
  0
ARC
  5
88
100
AcDbEntity
  8
5
390
0
  6
Continuous
 62
     7
100
AcDbCircle
 10
203.936177
 20
752.628119
 30
0.0
 40
137.0
210
0.0
220
0.0
230
1.0
100
AcDbArc
 50
356.353238
 51
3.646762
  0
LINE
  5
89
100
AcDbEntity
  8
5
390
0
  6
Continuous
 62
     7
100
AcDbLine
 10
340.658772
 20
743.914227
 30
0.0
 11
334.129849
 21
737.075461
 31
0.0
  0
ARC
  5
8A
100
AcDbEntity
  8
5
390
0
  6
Continuous
 62
     7
100
AcDbCircle
 10
330.513338
 20
740.528119
 30
0.0
 40
5.0
210
0.0
220
0.0
230
1.0
100
AcDbArc
 50
270.0
 51
316.327793
  0
LINE
  5
8B
100
AcDbEntity
  8
1
390
0
  6
Continuous
 62
     7
100
AcDbLine
 10
316.936177
 20
769.628119
 30
0.0
 11
331.508325
 21
769.628119
 31
0.0
  0
LINE
  5
8C
100
AcDbEntity
  8
1
390
0
  6
Continuous
 62
     7
100
AcDbLine
 10
331.508325
 20
735.628119
 30
0.0
 11
316.936177
 21
735.628119
 31
0.0
  0
LINE
  5
8D
100
AcDbEntity
  8
1
390
0
  6
Continuous
 62
     7
100
AcDbLine
 10
316.936177
 20
733.686081
 30
0.0
 11
321.936177
 21
733.686081
 31
0.0
  0
LINE
  5
8E
100
AcDbEntity
  8
5
390
0
  6
Continuous
 62
     7
100
AcDbLine
 10
330.513338
 20
735.528119
 30
0.0
 11
321.936177
 21
735.528119
 31
0.0
  0
LINE
  5
8F
100
AcDbEntity
  8
5
390
0
  6
Continuous
 62
     7
100
AcDbLine
 10
321.936177
 20
769.728119
 30
0.0
 11
330.513338
 21
769.728119
 31
0.0
  0
LINE
  5
90
100
AcDbEntity
  8
1
390
0
  6
Continuous
 62
     7
100
AcDbLine
 10
321.936177
 20
771.570157
 30
0.0
 11
316.936177
 21
771.570157
 31
0.0
  0
LINE
  5
91
100
AcDbEntity
  8
1
390
0
  6
Continuous
 62
     7
100
AcDbLine
 10
306.936177
 20
738.307611
 30
0.0
 11
335.306174
 21
738.307611
 31
0.0
  0
LINE
  5
92
100
AcDbEntity
  8
1
390
0
  6
Continuous
 62
     7
100
AcDbLine
 10
335.306174
 20
766.948627
 30
0.0
 11
306.936177
 21
766.948627
 31
0.0
  0
LINE
  5
93
100
AcDbEntity
  8
1
390
0
  6
Continuous
 62
     7
100
AcDbLine
 10
321.936177
 20
772.728119
 30
0.0
 11
321.936177
 21
769.728119
 31
0.0
  0
LINE
  5
94
100
AcDbEntity
  8
1
390
0
  6
Continuous
 62
     7
100
AcDbLine
 10
321.936177
 20
735.528119
 30
0.0
 11
321.936177
 21
732.528119
 31
0.0
  0
LINE
  5
95
100
AcDbEntity
  8
1
390
0
  6
Continuous
 62
     7
100
AcDbLine
 10
307.764604
 20
766.948627
 30
0.0
 11
307.764604
 21
738.307611
 31
0.0
  0
LINE
  5
96
100
AcDbEntity
  8
1
390
0
  6
Continuous
 62
     7
100
AcDbLine
 10
309.936177
 20
772.728119
 30
0.0
 11
309.936177
 21
770.628119
 31
0.0
  0
LINE
  5
97
100
AcDbEntity
  8
1
390
0
  6
Continuous
 62
     7
100
AcDbLine
 10
309.936177
 20
732.528119
 30
0.0
 11
309.936177
 21
734.628119
 31
0.0
  0
MTEXT
  5
98
100
AcDbEntity
  8
1
390
0
 62
     7
100
AcDbMText
 10
354.507458
 20
598.928119
 30
0.0
 40
3.2
 41
38.997196
 71
     8
 72
     1
  1
{\W0.688489;ＲＭＩ－２０ＭＬ}
210
0.0
220
0.0
230
1.0
 73
     1
 44
1.0
  0
LINE
  5
9A
100
AcDbEntity
  8
257
390
0
  6
Continuous
 62
     7
100
AcDbLine
 10
459.536177
 20
610.828119
 30
0.0
 11
459.536177
 21
611.228119
 31
0.0
  0
ARC
  5
9B
100
AcDbEntity
  8
257
390
0
  6
Continuous
 62
     7
100
AcDbCircle
 10
458.536177
 20
611.228119
 30
0.0
 40
1.0
210
0.0
220
0.0
230
1.0
100
AcDbArc
 50
0.0
 51
180.0
  0
LINE
  5
9C
100
AcDbEntity
  8
257
390
0
  6
Continuous
 62
     7
100
AcDbLine
 10
457.536177
 20
611.228119
 30
0.0
 11
457.536177
 21
610.828119
 31
0.0
  0
LINE
  5
9D
100
AcDbEntity
  8
257
390
0
  6
Continuous
 62
     7
100
AcDbLine
 10
459.536177
 20
610.528119
 30
0.0
 11
459.536177
 21
610.828119
 31
0.0
  0
LINE
  5
9E
100
AcDbEntity
  8
257
390
0
  6
Continuous
 62
     7
100
AcDbLine
 10
457.536177
 20
610.828119
 30
0.0
 11
457.536177
 21
610.528119
 31
0.0
  0
LINE
  5
9F
100
AcDbEntity
  8
257
390
0
  6
Continuous
 62
     7
100
AcDbLine
 10
434.536177
 20
610.828119
 30
0.0
 11
434.536177
 21
611.228119
 31
0.0
  0
LINE
  5
A0
100
AcDbEntity
  8
257
390
0
  6
Continuous
 62
     7
100
AcDbLine
 10
436.536177
 20
611.228119
 30
0.0
 11
436.536177
 21
610.828119
 31
0.0
  0
ARC
  5
A1
100
AcDbEntity
  8
257
390
0
  6
Continuous
 62
     7
100
AcDbCircle
 10
435.536177
 20
611.228119
 30
0.0
 40
1.0
210
0.0
220
0.0
230
1.0
100
AcDbArc
 50
0.0
 51
180.0
  0
LINE
  5
A2
100
AcDbEntity
  8
257
390
0
  6
Continuous
 62
     7
100
AcDbLine
 10
434.536177
 20
610.528119
 30
0.0
 11
434.536177
 21
610.828119
 31
0.0
  0
LINE
  5
A3
100
AcDbEntity
  8
257
390
0
  6
Continuous
 62
     7
100
AcDbLine
 10
436.536177
 20
610.828119
 30
0.0
 11
436.536177
 21
610.528119
 31
0.0
  0
LINE
  5
A4
100
AcDbEntity
  8
1
390
0
  6
Continuous
 62
     7
100
AcDbLine
 10
434.536177
 20
610.528119
 30
0.0
 11
429.036177
 21
610.528119
 31
0.0
  0
LINE
  5
A5
100
AcDbEntity
  8
1
390
0
  6
Continuous
 62
     7
100
AcDbLine
 10
465.036177
 20
610.528119
 30
0.0
 11
459.536177
 21
610.528119
 31
0.0
  0
LINE
  5
A6
100
AcDbEntity
  8
1
390
0
  6
Continuous
 62
     7
100
AcDbLine
 10
457.536177
 20
610.528119
 30
0.0
 11
436.536177
 21
610.528119
 31
0.0
  0
LINE
  5
A7
100
AcDbEntity
  8
257
390
0
  6
Continuous
 62
     7
100
AcDbLine
 10
305.236177
 20
765.128119
 30
0.0
 11
305.636177
 21
765.128119
 31
0.0
  0
LINE
  5
A8
100
AcDbEntity
  8
257
390
0
  6
Continuous
 62
     7
100
AcDbLine
 10
305.636177
 20
763.128119
 30
0.0
 11
305.236177
 21
763.128119
 31
0.0
  0
ARC
  5
A9
100
AcDbEntity
  8
257
390
0
  6
Continuous
 62
     7
100
AcDbCircle
 10
305.636177
 20
764.128119
 30
0.0
 40
1.0
210
0.0
220
0.0
230
1.0
100
AcDbArc
 50
270.0
 51
90.0
  0
LINE
  5
AA
100
AcDbEntity
  8
257
390
0
  6
Continuous
 62
     7
100
AcDbLine
 10
304.936177
 20
765.128119
 30
0.0
 11
305.236177
 21
765.128119
 31
0.0
  0
LINE
  5
AB
100
AcDbEntity
  8
257
390
0
  6
Continuous
 62
     7
100
AcDbLine
 10
305.236177
 20
763.128119
 30
0.0
 11
304.936177
 21
763.128119
 31
0.0
  0
LINE
  5
AC
100
AcDbEntity
  8
257
390
0
  6
Continuous
 62
     7
100
AcDbLine
 10
305.236177
 20
740.128119
 30
0.0
 11
305.636177
 21
740.128119
 31
0.0
  0
ARC
  5
AD
100
AcDbEntity
  8
257
390
0
  6
Continuous
 62
     7
100
AcDbCircle
 10
305.636177
 20
741.128119
 30
0.0
 40
1.0
210
0.0
220
0.0
230
1.0
100
AcDbArc
 50
270.0
 51
90.0
  0
LINE
  5
AE
100
AcDbEntity
  8
257
390
0
  6
Continuous
 62
     7
100
AcDbLine
 10
305.636177
 20
742.128119
 30
0.0
 11
305.236177
 21
742.128119
 31
0.0
  0
LINE
  5
AF
100
AcDbEntity
  8
257
390
0
  6
Continuous
 62
     7
100
AcDbLine
 10
304.936177
 20
740.128119
 30
0.0
 11
305.236177
 21
740.128119
 31
0.0
  0
LINE
  5
B0
100
AcDbEntity
  8
257
390
0
  6
Continuous
 62
     7
100
AcDbLine
 10
305.236177
 20
742.128119
 30
0.0
 11
304.936177
 21
742.128119
 31
0.0
  0
LINE
  5
B1
100
AcDbEntity
  8
1
390
0
  6
Continuous
 62
     7
100
AcDbLine
 10
304.936177
 20
770.628119
 30
0.0
 11
304.936177
 21
765.128119
 31
0.0
  0
LINE
  5
B2
100
AcDbEntity
  8
1
390
0
  6
Continuous
 62
     7
100
AcDbLine
 10
304.936177
 20
763.128119
 30
0.0
 11
304.936177
 21
742.128119
 31
0.0
  0
LINE
  5
B3
100
AcDbEntity
  8
1
390
0
  6
Continuous
 62
     7
100
AcDbLine
 10
304.936177
 20
740.128119
 30
0.0
 11
304.936177
 21
734.628119
 31
0.0
  0
ENDSEC
  0
SECTION
  2
OBJECTS
  0
DICTIONARY
  5
19
100
AcDbDictionary
280
     0
281
     1
  3
ACAD_GROUP
350
1A
  3
ACAD_MLINESTYLE
350
1B
  3
ACAD_LAYOUT
350
1E
  3
ACAD_PLOTSETTINGS
350
22
  3
ACAD_PLOTSTYLENAME
350
1F
  3
ACAD_WIPEOUT_VARS
350
23
  0
DICTIONARY
  5
1A
102
{ACAD_REACTORS
330
19
102
}
100
AcDbDictionary
280
     0
281
     1
  0
DICTIONARY
  5
1B
102
{ACAD_REACTORS
330
19
102
}
100
AcDbDictionary
280
     0
281
     1
  3
Standard
350
1C
  0
MLINESTYLE
  5
1C
102
{ACAD_REACTORS
330
1B
102
}
100
AcDbMlineStyle
  2
Standard
 70
     0
  3

 62
     0
 51
90.0
 52
90.0
 71
     2
 49
0.5
 62
   256
  6
ByLayer
 49
-0.5
 62
   256
  6
ByLayer
  0
ACDBDICTIONARYWDFLT
  5
1F
102
{ACAD_REACTORS
330
19
102
}
100
AcDbDictionary
281
     1
  3
Normal
350
1D
100
AcDbDictionaryWithDefault
340
1D
  0
ACDBPLACEHOLDER
  5
1D
102
{ACAD_REACTORS
330
1F
102
}
  0
LAYOUT
  5
20
102
{ACAD_REACTORS
330
1E
102
}
100
AcDbPlotSettings
  1

  2

  4

  6

 40
0.0
 41
0.0
 42
0.0
 43
0.0
 44
0.0
 45
0.0
 46
0.0
 47
0.0
 48
0.0
 49
0.0
140
0.0
141
0.0
142
1.0
143
1.0
 70
  1024
 72
     0
 73
     0
 74
     0
  7

 75
     0
147
1.0
148
0.0
149
0.0
100
AcDbLayout
  1
Model
 70
     0
 71
     1
 10
0.0
 20
0.0
 11
0.0
 21
0.0
 12
0.0
 22
0.0
 32
0.0
 14
0.0
 24
0.0
 34
0.0
 15
0.0
 25
0.0
 35
0.0
146
0.0
 13
0.0
 23
0.0
 33
0.0
 16
0.0
 26
0.0
 36
0.0
 17
0.0
 27
0.0
 37
0.0
 76
     0
330
A
331
0
345
0
346
0
  0
LAYOUT
  5
21
102
{ACAD_REACTORS
330
1E
102
}
100
AcDbPlotSettings
  1

  2

  4

  6

 40
0.0
 41
0.0
 42
0.0
 43
0.0
 44
0.0
 45
0.0
 46
0.0
 47
0.0
 48
0.0
 49
0.0
140
0.0
141
0.0
142
1.0
143
1.0
 70
     0
 72
     0
 73
     0
 74
     0
  7

 75
     0
147
1.0
148
0.0
149
0.0
100
AcDbLayout
  1
Layout1
 70
     0
 71
     2
 10
0.0
 20
0.0
 11
0.0
 21
0.0
 12
0.0
 22
0.0
 32
0.0
 14
0.0
 24
0.0
 34
0.0
 15
0.0
 25
0.0
 35
0.0
146
0.0
 13
0.0
 23
0.0
 33
0.0
 16
0.0
 26
0.0
 36
0.0
 17
0.0
 27
0.0
 37
0.0
 76
     0
330
B
331
0
345
0
346
0
  0
DICTIONARY
  5
1E
102
{ACAD_REACTORS
330
19
102
}
100
AcDbDictionary
280
     0
281
     1
  3
Layout1
350
21
  3
Model
350
20
  0
DICTIONARY
  5
22
102
{ACAD_REACTORS
330
19
102
}
100
AcDbDictionary
280
     0
281
     1
  0
WIPEOUTVARIABLES
  5
23
100
AcDbWipeoutVariables
 70
     1
  0
ENDSEC
  0
EOF
