  0
SECTION
  2
HEADER
  9
$ACADVER
  1
AC1015
  9
$ACADMAINTVER
 70
     6
  9
$DWGCODEPAGE
  3
DOS932
  9
$INSBASE
 10
0.0
 20
0.0
 30
0.0
  9
$EXTMIN
 10
-314.30503
 20
230.134899
 30
0.0
  9
$EXTMAX
 10
-132.50503
 20
423.684899
 30
0.0
  9
$LIMMIN
 10
-314.30503
 20
230.134899
  9
$LIMMAX
 10
-132.50503
 20
423.684899
  9
$ORTHOMODE
 70
     0
  9
$REGENMODE
 70
     1
  9
$FILLMODE
 70
     1
  9
$QTEXTMODE
 70
     0
  9
$MIRRTEXT
 70
     1
  9
$LTSCALE
 40
10.0
  9
$ATTMODE
 70
     1
  9
$TEXTSIZE
 40
0.2
  9
$TRACEWID
 40
0.05
  9
$TEXTSTYLE
  7
Standard
  9
$CLAYER
  8
0
  9
$CELTYPE
  6
Continuous
  9
$CECOLOR
 62
   256
  9
$CELTSCALE
 40
1.0
  9
$DISPSILH
 70
     0
  9
$DIMSCALE
 40
1.0
  9
$DIMASZ
 40
1.4
  9
$DIMEXO
 40
1.4
  9
$DIMDLI
 40
0.38
  9
$DIMRND
 40
0.0
  9
$DIMDLE
 40
0.0
  9
$DIMEXE
 40
1.05
  9
$DIMTP
 40
0.0
  9
$DIMTM
 40
0.0
  9
$DIMTXT
 40
3.5
  9
$DIMCEN
 40
0.09
  9
$DIMTSZ
 40
0.0
  9
$DIMTOL
 70
     0
  9
$DIMLIM
 70
     0
  9
$DIMTIH
 70
     0
  9
$DIMTOH
 70
     0
  9
$DIMSE1
 70
     0
  9
$DIMSE2
 70
     0
  9
$DIMTAD
 70
     1
  9
$DIMZIN
 70
     0
  9
$DIMBLK
  1

  9
$DIMASO
 70
     1
  9
$DIMSHO
 70
     1
  9
$DIMPOST
  1

  9
$DIMAPOST
  1

  9
$DIMALT
 70
     0
  9
$DIMALTD
 70
     2
  9
$DIMALTF
 40
25.4
  9
$DIMLFAC
 40
1.0
  9
$DIMTOFL
 70
     0
  9
$DIMTVP
 40
0.0
  9
$DIMTIX
 70
     0
  9
$DIMSOXD
 70
     0
  9
$DIMSAH
 70
     0
  9
$DIMBLK1
  1

  9
$DIMBLK2
  1

  9
$DIMSTYLE
  2
Standard
  9
$DIMCLRD
 70
     7
  9
$DIMCLRE
 70
     7
  9
$DIMCLRT
 70
     7
  9
$DIMTFAC
 40
0.5
  9
$DIMGAP
 40
1.75
  9
$DIMJUST
 70
     0
  9
$DIMSD1
 70
     0
  9
$DIMSD2
 70
     0
  9
$DIMTOLJ
 70
     1
  9
$DIMTZIN
 70
     0
  9
$DIMALTZ
 70
     0
  9
$DIMALTTZ
 70
     0
  9
$DIMUPT
 70
     0
  9
$DIMDEC
 70
     2
  9
$DIMTDEC
 70
     4
  9
$DIMALTU
 70
     2
  9
$DIMALTTD
 70
     2
  9
$DIMTXSTY
  7
Standard
  9
$DIMAUNIT
 70
     0
  9
$DIMADEC
 70
     0
  9
$DIMALTRND
 40
0.0
  9
$DIMAZIN
 70
     0
  9
$DIMDSEP
 70
     0
  9
$DIMATFIT
 70
     3
  9
$DIMFRAC
 70
     0
  9
$DIMLDRBLK
  1

  9
$DIMLUNIT
 70
     2
  9
$DIMLWD
 70
     0
  9
$DIMLWE
 70
     0
  9
$DIMTMOVE
 70
     0
  9
$LUNITS
 70
     2
  9
$LUPREC
 70
     4
  9
$SKETCHINC
 40
0.1
  9
$FILLETRAD
 40
0.0
  9
$AUNITS
 70
     0
  9
$AUPREC
 70
     0
  9
$MENU
  1
acad
  9
$ELEVATION
 40
0.0
  9
$PELEVATION
 40
0.0
  9
$THICKNESS
 40
0.0
  9
$LIMCHECK
 70
     0
  9
$CHAMFERA
 40
0.0
  9
$CHAMFERB
 40
0.0
  9
$CHAMFERC
 40
0.0
  9
$CHAMFERD
 40
0.0
  9
$SKPOLY
 70
     0
  9
$TDCREATE
 40
2454160.430347222
  9
$TDUCREATE
 40
0.000000000
  9
$TDUPDATE
 40
2454160.055208333
  9
$TDUUPDATE
 40
0.000000000
  9
$TDINDWG
 40
0.0000000000
  9
$TDUSRTIMER
 40
0.0000000000
  9
$USRTIMER
 70
     1
  9
$ANGBASE
 50
0.0
  9
$ANGDIR
 70
     0
  9
$PDMODE
 70
     0
  9
$PDSIZE
 40
0.0
  9
$PLINEWID
 40
0.0
  9
$SPLFRAME
 70
     0
  9
$SPLINETYPE
 70
     6
  9
$SPLINESEGS
 70
     8
  9
$HANDSEED
  5
C4
  9
$SURFTAB1
 70
     6
  9
$SURFTAB2
 70
     6
  9
$SURFTYPE
 70
     6
  9
$SURFU
 70
     6
  9
$SURFV
 70
     6
  9
$UCSBASE
  2

  9
$UCSNAME
  2

  9
$UCSORG
 10
0.0
 20
0.0
 30
0.0
  9
$UCSXDIR
 10
1.0
 20
0.0
 30
0.0
  9
$UCSYDIR
 10
0.0
 20
1.0
 30
0.0
  9
$UCSORTHOREF
  2

  9
$UCSORTHOVIEW
 70
     0
  9
$UCSORGTOP
 10
0.0
 20
0.0
 30
0.0
  9
$UCSORGBOTTOM
 10
0.0
 20
0.0
 30
0.0
  9
$UCSORGLEFT
 10
0.0
 20
0.0
 30
0.0
  9
$UCSORGRIGHT
 10
0.0
 20
0.0
 30
0.0
  9
$UCSORGFRONT
 10
0.0
 20
0.0
 30
0.0
  9
$UCSORGBACK
 10
0.0
 20
0.0
 30
0.0
  9
$PUCSBASE
  2

  9
$PUCSNAME
  2

  9
$PUCSORG
 10
0.0
 20
0.0
 30
0.0
  9
$PUCSXDIR
 10
1.0
 20
0.0
 30
0.0
  9
$PUCSYDIR
 10
0.0
 20
1.0
 30
0.0
  9
$PUCSORTHOREF
  2

  9
$PUCSORTHOVIEW
 70
     0
  9
$PUCSORGTOP
 10
0.0
 20
0.0
 30
0.0
  9
$PUCSORGBOTTOM
 10
0.0
 20
0.0
 30
0.0
  9
$PUCSORGLEFT
 10
0.0
 20
0.0
 30
0.0
  9
$PUCSORGRIGHT
 10
0.0
 20
0.0
 30
0.0
  9
$PUCSORGFRONT
 10
0.0
 20
0.0
 30
0.0
  9
$PUCSORGBACK
 10
0.0
 20
0.0
 30
0.0
  9
$USERI1
 70
     0
  9
$USERI2
 70
     0
  9
$USERI3
 70
     0
  9
$USERI4
 70
     0
  9
$USERI5
 70
     0
  9
$USERR1
 40
0.0
  9
$USERR2
 40
0.0
  9
$USERR3
 40
0.0
  9
$USERR4
 40
0.0
  9
$USERR5
 40
0.0
  9
$WORLDVIEW
 70
     1
  9
$SHADEDGE
 70
     3
  9
$SHADEDIF
 70
    70
  9
$TILEMODE
 70
     1
  9
$MAXACTVP
 70
    16
  9
$PINSBASE
 10
0.0
 20
0.0
 30
0.0
  9
$PLIMCHECK
 70
     0
  9
$PEXTMIN
 10
1.000000E+20
 20
1.000000E+20
 30
1.000000E+20
  9
$PEXTMAX
 10
-1.000000E+20
 20
-1.000000E+20
 30
-1.000000E+20
  9
$PLIMMIN
 10
0.0
 20
0.0
  9
$PLIMMAX
 10
12.0
 20
9.0
  9
$UNITMODE
 70
     0
  9
$VISRETAIN
 70
     0
  9
$PLINEGEN
 70
     1
  9
$PSLTSCALE
 70
     0
  9
$TREEDEPTH
 70
  3020
  9
$CMLSTYLE
  2
Standard
  9
$CMLJUST
 70
     0
  9
$CMLSCALE
 40
1.0
  9
$PROXYGRAPHICS
 70
     0
  9
$MEASUREMENT
 70
     0
  9
$CELWEIGHT
370
     0
  9
$ENDCAPS
280
     0
  9
$JOINSTYLE
280
     0
  9
$LWDISPLAY
290
     0
  9
$INSUNITS
 70
     0
  9
$HYPERLINKBASE
  1

  9
$STYLESHEET
  1

  9
$XEDIT
290
     1
  9
$CEPSNTYPE
380
     0
  9
$PSTYLEMODE
290
     1
  9
$FINGERPRINTGUID
  2

  9
$VERSIONGUID
  2

  9
$EXTNAMES
290
     1
  9
$PSVPSCALE
 40
0.0
  0
ENDSEC
  0
SECTION
  2
CLASSES
  0
CLASS
  1
LWPOLYLINE
  2
AcDbPolyline
  3
AutoCAD 2000
 90
        0
280
     0
281
     1
  0
CLASS
  1
IMAGE
  2
AcDbRasterImage
  3
ISM
 90
      127
280
     0
281
     1
  0
CLASS
  1
OLE2FRAME
  2
AcDbOle2Frame
  3
AutoCAD 2000
 90
        0
280
     0
281
     1
  0
CLASS
  1
HATCH
  2
AcDbHatch
  3
AutoCAD 2000
 90
        0
280
     0
281
     1
  0
CLASS
  1
DICTIONARYVAR
  2
AcDbDictionaryVar
  3
AutoCAD 2000
 90
        0
280
     0
281
     0
  0
CLASS
  1
RASTERVARIABLES
  2
AcDbRasterVariables
  3
ISM
 90
        0
280
     0
281
     0
  0
CLASS
  1
IMAGEDEF
  2
AcDbRasterImageDef
  3
ISM
 90
        0
280
     0
281
     0
  0
CLASS
  1
IMAGEDEF_REACTOR
  2
AcDbRasterImageDefReactor
  3
ISM
 90
        1
280
     0
281
     0
  0
CLASS
  1
IDBUFFER
  2
AcDbIdBuffer
  3
AutoCAD 2000
 90
        0
280
     0
281
     0
  0
CLASS
  1
SPATIAL_FILTER
  2
AcDbSpatialFilter
  3
AutoCAD 2000
 90
        0
280
     0
281
     0
  0
CLASS
  1
XRECORD
  2
AcDbXrecord
  3
AutoCAD 2000
 90
        0
280
     0
281
     0
  0
CLASS
  1
SORTENTSTABLE
  2
AcDbSortentsTable
  3
AutoCAD 2000
 90
        0
280
     0
281
     0
  0
CLASS
  1
LAYER_INDEX
  2
AcDbLayerIndex
  3
AutoCAD 2000
 90
        0
280
     0
281
     0
  0
CLASS
  1
SPATIAL_INDEX
  2
AcDbSpatialIndex
  3
AutoCAD 2000
 90
        0
280
     0
281
     0
  0
CLASS
  1
OBJECT_PTR
  2
CAseDLPNTableRecord
  3
"ASE-LPNTableRecord"
 90
        1
280
     0
281
     0
  0
CLASS
  1
LAYOUT
  2
AcDbLayout
  3
AutoCAD 2000
 90
        0
280
     0
281
     0
  0
CLASS
  1
PLOTSETTINGS
  2
AcDbPlotSettings
  3
AutoCAD 2000
 90
        0
280
     0
281
     0
  0
CLASS
  1
ACDBDICTIONARYWDFLT
  2
AcDbDictionaryWithDefault
  3
AutoCAD 2000
 90
        0
280
     0
281
     0
  0
CLASS
  1
ACDBPLACEHOLDER
  2
AcDbPlaceHolder
  3
AutoCAD 2000
 90
        0
280
     0
281
     0
  0
CLASS
  1
VBA_PROJECT
  2
AcDbVbaProject
  3
acadvba
 90
        0
280
     0
281
     0
  0
CLASS
  1
WIPEOUT
  2
AcDbWipeout
  3
WipeOut|AutoCAD Express Tool|expresstools@autodesk.com
 90
      127
280
     0
281
     1
  0
CLASS
  1
WIPEOUTVARIABLES
  2
AcDbWipeoutVariables
  3
WipeOut|AutoCAD Express Tool|expresstools@autodesk.com
 90
        0
280
     0
281
     0
  0
CLASS
  1
RTEXT
  2
RText
  3
RText|AutoCAD Express Tool|expresstools@autodesk.com
 90
        0
280
     0
281
     1
  0
CLASS
  1
ARCALIGNEDTEXT
  2
AcDbArcAlignedText
  3
ATEXT|AutoCAD Express Tool|expresstools@autodesk.com
 90
        0
280
     0
281
     1
  0
ENDSEC
  0
SECTION
  2
TABLES
  0
TABLE
  2
VPORT
  5
7
100
AcDbSymbolTable
 70
     1
  0
VPORT
  5
15
100
AcDbSymbolTableRecord
100
AcDbViewportTableRecord
  2
*ACTIVE
 70
     0
 10
0.0
 20
0.0
 11
1.0
 21
1.0
 12
6.591288
 22
4.579184
 13
0.0
 23
0.0
 14
1.0
 24
1.0
 15
0.0
 25
0.0
 16
0.0
 26
0.0
 36
1.0
 17
0.0
 27
0.0
 37
0.0
 40
9.158369
 41
0.688564
 42
50.0
 43
0.0
 44
0.0
 50
0.0
 51
0.0
 71
     0
 72
   100
 73
     1
 74
     1
 75
     0
 76
     0
 77
     0
 78
     0
281
     0
 65
     0
110
0.0
120
0.0
130
0.0
111
1.0
121
0.0
131
0.0
112
0.0
122
1.0
132
0.0
345
0
346
0
 79
     0
146
0.0
  0
ENDTAB
  0
TABLE
  2
LTYPE
  5
4
100
AcDbSymbolTable
 70
     3
  0
LTYPE
  5
11
100
AcDbSymbolTableRecord
100
AcDbLinetypeTableRecord
  2
ByBlock
 70
    64
  3

 72
    65
 73
     0
 40
0.0
  0
LTYPE
  5
12
100
AcDbSymbolTableRecord
100
AcDbLinetypeTableRecord
  2
ByLayer
 70
    64
  3

 72
    65
 73
     0
 40
0.0
  0
LTYPE
  5
13
100
AcDbSymbolTableRecord
100
AcDbLinetypeTableRecord
  2
Continuous
 70
    64
  3
Solid line
 72
    65
 73
     0
 40
0.0
  0
ENDTAB
  0
TABLE
  2
LAYER
  5
2
100
AcDbSymbolTable
 70
     3
  0
LAYER
  5
14
100
AcDbSymbolTableRecord
100
AcDbLayerTableRecord
  2
0
 70
     0
 62
     7
  6
Continuous
290
     1
370
    -3
390
1D
  0
LAYER
  5
27
100
AcDbSymbolTableRecord
100
AcDbLayerTableRecord
  2
1
 70
     0
 62
     7
  6
Continuous
290
     1
370
    -3
390
1D
  0
LAYER
  5
A1
100
AcDbSymbolTableRecord
100
AcDbLayerTableRecord
  2
257
 70
     0
 62
     7
  6
Continuous
290
     1
370
    -3
390
1D
  0
ENDTAB
  0
TABLE
  2
STYLE
  5
3
100
AcDbSymbolTable
 70
     1
  0
STYLE
  5
17
100
AcDbSymbolTableRecord
100
AcDbTextStyleTableRecord
  2
Standard
 70
     0
 40
0.0
 41
1.0
 50
0.0
 71
     0
 42
0.0
  3
ＭＳ ゴシック
  4

1001
ACAD
1000
ＭＳ ゴシック
1071
        1
  0
ENDTAB
  0
TABLE
  2
VIEW
  5
5
100
AcDbSymbolTable
 70
     0
  0
ENDTAB
  0
TABLE
  2
UCS
  5
6
100
AcDbSymbolTable
 70
     0
  0
ENDTAB
  0
TABLE
  2
APPID
  5
8
100
AcDbSymbolTable
 70
     2
  0
APPID
  5
16
100
AcDbSymbolTableRecord
100
AcDbRegAppTableRecord
  2
ACAD
 70
     0
  0
APPID
  5
26
100
AcDbSymbolTableRecord
100
AcDbRegAppTableRecord
  2
TOPsolid_Design
 70
     0
  0
ENDTAB
  0
TABLE
  2
DIMSTYLE
  5
9
100
AcDbSymbolTable
 70
     1
100
AcDbDimStyleTable
 71
     0
  0
DIMSTYLE
105
18
100
AcDbSymbolTableRecord
100
AcDbDimStyleTableRecord
  2
Standard
 70
     0
  3

  4

 40
1.0
 41
1.4
 42
1.4
 43
0.38
 44
1.05
 45
0.0
 46
0.0
 47
0.0
 48
0.0
 71
     0
 72
     0
 73
     0
 74
     0
 75
     0
 76
     0
 77
     1
 78
     0
 79
     0
140
3.5
141
0.09
142
0.0
143
25.4
144
1.0
145
0.0
146
0.5
147
1.75
148
0.0
170
     0
171
     2
172
     0
173
     0
174
     0
175
     0
176
     7
177
     7
178
     7
179
     0
271
     2
272
     4
273
     2
274
     2
275
     0
276
     0
277
     2
278
    46
279
     0
280
     0
281
     0
282
     0
283
     1
284
     0
285
     0
286
     0
288
     0
289
     3
340
17
341
0
342
0
343
0
344
0
371
    -2
372
    -2
  0
ENDTAB
  0
TABLE
  2
BLOCK_RECORD
  5
1
100
AcDbSymbolTable
 70
     0
  0
BLOCK_RECORD
  5
A
100
AcDbSymbolTableRecord
100
AcDbBlockTableRecord
  2
*MODEL_SPACE
340
20
  0
BLOCK_RECORD
  5
B
100
AcDbSymbolTableRecord
100
AcDbBlockTableRecord
  2
*PAPER_SPACE
340
21
  0
ENDTAB
  0
ENDSEC
  0
SECTION
  2
BLOCKS
  0
BLOCK
  5
D
100
AcDbEntity
  8
0
390
0
100
AcDbBlockBegin
  2
*MODEL_SPACE
 70
     0
 10
0.0
 20
0.0
 30
0.0
  3
*MODEL_SPACE
  1

  0
ENDBLK
  5
E
100
AcDbEntity
  8
0
390
0
100
AcDbBlockEnd
  0
BLOCK
  5
F
100
AcDbEntity
 67
     1
  8
0
390
0
100
AcDbBlockBegin
  2
*PAPER_SPACE
 70
     0
 10
0.0
 20
0.0
 30
0.0
  3
*PAPER_SPACE
  1

  0
ENDBLK
  5
10
100
AcDbEntity
 67
     1
  8
0
390
0
100
AcDbBlockEnd
  0
ENDSEC
  0
SECTION
  2
ENTITIES
  0
LINE
  5
28
100
AcDbEntity
  8
1
390
0
  6
Continuous
 62
     7
100
AcDbLine
 10
-132.50503
 20
350.884899
 30
0.0
 11
-185.30503
 21
350.884899
 31
0.0
  0
LINE
  5
29
100
AcDbEntity
  8
1
390
0
  6
Continuous
 62
     7
100
AcDbLine
 10
-205.30503
 20
292.184899
 30
0.0
 11
-205.30503
 21
241.884899
 31
0.0
  0
LINE
  5
2A
100
AcDbEntity
  8
1
390
0
  6
Continuous
 62
     7
100
AcDbLine
 10
-264.00503
 20
350.884899
 30
0.0
 11
-314.30503
 21
350.884899
 31
0.0
  0
LINE
  5
2B
100
AcDbEntity
  8
1
390
0
  6
Continuous
 62
     7
100
AcDbLine
 10
-312.30503
 20
241.884899
 30
0.0
 11
-205.30503
 21
241.884899
 31
0.0
  0
LINE
  5
2C
100
AcDbEntity
  8
1
390
0
  6
Continuous
 62
     7
100
AcDbLine
 10
-314.30503
 20
243.884899
 30
0.0
 11
-314.30503
 21
350.884899
 31
0.0
  0
LINE
  5
2D
100
AcDbEntity
  8
1
390
0
  6
Continuous
 62
     7
100
AcDbLine
 10
-312.30503
 20
241.884899
 30
0.0
 11
-314.30503
 21
243.884899
 31
0.0
  0
ARC
  5
2E
100
AcDbEntity
  8
1
390
0
  6
Continuous
 62
     7
100
AcDbCircle
 10
-158.90503
 20
116.884899
 30
0.0
 40
173.0
210
0.0
220
0.0
230
1.0
100
AcDbArc
 50
85.856521
 51
94.143479
  0
LINE
  5
2F
100
AcDbEntity
  8
1
390
0
  6
Continuous
 62
     7
100
AcDbLine
 10
-137.462071
 20
279.759044
 30
0.0
 11
-146.40503
 21
289.432719
 31
0.0
  0
LINE
  5
30
100
AcDbEntity
  8
1
390
0
  6
Continuous
 62
     7
100
AcDbLine
 10
-180.347988
 20
279.759044
 30
0.0
 11
-171.40503
 21
289.432719
 31
0.0
  0
ARC
  5
31
100
AcDbEntity
  8
1
390
0
  6
Continuous
 62
     7
100
AcDbCircle
 10
-173.00503
 20
272.970748
 30
0.0
 40
10.0
210
0.0
220
0.0
230
1.0
100
AcDbArc
 50
137.247747
 51
180.0
  0
ARC
  5
32
100
AcDbEntity
  8
1
390
0
  6
Continuous
 62
     7
100
AcDbCircle
 10
-144.80503
 20
272.970748
 30
0.0
 40
10.0
210
0.0
220
0.0
230
1.0
100
AcDbArc
 50
0.0
 51
42.752253
  0
LINE
  5
33
100
AcDbEntity
  8
1
390
0
  6
Continuous
 62
     7
100
AcDbLine
 10
-132.50503
 20
241.884899
 30
0.0
 11
-134.80503
 21
241.884899
 31
0.0
  0
LINE
  5
34
100
AcDbEntity
  8
1
390
0
  6
Continuous
 62
     7
100
AcDbLine
 10
-183.00503
 20
241.884899
 30
0.0
 11
-185.30503
 21
241.884899
 31
0.0
  0
LINE
  5
35
100
AcDbEntity
  8
1
390
0
  6
Continuous
 62
     7
100
AcDbLine
 10
-134.80503
 20
246.884899
 30
0.0
 11
-136.90503
 21
246.884899
 31
0.0
  0
LINE
  5
36
100
AcDbEntity
  8
1
390
0
  6
Continuous
 62
     7
100
AcDbLine
 10
-180.90503
 20
246.884899
 30
0.0
 11
-183.00503
 21
246.884899
 31
0.0
  0
LINE
  5
37
100
AcDbEntity
  8
1
390
0
  6
Continuous
 62
     7
100
AcDbLine
 10
-136.40503
 20
245.684899
 30
0.0
 11
-134.80503
 21
241.884899
 31
0.0
  0
LINE
  5
38
100
AcDbEntity
  8
1
390
0
  6
Continuous
 62
     7
100
AcDbLine
 10
-181.40503
 20
245.684899
 30
0.0
 11
-183.00503
 21
241.884899
 31
0.0
  0
LINE
  5
39
100
AcDbEntity
  8
1
390
0
  6
Continuous
 62
     7
100
AcDbLine
 10
-134.80503
 20
241.884899
 30
0.0
 11
-134.80503
 21
272.970748
 31
0.0
  0
LINE
  5
3A
100
AcDbEntity
  8
1
390
0
  6
Continuous
 62
     7
100
AcDbLine
 10
-183.00503
 20
272.970748
 30
0.0
 11
-183.00503
 21
241.884899
 31
0.0
  0
LINE
  5
3B
100
AcDbEntity
  8
1
390
0
  6
Continuous
 62
     7
100
AcDbLine
 10
-136.40503
 20
246.884899
 30
0.0
 11
-136.40503
 21
245.684899
 31
0.0
  0
LINE
  5
3C
100
AcDbEntity
  8
1
390
0
  6
Continuous
 62
     7
100
AcDbLine
 10
-181.40503
 20
246.884899
 30
0.0
 11
-181.40503
 21
245.684899
 31
0.0
  0
LINE
  5
3D
100
AcDbEntity
  8
1
390
0
  6
Continuous
 62
     7
100
AcDbLine
 10
-145.35503
 20
291.660434
 30
0.0
 11
-145.35503
 21
350.884899
 31
0.0
  0
LINE
  5
3E
100
AcDbEntity
  8
1
390
0
  6
Continuous
 62
     7
100
AcDbLine
 10
-172.45503
 20
350.884899
 30
0.0
 11
-172.45503
 21
291.660434
 31
0.0
  0
LINE
  5
3F
100
AcDbEntity
  8
1
390
0
  6
Continuous
 62
     7
100
AcDbLine
 10
-229.00503
 20
292.184899
 30
0.0
 11
-205.30503
 21
292.184899
 31
0.0
  0
LINE
  5
40
100
AcDbEntity
  8
1
390
0
  6
Continuous
 62
     7
100
AcDbLine
 10
-264.00503
 20
327.184899
 30
0.0
 11
-264.00503
 21
350.884899
 31
0.0
  0
LINE
  5
41
100
AcDbEntity
  8
1
390
0
  6
Continuous
 62
     7
100
AcDbLine
 10
-278.40503
 20
327.1849
 30
0.0
 11
-278.40503
 21
350.884899
 31
0.0
  0
LINE
  5
42
100
AcDbEntity
  8
1
390
0
  6
Continuous
 62
     7
100
AcDbLine
 10
-229.00503
 20
277.7849
 30
0.0
 11
-205.30503
 21
277.7849
 31
0.0
  0
LINE
  5
43
100
AcDbEntity
  8
1
390
0
  6
Continuous
 62
     7
100
AcDbLine
 10
-185.30503
 20
350.884899
 30
0.0
 11
-185.30503
 21
241.884899
 31
0.0
  0
ARC
  5
44
100
AcDbEntity
  8
1
390
0
  6
Continuous
 62
     7
100
AcDbCircle
 10
-158.90503
 20
116.884899
 30
0.0
 40
175.3
210
0.0
220
0.0
230
1.0
100
AcDbArc
 50
85.56684
 51
94.43316
  0
LINE
  5
45
100
AcDbEntity
  8
1
390
0
  6
Continuous
 62
     7
100
AcDbLine
 10
-132.50503
 20
350.884899
 30
0.0
 11
-132.50503
 21
241.884899
 31
0.0
  0
LINE
  5
46
100
AcDbEntity
  8
1
390
0
  6
Continuous
 62
     7
100
AcDbLine
 10
-135.780514
 20
281.321794
 30
0.0
 11
-145.35503
 21
291.660434
 31
0.0
  0
LINE
  5
47
100
AcDbEntity
  8
1
390
0
  6
Continuous
 62
     7
100
AcDbLine
 10
-182.029546
 20
281.321794
 30
0.0
 11
-172.45503
 21
291.660434
 31
0.0
  0
ARC
  5
48
100
AcDbEntity
  8
1
390
0
  6
Continuous
 62
     7
100
AcDbCircle
 10
-144.80503
 20
272.964276
 30
0.0
 40
12.3
210
0.0
220
0.0
230
1.0
100
AcDbArc
 50
0.0
 51
42.802478
  0
ARC
  5
49
100
AcDbEntity
  8
1
390
0
  6
Continuous
 62
     7
100
AcDbCircle
 10
-173.00503
 20
272.964276
 30
0.0
 40
12.3
210
0.0
220
0.0
230
1.0
100
AcDbArc
 50
137.197523
 51
180.0
  0
ARC
  5
4A
100
AcDbEntity
  8
1
390
0
  6
Continuous
 62
     7
100
AcDbCircle
 10
-229.00503
 20
327.184899
 30
0.0
 40
35.0
210
0.0
220
0.0
230
1.0
100
AcDbArc
 50
180.0
 51
270.0
  0
ARC
  5
4B
100
AcDbEntity
  8
1
390
0
  6
Continuous
 62
     7
100
AcDbCircle
 10
-229.00503
 20
327.1849
 30
0.0
 40
49.4
210
0.0
220
0.0
230
1.0
100
AcDbArc
 50
180.0
 51
270.0
  0
LINE
  5
4C
100
AcDbEntity
  8
1
390
0
  6
Continuous
 62
     7
100
AcDbLine
 10
-136.90503
 20
246.884899
 30
0.0
 11
-136.90503
 21
241.884899
 31
0.0
  0
LINE
  5
4D
100
AcDbEntity
  8
1
390
0
  6
Continuous
 62
     7
100
AcDbLine
 10
-135.962992
 20
253.884899
 30
0.0
 11
-137.90503
 21
253.884899
 31
0.0
  0
LINE
  5
4E
100
AcDbEntity
  8
1
390
0
  6
Continuous
 62
     7
100
AcDbLine
 10
-135.962992
 20
253.884899
 30
0.0
 11
-134.80503
 21
247.317771
 31
0.0
  0
LINE
  5
4F
100
AcDbEntity
  8
1
390
0
  6
Continuous
 62
     7
100
AcDbLine
 10
-140.584522
 20
243.884899
 30
0.0
 11
-137.90503
 21
253.884899
 31
0.0
  0
LINE
  5
50
100
AcDbEntity
  8
1
390
0
  6
Continuous
 62
     7
100
AcDbLine
 10
-180.90503
 20
246.884899
 30
0.0
 11
-180.90503
 21
241.884899
 31
0.0
  0
LINE
  5
51
100
AcDbEntity
  8
1
390
0
  6
Continuous
 62
     7
100
AcDbLine
 10
-181.847068
 20
253.884899
 30
0.0
 11
-179.90503
 21
253.884899
 31
0.0
  0
LINE
  5
52
100
AcDbEntity
  8
1
390
0
  6
Continuous
 62
     7
100
AcDbLine
 10
-181.847068
 20
253.884899
 30
0.0
 11
-183.00503
 21
247.317771
 31
0.0
  0
LINE
  5
53
100
AcDbEntity
  8
1
390
0
  6
Continuous
 62
     7
100
AcDbLine
 10
-177.225538
 20
243.884899
 30
0.0
 11
-179.90503
 21
253.884899
 31
0.0
  0
LINE
  5
54
100
AcDbEntity
  8
1
390
0
  6
Continuous
 62
     7
100
AcDbLine
 10
-137.90503
 20
253.884899
 30
0.0
 11
-137.90503
 21
260.884899
 31
0.0
  0
LINE
  5
55
100
AcDbEntity
  8
1
390
0
  6
Continuous
 62
     7
100
AcDbLine
 10
-179.90503
 20
260.884899
 30
0.0
 11
-179.90503
 21
253.884899
 31
0.0
  0
LINE
  5
56
100
AcDbEntity
  8
1
390
0
  6
Continuous
 62
     7
100
AcDbLine
 10
-140.584522
 20
243.884899
 30
0.0
 11
-140.584522
 21
257.620447
 31
0.0
  0
LINE
  5
57
100
AcDbEntity
  8
1
390
0
  6
Continuous
 62
     7
100
AcDbLine
 10
-177.225538
 20
243.884899
 30
0.0
 11
-177.225538
 21
257.620447
 31
0.0
  0
LINE
  5
58
100
AcDbEntity
  8
1
390
0
  6
Continuous
 62
     7
100
AcDbLine
 10
-135.962992
 20
260.884899
 30
0.0
 11
-135.962992
 21
253.884899
 31
0.0
  0
LINE
  5
59
100
AcDbEntity
  8
1
390
0
  6
Continuous
 62
     7
100
AcDbLine
 10
-181.847068
 20
253.884899
 30
0.0
 11
-181.847068
 21
260.884899
 31
0.0
  0
LINE
  5
5A
100
AcDbEntity
  8
1
390
0
  6
Continuous
 62
     7
100
AcDbLine
 10
-148.40503
 20
243.884899
 30
0.0
 11
-148.40503
 21
241.884899
 31
0.0
  0
LINE
  5
5B
100
AcDbEntity
  8
1
390
0
  6
Continuous
 62
     7
100
AcDbLine
 10
-169.40503
 20
241.884899
 30
0.0
 11
-169.40503
 21
243.884899
 31
0.0
  0
LINE
  5
5C
100
AcDbEntity
  8
1
390
0
  6
Continuous
 62
     7
100
AcDbLine
 10
-140.584522
 20
243.884899
 30
0.0
 11
-177.225538
 21
243.884899
 31
0.0
  0
ARC
  5
5D
100
AcDbEntity
  8
1
390
0
  6
Continuous
 62
     7
100
AcDbCircle
 10
-158.90503
 20
267.884899
 30
0.0
 40
21.0
210
0.0
220
0.0
230
1.0
100
AcDbArc
 50
196.834981
 51
343.165019
  0
ARC
  5
5E
100
AcDbEntity
  8
1
390
0
  6
Continuous
 62
     7
100
AcDbCircle
 10
-158.90503
 20
267.884899
 30
0.0
 40
19.5
210
0.0
220
0.0
230
1.0
100
AcDbArc
 50
274.411726
 51
65.997149
  0
ARC
  5
5F
100
AcDbEntity
  8
1
390
0
  6
Continuous
 62
     7
100
AcDbCircle
 10
-158.90503
 20
267.884899
 30
0.0
 40
19.5
210
0.0
220
0.0
230
1.0
100
AcDbArc
 50
114.002851
 51
265.588274
  0
LINE
  5
60
100
AcDbEntity
  8
1
390
0
  6
Continuous
 62
     7
100
AcDbLine
 10
-157.40503
 20
248.442677
 30
0.0
 11
-157.40503
 21
246.938539
 31
0.0
  0
LINE
  5
61
100
AcDbEntity
  8
1
390
0
  6
Continuous
 62
     7
100
AcDbLine
 10
-160.40503
 20
246.938539
 30
0.0
 11
-160.40503
 21
248.442677
 31
0.0
  0
LINE
  5
62
100
AcDbEntity
  8
1
390
0
  6
Continuous
 62
     7
100
AcDbLine
 10
-138.80503
 20
260.884899
 30
0.0
 11
-134.80503
 21
260.884899
 31
0.0
  0
LINE
  5
63
100
AcDbEntity
  8
1
390
0
  6
Continuous
 62
     7
100
AcDbLine
 10
-179.00503
 20
260.884899
 30
0.0
 11
-183.00503
 21
260.884899
 31
0.0
  0
LINE
  5
64
100
AcDbEntity
  8
1
390
0
  6
Continuous
 62
     7
100
AcDbLine
 10
-138.80503
 20
260.884899
 30
0.0
 11
-138.80503
 21
272.970748
 31
0.0
  0
ARC
  5
65
100
AcDbEntity
  8
1
390
0
  6
Continuous
 62
     7
100
AcDbCircle
 10
-144.80503
 20
272.970748
 30
0.0
 40
6.0
210
0.0
220
0.0
230
1.0
100
AcDbArc
 50
0.0
 51
42.752253
  0
LINE
  5
66
100
AcDbEntity
  8
1
390
0
  6
Continuous
 62
     7
100
AcDbLine
 10
-140.399255
 20
277.043726
 30
0.0
 11
-148.262502
 21
285.549468
 31
0.0
  0
ARC
  5
67
100
AcDbEntity
  8
1
390
0
  6
Continuous
 62
     7
100
AcDbCircle
 10
-158.90503
 20
116.884899
 30
0.0
 40
169.0
210
0.0
220
0.0
230
1.0
100
AcDbArc
 50
86.389493
 51
93.610507
  0
LINE
  5
68
100
AcDbEntity
  8
1
390
0
  6
Continuous
 62
     7
100
AcDbLine
 10
-169.547557
 20
285.549468
 30
0.0
 11
-177.410805
 21
277.043726
 31
0.0
  0
ARC
  5
69
100
AcDbEntity
  8
1
390
0
  6
Continuous
 62
     7
100
AcDbCircle
 10
-173.00503
 20
272.970748
 30
0.0
 40
6.0
210
0.0
220
0.0
230
1.0
100
AcDbArc
 50
137.247747
 51
180.0
  0
LINE
  5
6A
100
AcDbEntity
  8
1
390
0
  6
Continuous
 62
     7
100
AcDbLine
 10
-179.00503
 20
272.970748
 30
0.0
 11
-179.00503
 21
260.884899
 31
0.0
  0
LINE
  5
6B
100
AcDbEntity
  8
1
390
0
  6
Continuous
 62
     7
100
AcDbLine
 10
-210.30503
 20
423.684899
 30
0.0
 11
-210.30503
 21
370.884899
 31
0.0
  0
ARC
  5
6C
100
AcDbEntity
  8
1
390
0
  6
Continuous
 62
     7
100
AcDbCircle
 10
-439.30503
 20
397.284899
 30
0.0
 40
173.0
210
0.0
220
0.0
230
1.0
100
AcDbArc
 50
355.856521
 51
4.143479
  0
LINE
  5
6D
100
AcDbEntity
  8
1
390
0
  6
Continuous
 62
     7
100
AcDbLine
 10
-276.430885
 20
418.727858
 30
0.0
 11
-266.75721
 21
409.784899
 31
0.0
  0
LINE
  5
6E
100
AcDbEntity
  8
1
390
0
  6
Continuous
 62
     7
100
AcDbLine
 10
-276.430885
 20
375.841941
 30
0.0
 11
-266.75721
 21
384.784899
 31
0.0
  0
ARC
  5
6F
100
AcDbEntity
  8
1
390
0
  6
Continuous
 62
     7
100
AcDbCircle
 10
-283.219181
 20
383.184899
 30
0.0
 40
10.0
210
0.0
220
0.0
230
1.0
100
AcDbArc
 50
270.0
 51
312.752253
  0
ARC
  5
70
100
AcDbEntity
  8
1
390
0
  6
Continuous
 62
     7
100
AcDbCircle
 10
-283.219181
 20
411.384899
 30
0.0
 40
10.0
210
0.0
220
0.0
230
1.0
100
AcDbArc
 50
47.247747
 51
90.0
  0
LINE
  5
71
100
AcDbEntity
  8
1
390
0
  6
Continuous
 62
     7
100
AcDbLine
 10
-314.30503
 20
423.684899
 30
0.0
 11
-314.30503
 21
421.384899
 31
0.0
  0
LINE
  5
72
100
AcDbEntity
  8
1
390
0
  6
Continuous
 62
     7
100
AcDbLine
 10
-314.30503
 20
373.184899
 30
0.0
 11
-314.30503
 21
370.884899
 31
0.0
  0
LINE
  5
73
100
AcDbEntity
  8
1
390
0
  6
Continuous
 62
     7
100
AcDbLine
 10
-309.30503
 20
421.384899
 30
0.0
 11
-309.30503
 21
419.284899
 31
0.0
  0
LINE
  5
74
100
AcDbEntity
  8
1
390
0
  6
Continuous
 62
     7
100
AcDbLine
 10
-309.30503
 20
375.284899
 30
0.0
 11
-309.30503
 21
373.184899
 31
0.0
  0
LINE
  5
75
100
AcDbEntity
  8
1
390
0
  6
Continuous
 62
     7
100
AcDbLine
 10
-310.50503
 20
419.784899
 30
0.0
 11
-314.305029
 21
421.384899
 31
0.0
  0
LINE
  5
76
100
AcDbEntity
  8
1
390
0
  6
Continuous
 62
     7
100
AcDbLine
 10
-310.50503
 20
374.784899
 30
0.0
 11
-314.30503
 21
373.184899
 31
0.0
  0
LINE
  5
77
100
AcDbEntity
  8
1
390
0
  6
Continuous
 62
     7
100
AcDbLine
 10
-314.30503
 20
421.384899
 30
0.0
 11
-283.219181
 21
421.384899
 31
0.0
  0
LINE
  5
78
100
AcDbEntity
  8
1
390
0
  6
Continuous
 62
     7
100
AcDbLine
 10
-283.219181
 20
373.184899
 30
0.0
 11
-314.30503
 21
373.184899
 31
0.0
  0
LINE
  5
79
100
AcDbEntity
  8
1
390
0
  6
Continuous
 62
     7
100
AcDbLine
 10
-309.30503
 20
419.784899
 30
0.0
 11
-310.50503
 21
419.784899
 31
0.0
  0
LINE
  5
7A
100
AcDbEntity
  8
1
390
0
  6
Continuous
 62
     7
100
AcDbLine
 10
-309.30503
 20
374.784899
 30
0.0
 11
-310.50503
 21
374.784899
 31
0.0
  0
LINE
  5
7B
100
AcDbEntity
  8
1
390
0
  6
Continuous
 62
     7
100
AcDbLine
 10
-264.529495
 20
410.834899
 30
0.0
 11
-210.30503
 21
410.834899
 31
0.0
  0
LINE
  5
7C
100
AcDbEntity
  8
1
390
0
  6
Continuous
 62
     7
100
AcDbLine
 10
-210.30503
 20
383.734899
 30
0.0
 11
-264.529495
 21
383.734899
 31
0.0
  0
LINE
  5
7D
100
AcDbEntity
  8
1
390
0
  6
Continuous
 62
     7
100
AcDbLine
 10
-210.30503
 20
370.884899
 30
0.0
 11
-314.30503
 21
370.884899
 31
0.0
  0
ARC
  5
7E
100
AcDbEntity
  8
1
390
0
  6
Continuous
 62
     7
100
AcDbCircle
 10
-439.30503
 20
397.284899
 30
0.0
 40
175.3
210
0.0
220
0.0
230
1.0
100
AcDbArc
 50
355.56684
 51
4.43316
  0
LINE
  5
7F
100
AcDbEntity
  8
1
390
0
  6
Continuous
 62
     7
100
AcDbLine
 10
-210.30503
 20
423.684899
 30
0.0
 11
-314.30503
 21
423.684899
 31
0.0
  0
LINE
  5
80
100
AcDbEntity
  8
1
390
0
  6
Continuous
 62
     7
100
AcDbLine
 10
-274.868134
 20
420.409415
 30
0.0
 11
-264.529495
 21
410.834899
 31
0.0
  0
LINE
  5
81
100
AcDbEntity
  8
1
390
0
  6
Continuous
 62
     7
100
AcDbLine
 10
-274.868135
 20
374.160383
 30
0.0
 11
-264.529495
 21
383.734899
 31
0.0
  0
ARC
  5
82
100
AcDbEntity
  8
1
390
0
  6
Continuous
 62
     7
100
AcDbCircle
 10
-283.225653
 20
411.384899
 30
0.0
 40
12.3
210
0.0
220
0.0
230
0.9999999999999999
100
AcDbArc
 50
47.197522
 51
90.0
  0
ARC
  5
83
100
AcDbEntity
  8
1
390
0
  6
Continuous
 62
     7
100
AcDbCircle
 10
-283.225653
 20
383.184899
 30
0.0
 40
12.3
210
0.0
220
0.0
230
1.0
100
AcDbArc
 50
270.0
 51
312.802477
  0
LINE
  5
84
100
AcDbEntity
  8
1
390
0
  6
Continuous
 62
     7
100
AcDbLine
 10
-309.30503
 20
419.284899
 30
0.0
 11
-314.30503
 21
419.284899
 31
0.0
  0
LINE
  5
85
100
AcDbEntity
  8
1
390
0
  6
Continuous
 62
     7
100
AcDbLine
 10
-302.30503
 20
420.226937
 30
0.0
 11
-302.30503
 21
418.284899
 31
0.0
  0
LINE
  5
86
100
AcDbEntity
  8
1
390
0
  6
Continuous
 62
     7
100
AcDbLine
 10
-302.30503
 20
420.226937
 30
0.0
 11
-308.872158
 21
421.384899
 31
0.0
  0
LINE
  5
87
100
AcDbEntity
  8
1
390
0
  6
Continuous
 62
     7
100
AcDbLine
 10
-312.30503
 20
415.605407
 30
0.0
 11
-302.30503
 21
418.284899
 31
0.0
  0
LINE
  5
88
100
AcDbEntity
  8
1
390
0
  6
Continuous
 62
     7
100
AcDbLine
 10
-309.30503
 20
375.284899
 30
0.0
 11
-314.30503
 21
375.284899
 31
0.0
  0
LINE
  5
89
100
AcDbEntity
  8
1
390
0
  6
Continuous
 62
     7
100
AcDbLine
 10
-302.30503
 20
374.342861
 30
0.0
 11
-302.30503
 21
376.284899
 31
0.0
  0
LINE
  5
8A
100
AcDbEntity
  8
1
390
0
  6
Continuous
 62
     7
100
AcDbLine
 10
-302.30503
 20
374.342861
 30
0.0
 11
-308.872158
 21
373.184899
 31
0.0
  0
LINE
  5
8B
100
AcDbEntity
  8
1
390
0
  6
Continuous
 62
     7
100
AcDbLine
 10
-312.30503
 20
378.964391
 30
0.0
 11
-302.30503
 21
376.284899
 31
0.0
  0
LINE
  5
8C
100
AcDbEntity
  8
1
390
0
  6
Continuous
 62
     7
100
AcDbLine
 10
-302.30503
 20
418.284899
 30
0.0
 11
-295.30503
 21
418.284899
 31
0.0
  0
LINE
  5
8D
100
AcDbEntity
  8
1
390
0
  6
Continuous
 62
     7
100
AcDbLine
 10
-295.30503
 20
376.284899
 30
0.0
 11
-302.30503
 21
376.284899
 31
0.0
  0
LINE
  5
8E
100
AcDbEntity
  8
1
390
0
  6
Continuous
 62
     7
100
AcDbLine
 10
-312.30503
 20
415.605407
 30
0.0
 11
-278.945798
 21
415.605407
 31
0.0
  0
LINE
  5
8F
100
AcDbEntity
  8
1
390
0
  6
Continuous
 62
     7
100
AcDbLine
 10
-312.30503
 20
378.964391
 30
0.0
 11
-278.945798
 21
378.964391
 31
0.0
  0
LINE
  5
90
100
AcDbEntity
  8
1
390
0
  6
Continuous
 62
     7
100
AcDbLine
 10
-295.30503
 20
420.226937
 30
0.0
 11
-302.30503
 21
420.226937
 31
0.0
  0
LINE
  5
91
100
AcDbEntity
  8
1
390
0
  6
Continuous
 62
     7
100
AcDbLine
 10
-302.30503
 20
374.342861
 30
0.0
 11
-295.30503
 21
374.342861
 31
0.0
  0
LINE
  5
92
100
AcDbEntity
  8
1
390
0
  6
Continuous
 62
     7
100
AcDbLine
 10
-312.30503
 20
407.784899
 30
0.0
 11
-314.30503
 21
407.784899
 31
0.0
  0
LINE
  5
93
100
AcDbEntity
  8
1
390
0
  6
Continuous
 62
     7
100
AcDbLine
 10
-314.30503
 20
386.784899
 30
0.0
 11
-312.30503
 21
386.784899
 31
0.0
  0
LINE
  5
94
100
AcDbEntity
  8
1
390
0
  6
Continuous
 62
     7
100
AcDbLine
 10
-312.30503
 20
415.605407
 30
0.0
 11
-312.30503
 21
378.964391
 31
0.0
  0
LINE
  5
95
100
AcDbEntity
  8
1
390
0
  6
Continuous
 62
     7
100
AcDbLine
 10
-295.30503
 20
417.384899
 30
0.0
 11
-295.30503
 21
421.384899
 31
0.0
  0
LINE
  5
96
100
AcDbEntity
  8
1
390
0
  6
Continuous
 62
     7
100
AcDbLine
 10
-295.30503
 20
377.184899
 30
0.0
 11
-295.30503
 21
373.184899
 31
0.0
  0
LINE
  5
97
100
AcDbEntity
  8
1
390
0
  6
Continuous
 62
     7
100
AcDbLine
 10
-295.30503
 20
417.384899
 30
0.0
 11
-283.219181
 21
417.384899
 31
0.0
  0
ARC
  5
98
100
AcDbEntity
  8
1
390
0
  6
Continuous
 62
     7
100
AcDbCircle
 10
-283.219181
 20
411.384899
 30
0.0
 40
6.0
210
0.0
220
0.0
230
1.0
100
AcDbArc
 50
47.247747
 51
90.0
  0
LINE
  5
99
100
AcDbEntity
  8
1
390
0
  6
Continuous
 62
     7
100
AcDbLine
 10
-279.146203
 20
415.790674
 30
0.0
 11
-270.640461
 21
407.927427
 31
0.0
  0
ARC
  5
9A
100
AcDbEntity
  8
1
390
0
  6
Continuous
 62
     7
100
AcDbCircle
 10
-439.30503
 20
397.284899
 30
0.0
 40
169.0
210
0.0
220
0.0
230
1.0
100
AcDbArc
 50
356.389493
 51
3.610507
  0
LINE
  5
9B
100
AcDbEntity
  8
1
390
0
  6
Continuous
 62
     7
100
AcDbLine
 10
-270.640461
 20
386.642372
 30
0.0
 11
-279.146203
 21
378.779124
 31
0.0
  0
ARC
  5
9C
100
AcDbEntity
  8
1
390
0
  6
Continuous
 62
     7
100
AcDbCircle
 10
-283.219181
 20
383.184899
 30
0.0
 40
6.0
210
0.0
220
0.0
230
1.0
100
AcDbArc
 50
270.0
 51
312.752253
  0
LINE
  5
9D
100
AcDbEntity
  8
1
390
0
  6
Continuous
 62
     7
100
AcDbLine
 10
-283.219181
 20
377.184899
 30
0.0
 11
-295.30503
 21
377.184899
 31
0.0
  0
LINE
  5
9E
100
AcDbEntity
  8
1
390
0
  6
Continuous
 62
     7
100
AcDbLine
 10
-140.584522
 20
244.713326
 30
0.0
 11
-177.225538
 21
244.713326
 31
0.0
  0
LINE
  5
9F
100
AcDbEntity
  8
1
390
0
  6
Continuous
 62
     7
100
AcDbLine
 10
-311.476602
 20
378.964391
 30
0.0
 11
-311.476602
 21
415.605407
 31
0.0
  0
MTEXT
  5
A0
100
AcDbEntity
  8
1
390
0
 62
     7
100
AcDbMText
 10
-260.273941
 20
230.134899
 30
0.0
 40
3.5
 41
32.280346
 71
     8
 72
     1
  1
{\W0.586141;ＲＭＩ－２５Ｍ}
210
0.0
220
0.0
230
1.0
 73
     1
 44
1.0
  0
ARC
  5
A2
100
AcDbEntity
  8
257
390
0
  6
Continuous
 62
     7
100
AcDbCircle
 10
-171.65503
 20
242.984899
 30
0.0
 40
0.5
210
0.0
220
0.0
230
1.0
100
AcDbArc
 50
0.0
 51
90.0
  0
LINE
  5
A3
100
AcDbEntity
  8
257
390
0
  6
Continuous
 62
     7
100
AcDbLine
 10
-173.65503
 20
242.984899
 30
0.0
 11
-173.65503
 21
242.184899
 31
0.0
  0
LINE
  5
A4
100
AcDbEntity
  8
257
390
0
  6
Continuous
 62
     7
100
AcDbLine
 10
-171.15503
 20
242.184899
 30
0.0
 11
-171.15503
 21
242.984899
 31
0.0
  0
ARC
  5
A5
100
AcDbEntity
  8
257
390
0
  6
Continuous
 62
     7
100
AcDbCircle
 10
-173.15503
 20
242.984899
 30
0.0
 40
0.5
210
0.0
220
0.0
230
1.0
100
AcDbArc
 50
90.0
 51
180.0
  0
LINE
  5
A6
100
AcDbEntity
  8
257
390
0
  6
Continuous
 62
     7
100
AcDbLine
 10
-171.65503
 20
243.484899
 30
0.0
 11
-173.15503
 21
243.484899
 31
0.0
  0
LINE
  5
A7
100
AcDbEntity
  8
257
390
0
  6
Continuous
 62
     7
100
AcDbLine
 10
-171.15503
 20
241.884899
 30
0.0
 11
-171.15503
 21
242.184899
 31
0.0
  0
LINE
  5
A8
100
AcDbEntity
  8
257
390
0
  6
Continuous
 62
     7
100
AcDbLine
 10
-173.65503
 20
242.184899
 30
0.0
 11
-173.65503
 21
241.884899
 31
0.0
  0
ARC
  5
A9
100
AcDbEntity
  8
257
390
0
  6
Continuous
 62
     7
100
AcDbCircle
 10
-144.65503
 20
242.984899
 30
0.0
 40
0.5
210
0.0
220
0.0
230
1.0
100
AcDbArc
 50
0.0
 51
90.0
  0
LINE
  5
AA
100
AcDbEntity
  8
257
390
0
  6
Continuous
 62
     7
100
AcDbLine
 10
-144.15503
 20
242.184899
 30
0.0
 11
-144.15503
 21
242.984899
 31
0.0
  0
LINE
  5
AB
100
AcDbEntity
  8
257
390
0
  6
Continuous
 62
     7
100
AcDbLine
 10
-146.65503
 20
242.984899
 30
0.0
 11
-146.65503
 21
242.184899
 31
0.0
  0
ARC
  5
AC
100
AcDbEntity
  8
257
390
0
  6
Continuous
 62
     7
100
AcDbCircle
 10
-146.15503
 20
242.984899
 30
0.0
 40
0.5
210
0.0
220
0.0
230
1.0
100
AcDbArc
 50
90.0
 51
180.0
  0
LINE
  5
AD
100
AcDbEntity
  8
257
390
0
  6
Continuous
 62
     7
100
AcDbLine
 10
-144.65503
 20
243.484899
 30
0.0
 11
-146.15503
 21
243.484899
 31
0.0
  0
LINE
  5
AE
100
AcDbEntity
  8
257
390
0
  6
Continuous
 62
     7
100
AcDbLine
 10
-146.65503
 20
242.184899
 30
0.0
 11
-146.65503
 21
241.884899
 31
0.0
  0
LINE
  5
AF
100
AcDbEntity
  8
257
390
0
  6
Continuous
 62
     7
100
AcDbLine
 10
-144.15503
 20
241.884899
 30
0.0
 11
-144.15503
 21
242.184899
 31
0.0
  0
LINE
  5
B0
100
AcDbEntity
  8
1
390
0
  6
Continuous
 62
     7
100
AcDbLine
 10
-173.65503
 20
241.884899
 30
0.0
 11
-180.90503
 21
241.884899
 31
0.0
  0
LINE
  5
B1
100
AcDbEntity
  8
1
390
0
  6
Continuous
 62
     7
100
AcDbLine
 10
-136.90503
 20
241.884899
 30
0.0
 11
-144.15503
 21
241.884899
 31
0.0
  0
LINE
  5
B2
100
AcDbEntity
  8
1
390
0
  6
Continuous
 62
     7
100
AcDbLine
 10
-146.65503
 20
241.884899
 30
0.0
 11
-171.15503
 21
241.884899
 31
0.0
  0
ARC
  5
B3
100
AcDbEntity
  8
257
390
0
  6
Continuous
 62
     7
100
AcDbCircle
 10
-313.20503
 20
410.034899
 30
0.0
 40
0.5
210
0.0
220
0.0
230
1.0
100
AcDbArc
 50
270.0
 51
360.0
  0
LINE
  5
B4
100
AcDbEntity
  8
257
390
0
  6
Continuous
 62
     7
100
AcDbLine
 10
-313.20503
 20
412.034899
 30
0.0
 11
-314.00503
 21
412.034899
 31
0.0
  0
LINE
  5
B5
100
AcDbEntity
  8
257
390
0
  6
Continuous
 62
     7
100
AcDbLine
 10
-314.00503
 20
409.534899
 30
0.0
 11
-313.20503
 21
409.534899
 31
0.0
  0
ARC
  5
B6
100
AcDbEntity
  8
257
390
0
  6
Continuous
 62
     7
100
AcDbCircle
 10
-313.20503
 20
411.534899
 30
0.0
 40
0.5
210
0.0
220
0.0
230
1.0
100
AcDbArc
 50
0.0
 51
90.0
  0
LINE
  5
B7
100
AcDbEntity
  8
257
390
0
  6
Continuous
 62
     7
100
AcDbLine
 10
-312.70503
 20
410.034899
 30
0.0
 11
-312.70503
 21
411.534899
 31
0.0
  0
LINE
  5
B8
100
AcDbEntity
  8
257
390
0
  6
Continuous
 62
     7
100
AcDbLine
 10
-314.30503
 20
409.534899
 30
0.0
 11
-314.00503
 21
409.534899
 31
0.0
  0
LINE
  5
B9
100
AcDbEntity
  8
257
390
0
  6
Continuous
 62
     7
100
AcDbLine
 10
-314.00503
 20
412.034899
 30
0.0
 11
-314.30503
 21
412.034899
 31
0.0
  0
ARC
  5
BA
100
AcDbEntity
  8
257
390
0
  6
Continuous
 62
     7
100
AcDbCircle
 10
-313.20503
 20
383.034899
 30
0.0
 40
0.5
210
0.0
220
0.0
230
1.0
100
AcDbArc
 50
270.0
 51
360.0
  0
LINE
  5
BB
100
AcDbEntity
  8
257
390
0
  6
Continuous
 62
     7
100
AcDbLine
 10
-314.00503
 20
382.534899
 30
0.0
 11
-313.20503
 21
382.534899
 31
0.0
  0
LINE
  5
BC
100
AcDbEntity
  8
257
390
0
  6
Continuous
 62
     7
100
AcDbLine
 10
-313.20503
 20
385.034899
 30
0.0
 11
-314.00503
 21
385.034899
 31
0.0
  0
ARC
  5
BD
100
AcDbEntity
  8
257
390
0
  6
Continuous
 62
     7
100
AcDbCircle
 10
-313.20503
 20
384.534899
 30
0.0
 40
0.5
210
0.0
220
0.0
230
1.0
100
AcDbArc
 50
0.0
 51
90.0
  0
LINE
  5
BE
100
AcDbEntity
  8
257
390
0
  6
Continuous
 62
     7
100
AcDbLine
 10
-312.70503
 20
383.034899
 30
0.0
 11
-312.70503
 21
384.534899
 31
0.0
  0
LINE
  5
BF
100
AcDbEntity
  8
257
390
0
  6
Continuous
 62
     7
100
AcDbLine
 10
-314.00503
 20
385.034899
 30
0.0
 11
-314.30503
 21
385.034899
 31
0.0
  0
LINE
  5
C0
100
AcDbEntity
  8
257
390
0
  6
Continuous
 62
     7
100
AcDbLine
 10
-314.30503
 20
382.534899
 30
0.0
 11
-314.00503
 21
382.534899
 31
0.0
  0
LINE
  5
C1
100
AcDbEntity
  8
1
390
0
  6
Continuous
 62
     7
100
AcDbLine
 10
-314.30503
 20
419.284899
 30
0.0
 11
-314.30503
 21
412.034899
 31
0.0
  0
LINE
  5
C2
100
AcDbEntity
  8
1
390
0
  6
Continuous
 62
     7
100
AcDbLine
 10
-314.30503
 20
409.534899
 30
0.0
 11
-314.30503
 21
385.034899
 31
0.0
  0
LINE
  5
C3
100
AcDbEntity
  8
1
390
0
  6
Continuous
 62
     7
100
AcDbLine
 10
-314.30503
 20
382.534899
 30
0.0
 11
-314.30503
 21
375.284899
 31
0.0
  0
ENDSEC
  0
SECTION
  2
OBJECTS
  0
DICTIONARY
  5
19
100
AcDbDictionary
280
     0
281
     1
  3
ACAD_GROUP
350
1A
  3
ACAD_MLINESTYLE
350
1B
  3
ACAD_LAYOUT
350
1E
  3
ACAD_PLOTSETTINGS
350
22
  3
ACAD_PLOTSTYLENAME
350
1F
  3
ACAD_WIPEOUT_VARS
350
23
  0
DICTIONARY
  5
1A
102
{ACAD_REACTORS
330
19
102
}
100
AcDbDictionary
280
     0
281
     1
  0
DICTIONARY
  5
1B
102
{ACAD_REACTORS
330
19
102
}
100
AcDbDictionary
280
     0
281
     1
  3
Standard
350
1C
  0
MLINESTYLE
  5
1C
102
{ACAD_REACTORS
330
1B
102
}
100
AcDbMlineStyle
  2
Standard
 70
     0
  3

 62
     0
 51
90.0
 52
90.0
 71
     2
 49
0.5
 62
   256
  6
ByLayer
 49
-0.5
 62
   256
  6
ByLayer
  0
ACDBDICTIONARYWDFLT
  5
1F
102
{ACAD_REACTORS
330
19
102
}
100
AcDbDictionary
281
     1
  3
Normal
350
1D
100
AcDbDictionaryWithDefault
340
1D
  0
ACDBPLACEHOLDER
  5
1D
102
{ACAD_REACTORS
330
1F
102
}
  0
LAYOUT
  5
20
102
{ACAD_REACTORS
330
1E
102
}
100
AcDbPlotSettings
  1

  2

  4

  6

 40
0.0
 41
0.0
 42
0.0
 43
0.0
 44
0.0
 45
0.0
 46
0.0
 47
0.0
 48
0.0
 49
0.0
140
0.0
141
0.0
142
1.0
143
1.0
 70
  1024
 72
     0
 73
     0
 74
     0
  7

 75
     0
147
1.0
148
0.0
149
0.0
100
AcDbLayout
  1
Model
 70
     0
 71
     1
 10
0.0
 20
0.0
 11
0.0
 21
0.0
 12
0.0
 22
0.0
 32
0.0
 14
0.0
 24
0.0
 34
0.0
 15
0.0
 25
0.0
 35
0.0
146
0.0
 13
0.0
 23
0.0
 33
0.0
 16
0.0
 26
0.0
 36
0.0
 17
0.0
 27
0.0
 37
0.0
 76
     0
330
A
331
0
345
0
346
0
  0
LAYOUT
  5
21
102
{ACAD_REACTORS
330
1E
102
}
100
AcDbPlotSettings
  1

  2

  4

  6

 40
0.0
 41
0.0
 42
0.0
 43
0.0
 44
0.0
 45
0.0
 46
0.0
 47
0.0
 48
0.0
 49
0.0
140
0.0
141
0.0
142
1.0
143
1.0
 70
     0
 72
     0
 73
     0
 74
     0
  7

 75
     0
147
1.0
148
0.0
149
0.0
100
AcDbLayout
  1
Layout1
 70
     0
 71
     2
 10
0.0
 20
0.0
 11
0.0
 21
0.0
 12
0.0
 22
0.0
 32
0.0
 14
0.0
 24
0.0
 34
0.0
 15
0.0
 25
0.0
 35
0.0
146
0.0
 13
0.0
 23
0.0
 33
0.0
 16
0.0
 26
0.0
 36
0.0
 17
0.0
 27
0.0
 37
0.0
 76
     0
330
B
331
0
345
0
346
0
  0
DICTIONARY
  5
1E
102
{ACAD_REACTORS
330
19
102
}
100
AcDbDictionary
280
     0
281
     1
  3
Layout1
350
21
  3
Model
350
20
  0
DICTIONARY
  5
22
102
{ACAD_REACTORS
330
19
102
}
100
AcDbDictionary
280
     0
281
     1
  0
WIPEOUTVARIABLES
  5
23
100
AcDbWipeoutVariables
 70
     1
  0
ENDSEC
  0
EOF
